999
DXF file: _cgs_temp_output.dxf
999
Pro/ENGINEER 2015110 by Parametric Technology Corporation
  0
SECTION
  2
HEADER
  9
$ACADVER
  1
AC1021
  9
$DWGCODEPAGE
  3
ANSI_1252
  9
$EXTMAX
 10
22.0
 20
17.0
 30
0.0
  9
$EXTMIN
 10
0.0
 20
0.0
 30
0.0
  9
$LIMMIN
 10
0.0
 20
0.0
  9
$LIMMAX
 10
22.0
 20
17.0
  9
$VIEWCTR
 10
11.0
 20
8.5
  9
$VIEWSIZE
 40
17.0
  9
$CLAYER
  8
0
  9
$LTSCALE
 40
1.21
  9
$CELTYPE
  6
BYLAYER
  9
$DIMSCALE
 40
1.0
  9
$DIMASZ
 40
0.1875
  9
$DIMEXO
 40
0.0625
  9
$DIMDLI
 40
0.836
  9
$DIMEXE
 40
0.125
  9
$DIMCEN
 40
0.198
  9
$DIMLFAC
 40
1.0
  9
$DIMBLK
  1
_CLOSED
  9
$DIMALT
 70
0
  9
$DIMALTF
 40
25.4
  9
$DIMTXT
 40
0.15625
  9
$DIMTOL
 70
0
  9
$DIMLIM
 70
0
  9
$DIMTFAC
 40
1.0
  9
$DIMGAP
 40
0.09
  9
$DIMDSEP
 70
46
  9
$AUNITS
 70
0
  9
$PDMODE
 70
3
  9
$PDSIZE
 40
0.3125
  9
$HANDSEED
  5
2AE
  9
$TILEMODE
 70
1
  9
$MEASUREMENT
 70
0
  9
$INSUNITS
 70
1
  0
ENDSEC
  0
SECTION
  2
CLASSES
  0
CLASS
  1
ACDBDICTIONARYWDFLT
  2
AcDbDictionaryWithDefault
  3
AutoCAD 2000
 90
0
 91
1
280
0
281
0
  0
CLASS
  1
ACDBPLACEHOLDER
  2
AcDbPlaceHolder
  3
AutoCAD 2000
 90
0
 91
1
280
0
281
0
  0
CLASS
  1
LAYOUT
  2
AcDbLayout
  3
AutoCAD 2000
 90
0
 91
0
280
0
281
0
  0
ENDSEC
  0
SECTION
  2
TABLES
  0
TABLE
  2
VPORT
  5
8
100
AcDbSymbolTable
 70
2
  0
VPORT
  5
1F4
100
AcDbSymbolTableRecord
100
AcDbViewportTableRecord
  2
*ACTIVE
 70
0
 10
0.0
 20
0.0
 11
1.0
 21
1.0
 12
11.0
 22
8.5
 13
0.0
 23
0.0
 14
1.0
 24
1.0
 15
0.0
 25
0.0
 16
0.0
 26
0.0
 36
1.0
 17
0.0
 27
0.0
 37
0.0
 40
17.0
 41
1.2941176471
 42
50.0
 43
0.0
 44
0.0
 50
0.0
 51
0.0
 71
0
 72
100
 73
1
 74
1
 75
0
 76
0
 77
0
 78
0
  0
ENDTAB
  0
TABLE
  2
LTYPE
  5
5
100
AcDbSymbolTable
 70
6
  0
LTYPE
  5
14
100
AcDbSymbolTableRecord
100
AcDbLinetypeTableRecord
  2
BYBLOCK
 70
0
  3

 72
65
 73
0
 40
0.0
  0
LTYPE
  5
15
100
AcDbSymbolTableRecord
100
AcDbLinetypeTableRecord
  2
BYLAYER
 70
0
  3

 72
65
 73
0
 40
0.0
  0
LTYPE
  5
16
100
AcDbSymbolTableRecord
100
AcDbLinetypeTableRecord
  2
CONTINUOUS
 70
64
  3
Solid line
 72
65
 73
0
 40
0.0
  0
LTYPE
  5
1F5
100
AcDbSymbolTableRecord
100
AcDbLinetypeTableRecord
  2
CENTER
 70
64
  3
____ _ ____ _ ____ _ ____ _ ____ _ ____ _ ____
 72
65
 73
4
 40
0.6
 49
0.375
 74
0
 49
-0.075
 74
0
 49
0.075
 74
0
 49
-0.075
 74
0
  0
LTYPE
  5
1F6
100
AcDbSymbolTableRecord
100
AcDbLinetypeTableRecord
  2
HIDDEN
 70
64
  3
- - - - - - - - - - - - - - - - - - - -
 72
65
 73
2
 40
0.2
 49
0.1
 74
0
 49
-0.1
 74
0
  0
LTYPE
  5
1F7
100
AcDbSymbolTableRecord
100
AcDbLinetypeTableRecord
  2
PHANTOM
 70
64
  3
_____ _ _ _____ _ _ _____ _ _ _____
 72
65
 73
6
 40
0.8
 49
0.45
 74
0
 49
-0.05
 74
0
 49
0.1
 74
0
 49
-0.05
 74
0
 49
0.1
 74
0
 49
-0.05
 74
0
  0
LTYPE
  5
1F8
100
AcDbSymbolTableRecord
100
AcDbLinetypeTableRecord
  2
DOT
 70
64
  3
. . . . . . . . . . . . . . . . . . . .
 72
65
 73
2
 40
0.2
 49
0.1
 74
0
 49
-0.1
 74
0
  0
LTYPE
  5
1F9
100
AcDbSymbolTableRecord
100
AcDbLinetypeTableRecord
  2
DASHED
 70
64
  3
- - - - - - - - - - - - - - - - - - - -
 72
65
 73
2
 40
0.2
 49
0.1
 74
0
 49
-0.1
 74
0
  0
ENDTAB
  0
TABLE
  2
LAYER
  5
2
100
AcDbSymbolTable
 70
36
  0
LAYER
  5
10
100
AcDbSymbolTableRecord
100
AcDbLayerTableRecord
  2
0
 70
0
 62
7
  6
CONTINUOUS
370
-3
390
F
  0
LAYER
  5
1FA
100
AcDbSymbolTableRecord
100
AcDbLayerTableRecord
  2
DEFAULT_1
 70
0
 62
7
  6
CENTER
370
-3
390
F
  0
LAYER
  5
1FB
100
AcDbSymbolTableRecord
100
AcDbLayerTableRecord
  2
DEFAULT_2
 70
0
 62
8
  6
HIDDEN
370
-3
390
F
  0
LAYER
  5
1FC
100
AcDbSymbolTableRecord
100
AcDbLayerTableRecord
  2
DEFAULT_3
 70
0
 62
7
  6
PHANTOM
370
-3
390
F
  0
LAYER
  5
1FD
100
AcDbSymbolTableRecord
100
AcDbLayerTableRecord
  2
01_ALL_DTM_PLN
 70
0
 62
7
  6
CONTINUOUS
370
-3
390
F
  0
LAYER
  5
1FE
100
AcDbSymbolTableRecord
100
AcDbLayerTableRecord
  2
01__ASM_ALL_DTM_PLN
 70
0
 62
7
  6
CONTINUOUS
370
-3
390
F
  0
LAYER
  5
1FF
100
AcDbSymbolTableRecord
100
AcDbLayerTableRecord
  2
01__ASM_DEF_DTM_PLN
 70
0
 62
7
  6
CONTINUOUS
370
-3
390
F
  0
LAYER
  5
200
100
AcDbSymbolTableRecord
100
AcDbLayerTableRecord
  2
01___PRT_ALL_DTM_PLN
 70
0
 62
7
  6
CONTINUOUS
370
-3
390
F
  0
LAYER
  5
201
100
AcDbSymbolTableRecord
100
AcDbLayerTableRecord
  2
01___PRT_DEF_DTM_PLN
 70
0
 62
7
  6
CONTINUOUS
370
-3
390
F
  0
LAYER
  5
202
100
AcDbSymbolTableRecord
100
AcDbLayerTableRecord
  2
02_ALL_AXES
 70
0
 62
7
  6
CONTINUOUS
370
-3
390
F
  0
LAYER
  5
203
100
AcDbSymbolTableRecord
100
AcDbLayerTableRecord
  2
02__ASM_ALL_AXES
 70
0
 62
7
  6
CONTINUOUS
370
-3
390
F
  0
LAYER
  5
204
100
AcDbSymbolTableRecord
100
AcDbLayerTableRecord
  2
02___PRT_ALL_AXES
 70
0
 62
7
  6
CONTINUOUS
370
-3
390
F
  0
LAYER
  5
205
100
AcDbSymbolTableRecord
100
AcDbLayerTableRecord
  2
03_ALL_CURVES
 70
0
 62
7
  6
CONTINUOUS
370
-3
390
F
  0
LAYER
  5
206
100
AcDbSymbolTableRecord
100
AcDbLayerTableRecord
  2
03__ASM_ALL_CURVES
 70
0
 62
7
  6
CONTINUOUS
370
-3
390
F
  0
LAYER
  5
207
100
AcDbSymbolTableRecord
100
AcDbLayerTableRecord
  2
03___PRT_ALL_CURVES
 70
0
 62
7
  6
CONTINUOUS
370
-3
390
F
  0
LAYER
  5
208
100
AcDbSymbolTableRecord
100
AcDbLayerTableRecord
  2
04_ALL_DTM_PNT
 70
0
 62
7
  6
CONTINUOUS
370
-3
390
F
  0
LAYER
  5
209
100
AcDbSymbolTableRecord
100
AcDbLayerTableRecord
  2
04__ASM_ALL_DTM_PNT
 70
0
 62
7
  6
CONTINUOUS
370
-3
390
F
  0
LAYER
  5
20A
100
AcDbSymbolTableRecord
100
AcDbLayerTableRecord
  2
04___PRT_ALL_DTM_PNT
 70
0
 62
7
  6
CONTINUOUS
370
-3
390
F
  0
LAYER
  5
20B
100
AcDbSymbolTableRecord
100
AcDbLayerTableRecord
  2
05_ALL_DTM_CSYS
 70
0
 62
7
  6
CONTINUOUS
370
-3
390
F
  0
LAYER
  5
20C
100
AcDbSymbolTableRecord
100
AcDbLayerTableRecord
  2
05__ASM_ALL_DTM_CSYS
 70
0
 62
7
  6
CONTINUOUS
370
-3
390
F
  0
LAYER
  5
20D
100
AcDbSymbolTableRecord
100
AcDbLayerTableRecord
  2
05__ASM_DEF_DTM_CSYS
 70
0
 62
7
  6
CONTINUOUS
370
-3
390
F
  0
LAYER
  5
20E
100
AcDbSymbolTableRecord
100
AcDbLayerTableRecord
  2
05___PRT_ALL_DTM_CSYS
 70
0
 62
7
  6
CONTINUOUS
370
-3
390
F
  0
LAYER
  5
20F
100
AcDbSymbolTableRecord
100
AcDbLayerTableRecord
  2
05___PRT_DEF_DTM_CSYS
 70
0
 62
7
  6
CONTINUOUS
370
-3
390
F
  0
LAYER
  5
210
100
AcDbSymbolTableRecord
100
AcDbLayerTableRecord
  2
06_ALL_SURFS
 70
0
 62
7
  6
CONTINUOUS
370
-3
390
F
  0
LAYER
  5
211
100
AcDbSymbolTableRecord
100
AcDbLayerTableRecord
  2
06__ASM_ALL_SURFS
 70
0
 62
7
  6
CONTINUOUS
370
-3
390
F
  0
LAYER
  5
212
100
AcDbSymbolTableRecord
100
AcDbLayerTableRecord
  2
06___PRT_ALL_SURFS
 70
0
 62
7
  6
CONTINUOUS
370
-3
390
F
  0
LAYER
  5
213
100
AcDbSymbolTableRecord
100
AcDbLayerTableRecord
  2
07__ASM_ALL_SKELETONS
 70
0
 62
7
  6
CONTINUOUS
370
-3
390
F
  0
ENDTAB
  0
TABLE
  2
STYLE
  5
3
100
AcDbSymbolTable
 70
1
  0
STYLE
  5
11
100
AcDbSymbolTableRecord
100
AcDbTextStyleTableRecord
  2
STANDARD
 70
0
 40
0.0
 41
0.8
 50
0.0
 71
0
 42
0.2
  3
txt
  4

  0
STYLE
  5
214
100
AcDbSymbolTableRecord
100
AcDbTextStyleTableRecord
  2
TEXTSTYLE_1
 70
0
 40
0.0
 41
0.8
 50
0.0
 71
0
 42
0.2
  3
gdt
  4

  0
ENDTAB
  0
TABLE
  2
VIEW
  5
6
100
AcDbSymbolTable
 70
0
  0
ENDTAB
  0
TABLE
  2
UCS
  5
7
100
AcDbSymbolTable
 70
0
  0
ENDTAB
  0
TABLE
  2
APPID
  5
9
100
AcDbSymbolTable
 70
1
  0
APPID
  5
215
100
AcDbSymbolTableRecord
100
AcDbRegAppTableRecord
  2
ACAD
 70
0
  0
ENDTAB
  0
TABLE
  2
BLOCK_RECORD
  5
1
100
AcDbSymbolTable
 70
0
  0
BLOCK_RECORD
  5
216
100
AcDbSymbolTableRecord
100
AcDbBlockTableRecord
  2
*Model_Space
  0
BLOCK_RECORD
  5
217
100
AcDbSymbolTableRecord
100
AcDbBlockTableRecord
  2
*Paper_Space
  0
ENDTAB
  0
TABLE
  2
DIMSTYLE
  5
A
100
AcDbSymbolTable
 70
1
100
AcDbDimStyleTable
 71
0
  0
DIMSTYLE
105
218
100
AcDbSymbolTableRecord
100
AcDbDimStyleTableRecord
  2
STANDARD
 70
0
  3

  4

 40
1.0
 41
0.1875
 42
0.0625
 43
0.38
 44
0.125
 45
0.0
 46
0.0
 47
0.0001
 48
0.0001
140
0.15625
141
0.09
142
0.0
143
25.4
144
1.0
145
0.0
146
1.0
147
0.09
 71
0.0
 72
0.0
 73
1
 74
1
 75
0
 76
0
 77
0
 78
4
170
0
171
2
172
0
173
0
174
0
175
0
176
0
177
0
178
0
270
2
271
4
272
4
273
2
274
2
275
0
280
0
281
0
282
0
283
1
284
4
285
0
286
0
287
3
288
0
340
11
278
46
  0
ENDTAB
  0
ENDSEC
  0
SECTION
  2
BLOCKS
  0
BLOCK
  5
20
100
AcDbEntity
  8
0
100
AcDbBlockBegin
  2
*Model_Space
 70
0
 10
0.0
 20
0.0
 30
0.0
  3
*Model_Space
  1

  0
ENDBLK
  5
21
100
AcDbEntity
  8
0
100
AcDbBlockEnd
  0
BLOCK
  5
1C
100
AcDbEntity
  8
0
100
AcDbBlockBegin
  2
*Paper_Space
 70
0
 10
0.0
 20
0.0
 30
0.0
  3
*Paper_Space
  1

  0
ENDBLK
  5
1D
100
AcDbEntity
  8
0
100
AcDbBlockEnd
  0
ENDSEC
  0
SECTION
  2
ENTITIES
  0
MTEXT
  5
219
100
AcDbEntity
  8
0
100
AcDbMText
 62
7
  6
CONTINUOUS
  7
STANDARD
 71
1
 72
1
 10
15.9560215477
 20
0.9479130325
 30
0.0
 11
1.0
 21
0.0
 31
0.0
 44
0.9
  1
SCALE: 1:9.000
 40
0.3
 41
3.36
  0
LINE
  5
21A
100
AcDbEntity
  8
0
100
AcDbLine
 62
7
  6
CONTINUOUS
 10
0.0
 20
0.0
 11
0.0
 21
17.0
  0
LINE
  5
21B
100
AcDbEntity
  8
0
100
AcDbLine
 62
7
  6
CONTINUOUS
 10
0.0
 20
0.0
 11
22.0
 21
0.0
  0
LINE
  5
21C
100
AcDbEntity
  8
0
100
AcDbLine
 62
7
  6
CONTINUOUS
 10
0.0
 20
17.0
 11
22.0
 21
17.0
  0
LINE
  5
21D
100
AcDbEntity
  8
0
100
AcDbLine
 62
7
  6
CONTINUOUS
 10
22.0
 20
0.0
 11
22.0
 21
17.0
  0
LINE
  5
21E
100
AcDbEntity
  8
0
100
AcDbLine
 62
7
  6
CONTINUOUS
 10
3.9703672762
 20
5.7226198968
 11
3.9703672762
 21
5.4976198968
  0
LINE
  5
21F
100
AcDbEntity
  8
0
100
AcDbLine
 62
7
  6
CONTINUOUS
 10
4.115595312
 20
5.472927234
 11
4.1645836637
 21
5.3546588908
  0
LINE
  5
220
100
AcDbEntity
  8
0
100
AcDbLine
 62
7
  6
CONTINUOUS
 10
4.4961508886
 20
5.3546588908
 11
4.5451392404
 21
5.472927234
  0
LINE
  5
221
100
AcDbEntity
  8
0
100
AcDbLine
 62
7
  6
CONTINUOUS
 10
4.835595312
 20
5.472927234
 11
4.8845836637
 21
5.3546588908
  0
LINE
  5
222
100
AcDbEntity
  8
0
100
AcDbLine
 62
7
  6
CONTINUOUS
 10
5.2161508886
 20
5.3546588908
 11
5.2651392404
 21
5.472927234
  0
LINE
  5
223
100
AcDbEntity
  8
0
100
AcDbLine
 62
7
  6
CONTINUOUS
 10
5.555595312
 20
5.472927234
 11
5.6045836637
 21
5.3546588908
  0
LINE
  5
224
100
AcDbEntity
  8
0
100
AcDbLine
 62
7
  6
CONTINUOUS
 10
4.2200164357
 20
5.3176198968
 11
4.4407181167
 21
5.3176198968
  0
LINE
  5
225
100
AcDbEntity
  8
0
100
AcDbLine
 62
7
  6
CONTINUOUS
 10
4.9400164357
 20
5.3176198968
 11
5.1607181167
 21
5.3176198968
  0
LINE
  5
226
100
AcDbEntity
  8
0
100
AcDbLine
 62
7
  6
CONTINUOUS
 10
5.6600164357
 20
5.3176198968
 11
5.8807181167
 21
5.3176198968
  0
LINE
  5
227
100
AcDbEntity
  8
0
100
AcDbLine
 62
7
  6
CONTINUOUS
 10
6.3800164357
 20
5.3176198968
 11
6.6007181167
 21
5.3176198968
  0
LINE
  5
228
100
AcDbEntity
  8
0
100
AcDbLine
 62
7
  6
CONTINUOUS
 10
7.1000164357
 20
5.3176198968
 11
7.3207181167
 21
5.3176198968
  0
LINE
  5
229
100
AcDbEntity
  8
0
100
AcDbLine
 62
7
  6
CONTINUOUS
 10
7.8200164357
 20
5.3176198968
 11
8.0407181167
 21
5.3176198968
  0
LINE
  5
22A
100
AcDbEntity
  8
0
100
AcDbLine
 62
7
  6
CONTINUOUS
 10
5.9361508886
 20
5.3546588908
 11
5.9851392404
 21
5.472927234
  0
LINE
  5
22B
100
AcDbEntity
  8
0
100
AcDbLine
 62
7
  6
CONTINUOUS
 10
3.9703672762
 20
5.4976198968
 11
4.0786401306
 21
5.4976198968
  0
LINE
  5
22C
100
AcDbEntity
  8
0
100
AcDbLine
 62
7
  6
CONTINUOUS
 10
4.5820944217
 20
5.4976198968
 11
4.7986401306
 21
5.4976198968
  0
LINE
  5
22D
100
AcDbEntity
  8
0
100
AcDbLine
 62
7
  6
CONTINUOUS
 10
5.3020944217
 20
5.4976198968
 11
5.5186401306
 21
5.4976198968
  0
LINE
  5
22E
100
AcDbEntity
  8
0
100
AcDbLine
 62
7
  6
CONTINUOUS
 10
6.0220944217
 20
5.4976198968
 11
6.2386401306
 21
5.4976198968
  0
LINE
  5
22F
100
AcDbEntity
  8
0
100
AcDbLine
 62
7
  6
CONTINUOUS
 10
6.7420944217
 20
5.4976198968
 11
6.9586401306
 21
5.4976198968
  0
LINE
  5
230
100
AcDbEntity
  8
0
100
AcDbLine
 62
7
  6
CONTINUOUS
 10
7.4620944217
 20
5.4976198968
 11
7.6786401306
 21
5.4976198968
  0
LINE
  5
231
100
AcDbEntity
  8
0
100
AcDbLine
 62
7
  6
CONTINUOUS
 10
8.1820944217
 20
5.4976198968
 11
8.2903672762
 21
5.4976198968
  0
LINE
  5
232
100
AcDbEntity
  8
0
100
AcDbLine
 62
7
  6
CONTINUOUS
 10
6.275595312
 20
5.472927234
 11
6.3245836637
 21
5.3546588908
  0
LINE
  5
233
100
AcDbEntity
  8
0
100
AcDbLine
 62
7
  6
CONTINUOUS
 10
8.2903672762
 20
5.7226198968
 11
3.9703672762
 21
5.7226198968
  0
LINE
  5
234
100
AcDbEntity
  8
0
100
AcDbLine
 62
7
  6
CONTINUOUS
 10
6.6561508886
 20
5.3546588908
 11
6.7051392404
 21
5.472927234
  0
LINE
  5
235
100
AcDbEntity
  8
0
100
AcDbLine
 62
7
  6
CONTINUOUS
 10
6.995595312
 20
5.472927234
 11
7.0445836637
 21
5.3546588908
  0
LINE
  5
236
100
AcDbEntity
  8
0
100
AcDbLine
 62
7
  6
CONTINUOUS
 10
7.3761508886
 20
5.3546588908
 11
7.4251392404
 21
5.472927234
  0
LINE
  5
237
100
AcDbEntity
  8
0
100
AcDbLine
 62
7
  6
CONTINUOUS
 10
7.715595312
 20
5.472927234
 11
7.7645836637
 21
5.3546588908
  0
LINE
  5
238
100
AcDbEntity
  8
0
100
AcDbLine
 62
7
  6
CONTINUOUS
 10
8.0961508886
 20
5.3546588908
 11
8.1451392404
 21
5.472927234
  0
LINE
  5
239
100
AcDbEntity
  8
0
100
AcDbLine
 62
7
  6
CONTINUOUS
 10
8.2903672762
 20
5.4976198968
 11
8.2903672762
 21
5.7226198968
  0
LINE
  5
23A
100
AcDbEntity
  8
0
100
AcDbLine
 62
7
  6
CONTINUOUS
 10
3.9108720839
 20
13.1625477814
 11
3.9108720839
 21
12.0375477814
  0
LINE
  5
23B
100
AcDbEntity
  8
0
100
AcDbLine
 62
7
  6
CONTINUOUS
 10
8.2308720839
 20
12.0375477814
 11
3.9108720839
 21
12.0375477814
  0
LINE
  5
23C
100
AcDbEntity
  8
0
100
AcDbLine
 62
7
  6
CONTINUOUS
 10
3.9108720839
 20
13.1625477814
 11
8.2308720839
 21
13.1625477814
  0
LINE
  5
23D
100
AcDbEntity
  8
0
100
AcDbLine
 62
7
  6
CONTINUOUS
 10
8.2308720839
 20
13.1625477814
 11
8.2308720839
 21
12.0375477814
  0
LINE
  5
23E
100
AcDbEntity
  8
0
100
AcDbLine
 62
7
  6
CONTINUOUS
 10
14.9978552569
 20
5.2581247044
 11
14.9978552569
 21
5.6631247044
  0
LINE
  5
23F
100
AcDbEntity
  8
0
100
AcDbLine
 62
7
  6
CONTINUOUS
 10
14.9978552569
 20
5.2581247044
 11
16.1228552569
 21
5.2581247044
  0
LINE
  5
240
100
AcDbEntity
  8
0
100
AcDbLine
 62
7
  6
CONTINUOUS
 10
16.1228552569
 20
5.4381247044
 11
14.9978552569
 21
5.4381247044
  0
LINE
  5
241
100
AcDbEntity
  8
0
100
AcDbLine
 62
7
  6
CONTINUOUS
 10
16.1228552569
 20
5.6631247044
 11
14.9978552569
 21
5.6631247044
  0
LINE
  5
242
100
AcDbEntity
  8
0
100
AcDbLine
 62
7
  6
CONTINUOUS
 10
16.1228552569
 20
5.2581247044
 11
16.1228552569
 21
5.6631247044
  0
LINE
  5
243
100
AcDbEntity
  8
0
100
AcDbLine
 62
7
  6
CONTINUOUS
 10
13.3111412045
 20
12.1960596248
 11
13.3797756245
 21
12.056197382
  0
LINE
  5
244
100
AcDbEntity
  8
0
100
AcDbLine
 62
7
  6
CONTINUOUS
 10
13.5834658183
 20
13.0773023981
 11
13.3111412045
 21
12.1960596248
  0
LINE
  5
245
100
AcDbEntity
  8
0
100
AcDbLine
 62
7
  6
CONTINUOUS
 10
13.5210717994
 20
12.0408481767
 11
13.6022698556
 21
11.9673313956
  0
LINE
  5
246
100
AcDbEntity
  8
0
100
AcDbLine
 62
7
  6
CONTINUOUS
 10
13.9076634933
 20
11.9673313956
 11
13.9167079571
 21
12.0408481767
  0
LINE
  5
247
100
AcDbEntity
  8
0
100
AcDbLine
 62
7
  6
CONTINUOUS
 10
13.9069328789
 20
11.9638877486
 11
13.9076634933
 21
11.9673313956
  0
LINE
  5
248
100
AcDbEntity
  8
0
100
AcDbLine
 62
7
  6
CONTINUOUS
 10
13.9167079571
 20
12.0408481767
 11
13.9172035031
 21
12.0431413278
  0
LINE
  5
249
100
AcDbEntity
  8
0
100
AcDbLine
 62
7
  6
CONTINUOUS
 10
13.9079628036
 20
11.9672389017
 11
13.9351926927
 21
12.0553548551
  0
LINE
  5
24A
100
AcDbEntity
  8
0
100
AcDbLine
 62
7
  6
CONTINUOUS
 10
14.1842357151
 20
12.0408481767
 11
14.2654337713
 21
11.9673313956
  0
LINE
  5
24B
100
AcDbEntity
  8
0
100
AcDbLine
 62
7
  6
CONTINUOUS
 10
14.570827409
 20
11.9673313956
 11
14.5798718728
 21
12.0408481767
  0
LINE
  5
24C
100
AcDbEntity
  8
0
100
AcDbLine
 62
7
  6
CONTINUOUS
 10
14.5700967946
 20
11.9638877486
 11
14.570827409
 21
11.9673313956
  0
LINE
  5
24D
100
AcDbEntity
  8
0
100
AcDbLine
 62
7
  6
CONTINUOUS
 10
14.5798718728
 20
12.0408481767
 11
14.5803674188
 21
12.0431413278
  0
LINE
  5
24E
100
AcDbEntity
  8
0
100
AcDbLine
 62
7
  6
CONTINUOUS
 10
14.8473996308
 20
12.0408481767
 11
14.928597687
 21
11.9673313956
  0
LINE
  5
24F
100
AcDbEntity
  8
0
100
AcDbLine
 62
7
  6
CONTINUOUS
 10
14.5711267193
 20
11.9672389017
 11
14.5983566084
 21
12.0553548551
  0
LINE
  5
250
100
AcDbEntity
  8
0
100
AcDbLine
 62
7
  6
CONTINUOUS
 10
13.6646252635
 20
11.9443075877
 11
13.8679049732
 21
11.9443075877
  0
LINE
  5
251
100
AcDbEntity
  8
0
100
AcDbLine
 62
7
  6
CONTINUOUS
 10
14.3277891792
 20
11.9443075877
 11
14.5310688889
 21
11.9443075877
  0
LINE
  5
252
100
AcDbEntity
  8
0
100
AcDbLine
 62
7
  6
CONTINUOUS
 10
14.9909530949
 20
11.9443075877
 11
15.1942328045
 21
11.9443075877
  0
LINE
  5
253
100
AcDbEntity
  8
0
100
AcDbLine
 62
7
  6
CONTINUOUS
 10
15.6541170106
 20
11.9443075877
 11
15.8573967202
 21
11.9443075877
  0
LINE
  5
254
100
AcDbEntity
  8
0
100
AcDbLine
 62
7
  6
CONTINUOUS
 10
16.3172809262
 20
11.9443075877
 11
16.5205606359
 21
11.9443075877
  0
LINE
  5
255
100
AcDbEntity
  8
0
100
AcDbLine
 62
7
  6
CONTINUOUS
 10
16.9804448419
 20
11.9443075877
 11
17.1837245516
 21
11.9443075877
  0
LINE
  5
256
100
AcDbEntity
  8
0
100
AcDbLine
 62
7
  6
CONTINUOUS
 10
13.3797756245
 20
12.056197382
 11
13.4795015275
 21
12.056197382
  0
LINE
  5
257
100
AcDbEntity
  8
0
100
AcDbLine
 62
7
  6
CONTINUOUS
 10
13.9432136372
 20
12.056197382
 11
14.1426654432
 21
12.056197382
  0
LINE
  5
258
100
AcDbEntity
  8
0
100
AcDbLine
 62
7
  6
CONTINUOUS
 10
14.6063775529
 20
12.056197382
 11
14.8058293588
 21
12.056197382
  0
LINE
  5
259
100
AcDbEntity
  8
0
100
AcDbLine
 62
7
  6
CONTINUOUS
 10
15.2695414686
 20
12.056197382
 11
15.4689932745
 21
12.056197382
  0
LINE
  5
25A
100
AcDbEntity
  8
0
100
AcDbLine
 62
7
  6
CONTINUOUS
 10
15.9327053843
 20
12.056197382
 11
16.1321571902
 21
12.056197382
  0
LINE
  5
25B
100
AcDbEntity
  8
0
100
AcDbLine
 62
7
  6
CONTINUOUS
 10
16.5958692999
 20
12.056197382
 11
16.7953211059
 21
12.056197382
  0
LINE
  5
25C
100
AcDbEntity
  8
0
100
AcDbLine
 62
7
  6
CONTINUOUS
 10
17.2590332156
 20
12.056197382
 11
17.3587591186
 21
12.056197382
  0
LINE
  5
25D
100
AcDbEntity
  8
0
100
AcDbLine
 62
7
  6
CONTINUOUS
 10
17.2901246986
 20
12.1960596248
 11
13.3111412045
 21
12.1960596248
  0
LINE
  5
25E
100
AcDbEntity
  8
0
100
AcDbLine
 62
7
  6
CONTINUOUS
 10
15.5105635465
 20
12.0408481767
 11
15.5917616026
 21
11.9673313956
  0
LINE
  5
25F
100
AcDbEntity
  8
0
100
AcDbLine
 62
7
  6
CONTINUOUS
 10
15.2339913247
 20
11.9673313956
 11
15.2430357885
 21
12.0408481767
  0
LINE
  5
260
100
AcDbEntity
  8
0
100
AcDbLine
 62
7
  6
CONTINUOUS
 10
15.2332607103
 20
11.9638877486
 11
15.2339913247
 21
11.9673313956
  0
LINE
  5
261
100
AcDbEntity
  8
0
100
AcDbLine
 62
7
  6
CONTINUOUS
 10
15.2430357885
 20
12.0408481767
 11
15.2435313345
 21
12.0431413278
  0
LINE
  5
262
100
AcDbEntity
  8
0
100
AcDbLine
 62
7
  6
CONTINUOUS
 10
15.234290635
 20
11.9672389017
 11
15.2615205241
 21
12.0553548551
  0
LINE
  5
263
100
AcDbEntity
  8
0
100
AcDbLine
 62
7
  6
CONTINUOUS
 10
16.1737274622
 20
12.0408481767
 11
16.2549255183
 21
11.9673313956
  0
LINE
  5
264
100
AcDbEntity
  8
0
100
AcDbLine
 62
7
  6
CONTINUOUS
 10
15.8971552404
 20
11.9673313956
 11
15.9061997042
 21
12.0408481767
  0
LINE
  5
265
100
AcDbEntity
  8
0
100
AcDbLine
 62
7
  6
CONTINUOUS
 10
15.896424626
 20
11.9638877486
 11
15.8971552404
 21
11.9673313956
  0
LINE
  5
266
100
AcDbEntity
  8
0
100
AcDbLine
 62
7
  6
CONTINUOUS
 10
15.9061997042
 20
12.0408481767
 11
15.9066952502
 21
12.0431413278
  0
LINE
  5
267
100
AcDbEntity
  8
0
100
AcDbLine
 62
7
  6
CONTINUOUS
 10
15.8974545507
 20
11.9672389017
 11
15.9246844398
 21
12.0553548551
  0
LINE
  5
268
100
AcDbEntity
  8
0
100
AcDbLine
 62
7
  6
CONTINUOUS
 10
13.5834658183
 20
13.0773023981
 11
17.5624493124
 21
13.0773023981
  0
LINE
  5
269
100
AcDbEntity
  8
0
100
AcDbLine
 62
7
  6
CONTINUOUS
 10
16.8368913778
 20
12.0408481767
 11
16.918089434
 21
11.9673313956
  0
LINE
  5
26A
100
AcDbEntity
  8
0
100
AcDbLine
 62
7
  6
CONTINUOUS
 10
16.5603191561
 20
11.9673313956
 11
16.5693636198
 21
12.0408481767
  0
LINE
  5
26B
100
AcDbEntity
  8
0
100
AcDbLine
 62
7
  6
CONTINUOUS
 10
16.5595885417
 20
11.9638877486
 11
16.5603191561
 21
11.9673313956
  0
LINE
  5
26C
100
AcDbEntity
  8
0
100
AcDbLine
 62
7
  6
CONTINUOUS
 10
16.5693636198
 20
12.0408481767
 11
16.5698591658
 21
12.0431413278
  0
LINE
  5
26D
100
AcDbEntity
  8
0
100
AcDbLine
 62
7
  6
CONTINUOUS
 10
16.5606184663
 20
11.9672389017
 11
16.5878483554
 21
12.0553548551
  0
LINE
  5
26E
100
AcDbEntity
  8
0
100
AcDbLine
 62
7
  6
CONTINUOUS
 10
17.3587591186
 20
12.056197382
 11
17.2901246986
 21
12.1960596248
  0
LINE
  5
26F
100
AcDbEntity
  8
0
100
AcDbLine
 62
7
  6
CONTINUOUS
 10
17.2234830717
 20
11.9673313956
 11
17.2325275355
 21
12.0408481767
  0
LINE
  5
270
100
AcDbEntity
  8
0
100
AcDbLine
 62
7
  6
CONTINUOUS
 10
17.2227524574
 20
11.9638877486
 11
17.2234830717
 21
11.9673313956
  0
LINE
  5
271
100
AcDbEntity
  8
0
100
AcDbLine
 62
7
  6
CONTINUOUS
 10
17.2325275355
 20
12.0408481767
 11
17.2330230815
 21
12.0431413278
  0
LINE
  5
272
100
AcDbEntity
  8
0
100
AcDbLine
 62
7
  6
CONTINUOUS
 10
17.5624493124
 20
13.0773023981
 11
17.2901246986
 21
12.1960596248
  0
LINE
  5
273
100
AcDbEntity
  8
0
100
AcDbLine
 62
7
  6
CONTINUOUS
 10
17.223782382
 20
11.9672389017
 11
17.2510122711
 21
12.0553548551
  0
LINE
  5
274
100
AcDbEntity
  8
0
100
AcDbLine
 62
7
  6
CONTINUOUS
 10
17.6310837324
 20
12.9374401553
 11
17.3587591186
 21
12.056197382
  0
LINE
  5
275
100
AcDbEntity
  8
0
100
AcDbLine
 62
7
  6
CONTINUOUS
 10
17.6310837324
 20
12.9374401553
 11
17.5624493124
 21
13.0773023981
  0
ARC
  5
276
100
AcDbEntity
  8
0
100
AcDbCircle
 62
7
  6
CONTINUOUS
 10
4.9400164357
 20
5.3776198968
 40
0.06
100
AcDbArc
 50
202.5
 51
270.0
  0
ARC
  5
277
100
AcDbEntity
  8
0
100
AcDbCircle
 62
7
  6
CONTINUOUS
 10
5.1607181167
 20
5.3776198968
 40
0.06
100
AcDbArc
 50
270.0
 51
337.5
  0
ARC
  5
278
100
AcDbEntity
  8
0
100
AcDbCircle
 62
7
  6
CONTINUOUS
 10
5.6600164357
 20
5.3776198968
 40
0.06
100
AcDbArc
 50
202.5
 51
270.0
  0
ARC
  5
279
100
AcDbEntity
  8
0
100
AcDbCircle
 62
7
  6
CONTINUOUS
 10
5.8807181167
 20
5.3776198968
 40
0.06
100
AcDbArc
 50
270.0
 51
337.5
  0
ARC
  5
27A
100
AcDbEntity
  8
0
100
AcDbCircle
 62
7
  6
CONTINUOUS
 10
6.3800164357
 20
5.3776198968
 40
0.06
100
AcDbArc
 50
202.5
 51
270.0
  0
ARC
  5
27B
100
AcDbEntity
  8
0
100
AcDbCircle
 62
7
  6
CONTINUOUS
 10
6.6007181167
 20
5.3776198968
 40
0.06
100
AcDbArc
 50
270.0
 51
337.5
  0
ARC
  5
27C
100
AcDbEntity
  8
0
100
AcDbCircle
 62
7
  6
CONTINUOUS
 10
4.4407181167
 20
5.3776198968
 40
0.06
100
AcDbArc
 50
270.0
 51
337.5
  0
ARC
  5
27D
100
AcDbEntity
  8
0
100
AcDbCircle
 62
7
  6
CONTINUOUS
 10
4.2200164357
 20
5.3776198968
 40
0.06
100
AcDbArc
 50
202.5
 51
270.0
  0
ARC
  5
27E
100
AcDbEntity
  8
0
100
AcDbCircle
 62
7
  6
CONTINUOUS
 10
8.0407181167
 20
5.3776198968
 40
0.06
100
AcDbArc
 50
270.0
 51
337.5
  0
ARC
  5
27F
100
AcDbEntity
  8
0
100
AcDbCircle
 62
7
  6
CONTINUOUS
 10
7.8200164357
 20
5.3776198968
 40
0.06
100
AcDbArc
 50
202.5
 51
270.0
  0
ARC
  5
280
100
AcDbEntity
  8
0
100
AcDbCircle
 62
7
  6
CONTINUOUS
 10
7.3207181167
 20
5.3776198968
 40
0.06
100
AcDbArc
 50
270.0
 51
337.5
  0
ARC
  5
281
100
AcDbEntity
  8
0
100
AcDbCircle
 62
7
  6
CONTINUOUS
 10
7.1000164357
 20
5.3776198968
 40
0.06
100
AcDbArc
 50
202.5
 51
270.0
  0
ARC
  5
282
100
AcDbEntity
  8
0
100
AcDbCircle
 62
7
  6
CONTINUOUS
 10
4.5820944217
 20
5.4576198968
 40
0.04
100
AcDbArc
 50
90.0
 51
157.5
  0
ARC
  5
283
100
AcDbEntity
  8
0
100
AcDbCircle
 62
7
  6
CONTINUOUS
 10
4.0786401306
 20
5.4576198968
 40
0.04
100
AcDbArc
 50
22.5
 51
90.0
  0
ARC
  5
284
100
AcDbEntity
  8
0
100
AcDbCircle
 62
7
  6
CONTINUOUS
 10
5.3020944217
 20
5.4576198968
 40
0.04
100
AcDbArc
 50
90.0
 51
157.5
  0
ARC
  5
285
100
AcDbEntity
  8
0
100
AcDbCircle
 62
7
  6
CONTINUOUS
 10
4.7986401306
 20
5.4576198968
 40
0.04
100
AcDbArc
 50
22.5
 51
90.0
  0
ARC
  5
286
100
AcDbEntity
  8
0
100
AcDbCircle
 62
7
  6
CONTINUOUS
 10
6.0220944217
 20
5.4576198968
 40
0.04
100
AcDbArc
 50
90.0
 51
157.5
  0
ARC
  5
287
100
AcDbEntity
  8
0
100
AcDbCircle
 62
7
  6
CONTINUOUS
 10
5.5186401306
 20
5.4576198968
 40
0.04
100
AcDbArc
 50
22.5
 51
90.0
  0
ARC
  5
288
100
AcDbEntity
  8
0
100
AcDbCircle
 62
7
  6
CONTINUOUS
 10
6.7420944217
 20
5.4576198968
 40
0.04
100
AcDbArc
 50
90.0
 51
157.5
  0
ARC
  5
289
100
AcDbEntity
  8
0
100
AcDbCircle
 62
7
  6
CONTINUOUS
 10
6.2386401306
 20
5.4576198968
 40
0.04
100
AcDbArc
 50
22.5
 51
90.0
  0
ARC
  5
28A
100
AcDbEntity
  8
0
100
AcDbCircle
 62
7
  6
CONTINUOUS
 10
7.4620944217
 20
5.4576198968
 40
0.04
100
AcDbArc
 50
90.0
 51
157.5
  0
ARC
  5
28B
100
AcDbEntity
  8
0
100
AcDbCircle
 62
7
  6
CONTINUOUS
 10
6.9586401306
 20
5.4576198968
 40
0.04
100
AcDbArc
 50
22.5
 51
90.0
  0
ARC
  5
28C
100
AcDbEntity
  8
0
100
AcDbCircle
 62
7
  6
CONTINUOUS
 10
8.1820944217
 20
5.4576198968
 40
0.04
100
AcDbArc
 50
90.0
 51
157.5
  0
ARC
  5
28D
100
AcDbEntity
  8
0
100
AcDbCircle
 62
7
  6
CONTINUOUS
 10
7.6786401306
 20
5.4576198968
 40
0.04
100
AcDbArc
 50
22.5
 51
90.0
  0
SPLINE
  5
28E
100
AcDbEntity
  8
0
100
AcDbSpline
 62
7
  6
CONTINUOUS
 70
0
 71
3
 72
9
 73
5
 74
0
 42
0.0000001
 43
0.0000001
 44
0.0000000001
 40
0.0
 40
0.0
 40
0.0
 40
0.0
 40
0.495332749
 40
1.0
 40
1.0
 40
1.0
 40
1.0
 10
13.9171997323
 20
12.0431424939
 30
0.0
 10
13.91741626
 20
12.0438417715
 30
0.0
 10
13.9179726413
 20
12.0452191856
 30
0.0
 10
13.9187467206
 20
12.04648647
 30
0.0
 10
13.9191835921
 20
12.0470909567
 30
0.0
  0
SPLINE
  5
28F
100
AcDbEntity
  8
0
100
AcDbSpline
 62
7
  6
CONTINUOUS
 70
0
 71
3
 72
16
 73
12
 74
0
 42
0.0000001
 43
0.0000001
 44
0.0000000001
 40
0.0
 40
0.0
 40
0.0
 40
0.0
 40
0.0498669083
 40
0.1009231826
 40
0.2073040243
 40
0.3204956052
 40
0.4412756312
 40
0.5699347013
 40
0.7064353968
 40
0.8501491874
 40
1.0
 40
1.0
 40
1.0
 40
1.0
 10
13.9191835921
 20
12.0470909567
 30
0.0
 10
13.9194425876
 20
12.0474493215
 30
0.0
 10
13.9200003678
 20
12.0481509072
 30
0.0
 10
13.9212653343
 20
12.0494870193
 30
0.0
 10
13.923126181
 20
12.0510188864
 30
0.0
 10
13.9257165004
 20
12.0525845507
 30
0.0
 10
13.9286643818
 20
12.0538876085
 30
0.0
 10
13.9319345354
 20
12.0549167954
 30
0.0
 10
13.9354891687
 20
12.0556564918
 30
0.0
 10
13.9392807081
 20
12.0561013115
 30
0.0
 10
13.9418849446
 20
12.056197382
 30
0.0
 10
13.9432136372
 20
12.056197382
 30
0.0
  0
SPLINE
  5
290
100
AcDbEntity
  8
0
100
AcDbSpline
 62
7
  6
CONTINUOUS
 70
0
 71
3
 72
9
 73
5
 74
0
 42
0.0000001
 43
0.0000001
 44
0.0000000001
 40
0.0
 40
0.0
 40
0.0
 40
0.0
 40
0.495332749
 40
1.0
 40
1.0
 40
1.0
 40
1.0
 10
14.5803636479
 20
12.0431424939
 30
0.0
 10
14.5805801757
 20
12.0438417715
 30
0.0
 10
14.581136557
 20
12.0452191856
 30
0.0
 10
14.5819106363
 20
12.04648647
 30
0.0
 10
14.5823475077
 20
12.0470909567
 30
0.0
  0
SPLINE
  5
291
100
AcDbEntity
  8
0
100
AcDbSpline
 62
7
  6
CONTINUOUS
 70
0
 71
3
 72
16
 73
12
 74
0
 42
0.0000001
 43
0.0000001
 44
0.0000000001
 40
0.0
 40
0.0
 40
0.0
 40
0.0
 40
0.0498669083
 40
0.1009231826
 40
0.2073040243
 40
0.3204956052
 40
0.4412756312
 40
0.5699347013
 40
0.7064353968
 40
0.8501491874
 40
1.0
 40
1.0
 40
1.0
 40
1.0
 10
14.5823475077
 20
12.0470909567
 30
0.0
 10
14.5826065033
 20
12.0474493215
 30
0.0
 10
14.5831642834
 20
12.0481509072
 30
0.0
 10
14.58442925
 20
12.0494870193
 30
0.0
 10
14.5862900967
 20
12.0510188864
 30
0.0
 10
14.5888804161
 20
12.0525845507
 30
0.0
 10
14.5918282975
 20
12.0538876085
 30
0.0
 10
14.5950984511
 20
12.0549167954
 30
0.0
 10
14.5986530844
 20
12.0556564918
 30
0.0
 10
14.6024446238
 20
12.0561013115
 30
0.0
 10
14.6050488603
 20
12.056197382
 30
0.0
 10
14.6063775529
 20
12.056197382
 30
0.0
  0
SPLINE
  5
292
100
AcDbEntity
  8
0
100
AcDbSpline
 62
7
  6
CONTINUOUS
 70
0
 71
3
 72
9
 73
5
 74
0
 42
0.0000001
 43
0.0000001
 44
0.0000000001
 40
0.0
 40
0.0
 40
0.0
 40
0.0
 40
0.495332749
 40
1.0
 40
1.0
 40
1.0
 40
1.0
 10
15.2435275636
 20
12.0431424939
 30
0.0
 10
15.2437440913
 20
12.0438417715
 30
0.0
 10
15.2443004727
 20
12.0452191856
 30
0.0
 10
15.245074552
 20
12.04648647
 30
0.0
 10
15.2455114234
 20
12.0470909567
 30
0.0
  0
SPLINE
  5
293
100
AcDbEntity
  8
0
100
AcDbSpline
 62
7
  6
CONTINUOUS
 70
0
 71
3
 72
16
 73
12
 74
0
 42
0.0000001
 43
0.0000001
 44
0.0000000001
 40
0.0
 40
0.0
 40
0.0
 40
0.0
 40
0.0498669083
 40
0.1009231826
 40
0.2073040243
 40
0.3204956052
 40
0.4412756312
 40
0.5699347013
 40
0.7064353968
 40
0.8501491874
 40
1.0
 40
1.0
 40
1.0
 40
1.0
 10
15.2455114234
 20
12.0470909567
 30
0.0
 10
15.245770419
 20
12.0474493215
 30
0.0
 10
15.2463281991
 20
12.0481509072
 30
0.0
 10
15.2475931657
 20
12.0494870193
 30
0.0
 10
15.2494540124
 20
12.0510188864
 30
0.0
 10
15.2520443318
 20
12.0525845507
 30
0.0
 10
15.2549922132
 20
12.0538876085
 30
0.0
 10
15.2582623668
 20
12.0549167954
 30
0.0
 10
15.2618170001
 20
12.0556564918
 30
0.0
 10
15.2656085394
 20
12.0561013115
 30
0.0
 10
15.268212776
 20
12.056197382
 30
0.0
 10
15.2695414686
 20
12.056197382
 30
0.0
  0
SPLINE
  5
294
100
AcDbEntity
  8
0
100
AcDbSpline
 62
7
  6
CONTINUOUS
 70
0
 71
3
 72
9
 73
5
 74
0
 42
0.0000001
 43
0.0000001
 44
0.0000000001
 40
0.0
 40
0.0
 40
0.0
 40
0.0
 40
0.495332749
 40
1.0
 40
1.0
 40
1.0
 40
1.0
 10
15.9066914793
 20
12.0431424939
 30
0.0
 10
15.906908007
 20
12.0438417715
 30
0.0
 10
15.9074643884
 20
12.0452191856
 30
0.0
 10
15.9082384677
 20
12.04648647
 30
0.0
 10
15.9086753391
 20
12.0470909567
 30
0.0
  0
SPLINE
  5
295
100
AcDbEntity
  8
0
100
AcDbSpline
 62
7
  6
CONTINUOUS
 70
0
 71
3
 72
16
 73
12
 74
0
 42
0.0000001
 43
0.0000001
 44
0.0000000001
 40
0.0
 40
0.0
 40
0.0
 40
0.0
 40
0.0498669083
 40
0.1009231826
 40
0.2073040243
 40
0.3204956052
 40
0.4412756312
 40
0.5699347013
 40
0.7064353968
 40
0.8501491874
 40
1.0
 40
1.0
 40
1.0
 40
1.0
 10
15.9086753391
 20
12.0470909567
 30
0.0
 10
15.9089343346
 20
12.0474493215
 30
0.0
 10
15.9094921148
 20
12.0481509072
 30
0.0
 10
15.9107570813
 20
12.0494870193
 30
0.0
 10
15.9126179281
 20
12.0510188864
 30
0.0
 10
15.9152082474
 20
12.0525845507
 30
0.0
 10
15.9181561289
 20
12.0538876085
 30
0.0
 10
15.9214262824
 20
12.0549167954
 30
0.0
 10
15.9249809158
 20
12.0556564918
 30
0.0
 10
15.9287724551
 20
12.0561013115
 30
0.0
 10
15.9313766916
 20
12.056197382
 30
0.0
 10
15.9327053843
 20
12.056197382
 30
0.0
  0
SPLINE
  5
296
100
AcDbEntity
  8
0
100
AcDbSpline
 62
7
  6
CONTINUOUS
 70
0
 71
3
 72
9
 73
5
 74
0
 42
0.0000001
 43
0.0000001
 44
0.0000000001
 40
0.0
 40
0.0
 40
0.0
 40
0.0
 40
0.495332749
 40
1.0
 40
1.0
 40
1.0
 40
1.0
 10
16.569855395
 20
12.0431424939
 30
0.0
 10
16.5700719227
 20
12.0438417715
 30
0.0
 10
16.5706283041
 20
12.0452191856
 30
0.0
 10
16.5714023834
 20
12.04648647
 30
0.0
 10
16.5718392548
 20
12.0470909567
 30
0.0
  0
SPLINE
  5
297
100
AcDbEntity
  8
0
100
AcDbSpline
 62
7
  6
CONTINUOUS
 70
0
 71
3
 72
16
 73
12
 74
0
 42
0.0000001
 43
0.0000001
 44
0.0000000001
 40
0.0
 40
0.0
 40
0.0
 40
0.0
 40
0.0498669083
 40
0.1009231826
 40
0.2073040243
 40
0.3204956052
 40
0.4412756312
 40
0.5699347013
 40
0.7064353968
 40
0.8501491874
 40
1.0
 40
1.0
 40
1.0
 40
1.0
 10
16.5718392548
 20
12.0470909567
 30
0.0
 10
16.5720982503
 20
12.0474493215
 30
0.0
 10
16.5726560305
 20
12.0481509072
 30
0.0
 10
16.573920997
 20
12.0494870193
 30
0.0
 10
16.5757818438
 20
12.0510188864
 30
0.0
 10
16.5783721631
 20
12.0525845507
 30
0.0
 10
16.5813200446
 20
12.0538876085
 30
0.0
 10
16.5845901981
 20
12.0549167954
 30
0.0
 10
16.5881448315
 20
12.0556564918
 30
0.0
 10
16.5919363708
 20
12.0561013115
 30
0.0
 10
16.5945406073
 20
12.056197382
 30
0.0
 10
16.5958692999
 20
12.056197382
 30
0.0
  0
SPLINE
  5
298
100
AcDbEntity
  8
0
100
AcDbSpline
 62
7
  6
CONTINUOUS
 70
0
 71
3
 72
9
 73
5
 74
0
 42
0.0000001
 43
0.0000001
 44
0.0000000001
 40
0.0
 40
0.0
 40
0.0
 40
0.0
 40
0.495332749
 40
1.0
 40
1.0
 40
1.0
 40
1.0
 10
17.2330193107
 20
12.0431424939
 30
0.0
 10
17.2332358384
 20
12.0438417715
 30
0.0
 10
17.2337922197
 20
12.0452191856
 30
0.0
 10
17.2345662991
 20
12.04648647
 30
0.0
 10
17.2350031705
 20
12.0470909567
 30
0.0
  0
SPLINE
  5
299
100
AcDbEntity
  8
0
100
AcDbSpline
 62
7
  6
CONTINUOUS
 70
0
 71
3
 72
16
 73
12
 74
0
 42
0.0000001
 43
0.0000001
 44
0.0000000001
 40
0.0
 40
0.0
 40
0.0
 40
0.0
 40
0.0498669083
 40
0.1009231826
 40
0.2073040243
 40
0.3204956052
 40
0.4412756312
 40
0.5699347013
 40
0.7064353968
 40
0.8501491874
 40
1.0
 40
1.0
 40
1.0
 40
1.0
 10
17.2350031705
 20
12.0470909567
 30
0.0
 10
17.235262166
 20
12.0474493215
 30
0.0
 10
17.2358199462
 20
12.0481509072
 30
0.0
 10
17.2370849127
 20
12.0494870193
 30
0.0
 10
17.2389457595
 20
12.0510188864
 30
0.0
 10
17.2415360788
 20
12.0525845507
 30
0.0
 10
17.2444839603
 20
12.0538876085
 30
0.0
 10
17.2477541138
 20
12.0549167954
 30
0.0
 10
17.2513087471
 20
12.0556564918
 30
0.0
 10
17.2551002865
 20
12.0561013115
 30
0.0
 10
17.257704523
 20
12.056197382
 30
0.0
 10
17.2590332156
 20
12.056197382
 30
0.0
  0
SPLINE
  5
29A
100
AcDbEntity
  8
0
100
AcDbSpline
 62
7
  6
CONTINUOUS
 70
0
 71
3
 72
24
 73
20
 74
0
 42
0.0000001
 43
0.0000001
 44
0.0000000001
 40
0.0
 40
0.0
 40
0.0
 40
0.0
 40
0.0787575094
 40
0.155669484
 40
0.2305083927
 40
0.3030668325
 40
0.3732164272
 40
0.4409034327
 40
0.5061021112
 40
0.5688238111
 40
0.6291302625
 40
0.6871257541
 40
0.742963918
 40
0.7701506849
 40
0.796891245
 40
0.849175923
 40
0.9001874971
 40
0.9503254171
 40
1.0
 40
1.0
 40
1.0
 40
1.0
 10
13.8679049732
 20
11.9443075877
 30
0.0
 10
13.8691274679
 20
11.9443075877
 30
0.0
 10
13.8715442187
 20
11.9443621095
 30
0.0
 10
13.8751148195
 20
11.9446122483
 30
0.0
 10
13.878573205
 20
11.945028437
 30
0.0
 10
13.8819013062
 20
11.9456099471
 30
0.0
 10
13.8850830557
 20
11.9463543966
 30
0.0
 10
13.8881046124
 20
11.9472574942
 30
0.0
 10
13.8909530549
 20
11.9483155619
 30
0.0
 10
13.8936155376
 20
11.9495250384
 30
0.0
 10
13.8960806633
 20
11.9508797518
 30
0.0
 10
13.8983373697
 20
11.9523734122
 30
0.0
 10
13.900050427
 20
11.9537416779
 30
0.0
 10
13.9013012352
 20
11.9548995135
 30
0.0
 10
13.9024544627
 20
11.9560784866
 30
0.0
 10
13.9037543422
 20
11.9576279155
 30
0.0
 10
13.9050807342
 20
11.9596119761
 30
0.0
 10
13.9061538533
 20
11.9616982935
 30
0.0
 10
13.9066989939
 20
11.9631529859
 30
0.0
 10
13.9069267725
 20
11.963889636
 30
0.0
  0
SPLINE
  5
29B
100
AcDbEntity
  8
0
100
AcDbSpline
 62
7
  6
CONTINUOUS
 70
0
 71
3
 72
21
 73
17
 74
0
 42
0.0000001
 43
0.0000001
 44
0.0000000001
 40
0.0
 40
0.0
 40
0.0
 40
0.0
 40
0.0565489035
 40
0.1148912513
 40
0.1748165309
 40
0.2361075745
 40
0.2985654148
 40
0.3619930277
 40
0.4908920294
 40
0.6209955617
 40
0.6859174885
 40
0.7504442922
 40
0.8143575244
 40
0.8774284916
 40
0.9393962744
 40
1.0
 40
1.0
 40
1.0
 40
1.0
 10
13.6022698556
 20
11.9673313956
 30
0.0
 10
13.6032177881
 20
11.9664731368
 30
0.0
 10
13.6051953554
 20
11.964785711
 30
0.0
 10
13.6083373856
 20
11.9623840089
 30
0.0
 10
13.6116856864
 20
11.9600841463
 30
0.0
 10
13.6152212567
 20
11.95790156
 30
0.0
 10
13.6189239392
 20
11.9558477334
 30
0.0
 10
13.6240840584
 20
11.9532813502
 30
0.0
 10
13.6308211987
 20
11.9504686666
 30
0.0
 10
13.6378022574
 20
11.9482207393
 30
0.0
 10
13.6434931402
 20
11.9467786754
 30
0.0
 10
13.6477748216
 20
11.9458852823
 30
0.0
 10
13.6520498323
 20
11.9451847973
 30
0.0
 10
13.6562943868
 20
11.9446818661
 30
0.0
 10
13.6604827001
 20
11.9443776489
 30
0.0
 10
13.6632548284
 20
11.9443075877
 30
0.0
 10
13.6646252635
 20
11.9443075877
 30
0.0
  0
SPLINE
  5
29C
100
AcDbEntity
  8
0
100
AcDbSpline
 62
7
  6
CONTINUOUS
 70
0
 71
3
 72
24
 73
20
 74
0
 42
0.0000001
 43
0.0000001
 44
0.0000000001
 40
0.0
 40
0.0
 40
0.0
 40
0.0
 40
0.0787575094
 40
0.155669484
 40
0.2305083927
 40
0.3030668325
 40
0.3732164272
 40
0.4409034327
 40
0.5061021112
 40
0.5688238111
 40
0.6291302625
 40
0.6871257541
 40
0.742963918
 40
0.7701506849
 40
0.796891245
 40
0.849175923
 40
0.9001874971
 40
0.9503254171
 40
1.0
 40
1.0
 40
1.0
 40
1.0
 10
17.1837245516
 20
11.9443075877
 30
0.0
 10
17.1849470463
 20
11.9443075877
 30
0.0
 10
17.1873637971
 20
11.9443621095
 30
0.0
 10
17.1909343979
 20
11.9446122483
 30
0.0
 10
17.1943927834
 20
11.945028437
 30
0.0
 10
17.1977208846
 20
11.9456099471
 30
0.0
 10
17.2009026341
 20
11.9463543966
 30
0.0
 10
17.2039241908
 20
11.9472574942
 30
0.0
 10
17.2067726333
 20
11.9483155619
 30
0.0
 10
17.2094351161
 20
11.9495250384
 30
0.0
 10
17.2119002417
 20
11.9508797518
 30
0.0
 10
17.2141569481
 20
11.9523734122
 30
0.0
 10
17.2158700054
 20
11.9537416779
 30
0.0
 10
17.2171208136
 20
11.9548995135
 30
0.0
 10
17.2182740411
 20
11.9560784866
 30
0.0
 10
17.2195739206
 20
11.9576279155
 30
0.0
 10
17.2209003126
 20
11.9596119761
 30
0.0
 10
17.2219734318
 20
11.9616982935
 30
0.0
 10
17.2225185723
 20
11.9631529859
 30
0.0
 10
17.2227463509
 20
11.963889636
 30
0.0
  0
SPLINE
  5
29D
100
AcDbEntity
  8
0
100
AcDbSpline
 62
7
  6
CONTINUOUS
 70
0
 71
3
 72
21
 73
17
 74
0
 42
0.0000001
 43
0.0000001
 44
0.0000000001
 40
0.0
 40
0.0
 40
0.0
 40
0.0
 40
0.0565489035
 40
0.1148912513
 40
0.1748165309
 40
0.2361075745
 40
0.2985654148
 40
0.3619930277
 40
0.4908920294
 40
0.6209955617
 40
0.6859174885
 40
0.7504442922
 40
0.8143575244
 40
0.8774284916
 40
0.9393962744
 40
1.0
 40
1.0
 40
1.0
 40
1.0
 10
16.918089434
 20
11.9673313956
 30
0.0
 10
16.9190373665
 20
11.9664731368
 30
0.0
 10
16.9210149338
 20
11.964785711
 30
0.0
 10
16.924156964
 20
11.9623840089
 30
0.0
 10
16.9275052648
 20
11.9600841463
 30
0.0
 10
16.9310408351
 20
11.95790156
 30
0.0
 10
16.9347435176
 20
11.9558477334
 30
0.0
 10
16.9399036368
 20
11.9532813502
 30
0.0
 10
16.9466407771
 20
11.9504686666
 30
0.0
 10
16.9536218358
 20
11.9482207393
 30
0.0
 10
16.9593127186
 20
11.9467786754
 30
0.0
 10
16.9635944
 20
11.9458852823
 30
0.0
 10
16.9678694107
 20
11.9451847973
 30
0.0
 10
16.9721139652
 20
11.9446818661
 30
0.0
 10
16.9763022785
 20
11.9443776489
 30
0.0
 10
16.9790744068
 20
11.9443075877
 30
0.0
 10
16.9804448419
 20
11.9443075877
 30
0.0
  0
SPLINE
  5
29E
100
AcDbEntity
  8
0
100
AcDbSpline
 62
7
  6
CONTINUOUS
 70
0
 71
3
 72
24
 73
20
 74
0
 42
0.0000001
 43
0.0000001
 44
0.0000000001
 40
0.0
 40
0.0
 40
0.0
 40
0.0
 40
0.0787575094
 40
0.155669484
 40
0.2305083927
 40
0.3030668325
 40
0.3732164272
 40
0.4409034327
 40
0.5061021112
 40
0.5688238111
 40
0.6291302625
 40
0.6871257541
 40
0.742963918
 40
0.7701506849
 40
0.796891245
 40
0.849175923
 40
0.9001874971
 40
0.9503254171
 40
1.0
 40
1.0
 40
1.0
 40
1.0
 10
16.5205606359
 20
11.9443075877
 30
0.0
 10
16.5217831306
 20
11.9443075877
 30
0.0
 10
16.5241998815
 20
11.9443621095
 30
0.0
 10
16.5277704822
 20
11.9446122483
 30
0.0
 10
16.5312288678
 20
11.945028437
 30
0.0
 10
16.5345569689
 20
11.9456099471
 30
0.0
 10
16.5377387184
 20
11.9463543966
 30
0.0
 10
16.5407602751
 20
11.9472574942
 30
0.0
 10
16.5436087176
 20
11.9483155619
 30
0.0
 10
16.5462712004
 20
11.9495250384
 30
0.0
 10
16.548736326
 20
11.9508797518
 30
0.0
 10
16.5509930324
 20
11.9523734122
 30
0.0
 10
16.5527060897
 20
11.9537416779
 30
0.0
 10
16.5539568979
 20
11.9548995135
 30
0.0
 10
16.5551101255
 20
11.9560784866
 30
0.0
 10
16.5564100049
 20
11.9576279155
 30
0.0
 10
16.557736397
 20
11.9596119761
 30
0.0
 10
16.5588095161
 20
11.9616982935
 30
0.0
 10
16.5593546566
 20
11.9631529859
 30
0.0
 10
16.5595824352
 20
11.963889636
 30
0.0
  0
SPLINE
  5
29F
100
AcDbEntity
  8
0
100
AcDbSpline
 62
7
  6
CONTINUOUS
 70
0
 71
3
 72
21
 73
17
 74
0
 42
0.0000001
 43
0.0000001
 44
0.0000000001
 40
0.0
 40
0.0
 40
0.0
 40
0.0
 40
0.0565489035
 40
0.1148912513
 40
0.1748165309
 40
0.2361075745
 40
0.2985654148
 40
0.3619930277
 40
0.4908920294
 40
0.6209955617
 40
0.6859174885
 40
0.7504442922
 40
0.8143575244
 40
0.8774284916
 40
0.9393962744
 40
1.0
 40
1.0
 40
1.0
 40
1.0
 10
16.2549255183
 20
11.9673313956
 30
0.0
 10
16.2558734508
 20
11.9664731368
 30
0.0
 10
16.2578510181
 20
11.964785711
 30
0.0
 10
16.2609930484
 20
11.9623840089
 30
0.0
 10
16.2643413492
 20
11.9600841463
 30
0.0
 10
16.2678769194
 20
11.95790156
 30
0.0
 10
16.271579602
 20
11.9558477334
 30
0.0
 10
16.2767397211
 20
11.9532813502
 30
0.0
 10
16.2834768615
 20
11.9504686666
 30
0.0
 10
16.2904579202
 20
11.9482207393
 30
0.0
 10
16.2961488029
 20
11.9467786754
 30
0.0
 10
16.3004304843
 20
11.9458852823
 30
0.0
 10
16.304705495
 20
11.9451847973
 30
0.0
 10
16.3089500495
 20
11.9446818661
 30
0.0
 10
16.3131383628
 20
11.9443776489
 30
0.0
 10
16.3159104911
 20
11.9443075877
 30
0.0
 10
16.3172809262
 20
11.9443075877
 30
0.0
  0
SPLINE
  5
2A0
100
AcDbEntity
  8
0
100
AcDbSpline
 62
7
  6
CONTINUOUS
 70
0
 71
3
 72
24
 73
20
 74
0
 42
0.0000001
 43
0.0000001
 44
0.0000000001
 40
0.0
 40
0.0
 40
0.0
 40
0.0
 40
0.0787575094
 40
0.155669484
 40
0.2305083927
 40
0.3030668325
 40
0.3732164272
 40
0.4409034327
 40
0.5061021112
 40
0.5688238111
 40
0.6291302625
 40
0.6871257541
 40
0.742963918
 40
0.7701506849
 40
0.796891245
 40
0.849175923
 40
0.9001874971
 40
0.9503254171
 40
1.0
 40
1.0
 40
1.0
 40
1.0
 10
15.8573967202
 20
11.9443075877
 30
0.0
 10
15.858619215
 20
11.9443075877
 30
0.0
 10
15.8610359658
 20
11.9443621095
 30
0.0
 10
15.8646065665
 20
11.9446122483
 30
0.0
 10
15.8680649521
 20
11.945028437
 30
0.0
 10
15.8713930532
 20
11.9456099471
 30
0.0
 10
15.8745748027
 20
11.9463543966
 30
0.0
 10
15.8775963594
 20
11.9472574942
 30
0.0
 10
15.8804448019
 20
11.9483155619
 30
0.0
 10
15.8831072847
 20
11.9495250384
 30
0.0
 10
15.8855724104
 20
11.9508797518
 30
0.0
 10
15.8878291167
 20
11.9523734122
 30
0.0
 10
15.889542174
 20
11.9537416779
 30
0.0
 10
15.8907929823
 20
11.9548995135
 30
0.0
 10
15.8919462098
 20
11.9560784866
 30
0.0
 10
15.8932460892
 20
11.9576279155
 30
0.0
 10
15.8945724813
 20
11.9596119761
 30
0.0
 10
15.8956456004
 20
11.9616982935
 30
0.0
 10
15.896190741
 20
11.9631529859
 30
0.0
 10
15.8964185195
 20
11.963889636
 30
0.0
  0
SPLINE
  5
2A1
100
AcDbEntity
  8
0
100
AcDbSpline
 62
7
  6
CONTINUOUS
 70
0
 71
3
 72
21
 73
17
 74
0
 42
0.0000001
 43
0.0000001
 44
0.0000000001
 40
0.0
 40
0.0
 40
0.0
 40
0.0
 40
0.0565489035
 40
0.1148912513
 40
0.1748165309
 40
0.2361075745
 40
0.2985654148
 40
0.3619930277
 40
0.4908920294
 40
0.6209955617
 40
0.6859174885
 40
0.7504442922
 40
0.8143575244
 40
0.8774284916
 40
0.9393962744
 40
1.0
 40
1.0
 40
1.0
 40
1.0
 10
15.5917616026
 20
11.9673313956
 30
0.0
 10
15.5927095351
 20
11.9664731368
 30
0.0
 10
15.5946871024
 20
11.964785711
 30
0.0
 10
15.5978291327
 20
11.9623840089
 30
0.0
 10
15.6011774335
 20
11.9600841463
 30
0.0
 10
15.6047130037
 20
11.95790156
 30
0.0
 10
15.6084156863
 20
11.9558477334
 30
0.0
 10
15.6135758055
 20
11.9532813502
 30
0.0
 10
15.6203129458
 20
11.9504686666
 30
0.0
 10
15.6272940045
 20
11.9482207393
 30
0.0
 10
15.6329848872
 20
11.9467786754
 30
0.0
 10
15.6372665687
 20
11.9458852823
 30
0.0
 10
15.6415415793
 20
11.9451847973
 30
0.0
 10
15.6457861338
 20
11.9446818661
 30
0.0
 10
15.6499744471
 20
11.9443776489
 30
0.0
 10
15.6527465754
 20
11.9443075877
 30
0.0
 10
15.6541170106
 20
11.9443075877
 30
0.0
  0
SPLINE
  5
2A2
100
AcDbEntity
  8
0
100
AcDbSpline
 62
7
  6
CONTINUOUS
 70
0
 71
3
 72
24
 73
20
 74
0
 42
0.0000001
 43
0.0000001
 44
0.0000000001
 40
0.0
 40
0.0
 40
0.0
 40
0.0
 40
0.0787575094
 40
0.155669484
 40
0.2305083927
 40
0.3030668325
 40
0.3732164272
 40
0.4409034327
 40
0.5061021112
 40
0.5688238111
 40
0.6291302625
 40
0.6871257541
 40
0.742963918
 40
0.7701506849
 40
0.796891245
 40
0.849175923
 40
0.9001874971
 40
0.9503254171
 40
1.0
 40
1.0
 40
1.0
 40
1.0
 10
15.1942328045
 20
11.9443075877
 30
0.0
 10
15.1954552993
 20
11.9443075877
 30
0.0
 10
15.1978720501
 20
11.9443621095
 30
0.0
 10
15.2014426508
 20
11.9446122483
 30
0.0
 10
15.2049010364
 20
11.945028437
 30
0.0
 10
15.2082291375
 20
11.9456099471
 30
0.0
 10
15.211410887
 20
11.9463543966
 30
0.0
 10
15.2144324437
 20
11.9472574942
 30
0.0
 10
15.2172808862
 20
11.9483155619
 30
0.0
 10
15.219943369
 20
11.9495250384
 30
0.0
 10
15.2224084947
 20
11.9508797518
 30
0.0
 10
15.224665201
 20
11.9523734122
 30
0.0
 10
15.2263782583
 20
11.9537416779
 30
0.0
 10
15.2276290666
 20
11.9548995135
 30
0.0
 10
15.2287822941
 20
11.9560784866
 30
0.0
 10
15.2300821735
 20
11.9576279155
 30
0.0
 10
15.2314085656
 20
11.9596119761
 30
0.0
 10
15.2324816847
 20
11.9616982935
 30
0.0
 10
15.2330268253
 20
11.9631529859
 30
0.0
 10
15.2332546038
 20
11.963889636
 30
0.0
  0
SPLINE
  5
2A3
100
AcDbEntity
  8
0
100
AcDbSpline
 62
7
  6
CONTINUOUS
 70
0
 71
3
 72
21
 73
17
 74
0
 42
0.0000001
 43
0.0000001
 44
0.0000000001
 40
0.0
 40
0.0
 40
0.0
 40
0.0
 40
0.0565489035
 40
0.1148912513
 40
0.1748165309
 40
0.2361075745
 40
0.2985654148
 40
0.3619930277
 40
0.4908920294
 40
0.6209955617
 40
0.6859174885
 40
0.7504442922
 40
0.8143575244
 40
0.8774284916
 40
0.9393962744
 40
1.0
 40
1.0
 40
1.0
 40
1.0
 10
14.928597687
 20
11.9673313956
 30
0.0
 10
14.9295456195
 20
11.9664731368
 30
0.0
 10
14.9315231867
 20
11.964785711
 30
0.0
 10
14.934665217
 20
11.9623840089
 30
0.0
 10
14.9380135178
 20
11.9600841463
 30
0.0
 10
14.941549088
 20
11.95790156
 30
0.0
 10
14.9452517706
 20
11.9558477334
 30
0.0
 10
14.9504118898
 20
11.9532813502
 30
0.0
 10
14.9571490301
 20
11.9504686666
 30
0.0
 10
14.9641300888
 20
11.9482207393
 30
0.0
 10
14.9698209715
 20
11.9467786754
 30
0.0
 10
14.974102653
 20
11.9458852823
 30
0.0
 10
14.9783776636
 20
11.9451847973
 30
0.0
 10
14.9826222181
 20
11.9446818661
 30
0.0
 10
14.9868105315
 20
11.9443776489
 30
0.0
 10
14.9895826598
 20
11.9443075877
 30
0.0
 10
14.9909530949
 20
11.9443075877
 30
0.0
  0
SPLINE
  5
2A4
100
AcDbEntity
  8
0
100
AcDbSpline
 62
7
  6
CONTINUOUS
 70
0
 71
3
 72
24
 73
20
 74
0
 42
0.0000001
 43
0.0000001
 44
0.0000000001
 40
0.0
 40
0.0
 40
0.0
 40
0.0
 40
0.0787575094
 40
0.155669484
 40
0.2305083927
 40
0.3030668325
 40
0.3732164272
 40
0.4409034327
 40
0.5061021112
 40
0.5688238111
 40
0.6291302625
 40
0.6871257541
 40
0.742963918
 40
0.7701506849
 40
0.796891245
 40
0.849175923
 40
0.9001874971
 40
0.9503254171
 40
1.0
 40
1.0
 40
1.0
 40
1.0
 10
14.5310688889
 20
11.9443075877
 30
0.0
 10
14.5322913836
 20
11.9443075877
 30
0.0
 10
14.5347081344
 20
11.9443621095
 30
0.0
 10
14.5382787351
 20
11.9446122483
 30
0.0
 10
14.5417371207
 20
11.945028437
 30
0.0
 10
14.5450652218
 20
11.9456099471
 30
0.0
 10
14.5482469714
 20
11.9463543966
 30
0.0
 10
14.551268528
 20
11.9472574942
 30
0.0
 10
14.5541169706
 20
11.9483155619
 30
0.0
 10
14.5567794533
 20
11.9495250384
 30
0.0
 10
14.559244579
 20
11.9508797518
 30
0.0
 10
14.5615012854
 20
11.9523734122
 30
0.0
 10
14.5632143426
 20
11.9537416779
 30
0.0
 10
14.5644651509
 20
11.9548995135
 30
0.0
 10
14.5656183784
 20
11.9560784866
 30
0.0
 10
14.5669182578
 20
11.9576279155
 30
0.0
 10
14.5682446499
 20
11.9596119761
 30
0.0
 10
14.569317769
 20
11.9616982935
 30
0.0
 10
14.5698629096
 20
11.9631529859
 30
0.0
 10
14.5700906881
 20
11.963889636
 30
0.0
  0
SPLINE
  5
2A5
100
AcDbEntity
  8
0
100
AcDbSpline
 62
7
  6
CONTINUOUS
 70
0
 71
3
 72
21
 73
17
 74
0
 42
0.0000001
 43
0.0000001
 44
0.0000000001
 40
0.0
 40
0.0
 40
0.0
 40
0.0
 40
0.0565489035
 40
0.1148912513
 40
0.1748165309
 40
0.2361075745
 40
0.2985654148
 40
0.3619930277
 40
0.4908920294
 40
0.6209955617
 40
0.6859174885
 40
0.7504442922
 40
0.8143575244
 40
0.8774284916
 40
0.9393962744
 40
1.0
 40
1.0
 40
1.0
 40
1.0
 10
14.2654337713
 20
11.9673313956
 30
0.0
 10
14.2663817038
 20
11.9664731368
 30
0.0
 10
14.2683592711
 20
11.964785711
 30
0.0
 10
14.2715013013
 20
11.9623840089
 30
0.0
 10
14.2748496021
 20
11.9600841463
 30
0.0
 10
14.2783851724
 20
11.95790156
 30
0.0
 10
14.2820878549
 20
11.9558477334
 30
0.0
 10
14.2872479741
 20
11.9532813502
 30
0.0
 10
14.2939851144
 20
11.9504686666
 30
0.0
 10
14.3009661731
 20
11.9482207393
 30
0.0
 10
14.3066570559
 20
11.9467786754
 30
0.0
 10
14.3109387373
 20
11.9458852823
 30
0.0
 10
14.315213748
 20
11.9451847973
 30
0.0
 10
14.3194583025
 20
11.9446818661
 30
0.0
 10
14.3236466158
 20
11.9443776489
 30
0.0
 10
14.3264187441
 20
11.9443075877
 30
0.0
 10
14.3277891792
 20
11.9443075877
 30
0.0
  0
SPLINE
  5
2A6
100
AcDbEntity
  8
0
100
AcDbSpline
 62
7
  6
CONTINUOUS
 70
0
 71
3
 72
20
 73
16
 74
0
 42
0.0000001
 43
0.0000001
 44
0.0000000001
 40
0.0
 40
0.0
 40
0.0
 40
0.0
 40
0.0605478225
 40
0.1224984277
 40
0.1855880597
 40
0.2495467138
 40
0.379022395
 40
0.5090960886
 40
0.6379616068
 40
0.7014073321
 40
0.7639006907
 40
0.825232074
 40
0.885174764
 40
0.9435023387
 40
1.0
 40
1.0
 40
1.0
 40
1.0
 10
13.4795015275
 20
12.056197382
 30
0.0
 10
13.4804142782
 20
12.056197382
 30
0.0
 10
13.4822612021
 20
12.0561505211
 30
0.0
 10
13.4850524681
 20
12.0559474803
 30
0.0
 10
13.4878828094
 20
12.0556121656
 30
0.0
 10
13.4917002111
 20
12.0549879131
 30
0.0
 10
13.496457605
 20
12.0538858631
 30
0.0
 10
13.5020377366
 20
12.0520908283
 30
0.0
 10
13.5065280775
 20
12.0502147018
 30
0.0
 10
13.5099685652
 20
12.0485043076
 30
0.0
 10
13.5124382463
 20
12.0471345147
 30
0.0
 10
13.5147958738
 20
12.0456778956
 30
0.0
 10
13.5170284976
 20
12.0441443094
 30
0.0
 10
13.5191227255
 20
12.0425439276
 30
0.0
 10
13.5204404378
 20
12.041419812
 30
0.0
 10
13.5210717994
 20
12.0408481767
 30
0.0
  0
SPLINE
  5
2A7
100
AcDbEntity
  8
0
100
AcDbSpline
 62
7
  6
CONTINUOUS
 70
0
 71
3
 72
20
 73
16
 74
0
 42
0.0000001
 43
0.0000001
 44
0.0000000001
 40
0.0
 40
0.0
 40
0.0
 40
0.0
 40
0.0605478225
 40
0.1224984277
 40
0.1855880597
 40
0.2495467138
 40
0.379022395
 40
0.5090960886
 40
0.6379616068
 40
0.7014073321
 40
0.7639006907
 40
0.825232074
 40
0.885174764
 40
0.9435023387
 40
1.0
 40
1.0
 40
1.0
 40
1.0
 10
14.1426654432
 20
12.056197382
 30
0.0
 10
14.1435781939
 20
12.056197382
 30
0.0
 10
14.1454251177
 20
12.0561505211
 30
0.0
 10
14.1482163837
 20
12.0559474803
 30
0.0
 10
14.1510467251
 20
12.0556121656
 30
0.0
 10
14.1548641268
 20
12.0549879131
 30
0.0
 10
14.1596215206
 20
12.0538858631
 30
0.0
 10
14.1652016523
 20
12.0520908283
 30
0.0
 10
14.1696919932
 20
12.0502147018
 30
0.0
 10
14.1731324809
 20
12.0485043076
 30
0.0
 10
14.175602162
 20
12.0471345147
 30
0.0
 10
14.1779597895
 20
12.0456778956
 30
0.0
 10
14.1801924132
 20
12.0441443094
 30
0.0
 10
14.1822866412
 20
12.0425439276
 30
0.0
 10
14.1836043535
 20
12.041419812
 30
0.0
 10
14.1842357151
 20
12.0408481767
 30
0.0
  0
SPLINE
  5
2A8
100
AcDbEntity
  8
0
100
AcDbSpline
 62
7
  6
CONTINUOUS
 70
0
 71
3
 72
20
 73
16
 74
0
 42
0.0000001
 43
0.0000001
 44
0.0000000001
 40
0.0
 40
0.0
 40
0.0
 40
0.0
 40
0.0605478225
 40
0.1224984277
 40
0.1855880597
 40
0.2495467138
 40
0.379022395
 40
0.5090960886
 40
0.6379616068
 40
0.7014073321
 40
0.7639006907
 40
0.825232074
 40
0.885174764
 40
0.9435023387
 40
1.0
 40
1.0
 40
1.0
 40
1.0
 10
14.8058293588
 20
12.056197382
 30
0.0
 10
14.8067421096
 20
12.056197382
 30
0.0
 10
14.8085890334
 20
12.0561505211
 30
0.0
 10
14.8113802994
 20
12.0559474803
 30
0.0
 10
14.8142106408
 20
12.0556121656
 30
0.0
 10
14.8180280425
 20
12.0549879131
 30
0.0
 10
14.8227854363
 20
12.0538858631
 30
0.0
 10
14.828365568
 20
12.0520908283
 30
0.0
 10
14.8328559089
 20
12.0502147018
 30
0.0
 10
14.8362963966
 20
12.0485043076
 30
0.0
 10
14.8387660777
 20
12.0471345147
 30
0.0
 10
14.8411237052
 20
12.0456778956
 30
0.0
 10
14.8433563289
 20
12.0441443094
 30
0.0
 10
14.8454505569
 20
12.0425439276
 30
0.0
 10
14.8467682691
 20
12.041419812
 30
0.0
 10
14.8473996308
 20
12.0408481767
 30
0.0
  0
SPLINE
  5
2A9
100
AcDbEntity
  8
0
100
AcDbSpline
 62
7
  6
CONTINUOUS
 70
0
 71
3
 72
20
 73
16
 74
0
 42
0.0000001
 43
0.0000001
 44
0.0000000001
 40
0.0
 40
0.0
 40
0.0
 40
0.0
 40
0.0605478225
 40
0.1224984277
 40
0.1855880597
 40
0.2495467138
 40
0.379022395
 40
0.5090960886
 40
0.6379616068
 40
0.7014073321
 40
0.7639006907
 40
0.825232074
 40
0.885174764
 40
0.9435023387
 40
1.0
 40
1.0
 40
1.0
 40
1.0
 10
15.4689932745
 20
12.056197382
 30
0.0
 10
15.4699060252
 20
12.056197382
 30
0.0
 10
15.4717529491
 20
12.0561505211
 30
0.0
 10
15.4745442151
 20
12.0559474803
 30
0.0
 10
15.4773745565
 20
12.0556121656
 30
0.0
 10
15.4811919581
 20
12.0549879131
 30
0.0
 10
15.485949352
 20
12.0538858631
 30
0.0
 10
15.4915294836
 20
12.0520908283
 30
0.0
 10
15.4960198246
 20
12.0502147018
 30
0.0
 10
15.4994603123
 20
12.0485043076
 30
0.0
 10
15.5019299934
 20
12.0471345147
 30
0.0
 10
15.5042876208
 20
12.0456778956
 30
0.0
 10
15.5065202446
 20
12.0441443094
 30
0.0
 10
15.5086144726
 20
12.0425439276
 30
0.0
 10
15.5099321848
 20
12.041419812
 30
0.0
 10
15.5105635465
 20
12.0408481767
 30
0.0
  0
SPLINE
  5
2AA
100
AcDbEntity
  8
0
100
AcDbSpline
 62
7
  6
CONTINUOUS
 70
0
 71
3
 72
20
 73
16
 74
0
 42
0.0000001
 43
0.0000001
 44
0.0000000001
 40
0.0
 40
0.0
 40
0.0
 40
0.0
 40
0.0605478225
 40
0.1224984277
 40
0.1855880597
 40
0.2495467138
 40
0.379022395
 40
0.5090960886
 40
0.6379616068
 40
0.7014073321
 40
0.7639006907
 40
0.825232074
 40
0.885174764
 40
0.9435023387
 40
1.0
 40
1.0
 40
1.0
 40
1.0
 10
16.1321571902
 20
12.056197382
 30
0.0
 10
16.1330699409
 20
12.056197382
 30
0.0
 10
16.1349168648
 20
12.0561505211
 30
0.0
 10
16.1377081308
 20
12.0559474803
 30
0.0
 10
16.1405384722
 20
12.0556121656
 30
0.0
 10
16.1443558738
 20
12.0549879131
 30
0.0
 10
16.1491132677
 20
12.0538858631
 30
0.0
 10
16.1546933993
 20
12.0520908283
 30
0.0
 10
16.1591837402
 20
12.0502147018
 30
0.0
 10
16.162624228
 20
12.0485043076
 30
0.0
 10
16.1650939091
 20
12.0471345147
 30
0.0
 10
16.1674515365
 20
12.0456778956
 30
0.0
 10
16.1696841603
 20
12.0441443094
 30
0.0
 10
16.1717783883
 20
12.0425439276
 30
0.0
 10
16.1730961005
 20
12.041419812
 30
0.0
 10
16.1737274622
 20
12.0408481767
 30
0.0
  0
SPLINE
  5
2AB
100
AcDbEntity
  8
0
100
AcDbSpline
 62
7
  6
CONTINUOUS
 70
0
 71
3
 72
20
 73
16
 74
0
 42
0.0000001
 43
0.0000001
 44
0.0000000001
 40
0.0
 40
0.0
 40
0.0
 40
0.0
 40
0.0605478225
 40
0.1224984277
 40
0.1855880597
 40
0.2495467138
 40
0.379022395
 40
0.5090960886
 40
0.6379616068
 40
0.7014073321
 40
0.7639006907
 40
0.825232074
 40
0.885174764
 40
0.9435023387
 40
1.0
 40
1.0
 40
1.0
 40
1.0
 10
16.7953211059
 20
12.056197382
 30
0.0
 10
16.7962338566
 20
12.056197382
 30
0.0
 10
16.7980807805
 20
12.0561505211
 30
0.0
 10
16.8008720465
 20
12.0559474803
 30
0.0
 10
16.8037023879
 20
12.0556121656
 30
0.0
 10
16.8075197895
 20
12.0549879131
 30
0.0
 10
16.8122771834
 20
12.0538858631
 30
0.0
 10
16.817857315
 20
12.0520908283
 30
0.0
 10
16.8223476559
 20
12.0502147018
 30
0.0
 10
16.8257881436
 20
12.0485043076
 30
0.0
 10
16.8282578248
 20
12.0471345147
 30
0.0
 10
16.8306154522
 20
12.0456778956
 30
0.0
 10
16.832848076
 20
12.0441443094
 30
0.0
 10
16.8349423039
 20
12.0425439276
 30
0.0
 10
16.8362600162
 20
12.041419812
 30
0.0
 10
16.8368913778
 20
12.0408481767
 30
0.0
  0
ENDSEC
  0
SECTION
  2
OBJECTS
  0
DICTIONARY
  5
C
100
AcDbDictionary
280
0
281
1
  3
ACAD_GROUP
350
D
  3
ACAD_MLINESTYLE
350
17
  3
ACAD_LAYOUT
350
1A
  3
ACAD_PLOTSETTINGS
350
19
  3
ACAD_PLOTSTYLENAME
350
E
  0
DICTIONARY
  5
D
102
{ACAD_REACTORS
330
C
102
}
100
AcDbDictionary
280
0
281
1
  0
ACDBDICTIONARYWDFLT
  5
E
102
{ACAD_REACTORS
330
C
102
}
100
AcDbDictionary
281
1
  3
Normal
350
F
100
AcDbDictionaryWithDefault
340
F
  0
DICTIONARY
  5
17
102
{ACAD_REACTORS
330
C
102
}
100
AcDbDictionary
280
0
281
1
  3
Standard
350
18
  0
DICTIONARY
  5
19
102
{ACAD_REACTORS
330
C
102
}
100
AcDbDictionary
281
1
  0
DICTIONARY
  5
1A
102
{ACAD_REACTORS
330
C
102
}
100
AcDbDictionary
281
1
  3
Model
350
2AC
  3
Layout1
350
2AD
  0
ACDBPLACEHOLDER
  5
F
102
{ACAD_REACTORS
330
E
102
}
  0
MLINESTYLE
  5
18
102
{ACAD_REACTORS
330
17
102
}
100
AcDbMlineStyle
  2
STANDARD
 70
0
  3

 62
256
 51
90.0
 52
90.0
 71
2
 49
0.5
 62
256
  6
BYLAYER
 49
-0.5
 62
256
  6
BYLAYER
  0
LAYOUT
  5
2AC
102
{ACAD_REACTORS
330
1A
102
}
100
AcDbPlotSettings
  1

  2
none_device
  4
ANSI_C_(22.00_x_17.00_Inches)
  6

 40
0.0
 41
0.0
 42
0.0
 43
0.0
 44
558.8
 45
431.8
 46
0.0
 47
0.0
 48
0.0
 49
0.0
140
0.0
141
0.0
142
1.0
143
1.0
 70
1024
 72
0
 73
0
 74
0
  7

 75
0
147
1.0
148
0.0
149
0.0
100
AcDbLayout
  1
Model
 70
0
 71
0
 10
0.0
 20
0.0
 11
22.0
 21
17.0
 12
0.0
 22
0.0
 32
0.0
 14
0.0
 24
0.0
 34
0.0
 15
0.0
 25
0.0
 35
0.0
146
0.0
 13
0.0
 23
0.0
 33
0.0
 16
1.0
 26
0.0
 36
0.0
 17
0.0
 27
1.0
 37
0.0
 76
0
330
216
345
0
346
0
  0
LAYOUT
  5
2AD
102
{ACAD_REACTORS
330
1A
102
}
100
AcDbPlotSettings
  1

  2
none_device
  4
ANSI_C_(22.00_x_17.00_Inches)
  6

 40
0.0
 41
0.0
 42
0.0
 43
0.0
 44
558.8
 45
431.8
 46
0.0
 47
0.0
 48
0.0
 49
0.0
140
0.0
141
0.0
142
1.0
143
1.0
 70
0
 72
0
 73
0
 74
0
  7

 75
0
147
1.0
148
0.0
149
0.0
100
AcDbLayout
  1
Layout1
 70
0
 71
1
 10
0.0
 20
0.0
 11
22.0
 21
17.0
 12
0.0
 22
0.0
 32
0.0
 14
0.0
 24
0.0
 34
0.0
 15
0.0
 25
0.0
 35
0.0
146
0.0
 13
0.0
 23
0.0
 33
0.0
 16
1.0
 26
0.0
 36
0.0
 17
0.0
 27
1.0
 37
0.0
 76
0
330
217
345
0
346
0
  0
ENDSEC
  0
EOF