999
DXF file: _cgs_temp_output.dxf
999
Pro/ENGINEER 2016360 by Parametric Technology Corporation
  0
SECTION
  2
HEADER
  9
$ACADVER
  1
AC1021
  9
$DWGCODEPAGE
  3
ANSI_1252
  9
$EXTMAX
 10
22.0
 20
17.0
 30
0.0
  9
$EXTMIN
 10
0.0
 20
0.0
 30
0.0
  9
$LIMMIN
 10
0.0
 20
0.0
  9
$LIMMAX
 10
22.0
 20
17.0
  9
$VIEWCTR
 10
11.0
 20
8.5
  9
$VIEWSIZE
 40
17.0
  9
$CLAYER
  8
0
  9
$LTSCALE
 40
1.21
  9
$CELTYPE
  6
BYLAYER
  9
$DIMSCALE
 40
1.0
  9
$DIMASZ
 40
0.1875
  9
$DIMEXO
 40
0.0625
  9
$DIMDLI
 40
0.836
  9
$DIMEXE
 40
0.125
  9
$DIMCEN
 40
0.198
  9
$DIMLFAC
 40
1.0
  9
$DIMBLK
  1
_CLOSED
  9
$DIMALT
 70
0
  9
$DIMALTF
 40
25.4
  9
$DIMTXT
 40
0.15625
  9
$DIMTOL
 70
0
  9
$DIMLIM
 70
0
  9
$DIMTFAC
 40
1.0
  9
$DIMGAP
 40
0.09
  9
$DIMDSEP
 70
46
  9
$AUNITS
 70
0
  9
$PDMODE
 70
3
  9
$PDSIZE
 40
0.3125
  9
$HANDSEED
  5
32F
  9
$TILEMODE
 70
1
  9
$MEASUREMENT
 70
0
  9
$INSUNITS
 70
1
  0
ENDSEC
  0
SECTION
  2
CLASSES
  0
CLASS
  1
ACDBDICTIONARYWDFLT
  2
AcDbDictionaryWithDefault
  3
AutoCAD 2000
 90
0
 91
1
280
0
281
0
  0
CLASS
  1
ACDBPLACEHOLDER
  2
AcDbPlaceHolder
  3
AutoCAD 2000
 90
0
 91
1
280
0
281
0
  0
CLASS
  1
LAYOUT
  2
AcDbLayout
  3
AutoCAD 2000
 90
0
 91
0
280
0
281
0
  0
ENDSEC
  0
SECTION
  2
TABLES
  0
TABLE
  2
VPORT
  5
8
100
AcDbSymbolTable
 70
2
  0
VPORT
  5
1F4
100
AcDbSymbolTableRecord
100
AcDbViewportTableRecord
  2
*ACTIVE
 70
0
 10
0.0
 20
0.0
 11
1.0
 21
1.0
 12
11.0
 22
8.5
 13
0.0
 23
0.0
 14
1.0
 24
1.0
 15
0.0
 25
0.0
 16
0.0
 26
0.0
 36
1.0
 17
0.0
 27
0.0
 37
0.0
 40
17.0
 41
1.2941176471
 42
50.0
 43
0.0
 44
0.0
 50
0.0
 51
0.0
 71
0
 72
100
 73
1
 74
1
 75
0
 76
0
 77
0
 78
0
  0
ENDTAB
  0
TABLE
  2
LTYPE
  5
5
100
AcDbSymbolTable
 70
6
  0
LTYPE
  5
14
100
AcDbSymbolTableRecord
100
AcDbLinetypeTableRecord
  2
BYBLOCK
 70
0
  3

 72
65
 73
0
 40
0.0
  0
LTYPE
  5
15
100
AcDbSymbolTableRecord
100
AcDbLinetypeTableRecord
  2
BYLAYER
 70
0
  3

 72
65
 73
0
 40
0.0
  0
LTYPE
  5
16
100
AcDbSymbolTableRecord
100
AcDbLinetypeTableRecord
  2
CONTINUOUS
 70
64
  3
Solid line
 72
65
 73
0
 40
0.0
  0
LTYPE
  5
1F5
100
AcDbSymbolTableRecord
100
AcDbLinetypeTableRecord
  2
CENTER
 70
64
  3
____ _ ____ _ ____ _ ____ _ ____ _ ____ _ ____
 72
65
 73
4
 40
0.6
 49
0.375
 74
0
 49
-0.075
 74
0
 49
0.075
 74
0
 49
-0.075
 74
0
  0
LTYPE
  5
1F6
100
AcDbSymbolTableRecord
100
AcDbLinetypeTableRecord
  2
HIDDEN
 70
64
  3
- - - - - - - - - - - - - - - - - - - -
 72
65
 73
2
 40
0.2
 49
0.1
 74
0
 49
-0.1
 74
0
  0
LTYPE
  5
1F7
100
AcDbSymbolTableRecord
100
AcDbLinetypeTableRecord
  2
PHANTOM
 70
64
  3
_____ _ _ _____ _ _ _____ _ _ _____
 72
65
 73
6
 40
0.8
 49
0.45
 74
0
 49
-0.05
 74
0
 49
0.1
 74
0
 49
-0.05
 74
0
 49
0.1
 74
0
 49
-0.05
 74
0
  0
LTYPE
  5
1F8
100
AcDbSymbolTableRecord
100
AcDbLinetypeTableRecord
  2
DOT
 70
64
  3
. . . . . . . . . . . . . . . . . . . .
 72
65
 73
2
 40
0.2
 49
0.1
 74
0
 49
-0.1
 74
0
  0
LTYPE
  5
1F9
100
AcDbSymbolTableRecord
100
AcDbLinetypeTableRecord
  2
DASHED
 70
64
  3
- - - - - - - - - - - - - - - - - - - -
 72
65
 73
2
 40
0.2
 49
0.1
 74
0
 49
-0.1
 74
0
  0
ENDTAB
  0
TABLE
  2
LAYER
  5
2
100
AcDbSymbolTable
 70
36
  0
LAYER
  5
10
100
AcDbSymbolTableRecord
100
AcDbLayerTableRecord
  2
0
 70
0
 62
7
  6
CONTINUOUS
370
-3
390
F
  0
LAYER
  5
1FA
100
AcDbSymbolTableRecord
100
AcDbLayerTableRecord
  2
DEFAULT_1
 70
0
 62
7
  6
CENTER
370
-3
390
F
  0
LAYER
  5
1FB
100
AcDbSymbolTableRecord
100
AcDbLayerTableRecord
  2
DEFAULT_2
 70
0
 62
8
  6
HIDDEN
370
-3
390
F
  0
LAYER
  5
1FC
100
AcDbSymbolTableRecord
100
AcDbLayerTableRecord
  2
DEFAULT_3
 70
0
 62
7
  6
PHANTOM
370
-3
390
F
  0
LAYER
  5
1FD
100
AcDbSymbolTableRecord
100
AcDbLayerTableRecord
  2
01_ALL_DTM_PLN
 70
0
 62
7
  6
CONTINUOUS
370
-3
390
F
  0
LAYER
  5
1FE
100
AcDbSymbolTableRecord
100
AcDbLayerTableRecord
  2
01__ASM_ALL_DTM_PLN
 70
0
 62
7
  6
CONTINUOUS
370
-3
390
F
  0
LAYER
  5
1FF
100
AcDbSymbolTableRecord
100
AcDbLayerTableRecord
  2
01__ASM_DEF_DTM_PLN
 70
0
 62
7
  6
CONTINUOUS
370
-3
390
F
  0
LAYER
  5
200
100
AcDbSymbolTableRecord
100
AcDbLayerTableRecord
  2
01___PRT_ALL_DTM_PLN
 70
0
 62
7
  6
CONTINUOUS
370
-3
390
F
  0
LAYER
  5
201
100
AcDbSymbolTableRecord
100
AcDbLayerTableRecord
  2
01___PRT_DEF_DTM_PLN
 70
0
 62
7
  6
CONTINUOUS
370
-3
390
F
  0
LAYER
  5
202
100
AcDbSymbolTableRecord
100
AcDbLayerTableRecord
  2
02_ALL_AXES
 70
0
 62
7
  6
CONTINUOUS
370
-3
390
F
  0
LAYER
  5
203
100
AcDbSymbolTableRecord
100
AcDbLayerTableRecord
  2
02__ASM_ALL_AXES
 70
0
 62
7
  6
CONTINUOUS
370
-3
390
F
  0
LAYER
  5
204
100
AcDbSymbolTableRecord
100
AcDbLayerTableRecord
  2
02___PRT_ALL_AXES
 70
0
 62
7
  6
CONTINUOUS
370
-3
390
F
  0
LAYER
  5
205
100
AcDbSymbolTableRecord
100
AcDbLayerTableRecord
  2
03_ALL_CURVES
 70
0
 62
7
  6
CONTINUOUS
370
-3
390
F
  0
LAYER
  5
206
100
AcDbSymbolTableRecord
100
AcDbLayerTableRecord
  2
03__ASM_ALL_CURVES
 70
0
 62
7
  6
CONTINUOUS
370
-3
390
F
  0
LAYER
  5
207
100
AcDbSymbolTableRecord
100
AcDbLayerTableRecord
  2
03___PRT_ALL_CURVES
 70
0
 62
7
  6
CONTINUOUS
370
-3
390
F
  0
LAYER
  5
208
100
AcDbSymbolTableRecord
100
AcDbLayerTableRecord
  2
04_ALL_DTM_PNT
 70
0
 62
7
  6
CONTINUOUS
370
-3
390
F
  0
LAYER
  5
209
100
AcDbSymbolTableRecord
100
AcDbLayerTableRecord
  2
04__ASM_ALL_DTM_PNT
 70
0
 62
7
  6
CONTINUOUS
370
-3
390
F
  0
LAYER
  5
20A
100
AcDbSymbolTableRecord
100
AcDbLayerTableRecord
  2
04___PRT_ALL_DTM_PNT
 70
0
 62
7
  6
CONTINUOUS
370
-3
390
F
  0
LAYER
  5
20B
100
AcDbSymbolTableRecord
100
AcDbLayerTableRecord
  2
05_ALL_DTM_CSYS
 70
0
 62
7
  6
CONTINUOUS
370
-3
390
F
  0
LAYER
  5
20C
100
AcDbSymbolTableRecord
100
AcDbLayerTableRecord
  2
05__ASM_ALL_DTM_CSYS
 70
0
 62
7
  6
CONTINUOUS
370
-3
390
F
  0
LAYER
  5
20D
100
AcDbSymbolTableRecord
100
AcDbLayerTableRecord
  2
05__ASM_DEF_DTM_CSYS
 70
0
 62
7
  6
CONTINUOUS
370
-3
390
F
  0
LAYER
  5
20E
100
AcDbSymbolTableRecord
100
AcDbLayerTableRecord
  2
05___PRT_ALL_DTM_CSYS
 70
0
 62
7
  6
CONTINUOUS
370
-3
390
F
  0
LAYER
  5
20F
100
AcDbSymbolTableRecord
100
AcDbLayerTableRecord
  2
05___PRT_DEF_DTM_CSYS
 70
0
 62
7
  6
CONTINUOUS
370
-3
390
F
  0
LAYER
  5
210
100
AcDbSymbolTableRecord
100
AcDbLayerTableRecord
  2
06_ALL_SURFS
 70
0
 62
7
  6
CONTINUOUS
370
-3
390
F
  0
LAYER
  5
211
100
AcDbSymbolTableRecord
100
AcDbLayerTableRecord
  2
06__ASM_ALL_SURFS
 70
0
 62
7
  6
CONTINUOUS
370
-3
390
F
  0
LAYER
  5
212
100
AcDbSymbolTableRecord
100
AcDbLayerTableRecord
  2
06___PRT_ALL_SURFS
 70
0
 62
7
  6
CONTINUOUS
370
-3
390
F
  0
LAYER
  5
213
100
AcDbSymbolTableRecord
100
AcDbLayerTableRecord
  2
07__ASM_ALL_SKELETONS
 70
0
 62
7
  6
CONTINUOUS
370
-3
390
F
  0
LAYER
  5
214
100
AcDbSymbolTableRecord
100
AcDbLayerTableRecord
  2
DRAWINGS
 70
0
 62
7
  6
CONTINUOUS
370
-3
390
F
  0
LAYER
  5
215
100
AcDbSymbolTableRecord
100
AcDbLayerTableRecord
  2
SHELL
 70
0
 62
7
  6
CONTINUOUS
370
-3
390
F
  0
ENDTAB
  0
TABLE
  2
STYLE
  5
3
100
AcDbSymbolTable
 70
1
  0
STYLE
  5
11
100
AcDbSymbolTableRecord
100
AcDbTextStyleTableRecord
  2
STANDARD
 70
0
 40
0.0
 41
0.8
 50
0.0
 71
0
 42
0.2
  3
txt
  4

  0
STYLE
  5
216
100
AcDbSymbolTableRecord
100
AcDbTextStyleTableRecord
  2
TEXTSTYLE_1
 70
0
 40
0.0
 41
0.8
 50
0.0
 71
0
 42
0.2
  3
gdt
  4

  0
ENDTAB
  0
TABLE
  2
VIEW
  5
6
100
AcDbSymbolTable
 70
0
  0
ENDTAB
  0
TABLE
  2
UCS
  5
7
100
AcDbSymbolTable
 70
0
  0
ENDTAB
  0
TABLE
  2
APPID
  5
9
100
AcDbSymbolTable
 70
1
  0
APPID
  5
217
100
AcDbSymbolTableRecord
100
AcDbRegAppTableRecord
  2
ACAD
 70
0
  0
ENDTAB
  0
TABLE
  2
BLOCK_RECORD
  5
1
100
AcDbSymbolTable
 70
0
  0
BLOCK_RECORD
  5
218
100
AcDbSymbolTableRecord
100
AcDbBlockTableRecord
  2
*Model_Space
  0
BLOCK_RECORD
  5
219
100
AcDbSymbolTableRecord
100
AcDbBlockTableRecord
  2
*Paper_Space
  0
ENDTAB
  0
TABLE
  2
DIMSTYLE
  5
A
100
AcDbSymbolTable
 70
1
100
AcDbDimStyleTable
 71
0
  0
DIMSTYLE
105
21A
100
AcDbSymbolTableRecord
100
AcDbDimStyleTableRecord
  2
STANDARD
 70
0
  3

  4

 40
1.0
 41
0.1875
 42
0.0625
 43
0.38
 44
0.125
 45
0.0
 46
0.0
 47
0.0001
 48
0.0001
140
0.15625
141
0.09
142
0.0
143
25.4
144
1.0
145
0.0
146
1.0
147
0.09
 71
0.0
 72
0.0
 73
1
 74
1
 75
0
 76
0
 77
0
 78
4
 79
1
170
0
171
3
172
0
173
0
174
0
175
0
176
0
177
0
178
0
270
2
179
4
271
4
272
4
273
2
274
2
275
0
280
0
281
0
282
0
283
1
284
4
285
0
286
0
287
3
288
0
340
11
278
46
  0
ENDTAB
  0
ENDSEC
  0
SECTION
  2
BLOCKS
  0
BLOCK
  5
20
100
AcDbEntity
  8
0
100
AcDbBlockBegin
  2
*Model_Space
 70
0
 10
0.0
 20
0.0
 30
0.0
  3
*Model_Space
  1

  0
ENDBLK
  5
21
100
AcDbEntity
  8
0
100
AcDbBlockEnd
  0
BLOCK
  5
1C
100
AcDbEntity
  8
0
100
AcDbBlockBegin
  2
*Paper_Space
 70
0
 10
0.0
 20
0.0
 30
0.0
  3
*Paper_Space
  1

  0
ENDBLK
  5
1D
100
AcDbEntity
  8
0
100
AcDbBlockEnd
  0
ENDSEC
  0
SECTION
  2
ENTITIES
  0
MTEXT
  5
21B
100
AcDbEntity
  8
0
100
AcDbMText
 62
7
  6
CONTINUOUS
  7
STANDARD
 71
1
 72
1
 10
15.9560215477
 20
0.9479130325
 30
0.0
 11
1.0
 21
0.0
 31
0.0
 44
0.9
  1
SCALE: 1:1.000
 40
0.3
 41
3.36
  0
LINE
  5
21C
100
AcDbEntity
  8
0
100
AcDbLine
 62
7
  6
CONTINUOUS
 10
0.0
 20
0.0
 11
0.0
 21
17.0
  0
LINE
  5
21D
100
AcDbEntity
  8
0
100
AcDbLine
 62
7
  6
CONTINUOUS
 10
0.0
 20
0.0
 11
22.0
 21
0.0
  0
LINE
  5
21E
100
AcDbEntity
  8
0
100
AcDbLine
 62
7
  6
CONTINUOUS
 10
0.0
 20
17.0
 11
22.0
 21
17.0
  0
LINE
  5
21F
100
AcDbEntity
  8
0
100
AcDbLine
 62
7
  6
CONTINUOUS
 10
22.0
 20
0.0
 11
22.0
 21
17.0
  0
LINE
  5
220
100
AcDbEntity
  8
0
100
AcDbLine
 62
7
  6
CONTINUOUS
 10
5.1303672762
 20
5.6051198968
 11
5.1303672762
 21
5.4851198968
  0
LINE
  5
221
100
AcDbEntity
  8
0
100
AcDbLine
 62
7
  6
CONTINUOUS
 10
5.6303672762
 20
5.4851198968
 11
5.6303672762
 21
5.6451198968
  0
LINE
  5
222
100
AcDbEntity
  8
0
100
AcDbLine
 62
7
  6
CONTINUOUS
 10
5.3803672762
 20
5.2351198968
 11
6.8803672762
 21
5.2351198968
  0
LINE
  5
223
100
AcDbEntity
  8
0
100
AcDbLine
 62
7
  6
CONTINUOUS
 10
5.6303672762
 20
5.6451198968
 11
5.6453672762
 21
5.6301198968
  0
LINE
  5
224
100
AcDbEntity
  8
0
100
AcDbLine
 62
7
  6
CONTINUOUS
 10
6.7558682802
 20
5.6451198968
 11
6.7420536991
 21
5.6451198968
  0
LINE
  5
225
100
AcDbEntity
  8
0
100
AcDbLine
 62
7
  6
CONTINUOUS
 10
5.6256561989
 20
5.6451198968
 11
6.7418032116
 21
5.6451198968
  0
LINE
  5
226
100
AcDbEntity
  8
0
100
AcDbLine
 62
7
  6
CONTINUOUS
 10
7.0048662721
 20
5.6451198968
 11
7.0882439104
 21
5.6451198968
  0
LINE
  5
227
100
AcDbEntity
  8
0
100
AcDbLine
 62
7
  6
CONTINUOUS
 10
5.3303672762
 20
5.8051198968
 11
6.8742672762
 21
5.8051198968
  0
LINE
  5
228
100
AcDbEntity
  8
0
100
AcDbLine
 62
7
  6
CONTINUOUS
 10
6.6303672762
 20
5.6451198968
 11
6.6303672762
 21
5.4851198968
  0
LINE
  5
229
100
AcDbEntity
  8
0
100
AcDbLine
 62
7
  6
CONTINUOUS
 10
7.1303672762
 20
5.4851198968
 11
7.1303672762
 21
5.5490198968
  0
LINE
  5
22A
100
AcDbEntity
  8
0
100
AcDbLine
 62
7
  6
CONTINUOUS
 10
5.5087206096
 20
10.6000477814
 11
7.0287487181
 21
10.6000477814
  0
LINE
  5
22B
100
AcDbEntity
  8
0
100
AcDbLine
 62
7
  6
CONTINUOUS
 10
5.0708720839
 20
13.0850477814
 11
5.0708720839
 21
12.7350477814
  0
LINE
  5
22C
100
AcDbEntity
  8
0
100
AcDbLine
 62
7
  6
CONTINUOUS
 10
5.0708720839
 20
12.4650477814
 11
5.0708720839
 21
12.1150477814
  0
LINE
  5
22D
100
AcDbEntity
  8
0
100
AcDbLine
 62
7
  6
CONTINUOUS
 10
7.0558720839
 20
11.7800477814
 11
7.0437487181
 21
11.7800477814
  0
LINE
  5
22E
100
AcDbEntity
  8
0
100
AcDbLine
 62
7
  6
CONTINUOUS
 10
5.4937206096
 20
12.0700458328
 11
5.4937206096
 21
10.6150477814
  0
LINE
  5
22F
100
AcDbEntity
  8
0
100
AcDbLine
 62
7
  6
CONTINUOUS
 10
5.4937206096
 20
13.1300477814
 11
5.4937206096
 21
14.5850477814
  0
LWPOLYLINE
  5
230
100
AcDbEntity
  8
0
100
AcDbPolyline
 62
7
  6
CONTINUOUS
 90
9
 70
0
 10
5.4937206504
 20
13.13004786
 10
5.4933300987
 20
13.1263283066
 10
5.4899173639
 20
13.1186048073
 10
5.4837181922
 20
13.1120615954
 10
5.4757528107
 20
13.1070424507
 10
5.4664504735
 20
13.1034111657
 10
5.456192621
 20
13.1011249327
 10
5.4455549663
 20
13.100125451
 10
5.4414668405
 20
13.1000477864
  0
LINE
  5
231
100
AcDbEntity
  8
0
100
AcDbLine
 62
7
  6
CONTINUOUS
 10
5.5708720839
 20
12.6900477814
 11
5.5708720839
 21
12.5100477814
  0
LINE
  5
232
100
AcDbEntity
  8
0
100
AcDbLine
 62
7
  6
CONTINUOUS
 10
5.0858720839
 20
12.1000477814
 11
5.4414673316
 21
12.1000477814
  0
LINE
  5
233
100
AcDbEntity
  8
0
100
AcDbLine
 62
7
  6
CONTINUOUS
 10
6.5858720839
 20
12.1000477814
 11
7.0558720839
 21
12.1000477814
  0
LWPOLYLINE
  5
234
100
AcDbEntity
  8
0
100
AcDbPolyline
 62
7
  6
CONTINUOUS
 90
9
 70
0
 10
5.441465923
 20
12.1000477915
 10
5.444183622
 20
12.1000137324
 10
5.4549890787
 20
12.0991470039
 10
5.4654349848
 20
12.0969803036
 10
5.4749443816
 20
12.0934460546
 10
5.4831230663
 20
12.0885007291
 10
5.489568267
 20
12.0819848074
 10
5.4932290725
 20
12.0742205018
 10
5.4937209162
 20
12.0700458328
  0
LINE
  5
235
100
AcDbEntity
  8
0
100
AcDbLine
 62
7
  6
CONTINUOUS
 10
5.0858720839
 20
12.4800477814
 11
5.5408720839
 21
12.4800477814
  0
LINE
  5
236
100
AcDbEntity
  8
0
100
AcDbLine
 62
7
  6
CONTINUOUS
 10
6.5708720839
 20
12.4800477814
 11
7.0558720839
 21
12.4800477814
  0
LINE
  5
237
100
AcDbEntity
  8
0
100
AcDbLine
 62
7
  6
CONTINUOUS
 10
5.0858720839
 20
12.7200477814
 11
5.5408720839
 21
12.7200477814
  0
LINE
  5
238
100
AcDbEntity
  8
0
100
AcDbLine
 62
7
  6
CONTINUOUS
 10
6.5708720839
 20
12.7200477814
 11
7.0558720839
 21
12.7200477814
  0
LINE
  5
239
100
AcDbEntity
  8
0
100
AcDbLine
 62
7
  6
CONTINUOUS
 10
6.5708720839
 20
12.1110285435
 11
6.5708720839
 21
12.4950477814
  0
LINE
  5
23A
100
AcDbEntity
  8
0
100
AcDbLine
 62
7
  6
CONTINUOUS
 10
6.5708720839
 20
12.7050477814
 11
6.5708720839
 21
13.0890670193
  0
LINE
  5
23B
100
AcDbEntity
  8
0
100
AcDbLine
 62
7
  6
CONTINUOUS
 10
5.0858720839
 20
13.1000477814
 11
5.4414673316
 21
13.1000477814
  0
LINE
  5
23C
100
AcDbEntity
  8
0
100
AcDbLine
 62
7
  6
CONTINUOUS
 10
6.5858720839
 20
13.1000477814
 11
7.0558720839
 21
13.1000477814
  0
LINE
  5
23D
100
AcDbEntity
  8
0
100
AcDbLine
 62
7
  6
CONTINUOUS
 10
6.6958720839
 20
12.1000477814
 11
6.6958720839
 21
12.4800477814
  0
LINE
  5
23E
100
AcDbEntity
  8
0
100
AcDbLine
 62
7
  6
CONTINUOUS
 10
6.6958720839
 20
12.7200477814
 11
6.6958720839
 21
13.1000477814
  0
LINE
  5
23F
100
AcDbEntity
  8
0
100
AcDbLine
 62
7
  6
CONTINUOUS
 10
6.9458720839
 20
12.1000477814
 11
6.9458720839
 21
12.4800477814
  0
LINE
  5
240
100
AcDbEntity
  8
0
100
AcDbLine
 62
7
  6
CONTINUOUS
 10
6.9458720839
 20
12.7200477814
 11
6.9458720839
 21
13.1000477814
  0
LINE
  5
241
100
AcDbEntity
  8
0
100
AcDbLine
 62
7
  6
CONTINUOUS
 10
7.0467452626
 20
13.4200477814
 11
7.0558720839
 21
13.4200477814
  0
LINE
  5
242
100
AcDbEntity
  8
0
100
AcDbLine
 62
7
  6
CONTINUOUS
 10
7.0440507463
 20
13.429991251
 11
7.0437487091
 21
13.4350477284
  0
LINE
  5
243
100
AcDbEntity
  8
0
100
AcDbLine
 62
7
  6
CONTINUOUS
 10
7.0437487181
 20
10.6150477814
 11
7.0437487181
 21
11.7883196043
  0
LINE
  5
244
100
AcDbEntity
  8
0
100
AcDbLine
 62
7
  6
CONTINUOUS
 10
7.0437487181
 20
13.4350477814
 11
7.0437487181
 21
14.5850477814
  0
LINE
  5
245
100
AcDbEntity
  8
0
100
AcDbLine
 62
7
  6
CONTINUOUS
 10
7.0708720839
 20
11.7950477814
 11
7.0708720839
 21
12.0850477814
  0
LINE
  5
246
100
AcDbEntity
  8
0
100
AcDbLine
 62
7
  6
CONTINUOUS
 10
7.0708720839
 20
12.4950477814
 11
7.0708720839
 21
12.7050477814
  0
LINE
  5
247
100
AcDbEntity
  8
0
100
AcDbLine
 62
7
  6
CONTINUOUS
 10
7.0708720839
 20
13.1150477814
 11
7.0708720839
 21
13.4050477814
  0
LINE
  5
248
100
AcDbEntity
  8
0
100
AcDbLine
 62
7
  6
CONTINUOUS
 10
7.0452192682
 20
13.4241396435
 11
7.0440507463
 21
13.429991251
  0
LWPOLYLINE
  5
249
100
AcDbEntity
  8
0
100
AcDbPolyline
 62
7
  6
CONTINUOUS
 90
4
 70
0
 10
7.0480060242
 20
13.4179260769
 10
7.0478741016
 20
13.418090786
 10
7.0467596695
 20
13.4200091502
 10
7.0452192682
 20
13.4241396435
  0
LINE
  5
24A
100
AcDbEntity
  8
0
100
AcDbLine
 62
7
  6
CONTINUOUS
 10
5.5087206096
 20
14.6000477814
 11
7.0287487181
 21
14.6000477814
  0
LINE
  5
24B
100
AcDbEntity
  8
0
100
AcDbLine
 62
7
  6
CONTINUOUS
 10
13.5603552569
 20
5.6006247044
 11
13.5603552569
 21
5.7306247044
  0
LINE
  5
24C
100
AcDbEntity
  8
0
100
AcDbLine
 62
7
  6
CONTINUOUS
 10
14.7403552569
 20
5.1906247044
 11
14.7403552569
 21
5.5871036065
  0
LINE
  5
24D
100
AcDbEntity
  8
0
100
AcDbLine
 62
7
  6
CONTINUOUS
 10
15.0603552569
 20
5.1906350304
 11
15.0603552569
 21
5.7306247044
  0
LINE
  5
24E
100
AcDbEntity
  8
0
100
AcDbLine
 62
7
  6
CONTINUOUS
 10
15.1903552569
 20
5.3306247044
 11
15.1903552569
 21
5.1906247044
  0
LINE
  5
24F
100
AcDbEntity
  8
0
100
AcDbLine
 62
7
  6
CONTINUOUS
 10
16.3653552569
 20
5.1756247044
 11
16.0753552569
 21
5.1756247044
  0
LINE
  5
250
100
AcDbEntity
  8
0
100
AcDbLine
 62
7
  6
CONTINUOUS
 10
15.0453552569
 20
5.1756247044
 11
14.7553552569
 21
5.1756247044
  0
LINE
  5
251
100
AcDbEntity
  8
0
100
AcDbLine
 62
7
  6
CONTINUOUS
 10
15.0753552569
 20
5.1756247044
 11
16.0453552569
 21
5.1756247044
  0
LINE
  5
252
100
AcDbEntity
  8
0
100
AcDbLine
 62
7
  6
CONTINUOUS
 10
15.4403552569
 20
5.1906247044
 11
15.4403552569
 21
5.7306247044
  0
LINE
  5
253
100
AcDbEntity
  8
0
100
AcDbLine
 62
7
  6
CONTINUOUS
 10
15.0603552569
 20
5.3306247044
 11
15.4403552569
 21
5.3306247044
  0
LINE
  5
254
100
AcDbEntity
  8
0
100
AcDbLine
 62
7
  6
CONTINUOUS
 10
15.6803552569
 20
5.3306247044
 11
16.0603552569
 21
5.3306247044
  0
LINE
  5
255
100
AcDbEntity
  8
0
100
AcDbLine
 62
7
  6
CONTINUOUS
 10
15.6803552569
 20
5.1906247044
 11
15.6803552569
 21
5.7306247044
  0
LINE
  5
256
100
AcDbEntity
  8
0
100
AcDbLine
 62
7
  6
CONTINUOUS
 10
15.0603552569
 20
5.5806247044
 11
15.4403552569
 21
5.5806247044
  0
LINE
  5
257
100
AcDbEntity
  8
0
100
AcDbLine
 62
7
  6
CONTINUOUS
 10
15.6803552569
 20
5.5806247044
 11
16.0603552569
 21
5.5806247044
  0
LINE
  5
258
100
AcDbEntity
  8
0
100
AcDbLine
 62
7
  6
CONTINUOUS
 10
16.0603552569
 20
5.5856247044
 11
15.7195438686
 21
5.5856247044
  0
LINE
  5
259
100
AcDbEntity
  8
0
100
AcDbLine
 62
7
  6
CONTINUOUS
 10
15.4011666452
 20
5.5856247044
 11
15.0603552569
 21
5.5856247044
  0
LINE
  5
25A
100
AcDbEntity
  8
0
100
AcDbLine
 62
7
  6
CONTINUOUS
 10
13.5753552569
 20
5.5856247044
 11
14.7403552569
 21
5.5856247044
  0
LINE
  5
25B
100
AcDbEntity
  8
0
100
AcDbLine
 62
7
  6
CONTINUOUS
 10
16.3953552569
 20
5.5856247044
 11
17.5453552569
 21
5.5856247044
  0
LINE
  5
25C
100
AcDbEntity
  8
0
100
AcDbLine
 62
7
  6
CONTINUOUS
 10
13.5753552569
 20
5.7456247044
 11
17.5453552569
 21
5.7456247044
  0
LINE
  5
25D
100
AcDbEntity
  8
0
100
AcDbLine
 62
7
  6
CONTINUOUS
 10
15.9303552569
 20
5.1906247044
 11
15.9303552569
 21
5.3306247044
  0
LINE
  5
25E
100
AcDbEntity
  8
0
100
AcDbLine
 62
7
  6
CONTINUOUS
 10
16.0603552569
 20
5.1906247044
 11
16.0603552569
 21
5.7306247044
  0
LINE
  5
25F
100
AcDbEntity
  8
0
100
AcDbLine
 62
7
  6
CONTINUOUS
 10
16.3803552569
 20
5.1906350304
 11
16.3803552569
 21
5.5706247044
  0
LINE
  5
260
100
AcDbEntity
  8
0
100
AcDbLine
 62
7
  6
CONTINUOUS
 10
17.5603552569
 20
5.7306247044
 11
17.5603552569
 21
5.6006247044
  0
LINE
  5
261
100
AcDbEntity
  8
0
100
AcDbLine
 62
7
  6
CONTINUOUS
 10
14.3783105339
 20
10.9005430871
 11
15.393053761
 21
10.9005430871
  0
LINE
  5
262
100
AcDbEntity
  8
0
100
AcDbLine
 62
7
  6
CONTINUOUS
 10
15.6449277965
 20
10.9005430871
 11
15.7104578381
 21
10.9005430871
  0
LINE
  5
263
100
AcDbEntity
  8
0
100
AcDbLine
 62
7
  6
CONTINUOUS
 10
14.2873607671
 20
12.0497367626
 11
14.3239657911
 21
11.9751435664
  0
LINE
  5
264
100
AcDbEntity
  8
0
100
AcDbLine
 62
7
  6
CONTINUOUS
 10
14.280138857
 20
12.1153943776
 11
14.3648620701
 21
12.3895587959
  0
LINE
  5
265
100
AcDbEntity
  8
0
100
AcDbLine
 62
7
  6
CONTINUOUS
 10
14.4302199775
 20
12.6010570615
 11
14.5149431907
 21
12.8752214799
  0
LINE
  5
266
100
AcDbEntity
  8
0
100
AcDbLine
 62
7
  6
CONTINUOUS
 10
14.4740469116
 20
12.4608062504
 11
14.4374418876
 21
12.5353994466
  0
LINE
  5
267
100
AcDbEntity
  8
0
100
AcDbLine
 62
7
  6
CONTINUOUS
 10
14.6086389828
 20
12.140521747
 11
14.2564324823
 21
11.0007810935
  0
LINE
  5
268
100
AcDbEntity
  8
0
100
AcDbLine
 62
7
  6
CONTINUOUS
 10
14.8652261996
 20
12.9708382468
 11
15.2174357862
 21
14.1105889247
  0
LWPOLYLINE
  5
269
100
AcDbEntity
  8
0
100
AcDbPolyline
 62
7
  6
CONTINUOUS
 90
10
 70
0
 10
14.8652262501
 20
12.9708382907
 10
14.8640039332
 20
12.9681241267
 10
14.8598576925
 20
12.9629661348
 10
14.8535077712
 20
12.9579730662
 10
14.8457781972
 20
12.95378356
 10
14.8372688113
 20
12.9505548193
 10
14.8281633881
 20
12.948228714
 10
14.8187665781
 20
12.9467953608
 10
14.8093654572
 20
12.9461990694
 10
14.8067223166
 20
12.9461698528
  0
LINE
  5
26A
100
AcDbEntity
  8
0
100
AcDbLine
 62
7
  6
CONTINUOUS
 10
14.6009732388
 20
12.1511661375
 11
14.6009677732
 21
12.1511687802
  0
LWPOLYLINE
  5
26B
100
AcDbEntity
  8
0
100
AcDbPolyline
 62
7
  6
CONTINUOUS
 90
6
 70
0
 10
14.600973293
 20
12.1511665047
 10
14.6051101329
 20
12.1486871594
 10
14.6079441246
 20
12.1458501442
 10
14.6088916834
 20
12.1437630208
 10
14.6088904044
 20
12.1415363767
 10
14.6086384819
 20
12.1405192395
  0
LINE
  5
26C
100
AcDbEntity
  8
0
100
AcDbLine
 62
7
  6
CONTINUOUS
 10
14.8297813169
 20
12.626184431
 11
14.7862093787
 21
12.4851855873
  0
LINE
  5
26D
100
AcDbEntity
  8
0
100
AcDbLine
 62
7
  6
CONTINUOUS
 10
16.0935992023
 20
12.1183375902
 11
16.0991426321
 21
12.1183375902
  0
LINE
  5
26E
100
AcDbEntity
  8
0
100
AcDbLine
 62
7
  6
CONTINUOUS
 10
15.6187234979
 20
12.1628429401
 11
15.8295543594
 21
12.1628429401
  0
LINE
  5
26F
100
AcDbEntity
  8
0
100
AcDbLine
 62
7
  6
CONTINUOUS
 10
14.4995134937
 20
12.4605071658
 11
14.7481999621
 21
12.4605071658
  0
LINE
  5
270
100
AcDbEntity
  8
0
100
AcDbLine
 62
7
  6
CONTINUOUS
 10
15.7549887035
 20
12.6485056241
 11
15.9796354799
 21
12.6485056241
  0
LINE
  5
271
100
AcDbEntity
  8
0
100
AcDbLine
 62
7
  6
CONTINUOUS
 10
15.6066210225
 20
12.1775185197
 11
15.6995791476
 21
12.4783311226
  0
LINE
  5
272
100
AcDbEntity
  8
0
100
AcDbLine
 62
7
  6
CONTINUOUS
 10
15.7504130755
 20
12.6428297736
 11
15.8433712005
 21
12.9436423764
  0
LINE
  5
273
100
AcDbEntity
  8
0
100
AcDbLine
 62
7
  6
CONTINUOUS
 10
15.7935615501
 20
12.2676660291
 11
15.7005237807
 21
12.4572570694
  0
LINE
  5
274
100
AcDbEntity
  8
0
100
AcDbLine
 62
7
  6
CONTINUOUS
 10
15.8912049771
 20
12.8410364043
 11
15.831708466
 21
12.6485056241
  0
LINE
  5
275
100
AcDbEntity
  8
0
100
AcDbLine
 62
7
  6
CONTINUOUS
 10
15.7352686082
 20
12.3364261299
 11
15.6816273455
 21
12.1628429401
  0
LINE
  5
276
100
AcDbEntity
  8
0
100
AcDbLine
 62
7
  6
CONTINUOUS
 10
16.1386337339
 20
12.0045809174
 11
16.1581259092
 21
11.9648600404
  0
LINE
  5
277
100
AcDbEntity
  8
0
100
AcDbLine
 62
7
  6
CONTINUOUS
 10
15.8453731583
 20
12.1618254066
 11
15.8976686003
 21
12.3310535187
  0
LINE
  5
278
100
AcDbEntity
  8
0
100
AcDbLine
 62
7
  6
CONTINUOUS
 10
15.9954542789
 20
12.6474880906
 11
16.0477497208
 21
12.8167162026
  0
LINE
  5
279
100
AcDbEntity
  8
0
100
AcDbLine
 62
7
  6
CONTINUOUS
 10
14.8067232427
 20
12.9461698497
 11
14.6495946142
 21
12.9461698497
  0
LINE
  5
27A
100
AcDbEntity
  8
0
100
AcDbLine
 62
7
  6
CONTINUOUS
 10
15.9020277518
 20
12.851385057
 11
15.9476236055
 21
12.7584704761
  0
LINE
  5
27B
100
AcDbEntity
  8
0
100
AcDbLine
 62
7
  6
CONTINUOUS
 10
16.0800121388
 20
12.0743698366
 11
16.1365238113
 21
12.2572416758
  0
LINE
  5
27C
100
AcDbEntity
  8
0
100
AcDbLine
 62
7
  6
CONTINUOUS
 10
16.2300932593
 20
12.5600325205
 11
16.2866049318
 21
12.7429043598
  0
LINE
  5
27D
100
AcDbEntity
  8
0
100
AcDbLine
 62
7
  6
CONTINUOUS
 10
15.7247891508
 20
10.9111143765
 11
16.0074764938
 21
11.8258909537
  0
LINE
  5
27E
100
AcDbEntity
  8
0
100
AcDbLine
 62
7
  6
CONTINUOUS
 10
16.4074161828
 20
13.1200962617
 11
16.6857924547
 21
14.0209222077
  0
LINE
  5
27F
100
AcDbEntity
  8
0
100
AcDbLine
 62
7
  6
CONTINUOUS
 10
16.2887148544
 20
12.4902436014
 11
16.3082070297
 21
12.4505227244
  0
LINE
  5
280
100
AcDbEntity
  8
0
100
AcDbLine
 62
7
  6
CONTINUOUS
 10
16.4865933588
 20
12.9184315776
 11
16.416394125
 21
12.6912667738
  0
LINE
  5
281
100
AcDbEntity
  8
0
100
AcDbLine
 62
7
  6
CONTINUOUS
 10
16.3171469324
 20
12.3701027409
 11
16.2663130045
 21
12.2056040899
  0
LINE
  5
282
100
AcDbEntity
  8
0
100
AcDbLine
 62
7
  6
CONTINUOUS
 10
16.1670658119
 20
11.8844400569
 11
16.0968665781
 21
11.6572752531
  0
LINE
  5
283
100
AcDbEntity
  8
0
100
AcDbLine
 62
7
  6
CONTINUOUS
 10
16.4175153222
 20
13.0930897771
 11
16.4175172419
 21
13.093087896
  0
LWPOLYLINE
  5
284
100
AcDbEntity
  8
0
100
AcDbPolyline
 62
7
  6
CONTINUOUS
 90
7
 70
0
 10
16.4175403878
 20
13.0930652352
 10
16.414712134
 20
13.0963142898
 10
16.4114229082
 20
13.1014635191
 10
16.4088753137
 20
13.1071442214
 10
16.4073493774
 20
13.1127727198
 10
16.4070075577
 20
13.1175811672
 10
16.4074142047
 20
13.1200898804
  0
LINE
  5
285
100
AcDbEntity
  8
0
100
AcDbLine
 62
7
  6
CONTINUOUS
 10
16.4581612808
 20
13.0385724381
 11
16.4776534561
 21
12.9988515611
  0
LINE
  5
286
100
AcDbEntity
  8
0
100
AcDbLine
 62
7
  6
CONTINUOUS
 10
16.4347201679
 20
14.1211602142
 11
15.2317670988
 21
14.1211602142
  0
ARC
  5
287
100
AcDbEntity
  8
0
100
AcDbCircle
 62
7
  6
CONTINUOUS
 10
5.3388737957
 20
5.5741864714
 40
0.3
100
AcDbArc
 50
15.8312208051
 51
43.2751731783
  0
ARC
  5
288
100
AcDbEntity
  8
0
100
AcDbCircle
 62
7
  6
CONTINUOUS
 10
5.3803672762
 20
5.4851198968
 40
0.25
100
AcDbArc
 50
180.0
 51
360.0
  0
ARC
  5
289
100
AcDbEntity
  8
0
100
AcDbCircle
 62
7
  6
CONTINUOUS
 10
5.3303672762
 20
5.6051198968
 40
0.2
100
AcDbArc
 50
90.0
 51
180.0
  0
CIRCLE
  5
28A
100
AcDbEntity
  8
0
100
AcDbCircle
 62
7
  6
CONTINUOUS
 10
5.3803672762
 20
5.5151198968
 40
0.135
  0
CIRCLE
  5
28B
100
AcDbEntity
  8
0
100
AcDbCircle
 62
7
  6
CONTINUOUS
 10
5.3803672762
 20
5.5151198968
 40
0.125
  0
ARC
  5
28C
100
AcDbEntity
  8
0
100
AcDbCircle
 62
7
  6
CONTINUOUS
 10
5.641925683
 20
5.6601198968
 40
0.015
100
AcDbArc
 50
195.8312208051
 51
270.0
  0
ARC
  5
28D
100
AcDbEntity
  8
0
100
AcDbCircle
 62
7
  6
CONTINUOUS
 10
5.5682158019
 20
5.7901198968
 40
0.015
100
AcDbArc
 50
90.0
 51
223.2751731782
  0
ARC
  5
28E
100
AcDbEntity
  8
0
100
AcDbCircle
 62
7
  6
CONTINUOUS
 10
6.8742672762
 20
5.5490198968
 40
0.2561
100
AcDbArc
 50
0.0
 51
90.0
  0
ARC
  5
28F
100
AcDbEntity
  8
0
100
AcDbCircle
 62
7
  6
CONTINUOUS
 10
6.8803672762
 20
5.4851198968
 40
0.25
100
AcDbArc
 50
180.0
 51
360.0
  0
ARC
  5
290
100
AcDbEntity
  8
0
100
AcDbCircle
 62
7
  6
CONTINUOUS
 10
6.8803672762
 20
5.5151198968
 40
0.19
100
AcDbArc
 50
43.1735511073
 51
136.8264488927
  0
CIRCLE
  5
291
100
AcDbEntity
  8
0
100
AcDbCircle
 62
7
  6
CONTINUOUS
 10
6.8803672762
 20
5.5151198968
 40
0.135
  0
CIRCLE
  5
292
100
AcDbEntity
  8
0
100
AcDbCircle
 62
7
  6
CONTINUOUS
 10
6.8803672762
 20
5.5151198968
 40
0.125
  0
CIRCLE
  5
293
100
AcDbEntity
  8
0
100
AcDbCircle
 62
7
  6
CONTINUOUS
 10
6.8803672762
 20
5.5151198968
 40
0.115
  0
ARC
  5
294
100
AcDbEntity
  8
0
100
AcDbCircle
 62
7
  6
CONTINUOUS
 10
7.0882439104
 20
5.6601198968
 40
0.015
100
AcDbArc
 50
270.0
 51
27.4390419944
  0
ARC
  5
295
100
AcDbEntity
  8
0
100
AcDbCircle
 62
7
  6
CONTINUOUS
 10
5.5408720839
 20
12.6900477814
 40
0.03
100
AcDbArc
 50
0.0
 51
90.0
  0
ARC
  5
296
100
AcDbEntity
  8
0
100
AcDbCircle
 62
7
  6
CONTINUOUS
 10
5.5408720839
 20
12.5100477814
 40
0.03
100
AcDbArc
 50
270.0
 51
360.0
  0
ARC
  5
297
100
AcDbEntity
  8
0
100
AcDbCircle
 62
7
  6
CONTINUOUS
 10
7.0287487181
 20
10.6150477814
 40
0.015
100
AcDbArc
 50
270.0
 51
360.0
  0
ARC
  5
298
100
AcDbEntity
  8
0
100
AcDbCircle
 62
7
  6
CONTINUOUS
 10
5.5087206096
 20
14.5850477814
 40
0.015
100
AcDbArc
 50
90.0
 51
180.0
  0
ARC
  5
299
100
AcDbEntity
  8
0
100
AcDbCircle
 62
7
  6
CONTINUOUS
 10
7.0287487181
 20
14.5850477814
 40
0.015
100
AcDbArc
 50
0.0
 51
90.0
  0
ARC
  5
29A
100
AcDbEntity
  8
0
100
AcDbCircle
 62
7
  6
CONTINUOUS
 10
5.5087206096
 20
10.6150477814
 40
0.015
100
AcDbArc
 50
180.0
 51
270.0
  0
ARC
  5
29B
100
AcDbEntity
  8
0
100
AcDbCircle
 62
7
  6
CONTINUOUS
 10
6.5858720839
 20
13.0850477814
 40
0.015
100
AcDbArc
 50
90.0
 51
157.5
  0
ARC
  5
29C
100
AcDbEntity
  8
0
100
AcDbCircle
 62
7
  6
CONTINUOUS
 10
7.0558720839
 20
13.4050477814
 40
0.015
100
AcDbArc
 50
0.0
 51
90.0
  0
ARC
  5
29D
100
AcDbEntity
  8
0
100
AcDbCircle
 62
7
  6
CONTINUOUS
 10
7.0558720839
 20
13.1150477814
 40
0.015
100
AcDbArc
 50
270.0
 51
360.0
  0
ARC
  5
29E
100
AcDbEntity
  8
0
100
AcDbCircle
 62
7
  6
CONTINUOUS
 10
5.0858720839
 20
13.0850477814
 40
0.015
100
AcDbArc
 50
90.0
 51
180.0
  0
ARC
  5
29F
100
AcDbEntity
  8
0
100
AcDbCircle
 62
7
  6
CONTINUOUS
 10
7.0558720839
 20
12.7050477814
 40
0.015
100
AcDbArc
 50
0.0
 51
90.0
  0
ARC
  5
2A0
100
AcDbEntity
  8
0
100
AcDbCircle
 62
7
  6
CONTINUOUS
 10
5.0858720839
 20
12.7350477814
 40
0.015
100
AcDbArc
 50
180.0
 51
270.0
  0
ARC
  5
2A1
100
AcDbEntity
  8
0
100
AcDbCircle
 62
7
  6
CONTINUOUS
 10
5.0858720839
 20
12.4650477814
 40
0.015
100
AcDbArc
 50
90.0
 51
180.0
  0
ARC
  5
2A2
100
AcDbEntity
  8
0
100
AcDbCircle
 62
7
  6
CONTINUOUS
 10
5.0858720839
 20
12.1150477814
 40
0.015
100
AcDbArc
 50
180.0
 51
270.0
  0
ARC
  5
2A3
100
AcDbEntity
  8
0
100
AcDbCircle
 62
7
  6
CONTINUOUS
 10
7.0558720839
 20
12.0850477814
 40
0.015
100
AcDbArc
 50
0.0
 51
90.0
  0
ARC
  5
2A4
100
AcDbEntity
  8
0
100
AcDbCircle
 62
7
  6
CONTINUOUS
 10
7.0558720839
 20
12.4950477814
 40
0.015
100
AcDbArc
 50
270.0
 51
360.0
  0
ARC
  5
2A5
100
AcDbEntity
  8
0
100
AcDbCircle
 62
7
  6
CONTINUOUS
 10
6.5858720839
 20
12.1150477814
 40
0.015
100
AcDbArc
 50
195.1545550162
 51
270.0
  0
ARC
  5
2A6
100
AcDbEntity
  8
0
100
AcDbCircle
 62
7
  6
CONTINUOUS
 10
7.0558720839
 20
11.7950477814
 40
0.015
100
AcDbArc
 50
270.0
 51
360.0
  0
ARC
  5
2A7
100
AcDbEntity
  8
0
100
AcDbCircle
 62
7
  6
CONTINUOUS
 10
16.0753552569
 20
5.1906247044
 40
0.015
100
AcDbArc
 50
180.0
 51
270.0
  0
ARC
  5
2A8
100
AcDbEntity
  8
0
100
AcDbCircle
 62
7
  6
CONTINUOUS
 10
16.3653552569
 20
5.1906247044
 40
0.015
100
AcDbArc
 50
270.0
 51
360.0
  0
ARC
  5
2A9
100
AcDbEntity
  8
0
100
AcDbCircle
 62
7
  6
CONTINUOUS
 10
16.0453552569
 20
5.1906247044
 40
0.015
100
AcDbArc
 50
270.0
 51
360.0
  0
ARC
  5
2AA
100
AcDbEntity
  8
0
100
AcDbCircle
 62
7
  6
CONTINUOUS
 10
14.7553552569
 20
5.1906247044
 40
0.015
100
AcDbArc
 50
180.0
 51
270.0
  0
ARC
  5
2AB
100
AcDbEntity
  8
0
100
AcDbCircle
 62
7
  6
CONTINUOUS
 10
15.0453552569
 20
5.1906247044
 40
0.015
100
AcDbArc
 50
270.0
 51
360.0
  0
ARC
  5
2AC
100
AcDbEntity
  8
0
100
AcDbCircle
 62
7
  6
CONTINUOUS
 10
15.0753552569
 20
5.1906247044
 40
0.015
100
AcDbArc
 50
180.0
 51
270.0
  0
ARC
  5
2AD
100
AcDbEntity
  8
0
100
AcDbCircle
 62
7
  6
CONTINUOUS
 10
13.5753552569
 20
5.6006247044
 40
0.015
100
AcDbArc
 50
180.0
 51
270.0
  0
ARC
  5
2AE
100
AcDbEntity
  8
0
100
AcDbCircle
 62
7
  6
CONTINUOUS
 10
15.9153552569
 20
5.1906247044
 40
0.015
100
AcDbArc
 50
270.0
 51
360.0
  0
ARC
  5
2AF
100
AcDbEntity
  8
0
100
AcDbCircle
 62
7
  6
CONTINUOUS
 10
13.5753552569
 20
5.7306247044
 40
0.015
100
AcDbArc
 50
90.0
 51
180.0
  0
ARC
  5
2B0
100
AcDbEntity
  8
0
100
AcDbCircle
 62
7
  6
CONTINUOUS
 10
15.0453552569
 20
5.7306247044
 40
0.015
100
AcDbArc
 50
0.0
 51
90.0
  0
ARC
  5
2B1
100
AcDbEntity
  8
0
100
AcDbCircle
 62
7
  6
CONTINUOUS
 10
17.5453552569
 20
5.7306247044
 40
0.015
100
AcDbArc
 50
0.0
 51
90.0
  0
ARC
  5
2B2
100
AcDbEntity
  8
0
100
AcDbCircle
 62
7
  6
CONTINUOUS
 10
17.5453552569
 20
5.6006247044
 40
0.015
100
AcDbArc
 50
270.0
 51
360.0
  0
ARC
  5
2B3
100
AcDbEntity
  8
0
100
AcDbCircle
 62
7
  6
CONTINUOUS
 10
15.4553552569
 20
5.7306247044
 40
0.015
100
AcDbArc
 50
90.0
 51
180.0
  0
ARC
  5
2B4
100
AcDbEntity
  8
0
100
AcDbCircle
 62
7
  6
CONTINUOUS
 10
15.4553552569
 20
5.1906247044
 40
0.015
100
AcDbArc
 50
180.0
 51
270.0
  0
ARC
  5
2B5
100
AcDbEntity
  8
0
100
AcDbCircle
 62
7
  6
CONTINUOUS
 10
15.2053552569
 20
5.1906247044
 40
0.015
100
AcDbArc
 50
180.0
 51
270.0
  0
ARC
  5
2B6
100
AcDbEntity
  8
0
100
AcDbCircle
 62
7
  6
CONTINUOUS
 10
15.1753552569
 20
5.5706247044
 40
0.015
100
AcDbArc
 50
42.1953233946
 51
90.0
  0
ARC
  5
2B7
100
AcDbEntity
  8
0
100
AcDbCircle
 62
7
  6
CONTINUOUS
 10
16.0753552569
 20
5.7306247044
 40
0.015
100
AcDbArc
 50
90.0
 51
180.0
  0
ARC
  5
2B8
100
AcDbEntity
  8
0
100
AcDbCircle
 62
7
  6
CONTINUOUS
 10
16.3953552569
 20
5.5706247044
 40
0.015
100
AcDbArc
 50
90.0
 51
180.0
  0
ARC
  5
2B9
100
AcDbEntity
  8
0
100
AcDbCircle
 62
7
  6
CONTINUOUS
 10
15.6653552569
 20
5.1906247044
 40
0.015
100
AcDbArc
 50
270.0
 51
360.0
  0
ARC
  5
2BA
100
AcDbEntity
  8
0
100
AcDbCircle
 62
7
  6
CONTINUOUS
 10
15.6653552569
 20
5.7306247044
 40
0.015
100
AcDbArc
 50
0.0
 51
90.0
  0
ARC
  5
2BB
100
AcDbEntity
  8
0
100
AcDbCircle
 62
7
  6
CONTINUOUS
 10
15.9453552569
 20
5.5706247044
 40
0.015
100
AcDbArc
 50
90.0
 51
137.8046766054
  0
ARC
  5
2BC
100
AcDbEntity
  8
0
100
AcDbCircle
 62
7
  6
CONTINUOUS
 10
14.0398923753
 20
10.5609659421
 40
0.4778112877
100
AcDbArc
 50
61.8023856733
 51
62.0644342432
  0
ARC
  5
2BD
100
AcDbEntity
  8
0
100
AcDbCircle
 62
7
  6
CONTINUOUS
 10
16.2492676714
 20
12.9453799324
 40
0.3413798692
100
AcDbArc
 50
269.0935488697
 51
269.3521796676
  0
ARC
  5
2BE
100
AcDbEntity
  8
0
100
AcDbCircle
 62
7
  6
CONTINUOUS
 10
16.2492391138
 20
12.9428140429
 40
0.3388138209
100
AcDbArc
 50
269.3521027142
 51
269.6701362246
  0
ARC
  5
2BF
100
AcDbEntity
  8
0
100
AcDbCircle
 62
7
  6
CONTINUOUS
 10
15.5033482996
 20
10.6217863957
 40
0.312451242
100
AcDbArc
 50
63.2235513611
 51
63.7560386641
  0
ARC
  5
2C0
100
AcDbEntity
  8
0
100
AcDbCircle
 62
7
  6
CONTINUOUS
 10
14.6495897533
 20
12.6831903121
 40
0.2629795377
100
AcDbArc
 50
89.9989409478
 51
91.122013583
  0
ARC
  5
2C1
100
AcDbEntity
  8
0
100
AcDbCircle
 62
7
  6
CONTINUOUS
 10
16.2391152039
 20
12.9110769081
 40
0.254863271
100
AcDbArc
 50
44.1505669423
 51
45.5736879438
  0
ARC
  5
2C2
100
AcDbEntity
  8
0
100
AcDbCircle
 62
7
  6
CONTINUOUS
 10
16.0895597201
 20
12.8282390066
 40
0.1581565948
100
AcDbArc
 50
206.1763699306
 51
209.5440692625
  0
ARC
  5
2C3
100
AcDbEntity
  8
0
100
AcDbCircle
 62
7
  6
CONTINUOUS
 10
14.4659019057
 20
12.044912097
 40
0.1581565948
100
AcDbArc
 50
206.1763699306
 51
209.5440692625
  0
ARC
  5
2C4
100
AcDbEntity
  8
0
100
AcDbCircle
 62
7
  6
CONTINUOUS
 10
14.6107642847
 20
12.52790593
 40
0.1522957882
100
AcDbArc
 50
206.1413966965
 51
207.0833063565
  0
ARC
  5
2C5
100
AcDbEntity
  8
0
100
AcDbCircle
 62
7
  6
CONTINUOUS
 10
16.3463336979
 20
12.9343587633
 40
0.1463017426
100
AcDbArc
 50
23.6060403528
 51
26.1562398565
  0
ARC
  5
2C6
100
AcDbEntity
  8
0
100
AcDbCircle
 62
7
  6
CONTINUOUS
 10
16.1768872715
 20
12.3860299265
 40
0.1463017426
100
AcDbArc
 50
23.6060403528
 51
26.1562398566
  0
ARC
  5
2C7
100
AcDbEntity
  8
0
100
AcDbCircle
 62
7
  6
CONTINUOUS
 10
16.026806151
 20
11.9003672426
 40
0.1463017426
100
AcDbArc
 50
23.6060403527
 51
26.1562398566
  0
ARC
  5
2C8
100
AcDbEntity
  8
0
100
AcDbCircle
 62
7
  6
CONTINUOUS
 10
16.0338088357
 20
12.227880153
 40
0.1207435481
100
AcDbArc
 50
39.6685320661
 51
42.4345894691
  0
ARC
  5
2C9
100
AcDbEntity
  8
0
100
AcDbCircle
 62
7
  6
CONTINUOUS
 10
16.1838899562
 20
12.713542837
 40
0.1207435481
100
AcDbArc
 50
39.6685320661
 51
42.434589469
  0
ARC
  5
2CA
100
AcDbEntity
  8
0
100
AcDbCircle
 62
7
  6
CONTINUOUS
 10
15.9219269576
 20
11.7111095984
 40
0.0543137716
100
AcDbArc
 50
7.0972510231
 51
10.0383454925
  0
ARC
  5
2CB
100
AcDbEntity
  8
0
100
AcDbCircle
 62
7
  6
CONTINUOUS
 10
16.671380344
 20
14.0252809451
 40
0.0151050504
100
AcDbArc
 50
30.2976398082
 51
51.4891401644
  0
ARC
  5
2CC
100
AcDbEntity
  8
0
100
AcDbCircle
 62
7
  6
CONTINUOUS
 10
15.7103880416
 20
10.9155784026
 40
0.0150771176
100
AcDbArc
 50
323.5453535647
 51
342.7777169511
  0
ARC
  5
2CD
100
AcDbEntity
  8
0
100
AcDbCircle
 62
7
  6
CONTINUOUS
 10
14.3783184508
 20
10.9156027043
 40
0.0150596193
100
AcDbArc
 50
254.9014731838
 51
269.9698795464
  0
ARC
  5
2CE
100
AcDbEntity
  8
0
100
AcDbCircle
 62
7
  6
CONTINUOUS
 10
16.6714531131
 20
14.0253518252
 40
0.0150070615
100
AcDbArc
 50
342.8333707375
 51
30.204144688
  0
ARC
  5
2CF
100
AcDbEntity
  8
0
100
AcDbCircle
 62
7
  6
CONTINUOUS
 10
14.37831191
 20
10.9155453415
 40
0.0150025354
100
AcDbArc
 50
222.3328879008
 51
254.8685266453
  0
ARC
  5
2D0
100
AcDbEntity
  8
0
100
AcDbCircle
 62
7
  6
CONTINUOUS
 10
14.270764292
 20
10.9963525346
 40
0.0150003985
100
AcDbArc
 50
162.828742679
 51
242.0629446412
  0
ARC
  5
2D1
100
AcDbEntity
  8
0
100
AcDbCircle
 62
7
  6
CONTINUOUS
 10
15.2317671571
 20
14.1061602224
 40
0.0149999919
100
AcDbArc
 50
90.0002226206
 51
162.8277243773
  0
ARC
  5
2D2
100
AcDbEntity
  8
0
100
AcDbCircle
 62
7
  6
CONTINUOUS
 10
15.7104579078
 20
10.9155429873
 40
0.0149998846
100
AcDbArc
 50
270.0194597491
 51
323.4955897663
  0
SPLINE
  5
2D3
100
AcDbEntity
  8
0
100
AcDbSpline
 62
7
  6
CONTINUOUS
 70
0
 71
3
 72
14
 73
10
 74
0
 42
0.0000001
 43
0.0000001
 44
0.0000000001
 40
0.0
 40
0.0
 40
0.0
 40
0.0
 40
0.3184659511
 40
0.4683231831
 40
0.6070691621
 40
0.7312530304
 40
0.7870120295
 40
0.8382390386
 40
1.0
 40
1.0
 40
1.0
 40
1.0
 10
7.0181170493
 20
5.6601198968
 30
0.0
 10
7.0179159721
 20
5.6586062695
 30
0.0
 10
7.0176060095
 20
5.6563821629
 30
0.0
 10
7.0172739419
 20
5.6534903543
 30
0.0
 10
7.0171115644
 20
5.6515170277
 30
0.0
 10
7.0170697928
 20
5.6499891836
 30
0.0
 10
7.0171233157
 20
5.6488791158
 30
0.0
 10
7.0172673657
 20
5.6476085465
 30
0.0
 10
7.0175838652
 20
5.6465436997
 30
0.0
 10
7.0181180292
 20
5.6459813848
 30
0.0
  0
SPLINE
  5
2D4
100
AcDbEntity
  8
0
100
AcDbSpline
 62
7
  6
CONTINUOUS
 70
0
 71
3
 72
11
 73
7
 74
0
 42
0.0000001
 43
0.0000001
 44
0.0000000001
 40
0.0
 40
0.0
 40
0.0
 40
0.0
 40
0.2114625907
 40
0.4439560845
 40
0.7056692256
 40
1.0
 40
1.0
 40
1.0
 40
1.0
 10
6.7426131241
 20
5.6459778105
 30
0.0
 10
6.7427636863
 20
5.6461363074
 30
0.0
 10
6.7430337027
 20
5.6465143813
 30
0.0
 10
6.7433177187
 20
5.6471907535
 30
0.0
 10
6.7435077394
 20
5.6479861022
 30
0.0
 10
6.7435765918
 20
5.6485577744
 30
0.0
 10
6.7436014645
 20
5.648861035
 30
0.0
  0
SPLINE
  5
2D5
100
AcDbEntity
  8
0
100
AcDbSpline
 62
7
  6
CONTINUOUS
 70
0
 71
3
 72
12
 73
8
 74
0
 42
0.0000001
 43
0.0000001
 44
0.0000000001
 40
0.0
 40
0.0
 40
0.0
 40
0.0
 40
0.0988554258
 40
0.2078489677
 40
0.4514087391
 40
0.7195350946
 40
1.0
 40
1.0
 40
1.0
 40
1.0
 10
6.7436014645
 20
5.648861035
 30
0.0
 10
6.7436319523
 20
5.649232757
 30
0.0
 10
6.743659598
 20
5.6500173618
 30
0.0
 10
6.7436160574
 20
5.6517204922
 30
0.0
 10
6.7434086416
 20
5.6540547635
 30
0.0
 10
6.7430376985
 20
5.657020264
 30
0.0
 10
6.7427568499
 20
5.6590709502
 30
0.0
 10
6.742617503
 20
5.6601198968
 30
0.0
  0
SPLINE
  5
2D6
100
AcDbEntity
  8
0
100
AcDbSpline
 62
7
  6
CONTINUOUS
 70
0
 71
3
 72
11
 73
7
 74
0
 42
0.0000001
 43
0.0000001
 44
0.0000000001
 40
0.0
 40
0.0
 40
0.0
 40
0.0
 40
0.2167597078
 40
0.4631780955
 40
0.7275903451
 40
1.0
 40
1.0
 40
1.0
 40
1.0
 10
5.6256561989
 20
5.6451198968
 30
0.0
 10
5.6248721522
 20
5.6451198968
 30
0.0
 10
5.6231978258
 20
5.645356353
 30
0.0
 10
5.6206786074
 20
5.6461318166
 30
0.0
 10
5.6180541306
 20
5.6472037245
 30
0.0
 10
5.6162782413
 20
5.6479887414
 30
0.0
 10
5.6153672762
 20
5.6483642895
 30
0.0
  0
SPLINE
  5
2D7
100
AcDbEntity
  8
0
100
AcDbSpline
 62
7
  6
CONTINUOUS
 70
0
 71
3
 72
9
 73
5
 74
0
 42
0.0000001
 43
0.0000001
 44
0.0000000001
 40
0.0
 40
0.0
 40
0.0
 40
0.0
 40
0.4998710506
 40
1.0
 40
1.0
 40
1.0
 40
1.0
 10
5.6153672762
 20
5.6483642895
 30
0.0
 10
5.6117185676
 20
5.6498684808
 30
0.0
 10
5.6047326251
 20
5.6536235046
 30
0.0
 10
5.5981380475
 20
5.6579582559
 30
0.0
 10
5.5948336488
 20
5.6601198968
 30
0.0
  0
SPLINE
  5
2D8
100
AcDbEntity
  8
0
100
AcDbSpline
 62
7
  6
CONTINUOUS
 70
0
 71
3
 72
22
 73
18
 74
0
 42
0.0000001
 43
0.0000001
 44
0.0000000001
 40
0.0
 40
0.0
 40
0.0
 40
0.0
 40
0.0223419943
 40
0.0479129797
 40
0.0756647955
 40
0.1047384366
 40
0.1346575881
 40
0.1651969596
 40
0.2273855752
 40
0.2903826422
 40
0.3539178126
 40
0.4178480451
 40
0.482066365
 40
0.6110695317
 40
0.7405228207
 40
0.870209148
 40
1.0
 40
1.0
 40
1.0
 40
1.0
 10
6.8199795991
 20
5.2385183721
 30
0.0
 10
6.8199415588
 20
5.2387218356
 30
0.0
 10
6.8197369562
 20
5.2391322837
 30
0.0
 10
6.8192648805
 20
5.2396529884
 30
0.0
 10
6.818677156
 20
5.2401430552
 30
0.0
 10
6.8180202539
 20
5.2406066299
 30
0.0
 10
6.817316871
 20
5.241047064
 30
0.0
 10
6.8163245926
 20
5.2416014037
 30
0.0
 10
6.8150310101
 20
5.2422413264
 30
0.0
 10
6.8134508579
 20
5.242989609
 30
0.0
 10
6.8118426248
 20
5.2437160327
 30
0.0
 10
6.8102119338
 20
5.2444194502
 30
0.0
 10
6.8080099069
 20
5.245329025
 30
0.0
 10
6.8052237428
 20
5.2464133467
 30
0.0
 10
6.8018508715
 20
5.2476604727
 30
0.0
 10
6.7984595564
 20
5.2488781427
 30
0.0
 10
6.7962039747
 20
5.2497096493
 30
0.0
 10
6.7950736656
 20
5.2501198968
 30
0.0
  0
SPLINE
  5
2D9
100
AcDbEntity
  8
0
100
AcDbSpline
 62
7
  6
CONTINUOUS
 70
0
 71
3
 72
15
 73
11
 74
0
 42
0.0000001
 43
0.0000001
 44
0.0000000001
 40
0.0
 40
0.0
 40
0.0
 40
0.0
 40
0.0535585964
 40
0.1203169752
 40
0.2074689327
 40
0.3179058244
 40
0.4526148271
 40
0.611630391
 40
0.7944703939
 40
1.0
 40
1.0
 40
1.0
 40
1.0
 10
6.8214419934
 20
5.2351198968
 30
0.0
 10
6.8213733884
 20
5.2351198968
 30
0.0
 10
6.8212188962
 20
5.2351689758
 30
0.0
 10
6.8210206174
 20
5.2353523053
 30
0.0
 10
6.8208303683
 20
5.2356342554
 30
0.0
 10
6.820645248
 20
5.2360186575
 30
0.0
 10
6.8204652433
 20
5.2365045682
 30
0.0
 10
6.8202918531
 20
5.2370902366
 30
0.0
 10
6.8201267359
 20
5.2377718971
 30
0.0
 10
6.8200280853
 20
5.2382596055
 30
0.0
 10
6.8199795991
 20
5.2385183721
 30
0.0
  0
SPLINE
  5
2DA
100
AcDbEntity
  8
0
100
AcDbSpline
 62
7
  6
CONTINUOUS
 70
0
 71
3
 72
13
 73
9
 74
0
 42
0.0000001
 43
0.0000001
 44
0.0000000001
 40
0.0
 40
0.0
 40
0.0
 40
0.0
 40
0.1250006307
 40
0.2500333968
 40
0.3750702249
 40
0.5001171068
 40
0.7500089298
 40
1.0
 40
1.0
 40
1.0
 40
1.0
 10
6.5708720839
 20
13.0890670193
 30
0.0
 10
6.5708720839
 20
13.0903511676
 30
0.0
 10
6.571121057
 20
13.0929248635
 30
0.0
 10
6.5721431558
 20
13.0966556952
 30
0.0
 10
6.5737009038
 20
13.1001935533
 30
0.0
 10
6.5763383516
 20
13.1046132497
 30
0.0
 10
6.5804247408
 20
13.1096013653
 30
0.0
 10
6.5840560979
 20
13.1132317955
 30
0.0
 10
6.5858720839
 20
13.1150477814
 30
0.0
  0
SPLINE
  5
2DB
100
AcDbEntity
  8
0
100
AcDbSpline
 62
7
  6
CONTINUOUS
 70
0
 71
3
 72
13
 73
9
 74
0
 42
0.0000001
 43
0.0000001
 44
0.0000000001
 40
0.0
 40
0.0
 40
0.0
 40
0.0
 40
0.2499910702
 40
0.4998828932
 40
0.6249297751
 40
0.7499666032
 40
0.8749993693
 40
1.0
 40
1.0
 40
1.0
 40
1.0
 10
6.5858720839
 20
12.0850477814
 30
0.0
 10
6.5840560979
 20
12.0868637673
 30
0.0
 10
6.5804247408
 20
12.0904941975
 30
0.0
 10
6.5763383516
 20
12.0954823131
 30
0.0
 10
6.5737009038
 20
12.0999020095
 30
0.0
 10
6.5721431558
 20
12.1034398676
 30
0.0
 10
6.571121057
 20
12.1071706993
 30
0.0
 10
6.5708720839
 20
12.1097443952
 30
0.0
 10
6.5708720839
 20
12.1110285435
 30
0.0
  0
SPLINE
  5
2DC
100
AcDbEntity
  8
0
100
AcDbSpline
 62
7
  6
CONTINUOUS
 70
0
 71
3
 72
9
 73
5
 74
0
 42
0.0000001
 43
0.0000001
 44
0.0000000001
 40
0.0
 40
0.0
 40
0.0
 40
0.0
 40
0.2664751027
 40
1.0
 40
1.0
 40
1.0
 40
1.0
 10
7.042061242
 20
11.7950477814
 30
0.0
 10
7.042326687
 20
11.7944888589
 30
0.0
 10
7.0432316093
 20
11.7923534306
 30
0.0
 10
7.0437486903
 20
11.790022837
 30
0.0
 10
7.0437487181
 20
11.7883195978
 30
0.0
  0
SPLINE
  5
2DD
100
AcDbEntity
  8
0
100
AcDbSpline
 62
7
  6
CONTINUOUS
 70
0
 71
3
 72
13
 73
9
 74
0
 42
0.0000001
 43
0.0000001
 44
0.0000000001
 40
0.0
 40
0.0
 40
0.0
 40
0.0
 40
0.2500088341
 40
0.4999864898
 40
0.6250007362
 40
0.7500139058
 40
0.8750195032
 40
1.0
 40
1.0
 40
1.0
 40
1.0
 10
15.4011666452
 20
5.5856247044
 30
0.0
 10
15.4038791528
 20
5.5856247044
 30
0.0
 10
15.4093039396
 20
5.5855763976
 30
0.0
 10
15.4160802514
 20
5.5851651264
 30
0.0
 10
15.4214575418
 20
5.584425818
 30
0.0
 10
15.4254456492
 20
5.5835966733
 30
0.0
 10
15.4293435718
 20
5.5824090717
 30
0.0
 10
15.4318326525
 20
5.5813019602
 30
0.0
 10
15.4330197199
 20
5.5806465278
 30
0.0
  0
SPLINE
  5
2DE
100
AcDbEntity
  8
0
100
AcDbSpline
 62
7
  6
CONTINUOUS
 70
0
 71
3
 72
13
 73
9
 74
0
 42
0.0000001
 43
0.0000001
 44
0.0000000001
 40
0.0
 40
0.0
 40
0.0
 40
0.0
 40
0.1249799417
 40
0.2499846497
 40
0.3749969903
 40
0.5000111709
 40
0.7499897555
 40
1.0
 40
1.0
 40
1.0
 40
1.0
 10
15.6876759574
 20
5.5806383132
 30
0.0
 10
15.688863181
 20
5.5812949079
 30
0.0
 10
15.6913529396
 20
5.5824040359
 30
0.0
 10
15.6952524736
 20
5.5835936065
 30
0.0
 10
15.6992424573
 20
5.584424084
 30
0.0
 10
15.7046224495
 20
5.5851645175
 30
0.0
 10
15.7114023039
 20
5.5855763463
 30
0.0
 10
15.7168299357
 20
5.5856247044
 30
0.0
 10
15.7195438686
 20
5.5856247044
 30
0.0
  0
SPLINE
  5
2DF
100
AcDbEntity
  8
0
100
AcDbSpline
 62
7
  6
CONTINUOUS
 70
0
 71
3
 72
15
 73
11
 74
0
 42
0.0000001
 43
0.0000001
 44
0.0000000001
 40
0.0
 40
0.0
 40
0.0
 40
0.0
 40
0.2968946113
 40
0.4413819147
 40
0.580140788
 40
0.7098195155
 40
0.8260912808
 40
0.9240497731
 40
0.9648994989
 40
1.0
 40
1.0
 40
1.0
 40
1.0
 10
14.7486270734
 20
5.6006249175
 30
0.0
 10
14.7475853778
 20
5.5994272865
 30
0.0
 10
14.7460850482
 20
5.5976033076
 30
0.0
 10
14.7442402944
 20
5.5951092167
 30
0.0
 10
14.7430012472
 20
5.5932812753
 30
0.0
 10
14.7419361799
 20
5.5915200162
 30
0.0
 10
14.741098256
 20
5.5898820301
 30
0.0
 10
14.7406033187
 20
5.5886050307
 30
0.0
 10
14.7403951878
 20
5.5876973518
 30
0.0
 10
14.7403552569
 20
5.5872912631
 30
0.0
 10
14.7403552569
 20
5.5871036065
 30
0.0
  0
SPLINE
  5
2E0
100
AcDbEntity
  8
0
100
AcDbSpline
 62
7
  6
CONTINUOUS
 70
0
 71
3
 72
9
 73
5
 74
0
 42
0.0000001
 43
0.0000001
 44
0.0000000001
 40
0.0
 40
0.0
 40
0.0
 40
0.0
 40
0.4926861956
 40
1.0
 40
1.0
 40
1.0
 40
1.0
 10
14.7553552569
 20
5.6075367741
 30
0.0
 10
14.7541859031
 20
5.6064671744
 30
0.0
 10
14.75187893
 20
5.6042229078
 30
0.0
 10
14.7496979883
 20
5.6018561418
 30
0.0
 10
14.7486270734
 20
5.6006249175
 30
0.0
  0
SPLINE
  5
2E1
100
AcDbEntity
  8
0
100
AcDbSpline
 62
7
  6
CONTINUOUS
 70
0
 71
3
 72
15
 73
11
 74
0
 42
0.0000001
 43
0.0000001
 44
0.0000000001
 40
0.0
 40
0.0
 40
0.0
 40
0.0
 40
0.1182078307
 40
0.241151412
 40
0.3674330834
 40
0.4957615493
 40
0.6246536313
 40
0.7525993712
 40
0.8782241882
 40
1.0
 40
1.0
 40
1.0
 40
1.0
 10
16.6807856994
 20
14.0371004983
 30
0.0
 10
16.6726218896
 20
14.0435793608
 30
0.0
 10
16.6552912408
 20
14.0559613225
 30
0.0
 10
16.6273270728
 20
14.0723909883
 30
0.0
 10
16.597284065
 20
14.0868148923
 30
0.0
 10
16.5657009009
 20
14.0989870251
 30
0.0
 10
16.5331271958
 20
14.1087099353
 30
0.0
 10
16.5001239234
 20
14.1158051354
 30
0.0
 10
16.4672797937
 20
14.1201387766
 30
0.0
 10
16.4454570104
 20
14.1211602142
 30
0.0
 10
16.4347201679
 20
14.1211602142
 30
0.0
  0
SPLINE
  5
2E2
100
AcDbEntity
  8
0
100
AcDbSpline
 62
7
  6
CONTINUOUS
 70
0
 71
3
 72
17
 73
13
 74
0
 42
0.0000001
 43
0.0000001
 44
0.0000000001
 40
0.0
 40
0.0
 40
0.0
 40
0.0
 40
0.0529885582
 40
0.1061418718
 40
0.1598304878
 40
0.2143867287
 40
0.3270797768
 40
0.4460503191
 40
0.5725728884
 40
0.7072389866
 40
0.8499451361
 40
1.0
 40
1.0
 40
1.0
 40
1.0
 10
16.416394125
 20
12.6912667738
 30
0.0
 10
16.4153340261
 20
12.6878362926
 30
0.0
 10
16.4128030667
 20
12.6810832662
 30
0.0
 10
16.4078441551
 20
12.6714299654
 30
0.0
 10
16.4017709691
 20
12.6623066446
 30
0.0
 10
16.3921532726
 20
12.6508011655
 30
0.0
 10
16.3774620337
 20
12.6379357458
 30
0.0
 10
16.3565449206
 20
12.6254152824
 30
0.0
 10
16.3325981638
 20
12.6156883543
 30
0.0
 10
16.3060457261
 20
12.6087808621
 30
0.0
 10
16.2773143105
 20
12.6047254426
 30
0.0
 10
16.2574561652
 20
12.6039473385
 30
0.0
 10
16.2472885026
 20
12.6040058371
 30
0.0
  0
SPLINE
  5
2E3
100
AcDbEntity
  8
0
100
AcDbSpline
 62
7
  6
CONTINUOUS
 70
0
 71
3
 72
11
 73
7
 74
0
 42
0.0000001
 43
0.0000001
 44
0.0000000001
 40
0.0
 40
0.0
 40
0.0
 40
0.0
 40
0.266860298
 40
0.5226666478
 40
0.7671327824
 40
1.0
 40
1.0
 40
1.0
 40
1.0
 10
16.007443289
 20
12.6873790825
 30
0.0
 10
16.0016023264
 20
12.6920831649
 30
0.0
 10
15.990503022
 20
12.7017319119
 30
0.0
 10
15.9754544047
 20
12.7172083509
 30
0.0
 10
15.9625054963
 20
12.7332741568
 30
0.0
 10
15.9551929236
 20
12.7445589854
 30
0.0
 10
15.9519671694
 20
12.7502531203
 30
0.0
  0
SPLINE
  5
2E4
100
AcDbEntity
  8
0
100
AcDbSpline
 62
7
  6
CONTINUOUS
 70
0
 71
3
 72
13
 73
9
 74
0
 42
0.0000001
 43
0.0000001
 44
0.0000000001
 40
0.0
 40
0.0
 40
0.0
 40
0.0
 40
0.1203431344
 40
0.2409554489
 40
0.3624669838
 40
0.4854471318
 40
0.7373631921
 40
1.0
 40
1.0
 40
1.0
 40
1.0
 10
16.4865933588
 20
12.9184315776
 30
0.0
 10
16.4874975751
 20
12.9213576228
 30
0.0
 10
16.4890153863
 20
12.9273112502
 30
0.0
 10
16.4904002938
 20
12.9364451753
 30
0.0
 10
16.4908945575
 20
12.9457383434
 30
0.0
 10
16.4903702769
 20
12.9583764822
 30
0.0
 10
16.4874808506
 20
12.9744296785
 30
0.0
 10
16.4830688291
 20
12.986819916
 30
0.0
 10
16.4803929864
 20
12.9929446578
 30
0.0
  0
SPLINE
  5
2E5
100
AcDbEntity
  8
0
100
AcDbSpline
 62
7
  6
CONTINUOUS
 70
0
 71
3
 72
10
 73
6
 74
0
 42
0.0000001
 43
0.0000001
 44
0.0000000001
 40
0.0
 40
0.0
 40
0.0
 40
0.0
 40
0.4817385762
 40
0.7362671264
 40
1.0
 40
1.0
 40
1.0
 40
1.0
 10
16.4581612808
 20
13.0385724381
 30
0.0
 10
16.4537788631
 20
13.0475028664
 30
0.0
 10
16.4457557169
 20
13.0605309783
 30
0.0
 10
16.4329844459
 20
13.0767673236
 30
0.0
 10
16.4257758588
 20
13.0846932492
 30
0.0
 10
16.4219826168
 20
13.0886009803
 30
0.0
  0
SPLINE
  5
2E6
100
AcDbEntity
  8
0
100
AcDbSpline
 62
7
  6
CONTINUOUS
 70
0
 71
3
 72
9
 73
5
 74
0
 42
0.0000001
 43
0.0000001
 44
0.0000000001
 40
0.0
 40
0.0
 40
0.0
 40
0.0
 40
0.4840719579
 40
1.0
 40
1.0
 40
1.0
 40
1.0
 10
16.0883702353
 20
12.8520763442
 30
0.0
 10
16.0939415289
 20
12.8533871695
 30
0.0
 10
16.1056428997
 20
12.8553082851
 30
0.0
 10
16.1174759373
 20
12.8558943578
 30
0.0
 10
16.1235760111
 20
12.8558943578
 30
0.0
  0
SPLINE
  5
2E7
100
AcDbEntity
  8
0
100
AcDbSpline
 62
7
  6
CONTINUOUS
 70
0
 71
3
 72
9
 73
5
 74
0
 42
0.0000001
 43
0.0000001
 44
0.0000000001
 40
0.0
 40
0.0
 40
0.0
 40
0.0
 40
0.5142976191
 40
1.0
 40
1.0
 40
1.0
 40
1.0
 10
16.272888712
 20
12.7946736118
 30
0.0
 10
16.2747452913
 20
12.7922907136
 30
0.0
 10
16.2781510246
 20
12.7874932802
 30
0.0
 10
16.2810531617
 20
12.7823713477
 30
0.0
 10
16.2823099505
 20
12.7798102812
 30
0.0
  0
SPLINE
  5
2E8
100
AcDbEntity
  8
0
100
AcDbSpline
 62
7
  6
CONTINUOUS
 70
0
 71
3
 72
15
 73
11
 74
0
 42
0.0000001
 43
0.0000001
 44
0.0000000001
 40
0.0
 40
0.0
 40
0.0
 40
0.0
 40
0.1106054526
 40
0.2228698803
 40
0.3383152258
 40
0.458272637
 40
0.5837808278
 40
0.7156216386
 40
0.8542902775
 40
1.0
 40
1.0
 40
1.0
 40
1.0
 10
16.0477498614
 20
12.8167161591
 30
0.0
 10
16.0483573768
 20
12.8186806222
 30
0.0
 10
16.0498843266
 20
12.8225521292
 30
0.0
 10
16.0530425448
 20
12.8280157332
 30
0.0
 10
16.0570514204
 20
12.8331123978
 30
0.0
 10
16.0618770473
 20
12.8378002305
 30
0.0
 10
16.067475846
 20
12.8420519047
 30
0.0
 10
16.0738078137
 20
12.8458351395
 30
0.0
 10
16.0808238059
 20
12.8491250573
 30
0.0
 10
16.0858001885
 20
12.8509325145
 30
0.0
 10
16.0883813506
 20
12.8517544725
 30
0.0
  0
SPLINE
  5
2E9
100
AcDbEntity
  8
0
100
AcDbSpline
 62
7
  6
CONTINUOUS
 70
0
 71
3
 72
17
 73
13
 74
0
 42
0.0000001
 43
0.0000001
 44
0.0000000001
 40
0.0
 40
0.0
 40
0.0
 40
0.0
 40
0.1480857717
 40
0.2891691455
 40
0.42258762
 40
0.5485571714
 40
0.667817811
 40
0.7816276739
 40
0.8369971658
 40
0.8916363912
 40
0.9458548188
 40
1.0
 40
1.0
 40
1.0
 40
1.0
 10
14.6444401985
 20
12.9461194267
 30
0.0
 10
14.6366714074
 20
12.9459668276
 30
0.0
 10
14.6215027328
 20
12.9449912255
 30
0.0
 10
14.5995889432
 20
12.9413477772
 30
0.0
 10
14.5793379495
 20
12.9355477555
 30
0.0
 10
14.56105129
 20
12.9276123222
 30
0.0
 10
14.5450346186
 20
12.9175402781
 30
0.0
 10
14.533762497
 20
12.9072923547
 30
0.0
 10
14.5263453713
 20
12.8981632836
 30
0.0
 10
14.5216362593
 20
12.8909259617
 30
0.0
 10
14.517770444
 20
12.8832781315
 30
0.0
 10
14.5157820125
 20
12.8779359084
 30
0.0
 10
14.5149431907
 20
12.8752214799
 30
0.0
  0
SPLINE
  5
2EA
100
AcDbEntity
  8
0
100
AcDbSpline
 62
7
  6
CONTINUOUS
 70
0
 71
3
 72
23
 73
19
 74
0
 42
0.0000001
 43
0.0000001
 44
0.0000000001
 40
0.0
 40
0.0
 40
0.0
 40
0.0
 40
0.050462866
 40
0.1033398472
 40
0.1586048367
 40
0.2162414207
 40
0.2761732543
 40
0.3382041501
 40
0.4020764636
 40
0.4674777551
 40
0.5340623351
 40
0.6014484815
 40
0.6692364968
 40
0.7370088767
 40
0.8043523783
 40
0.8708923028
 40
0.9362538101
 40
1.0
 40
1.0
 40
1.0
 40
1.0
 10
16.2887148544
 20
12.4902436014
 30
0.0
 10
16.2860275236
 20
12.4957198058
 30
0.0
 10
16.2798553052
 20
12.5066146851
 30
0.0
 10
16.2687229628
 20
12.5222588701
 30
0.0
 10
16.2556209892
 20
12.5374573253
 30
0.0
 10
16.2406848193
 20
12.5520972798
 30
0.0
 10
16.2240487167
 20
12.5660766387
 30
0.0
 10
16.2058622347
 20
12.5792927751
 30
0.0
 10
16.186285318
 20
12.5916317899
 30
0.0
 10
16.1654981227
 20
12.6029949644
 30
0.0
 10
16.1436869674
 20
12.613279387
 30
0.0
 10
16.1210529866
 20
12.6223992389
 30
0.0
 10
16.0978022916
 20
12.6302662257
 30
0.0
 10
16.0741518015
 20
12.636814942
 30
0.0
 10
16.0503152215
 20
12.6419798915
 30
0.0
 10
16.0265073845
 20
12.6457159163
 30
0.0
 10
16.0029519348
 20
12.6479798518
 30
0.0
 10
15.9873412391
 20
12.6485056241
 30
0.0
 10
15.9796354799
 20
12.6485056241
 30
0.0
  0
SPLINE
  5
2EB
100
AcDbEntity
  8
0
100
AcDbSpline
 62
7
  6
CONTINUOUS
 70
0
 71
3
 72
13
 73
9
 74
0
 42
0.0000001
 43
0.0000001
 44
0.0000000001
 40
0.0
 40
0.0
 40
0.0
 40
0.0
 40
0.1203431344
 40
0.2409554489
 40
0.3624669838
 40
0.4854471318
 40
0.7373631921
 40
1.0
 40
1.0
 40
1.0
 40
1.0
 10
16.3171469324
 20
12.3701027409
 30
0.0
 10
16.3180511487
 20
12.3730287861
 30
0.0
 10
16.3195689599
 20
12.3789824135
 30
0.0
 10
16.3209538674
 20
12.3881163386
 30
0.0
 10
16.3214481312
 20
12.3974095066
 30
0.0
 10
16.3209238506
 20
12.4100476455
 30
0.0
 10
16.3180344242
 20
12.4261008418
 30
0.0
 10
16.3136224027
 20
12.4384910793
 30
0.0
 10
16.31094656
 20
12.444615821
 30
0.0
  0
SPLINE
  5
2EC
100
AcDbEntity
  8
0
100
AcDbSpline
 62
7
  6
CONTINUOUS
 70
0
 71
3
 72
15
 73
11
 74
0
 42
0.0000001
 43
0.0000001
 44
0.0000000001
 40
0.0
 40
0.0
 40
0.0
 40
0.0
 40
0.1106054526
 40
0.2228698803
 40
0.3383152258
 40
0.458272637
 40
0.5837808278
 40
0.7156216386
 40
0.8542902775
 40
1.0
 40
1.0
 40
1.0
 40
1.0
 10
15.8976687409
 20
12.3310534752
 30
0.0
 10
15.8982762563
 20
12.3330179382
 30
0.0
 10
15.8998032061
 20
12.3368894452
 30
0.0
 10
15.9029614243
 20
12.3423530492
 30
0.0
 10
15.9069702999
 20
12.3474497138
 30
0.0
 10
15.9117959268
 20
12.3521375466
 30
0.0
 10
15.9173947255
 20
12.3563892207
 30
0.0
 10
15.9237266932
 20
12.3601724555
 30
0.0
 10
15.9307426854
 20
12.3634623733
 30
0.0
 10
15.935719068
 20
12.3652698305
 30
0.0
 10
15.9383002301
 20
12.3660917885
 30
0.0
  0
SPLINE
  5
2ED
100
AcDbEntity
  8
0
100
AcDbSpline
 62
7
  6
CONTINUOUS
 70
0
 71
3
 72
9
 73
5
 74
0
 42
0.0000001
 43
0.0000001
 44
0.0000000001
 40
0.0
 40
0.0
 40
0.0
 40
0.0
 40
0.4840719579
 40
1.0
 40
1.0
 40
1.0
 40
1.0
 10
15.9382891147
 20
12.3664136602
 30
0.0
 10
15.9438604084
 20
12.3677244856
 30
0.0
 10
15.9555617792
 20
12.3696456012
 30
0.0
 10
15.9673948168
 20
12.3702316738
 30
0.0
 10
15.9734948906
 20
12.3702316738
 30
0.0
  0
SPLINE
  5
2EE
100
AcDbEntity
  8
0
100
AcDbSpline
 62
7
  6
CONTINUOUS
 70
0
 71
3
 72
9
 73
5
 74
0
 42
0.0000001
 43
0.0000001
 44
0.0000000001
 40
0.0
 40
0.0
 40
0.0
 40
0.0
 40
0.5142976191
 40
1.0
 40
1.0
 40
1.0
 40
1.0
 10
16.1228075914
 20
12.3090109278
 30
0.0
 10
16.1246641708
 20
12.3066280297
 30
0.0
 10
16.1280699041
 20
12.3018305963
 30
0.0
 10
16.1309720412
 20
12.2967086637
 30
0.0
 10
16.13222883
 20
12.2941475972
 30
0.0
  0
SPLINE
  5
2EF
100
AcDbEntity
  8
0
100
AcDbSpline
 62
7
  6
CONTINUOUS
 70
0
 71
3
 72
15
 73
11
 74
0
 42
0.0000001
 43
0.0000001
 44
0.0000000001
 40
0.0
 40
0.0
 40
0.0
 40
0.0
 40
0.1240420454
 40
0.2531598138
 40
0.3845786942
 40
0.5159483244
 40
0.6450308692
 40
0.7698213507
 40
0.8886380328
 40
1.0
 40
1.0
 40
1.0
 40
1.0
 10
15.9086518868
 20
12.852786308
 30
0.0
 10
15.907728813
 20
12.852786308
 30
0.0
 10
15.9058425986
 20
12.8526229836
 30
0.0
 10
15.9030502215
 20
12.8519537221
 30
0.0
 10
15.9003331632
 20
12.8508665854
 30
0.0
 10
15.8977945174
 20
12.849412097
 30
0.0
 10
15.8955285863
 20
12.8476394922
 30
0.0
 10
15.8936153246
 20
12.8456153639
 30
0.0
 10
15.892137234
 20
12.8434114097
 30
0.0
 10
15.8914496525
 20
12.8418281745
 30
0.0
 10
15.8912049771
 20
12.8410364043
 30
0.0
  0
SPLINE
  5
2F0
100
AcDbEntity
  8
0
100
AcDbSpline
 62
7
  6
CONTINUOUS
 70
0
 71
3
 72
15
 73
11
 74
0
 42
0.0000001
 43
0.0000001
 44
0.0000000001
 40
0.0
 40
0.0
 40
0.0
 40
0.0
 40
0.1229413981
 40
0.25034215
 40
0.3801861643
 40
0.5106113027
 40
0.6396453355
 40
0.7653532745
 40
0.8859682843
 40
1.0
 40
1.0
 40
1.0
 40
1.0
 10
14.6499993172
 20
12.5582301322
 30
0.0
 10
14.6563750003
 20
12.5582301322
 30
0.0
 10
14.6693643808
 20
12.5575564091
 30
0.0
 10
14.6889006042
 20
12.5547203158
 30
0.0
 10
14.7084908321
 20
12.5500893689
 30
0.0
 10
14.727690146
 20
12.5437663341
 30
0.0
 10
14.7460798891
 20
12.5359049605
 30
0.0
 10
14.7632511778
 20
12.5266758358
 30
0.0
 10
14.7788075271
 20
12.516268052
 30
0.0
 10
14.7881789721
 20
12.5084578159
 30
0.0
 10
14.792479733
 20
12.5043989381
 30
0.0
  0
SPLINE
  5
2F1
100
AcDbEntity
  8
0
100
AcDbSpline
 62
7
  6
CONTINUOUS
 70
0
 71
3
 72
17
 73
13
 74
0
 42
0.0000001
 43
0.0000001
 44
0.0000000001
 40
0.0
 40
0.0
 40
0.0
 40
0.0
 40
0.0530808775
 40
0.1063222288
 40
0.1600908213
 40
0.2147159635
 40
0.3275033372
 40
0.4465001805
 40
0.5729541795
 40
0.707493921
 40
0.8501611259
 40
1.0
 40
1.0
 40
1.0
 40
1.0
 10
16.2663130045
 20
12.2056040899
 30
0.0
 10
16.2652611551
 20
12.2022003042
 30
0.0
 10
16.2627532306
 20
12.1954992277
 30
0.0
 10
16.2578465746
 20
12.1859157775
 30
0.0
 10
16.2518420789
 20
12.1768531817
 30
0.0
 10
16.2423388674
 20
12.1654170639
 30
0.0
 10
16.2278279372
 20
12.1526103024
 30
0.0
 10
16.2071637625
 20
12.1401136187
 30
0.0
 10
16.1835054684
 20
12.130362169
 30
0.0
 10
16.1572576468
 20
12.123383663
 30
0.0
 10
16.12884642
 20
12.1192211064
 30
0.0
 10
16.1091992951
 20
12.1183375902
 30
0.0
 10
16.0991426321
 20
12.1183375902
 30
0.0
  0
SPLINE
  5
2F2
100
AcDbEntity
  8
0
100
AcDbSpline
 62
7
  6
CONTINUOUS
 70
0
 71
3
 72
18
 73
14
 74
0
 42
0.0000001
 43
0.0000001
 44
0.0000000001
 40
0.0
 40
0.0
 40
0.0
 40
0.0
 40
0.0393370764
 40
0.0560617633
 40
0.0752370162
 40
0.12074908
 40
0.1755292638
 40
0.2392841328
 40
0.3117341864
 40
0.3922522614
 40
0.5741728583
 40
0.7787051084
 40
1.0
 40
1.0
 40
1.0
 40
1.0
 10
15.6121186907
 20
12.1654496194
 30
0.0
 10
15.6120931074
 20
12.1654880304
 30
0.0
 10
15.6122022259
 20
12.165350993
 30
0.0
 10
15.6122488549
 20
12.1653019917
 30
0.0
 10
15.6123177451
 20
12.165227667
 30
0.0
 10
15.6124144143
 20
12.1651310212
 30
0.0
 10
15.6125561113
 20
12.1649986356
 30
0.0
 10
15.6127257774
 20
12.1648529023
 30
0.0
 10
15.6129255495
 20
12.1646952477
 30
0.0
 10
15.6132433455
 20
12.1644641835
 30
0.0
 10
15.6137045711
 20
12.1641674448
 30
0.0
 10
15.6143312012
 20
12.1638260083
 30
0.0
 10
15.6147881716
 20
12.1636222863
 30
0.0
 10
15.6150297321
 20
12.1635271303
 30
0.0
  0
SPLINE
  5
2F3
100
AcDbEntity
  8
0
100
AcDbSpline
 62
7
  6
CONTINUOUS
 70
0
 71
3
 72
9
 73
5
 74
0
 42
0.0000001
 43
0.0000001
 44
0.0000000001
 40
0.0
 40
0.0
 40
0.0
 40
0.0
 40
0.4834683949
 40
1.0
 40
1.0
 40
1.0
 40
1.0
 10
15.6150297321
 20
12.1635271303
 30
0.0
 10
15.6155954154
 20
12.1633042955
 30
0.0
 10
15.6168139596
 20
12.1629618938
 30
0.0
 10
15.618073928
 20
12.1628429401
 30
0.0
 10
15.6187234979
 20
12.1628429401
 30
0.0
  0
SPLINE
  5
2F4
100
AcDbEntity
  8
0
100
AcDbSpline
 62
7
  6
CONTINUOUS
 70
0
 71
3
 72
17
 73
13
 74
0
 42
0.0000001
 43
0.0000001
 44
0.0000000001
 40
0.0
 40
0.0
 40
0.0
 40
0.0
 40
0.0530213695
 40
0.1062060917
 40
0.1599230917
 40
0.21450329
 40
0.327228551
 40
0.4462062771
 40
0.5727092803
 40
0.7073360285
 40
0.849992288
 40
1.0
 40
1.0
 40
1.0
 40
1.0
 10
16.0968665781
 20
11.6572752531
 30
0.0
 10
16.09580937
 20
11.6538541264
 30
0.0
 10
16.0932864708
 20
11.6471193016
 30
0.0
 10
16.0883458724
 20
11.6374904814
 30
0.0
 10
16.0822968673
 20
11.6283884245
 30
0.0
 10
16.0727194406
 20
11.6169073469
 30
0.0
 10
16.0580916638
 20
11.6040628211
 30
0.0
 10
16.0372638704
 20
11.5915498041
 30
0.0
 10
16.0134177333
 20
11.5818145923
 30
0.0
 10
15.9869741001
 20
11.5748830563
 30
0.0
 10
15.9583557706
 20
11.5707874964
 30
0.0
 10
15.9385722092
 20
11.5699732677
 30
0.0
 10
15.9284416349
 20
11.5700110874
 30
0.0
  0
SPLINE
  5
2F5
100
AcDbEntity
  8
0
100
AcDbSpline
 62
7
  6
CONTINUOUS
 70
0
 71
3
 72
13
 73
9
 74
0
 42
0.0000001
 43
0.0000001
 44
0.0000000001
 40
0.0
 40
0.0
 40
0.0
 40
0.0
 40
0.1203431344
 40
0.2409554489
 40
0.3624669838
 40
0.4854471318
 40
0.7373631921
 40
1.0
 40
1.0
 40
1.0
 40
1.0
 10
16.1670658119
 20
11.8844400569
 30
0.0
 10
16.1679700282
 20
11.8873661021
 30
0.0
 10
16.1694878394
 20
11.8933197295
 30
0.0
 10
16.1708727469
 20
11.9024536546
 30
0.0
 10
16.1713670107
 20
11.9117468227
 30
0.0
 10
16.17084273
 20
11.9243849615
 30
0.0
 10
16.1679533037
 20
11.9404381578
 30
0.0
 10
16.1635412822
 20
11.9528283953
 30
0.0
 10
16.1608654395
 20
11.9589531371
 30
0.0
  0
SPLINE
  5
2F6
100
AcDbEntity
  8
0
100
AcDbSpline
 62
7
  6
CONTINUOUS
 70
0
 71
3
 72
23
 73
19
 74
0
 42
0.0000001
 43
0.0000001
 44
0.0000000001
 40
0.0
 40
0.0
 40
0.0
 40
0.0
 40
0.050462866
 40
0.1033398472
 40
0.1586048367
 40
0.2162414207
 40
0.2761732543
 40
0.3382041501
 40
0.4020764636
 40
0.4674777551
 40
0.5340623351
 40
0.6014484815
 40
0.6692364968
 40
0.7370088767
 40
0.8043523783
 40
0.8708923028
 40
0.9362538101
 40
1.0
 40
1.0
 40
1.0
 40
1.0
 10
16.1386337339
 20
12.0045809174
 30
0.0
 10
16.1359464031
 20
12.0100571218
 30
0.0
 10
16.1297741847
 20
12.0209520012
 30
0.0
 10
16.1186418423
 20
12.0365961861
 30
0.0
 10
16.1055398687
 20
12.0517946413
 30
0.0
 10
16.0906036988
 20
12.0664345958
 30
0.0
 10
16.0739675962
 20
12.0804139547
 30
0.0
 10
16.0557811142
 20
12.0936300911
 30
0.0
 10
16.0362041975
 20
12.105969106
 30
0.0
 10
16.0154170022
 20
12.1173322804
 30
0.0
 10
15.9936058469
 20
12.127616703
 30
0.0
 10
15.9709718661
 20
12.136736555
 30
0.0
 10
15.9477211711
 20
12.1446035418
 30
0.0
 10
15.924070681
 20
12.151152258
 30
0.0
 10
15.900234101
 20
12.1563172075
 30
0.0
 10
15.876426264
 20
12.1600532324
 30
0.0
 10
15.8528708143
 20
12.1623171678
 30
0.0
 10
15.8372601186
 20
12.1628429401
 30
0.0
 10
15.8295543594
 20
12.1628429401
 30
0.0
  0
SPLINE
  5
2F7
100
AcDbEntity
  8
0
100
AcDbSpline
 62
7
  6
CONTINUOUS
 70
0
 71
3
 72
15
 73
11
 74
0
 42
0.0000001
 43
0.0000001
 44
0.0000000001
 40
0.0
 40
0.0
 40
0.0
 40
0.0
 40
0.137713165
 40
0.2741943381
 40
0.4080223232
 40
0.5378898882
 40
0.6626738969
 40
0.7815080311
 40
0.8940090293
 40
1.0
 40
1.0
 40
1.0
 40
1.0
 10
14.5149443958
 20
11.8372958603
 30
0.0
 10
14.5047151258
 20
11.8403142949
 30
0.0
 10
14.4845653897
 20
11.8470913603
 30
0.0
 10
14.4554326333
 20
11.8594069033
 30
0.0
 10
14.4278817236
 20
11.8736728282
 30
0.0
 10
14.4023600654
 20
11.8896727795
 30
0.0
 10
14.3792704699
 20
11.9071622655
 30
0.0
 10
14.3589729282
 20
11.9259088022
 30
0.0
 10
14.3418028425
 20
11.9456711804
 30
0.0
 10
14.3323554032
 20
11.9597840843
 30
0.0
 10
14.328309355
 20
11.9669262106
 30
0.0
  0
SPLINE
  5
2F8
100
AcDbEntity
  8
0
100
AcDbSpline
 62
7
  6
CONTINUOUS
 70
0
 71
3
 72
14
 73
10
 74
0
 42
0.0000001
 43
0.0000001
 44
0.0000000001
 40
0.0
 40
0.0
 40
0.0
 40
0.0
 40
0.2629263865
 40
0.3901483313
 40
0.5150322804
 40
0.637934933
 40
0.7593085832
 40
0.8797594874
 40
1.0
 40
1.0
 40
1.0
 40
1.0
 10
14.2873607671
 20
12.0497367626
 30
0.0
 10
14.2847489104
 20
12.0550591669
 30
0.0
 10
14.2814370439
 20
12.063263787
 30
0.0
 10
14.2785199747
 20
12.0745172488
 30
0.0
 10
14.2771510607
 20
12.0828749217
 30
0.0
 10
14.2765968607
 20
12.0911938964
 30
0.0
 10
14.2768808587
 20
12.0994280518
 30
0.0
 10
14.2780147847
 20
12.1075277199
 30
0.0
 10
14.279338352
 20
12.1128039427
 30
0.0
 10
14.280138857
 20
12.1153943776
 30
0.0
  0
SPLINE
  5
2F9
100
AcDbEntity
  8
0
100
AcDbSpline
 62
7
  6
CONTINUOUS
 70
0
 71
3
 72
17
 73
13
 74
0
 42
0.0000001
 43
0.0000001
 44
0.0000000001
 40
0.0
 40
0.0
 40
0.0
 40
0.0
 40
0.1484972471
 40
0.2900960231
 40
0.4238994689
 40
0.5500377848
 40
0.6692124345
 40
0.7827102818
 40
0.8378550433
 40
0.8922300403
 40
0.9461574176
 40
1.0
 40
1.0
 40
1.0
 40
1.0
 10
14.4995134937
 20
12.4605071658
 30
0.0
 10
14.4914667955
 20
12.4605071658
 30
0.0
 10
14.4757350404
 20
12.45979649
 30
0.0
 10
14.452967358
 20
12.4564477485
 30
0.0
 10
14.4318924304
 20
12.4508218047
 30
0.0
 10
14.4128458166
 20
12.4429411038
 30
0.0
 10
14.3961528857
 20
12.4328062501
 30
0.0
 10
14.3843997072
 20
12.4223934777
 30
0.0
 10
14.3766757435
 20
12.4130737152
 30
0.0
 10
14.3717812152
 20
12.4056699135
 30
0.0
 10
14.3677743697
 20
12.3978306446
 30
0.0
 10
14.3657234828
 20
12.3923463282
 30
0.0
 10
14.3648620701
 20
12.3895587959
 30
0.0
  0
SPLINE
  5
2FA
100
AcDbEntity
  8
0
100
AcDbSpline
 62
7
  6
CONTINUOUS
 70
0
 71
3
 72
20
 73
16
 74
0
 42
0.0000001
 43
0.0000001
 44
0.0000000001
 40
0.0
 40
0.0
 40
0.0
 40
0.0
 40
0.0459674866
 40
0.096249794
 40
0.150558933
 40
0.2086108794
 40
0.2699321779
 40
0.3339357315
 40
0.4676124135
 40
0.605365958
 40
0.6744651489
 40
0.7429731929
 40
0.8103581444
 40
0.8760794288
 40
1.0
 40
1.0
 40
1.0
 40
1.0
 10
14.7862093787
 20
12.4851855873
 30
0.0
 10
14.7859924361
 20
12.4844835608
 30
0.0
 10
14.7854525849
 20
12.4830392594
 30
0.0
 10
14.7843907246
 20
12.4808758303
 30
0.0
 10
14.7830336241
 20
12.4786540047
 30
0.0
 10
14.781378511
 20
12.4764207782
 30
0.0
 10
14.779443973
 20
12.4742144159
 30
0.0
 10
14.7764803097
 20
12.4713183575
 30
0.0
 10
14.7722221948
 20
12.4680259261
 30
0.0
 10
14.7674775727
 20
12.4653202094
 30
0.0
 10
14.76344333
 20
12.463552123
 30
0.0
 10
14.7603553962
 20
12.4624478356
 30
0.0
 10
14.7572478055
 20
12.4615816348
 30
0.0
 10
14.7532169674
 20
12.460776413
 30
0.0
 10
14.7501808113
 20
12.4605071658
 30
0.0
 10
14.7481999621
 20
12.4605071658
 30
0.0
  0
SPLINE
  5
2FB
100
AcDbEntity
  8
0
100
AcDbSpline
 62
7
  6
CONTINUOUS
 70
0
 71
3
 72
11
 73
7
 74
0
 42
0.0000001
 43
0.0000001
 44
0.0000000001
 40
0.0
 40
0.0
 40
0.0
 40
0.0
 40
0.1961794922
 40
0.4186044793
 40
0.6822773113
 40
1.0
 40
1.0
 40
1.0
 40
1.0
 10
14.8295968344
 20
12.6349720017
 30
0.0
 10
14.8298557939
 20
12.6344442977
 30
0.0
 10
14.830288615
 20
12.6332560698
 30
0.0
 10
14.8305824129
 20
12.6312194579
 30
0.0
 10
14.8304549355
 20
12.6288008809
 30
0.0
 10
14.8300623934
 20
12.6270939948
 30
0.0
 10
14.8297813169
 20
12.626184431
 30
0.0
  0
SPLINE
  5
2FC
100
AcDbEntity
  8
0
100
AcDbSpline
 62
7
  6
CONTINUOUS
 70
0
 71
3
 72
14
 73
10
 74
0
 42
0.0000001
 43
0.0000001
 44
0.0000000001
 40
0.0
 40
0.0
 40
0.0
 40
0.0
 40
0.2629263865
 40
0.3901483313
 40
0.5150322804
 40
0.637934933
 40
0.7593085832
 40
0.8797594874
 40
1.0
 40
1.0
 40
1.0
 40
1.0
 10
14.4374418876
 20
12.5353994466
 30
0.0
 10
14.4348300309
 20
12.5407218509
 30
0.0
 10
14.4315181644
 20
12.548926471
 30
0.0
 10
14.4286010952
 20
12.5601799328
 30
0.0
 10
14.4272321812
 20
12.5685376057
 30
0.0
 10
14.4266779812
 20
12.5768565804
 30
0.0
 10
14.4269619792
 20
12.5850907358
 30
0.0
 10
14.4280959052
 20
12.5931904038
 30
0.0
 10
14.4294194725
 20
12.5984666266
 30
0.0
 10
14.4302199775
 20
12.6010570615
 30
0.0
  0
SPLINE
  5
2FD
100
AcDbEntity
  8
0
100
AcDbSpline
 62
7
  6
CONTINUOUS
 70
0
 71
3
 72
9
 73
5
 74
0
 42
0.0000001
 43
0.0000001
 44
0.0000000001
 40
0.0
 40
0.0
 40
0.0
 40
0.0
 40
0.4840719579
 40
1.0
 40
1.0
 40
1.0
 40
1.0
 10
14.6147935414
 20
12.5544121185
 30
0.0
 10
14.620364835
 20
12.5557229439
 30
0.0
 10
14.6320662059
 20
12.5576440595
 30
0.0
 10
14.6438992434
 20
12.5582301322
 30
0.0
 10
14.6499993172
 20
12.5582301322
 30
0.0
  0
SPLINE
  5
2FE
100
AcDbEntity
  8
0
100
AcDbSpline
 62
7
  6
CONTINUOUS
 70
0
 71
3
 72
22
 73
18
 74
0
 42
0.0000001
 43
0.0000001
 44
0.0000000001
 40
0.0
 40
0.0
 40
0.0
 40
0.0
 40
0.154564243
 40
0.3064342306
 40
0.4536081752
 40
0.5932579531
 40
0.6590400561
 40
0.721230607
 40
0.7789529506
 40
0.8311966362
 40
0.8770056342
 40
0.8974860977
 40
0.9166220067
 40
0.9351077659
 40
0.9541368017
 40
0.9752787122
 40
1.0
 40
1.0
 40
1.0
 40
1.0
 10
15.7352686082
 20
12.3364261299
 30
0.0
 10
15.7357083703
 20
12.3378492003
 30
0.0
 10
15.7365901891
 20
12.3406674839
 30
0.0
 10
15.7379612508
 20
12.3448185223
 30
0.0
 10
15.7393990705
 20
12.3487946624
 30
0.0
 10
15.7406990554
 20
12.3519367206
 30
0.0
 10
15.7418242476
 20
12.3542582668
 30
0.0
 10
15.7426886407
 20
12.3558262208
 30
0.0
 10
15.7435941004
 20
12.3572192442
 30
0.0
 10
15.7445419676
 20
12.3583867183
 30
0.0
 10
15.745405951
 20
12.3591515094
 30
0.0
 10
15.7461321855
 20
12.3595474329
 30
0.0
 10
15.7466717863
 20
12.3597141945
 30
0.0
 10
15.7472247575
 20
12.3597359713
 30
0.0
 10
15.7477788606
 20
12.3595844241
 30
0.0
 10
15.748311785
 20
12.3592421748
 30
0.0
 10
15.7486157169
 20
12.3589156532
 30
0.0
 10
15.7487620417
 20
12.3587276589
 30
0.0
  0
LINE
  5
2FF
100
AcDbEntity
  8
0
100
AcDbLine
 62
7
  6
CONTINUOUS
 10
15.7487620417
 20
12.3587276589
 11
15.7493304794
 21
12.3577994745
  0
SPLINE
  5
300
100
AcDbEntity
  8
0
100
AcDbSpline
 62
7
  6
CONTINUOUS
 70
0
 71
3
 72
15
 73
11
 74
0
 42
0.0000001
 43
0.0000001
 44
0.0000000001
 40
0.0
 40
0.0
 40
0.0
 40
0.0
 40
0.1106054526
 40
0.2228698803
 40
0.3383152258
 40
0.458272637
 40
0.5837808278
 40
0.7156216386
 40
0.8542902775
 40
1.0
 40
1.0
 40
1.0
 40
1.0
 10
14.5741731675
 20
12.5190519335
 30
0.0
 10
14.5747806829
 20
12.5210163965
 30
0.0
 10
14.5763076327
 20
12.5248879035
 30
0.0
 10
14.5794658509
 20
12.5303515075
 30
0.0
 10
14.5834747265
 20
12.5354481721
 30
0.0
 10
14.5883003534
 20
12.5401360049
 30
0.0
 10
14.5938991521
 20
12.544387679
 30
0.0
 10
14.6002311198
 20
12.5481709139
 30
0.0
 10
14.607247112
 20
12.5514608316
 30
0.0
 10
14.6122234946
 20
12.5532682888
 30
0.0
 10
14.6148046567
 20
12.5540902468
 30
0.0
  0
SPLINE
  5
301
100
AcDbEntity
  8
0
100
AcDbSpline
 62
7
  6
CONTINUOUS
 70
0
 71
3
 72
16
 73
12
 74
0
 42
0.0000001
 43
0.0000001
 44
0.0000000001
 40
0.0
 40
0.0
 40
0.0
 40
0.0
 40
0.1242809109
 40
0.2532261232
 40
0.3845245812
 40
0.5159882705
 40
0.6453152694
 40
0.7703061702
 40
0.8305820876
 40
0.8890783901
 40
1.0
 40
1.0
 40
1.0
 40
1.0
 10
15.9734948906
 20
12.3702316738
 30
0.0
 10
15.9803498145
 20
12.3702316738
 30
0.0
 10
15.9943251114
 20
12.3694533613
 30
0.0
 10
16.0153124259
 20
12.366190775
 30
0.0
 10
16.0362867222
 20
12.3608774892
 30
0.0
 10
16.0567031121
 20
12.3536529519
 30
0.0
 10
16.0760478498
 20
12.344716111
 30
0.0
 10
16.0910400845
 20
12.3359132456
 30
0.0
 10
16.1020456046
 20
12.3281776814
 30
0.0
 10
16.1119844474
 20
12.3203152047
 30
0.0
 10
16.1187960317
 20
12.3138677912
 30
0.0
 10
16.1229233855
 20
12.3093516291
 30
0.0
  0
SPLINE
  5
302
100
AcDbEntity
  8
0
100
AcDbSpline
 62
7
  6
CONTINUOUS
 70
0
 71
3
 72
11
 73
7
 74
0
 42
0.0000001
 43
0.0000001
 44
0.0000000001
 40
0.0
 40
0.0
 40
0.0
 40
0.0
 40
0.2260801427
 40
0.4685061405
 40
0.7267831814
 40
1.0
 40
1.0
 40
1.0
 40
1.0
 10
15.7935615501
 20
12.2676660291
 30
0.0
 10
15.796730916
 20
12.2612075404
 30
0.0
 10
15.804301792
 20
12.2483023463
 30
0.0
 10
15.8184101564
 20
12.2299161558
 30
0.0
 10
15.8354668359
 20
12.2120926916
 30
0.0
 10
15.8483023864
 20
12.2010374595
 30
0.0
 10
15.8551243958
 20
12.1956477272
 30
0.0
  0
SPLINE
  5
303
100
AcDbEntity
  8
0
100
AcDbSpline
 62
7
  6
CONTINUOUS
 70
0
 71
3
 72
9
 73
5
 74
0
 42
0.0000001
 43
0.0000001
 44
0.0000000001
 40
0.0
 40
0.0
 40
0.0
 40
0.0
 40
0.5160254047
 40
1.0
 40
1.0
 40
1.0
 40
1.0
 10
16.13222883
 20
12.2941475972
 30
0.0
 10
16.1337094513
 20
12.2911304083
 30
0.0
 10
16.1361748115
 20
12.2850720392
 30
0.0
 10
16.1376151399
 20
12.2786799925
 30
0.0
 10
16.1380084473
 20
12.2755524719
 30
0.0
  0
SPLINE
  5
304
100
AcDbEntity
  8
0
100
AcDbSpline
 62
7
  6
CONTINUOUS
 70
0
 71
3
 72
10
 73
6
 74
0
 42
0.0000001
 43
0.0000001
 44
0.0000000001
 40
0.0
 40
0.0
 40
0.0
 40
0.0
 40
0.5075126958
 40
0.7547570353
 40
1.0
 40
1.0
 40
1.0
 40
1.0
 10
16.1380084473
 20
12.2755524719
 30
0.0
 10
16.1383987349
 20
12.2724489648
 30
0.0
 10
16.1385323779
 20
12.2677548857
 30
0.0
 10
16.137705897
 20
12.2616386615
 30
0.0
 10
16.1369702408
 20
12.2586857495
 30
0.0
 10
16.1365236706
 20
12.2572417193
 30
0.0
  0
SPLINE
  5
305
100
AcDbEntity
  8
0
100
AcDbSpline
 62
7
  6
CONTINUOUS
 70
0
 71
3
 72
15
 73
11
 74
0
 42
0.0000001
 43
0.0000001
 44
0.0000000001
 40
0.0
 40
0.0
 40
0.0
 40
0.0
 40
0.110605446
 40
0.222869868
 40
0.3383152095
 40
0.458272619
 40
0.5837808106
 40
0.7156216249
 40
0.8542902696
 40
1.0
 40
1.0
 40
1.0
 40
1.0
 10
14.424092047
 20
12.0333892495
 30
0.0
 10
14.4246995626
 20
12.0353537132
 30
0.0
 10
14.426226513
 20
12.0392252214
 30
0.0
 10
14.4293847326
 20
12.044688827
 30
0.0
 10
14.4333936101
 20
12.0497854929
 30
0.0
 10
14.4382192395
 20
12.0544733267
 30
0.0
 10
14.4438180411
 20
12.0587250015
 30
0.0
 10
14.450150012
 20
12.0625082367
 30
0.0
 10
14.4571660078
 20
12.0657981545
 30
0.0
 10
14.4621423929
 20
12.0676056115
 30
0.0
 10
14.4647235563
 20
12.0684275692
 30
0.0
  0
SPLINE
  5
306
100
AcDbEntity
  8
0
100
AcDbSpline
 62
7
  6
CONTINUOUS
 70
0
 71
3
 72
15
 73
11
 74
0
 42
0.0000001
 43
0.0000001
 44
0.0000000001
 40
0.0
 40
0.0
 40
0.0
 40
0.0
 40
0.1104512037
 40
0.2268874276
 40
0.3485863713
 40
0.4746296169
 40
0.6039728833
 40
0.7354594326
 40
0.8678836039
 40
1.0
 40
1.0
 40
1.0
 40
1.0
 10
14.4647130793
 20
12.0687487288
 30
0.0
 10
14.4690241172
 20
12.0697621482
 30
0.0
 10
14.4779939214
 20
12.0713780674
 30
0.0
 10
14.4919344755
 20
12.0725884194
 30
0.0
 10
14.5065519328
 20
12.0726401066
 30
0.0
 10
14.5216445008
 20
12.0715329275
 30
0.0
 10
14.5370049356
 20
12.0692813031
 30
0.0
 10
14.5524223141
 20
12.0659177821
 30
0.0
 10
14.5676821803
 20
12.0614868727
 30
0.0
 10
14.57765559
 20
12.0578482146
 30
0.0
 10
14.5825663444
 20
12.0558620064
 30
0.0
  0
SPLINE
  5
307
100
AcDbEntity
  8
0
100
AcDbSpline
 62
7
  6
CONTINUOUS
 70
0
 71
3
 72
11
 73
7
 74
0
 42
0.0000001
 43
0.0000001
 44
0.0000000001
 40
0.0
 40
0.0
 40
0.0
 40
0.0
 40
0.2310246056
 40
0.4759937359
 40
0.7330647358
 40
1.0
 40
1.0
 40
1.0
 40
1.0
 10
14.3672213657
 20
10.9054420797
 30
0.0
 10
14.3605947667
 20
10.9127169454
 30
0.0
 10
14.346136671
 20
10.9269855142
 30
0.0
 10
14.3219733891
 20
10.9468206291
 30
0.0
 10
14.2949904091
 20
10.9654488267
 30
0.0
 10
14.2756856713
 20
10.9766995249
 30
0.0
 10
14.2656649309
 20
10.9820720805
 30
0.0
  0
SPLINE
  5
308
100
AcDbEntity
  8
0
100
AcDbSpline
 62
7
  6
CONTINUOUS
 70
0
 71
3
 72
9
 73
5
 74
0
 42
0.0000001
 43
0.0000001
 44
0.0000000001
 40
0.0
 40
0.0
 40
0.0
 40
0.0
 40
0.4916036308
 40
1.0
 40
1.0
 40
1.0
 40
1.0
 10
15.3945517868
 20
10.9011591546
 30
0.0
 10
15.3943654033
 20
10.9009620412
 30
0.0
 10
15.3938947445
 20
10.9006370751
 30
0.0
 10
15.3933343027
 20
10.9005432095
 30
0.0
 10
15.3930537567
 20
10.9005431224
 30
0.0
  0
LINE
  5
309
100
AcDbEntity
  8
0
100
AcDbLine
 62
7
  6
CONTINUOUS
 10
15.6441110821
 20
10.9007341207
 11
15.6449277899
 21
10.9005431239
  0
SPLINE
  5
30A
100
AcDbEntity
  8
0
100
AcDbSpline
 62
7
  6
CONTINUOUS
 70
0
 71
3
 72
23
 73
19
 74
0
 42
0.0000001
 43
0.0000001
 44
0.0000000001
 40
0.0
 40
0.0
 40
0.0
 40
0.0
 40
0.0714223249
 40
0.1437413667
 40
0.2164139861
 40
0.2889739923
 40
0.3609497031
 40
0.4318530538
 40
0.5012139286
 40
0.5685938758
 40
0.6335853566
 40
0.6958249172
 40
0.7549985843
 40
0.8108642515
 40
0.8632613546
 40
0.9121559843
 40
0.9576382253
 40
1.0
 40
1.0
 40
1.0
 40
1.0
 10
15.6415124149
 20
10.902029961
 30
0.0
 10
15.6359494346
 20
10.9047726494
 30
0.0
 10
15.6245883205
 20
10.9099633922
 30
0.0
 10
15.6070702877
 20
10.9167947725
 30
0.0
 10
15.5891026308
 20
10.9226648181
 30
0.0
 10
15.570865245
 20
10.927518631
 30
0.0
 10
15.552534009
 20
10.9313082496
 30
0.0
 10
15.5342901142
 20
10.9340006866
 30
0.0
 10
15.5163151061
 20
10.9355659454
 30
0.0
 10
15.498789805
 20
10.9359968618
 30
0.0
 10
15.481891317
 20
10.9352877859
 30
0.0
 10
15.4657923983
 20
10.9334590768
 30
0.0
 10
15.4506612578
 20
10.9305305286
 30
0.0
 10
15.4366543946
 20
10.9265548926
 30
0.0
 10
15.4239211962
 20
10.9215800989
 30
0.0
 10
15.412584891
 20
10.9156926181
 30
0.0
 10
15.4027605566
 20
10.9089693286
 30
0.0
 10
15.3970798709
 20
10.9038314571
 30
0.0
 10
15.3945517879
 20
10.9011590539
 30
0.0
  0
SPLINE
  5
30B
100
AcDbEntity
  8
0
100
AcDbSpline
 62
7
  6
CONTINUOUS
 70
0
 71
3
 72
9
 73
5
 74
0
 42
0.0000001
 43
0.0000001
 44
0.0000000001
 40
0.0
 40
0.0
 40
0.0
 40
0.0
 40
0.5160254047
 40
1.0
 40
1.0
 40
1.0
 40
1.0
 10
16.2823099505
 20
12.7798102812
 30
0.0
 10
16.2837905718
 20
12.7767930922
 30
0.0
 10
16.2862559321
 20
12.7707347231
 30
0.0
 10
16.2876962604
 20
12.7643426765
 30
0.0
 10
16.2880895679
 20
12.7612151559
 30
0.0
  0
SPLINE
  5
30C
100
AcDbEntity
  8
0
100
AcDbSpline
 62
7
  6
CONTINUOUS
 70
0
 71
3
 72
10
 73
6
 74
0
 42
0.0000001
 43
0.0000001
 44
0.0000000001
 40
0.0
 40
0.0
 40
0.0
 40
0.0
 40
0.5075126958
 40
0.7547570353
 40
1.0
 40
1.0
 40
1.0
 40
1.0
 10
16.2880895679
 20
12.7612151559
 30
0.0
 10
16.2884798554
 20
12.7581116487
 30
0.0
 10
16.2886134984
 20
12.7534175697
 30
0.0
 10
16.2877870175
 20
12.7473013454
 30
0.0
 10
16.2870513613
 20
12.7443484335
 30
0.0
 10
16.2866047912
 20
12.7429044032
 30
0.0
  0
SPLINE
  5
30D
100
AcDbEntity
  8
0
100
AcDbSpline
 62
7
  6
CONTINUOUS
 70
0
 71
3
 72
16
 73
12
 74
0
 42
0.0000001
 43
0.0000001
 44
0.0000000001
 40
0.0
 40
0.0
 40
0.0
 40
0.0
 40
0.1242809109
 40
0.2532261232
 40
0.3845245812
 40
0.5159882705
 40
0.6453152694
 40
0.7703061702
 40
0.8305820876
 40
0.8890783901
 40
1.0
 40
1.0
 40
1.0
 40
1.0
 10
16.1235760111
 20
12.8558943578
 30
0.0
 10
16.130430935
 20
12.8558943578
 30
0.0
 10
16.1444062319
 20
12.8551160453
 30
0.0
 10
16.1653935464
 20
12.851853459
 30
0.0
 10
16.1863678427
 20
12.8465401732
 30
0.0
 10
16.2067842326
 20
12.8393156359
 30
0.0
 10
16.2261289703
 20
12.830378795
 30
0.0
 10
16.241121205
 20
12.8215759296
 30
0.0
 10
16.2521267251
 20
12.8138403654
 30
0.0
 10
16.2620655679
 20
12.8059778887
 30
0.0
 10
16.2688771522
 20
12.7995304752
 30
0.0
 10
16.273004506
 20
12.7950143131
 30
0.0
  0
SPLINE
  5
30E
100
AcDbEntity
  8
0
100
AcDbSpline
 62
7
  6
CONTINUOUS
 70
0
 71
3
 72
14
 73
10
 74
0
 42
0.0000001
 43
0.0000001
 44
0.0000000001
 40
0.0
 40
0.0
 40
0.0
 40
0.0
 40
0.272354224
 40
0.4005692115
 40
0.5243131142
 40
0.6447375455
 40
0.7631912585
 40
0.8811252218
 40
1.0
 40
1.0
 40
1.0
 40
1.0
 10
14.4167556145
 20
11.9886501025
 30
0.0
 10
14.41471758
 20
11.9928031801
 30
0.0
 10
14.412251827
 20
11.9992123102
 30
0.0
 10
14.4104868715
 20
12.0079579158
 30
0.0
 10
14.4099867188
 20
12.0142804475
 30
0.0
 10
14.4102878869
 20
12.0204498348
 30
0.0
 10
14.411387696
 20
12.0264290896
 30
0.0
 10
14.4132836954
 20
12.0321769127
 30
0.0
 10
14.4150551701
 20
12.0358039404
 30
0.0
 10
14.4160575143
 20
12.0375567869
 30
0.0
  0
SPLINE
  5
30F
100
AcDbEntity
  8
0
100
AcDbSpline
 62
7
  6
CONTINUOUS
 70
0
 71
3
 72
13
 73
9
 74
0
 42
0.0000001
 43
0.0000001
 44
0.0000000001
 40
0.0
 40
0.0
 40
0.0
 40
0.0
 40
0.1080315357
 40
0.219423982
 40
0.3352023032
 40
0.4561635486
 40
0.715522768
 40
1.0
 40
1.0
 40
1.0
 40
1.0
 10
14.4160575143
 20
12.0375567869
 30
0.0
 10
14.4171187504
 20
12.0394126204
 30
0.0
 10
14.4195372185
 20
12.0430374649
 30
0.0
 10
14.4239170814
 20
12.0480412354
 30
0.0
 10
14.429059068
 20
12.0526498797
 30
0.0
 10
14.4370646734
 20
12.0583621624
 30
0.0
 10
14.4489016927
 20
12.0642896835
 30
0.0
 10
14.4592329427
 20
12.067460483
 30
0.0
 10
14.4647130793
 20
12.0687487288
 30
0.0
  0
SPLINE
  5
310
100
AcDbEntity
  8
0
100
AcDbSpline
 62
7
  6
CONTINUOUS
 70
0
 71
3
 72
16
 73
12
 74
0
 42
0.0000001
 43
0.0000001
 44
0.0000000001
 40
0.0
 40
0.0
 40
0.0
 40
0.0
 40
0.1386576173
 40
0.2772228646
 40
0.4135460995
 40
0.5455800372
 40
0.6714794174
 40
0.7316600452
 40
0.7897942604
 40
0.8994673111
 40
1.0
 40
1.0
 40
1.0
 40
1.0
 10
14.5373542759
 20
11.9097750615
 30
0.0
 10
14.530655074
 20
11.9112407882
 30
0.0
 10
14.5173847163
 20
11.914769817
 30
0.0
 10
14.4981257081
 20
11.9217281343
 30
0.0
 10
14.479849794
 20
11.9302226066
 30
0.0
 10
14.462981236
 20
11.9400601218
 30
0.0
 10
14.450222797
 20
11.9493223171
 30
0.0
 10
14.441086568
 20
11.9572324726
 30
0.0
 10
14.433016454
 20
11.965115804
 30
0.0
 10
14.4244200726
 20
11.9752807918
 30
0.0
 10
14.4189460389
 20
11.9841864868
 30
0.0
 10
14.4167556145
 20
11.9886501025
 30
0.0
  0
SPLINE
  5
311
100
AcDbEntity
  8
0
100
AcDbSpline
 62
7
  6
CONTINUOUS
 70
0
 71
3
 72
13
 73
9
 74
0
 42
0.0000001
 43
0.0000001
 44
0.0000000001
 40
0.0
 40
0.0
 40
0.0
 40
0.0
 40
0.2711952982
 40
0.5251947347
 40
0.6469921354
 40
0.7661612324
 40
0.8835343107
 40
1.0
 40
1.0
 40
1.0
 40
1.0
 10
14.4283868876
 20
11.9964833716
 30
0.0
 10
14.4268719546
 20
11.9995704805
 30
0.0
 10
14.4243602606
 20
12.0057713694
 30
0.0
 10
14.4225951268
 20
12.0138332784
 30
0.0
 10
14.4221666363
 20
12.0201043174
 30
0.0
 10
14.4223168818
 20
12.0246539489
 30
0.0
 10
14.4229333678
 20
12.029095535
 30
0.0
 10
14.4236557309
 20
12.0319783767
 30
0.0
 10
14.424092047
 20
12.0333892495
 30
0.0
  0
SPLINE
  5
312
100
AcDbEntity
  8
0
100
AcDbSpline
 62
7
  6
CONTINUOUS
 70
0
 71
3
 72
9
 73
5
 74
0
 42
0.0000001
 43
0.0000001
 44
0.0000000001
 40
0.0
 40
0.0
 40
0.0
 40
0.0
 40
0.5106980003
 40
1.0
 40
1.0
 40
1.0
 40
1.0
 10
16.008283283
 20
11.8345986056
 30
0.0
 10
16.008391427
 20
11.8331076409
 30
0.0
 10
16.0084032726
 20
11.8301695865
 30
0.0
 10
16.007899301
 20
11.8272593672
 30
0.0
 10
16.0074765023
 20
11.8258909415
 30
0.0
  0
SPLINE
  5
313
100
AcDbEntity
  8
0
100
AcDbSpline
 62
7
  6
CONTINUOUS
 70
0
 71
3
 72
9
 73
5
 74
0
 42
0.0000001
 43
0.0000001
 44
0.0000000001
 40
0.0
 40
0.0
 40
0.0
 40
0.0
 40
0.5014660224
 40
1.0
 40
1.0
 40
1.0
 40
1.0
 10
16.0062492756
 20
11.8441654518
 30
0.0
 10
16.0067917676
 20
11.8426194543
 30
0.0
 10
16.0076842618
 20
11.8394669196
 30
0.0
 10
16.0081654483
 20
11.8362231738
 30
0.0
 10
16.008283283
 20
11.8345986056
 30
0.0
  0
SPLINE
  5
314
100
AcDbEntity
  8
0
100
AcDbSpline
 62
7
  6
CONTINUOUS
 70
0
 71
3
 72
15
 73
11
 74
0
 42
0.0000001
 43
0.0000001
 44
0.0000000001
 40
0.0
 40
0.0
 40
0.0
 40
0.0
 40
0.1279610169
 40
0.2529459738
 40
0.3759753763
 40
0.4981421302
 40
0.6205724428
 40
0.7443540744
 40
0.8705136726
 40
1.0
 40
1.0
 40
1.0
 40
1.0
 10
15.9758245699
 20
11.7178202749
 30
0.0
 10
15.9760465009
 20
11.7160329161
 30
0.0
 10
15.9763040418
 20
11.7124739953
 30
0.0
 10
15.9761073842
 20
11.7071751879
 30
0.0
 10
15.975324146
 20
11.7020122253
 30
0.0
 10
15.9739553784
 20
11.6970098306
 30
0.0
 10
15.9720071537
 20
11.6921921297
 30
0.0
 10
15.9694921661
 20
11.687580815
 30
0.0
 10
15.9664229026
 20
11.6831978029
 30
0.0
 10
15.964050105
 20
11.6804825648
 30
0.0
 10
15.9627842138
 20
11.6791713742
 30
0.0
  0
SPLINE
  5
315
100
AcDbEntity
  8
0
100
AcDbSpline
 62
7
  6
CONTINUOUS
 70
0
 71
3
 72
14
 73
10
 74
0
 42
0.0000001
 43
0.0000001
 44
0.0000000001
 40
0.0
 40
0.0
 40
0.0
 40
0.0
 40
0.3311687509
 40
0.4761342343
 40
0.6059377155
 40
0.7208768932
 40
0.8226544779
 40
0.9141910063
 40
1.0
 40
1.0
 40
1.0
 40
1.0
 10
15.7504130755
 20
12.6428297736
 30
0.0
 10
15.7506645343
 20
12.6436434947
 30
0.0
 10
15.7510964159
 20
12.6447962834
 30
0.0
 10
15.7518363812
 20
12.6461701517
 30
0.0
 10
15.7524073853
 20
12.6469970109
 30
0.0
 10
15.7530135732
 20
12.6476551249
 30
0.0
 10
15.7536489766
 20
12.6481379236
 30
0.0
 10
15.7543095247
 20
12.6484369412
 30
0.0
 10
15.7547680196
 20
12.6485050628
 30
0.0
 10
15.7549887003
 20
12.6485049688
 30
0.0
  0
SPLINE
  5
316
100
AcDbEntity
  8
0
100
AcDbSpline
 62
7
  6
CONTINUOUS
 70
0
 71
3
 72
9
 73
5
 74
0
 42
0.0000001
 43
0.0000001
 44
0.0000000001
 40
0.0
 40
0.0
 40
0.0
 40
0.0
 40
0.2514606804
 40
1.0
 40
1.0
 40
1.0
 40
1.0
 10
15.6141478699
 20
12.1571670896
 30
0.0
 10
15.6136555092
 20
12.1577351049
 30
0.0
 10
15.6116991277
 20
12.1599921246
 30
0.0
 10
15.6098251559
 20
12.1623461216
 30
0.0
 10
15.6086713969
 20
12.1642633887
 30
0.0
  0
SPLINE
  5
317
100
AcDbEntity
  8
0
100
AcDbSpline
 62
7
  6
CONTINUOUS
 70
0
 71
3
 72
11
 73
7
 74
0
 42
0.0000001
 43
0.0000001
 44
0.0000000001
 40
0.0
 40
0.0
 40
0.0
 40
0.0
 40
0.241666419
 40
0.4849561454
 40
0.7352994014
 40
1.0
 40
1.0
 40
1.0
 40
1.0
 10
15.6086713969
 20
12.1642633887
 30
0.0
 10
15.6080975035
 20
12.1652170601
 30
0.0
 10
15.6070686639
 20
12.1672110266
 30
0.0
 10
15.6060795383
 20
12.1704744576
 30
0.0
 10
15.6058330429
 20
12.1739904654
 30
0.0
 10
15.6062610803
 20
12.1763537463
 30
0.0
 10
15.6066210225
 20
12.1775185197
 30
0.0
  0
SPLINE
  5
318
100
AcDbEntity
  8
0
100
AcDbSpline
 62
7
  6
CONTINUOUS
 70
0
 71
3
 72
15
 73
11
 74
0
 42
0.0000001
 43
0.0000001
 44
0.0000000001
 40
0.0
 40
0.0
 40
0.0
 40
0.0
 40
0.1024386236
 40
0.2191725723
 40
0.3465919609
 40
0.4807546543
 40
0.6175151393
 40
0.752578908
 40
0.8815920975
 40
1.0
 40
1.0
 40
1.0
 40
1.0
 10
15.7005237807
 20
12.4572570694
 30
0.0
 10
15.7002006005
 20
12.4579156415
 30
0.0
 10
15.6996285697
 20
12.4593835235
 30
0.0
 10
15.6989923295
 20
12.4617863778
 30
0.0
 10
15.6985499527
 20
12.4644629856
 30
0.0
 10
15.6983139536
 20
12.4673087042
 30
0.0
 10
15.6982961634
 20
12.4702187939
 30
0.0
 10
15.6984947894
 20
12.4730854721
 30
0.0
 10
15.6989067253
 20
12.475796354
 30
0.0
 10
15.6993287905
 20
12.4775209669
 30
0.0
 10
15.6995791476
 20
12.4783311226
 30
0.0
  0
SPLINE
  5
319
100
AcDbEntity
  8
0
100
AcDbSpline
 62
7
  6
CONTINUOUS
 70
0
 71
3
 72
9
 73
5
 74
0
 42
0.0000001
 43
0.0000001
 44
0.0000000001
 40
0.0
 40
0.0
 40
0.0
 40
0.0
 40
0.5163968685
 40
1.0
 40
1.0
 40
1.0
 40
1.0
 10
16.1267512135
 20
12.3049562116
 30
0.0
 10
16.1292053819
 20
12.3019935247
 30
0.0
 10
16.1336744402
 20
12.2960130474
 30
0.0
 10
16.1374230774
 20
12.2895486972
 30
0.0
 10
16.1390102753
 20
12.286314328
 30
0.0
  0
SPLINE
  5
31A
100
AcDbEntity
  8
0
100
AcDbSpline
 62
7
  6
CONTINUOUS
 70
0
 71
3
 72
9
 73
5
 74
0
 42
0.0000001
 43
0.0000001
 44
0.0000000001
 40
0.0
 40
0.0
 40
0.0
 40
0.0
 40
0.5203369998
 40
1.0
 40
1.0
 40
1.0
 40
1.0
 10
14.5937249825
 20
12.4604162555
 30
0.0
 10
14.5905946983
 20
12.4638101007
 30
0.0
 10
14.5849579169
 20
12.4706977272
 30
0.0
 10
14.5803430078
 20
12.478325208
 30
0.0
 10
14.5784680081
 20
12.4821460555
 30
0.0
  0
SPLINE
  5
31B
100
AcDbEntity
  8
0
100
AcDbSpline
 62
7
  6
CONTINUOUS
 70
0
 71
3
 72
14
 73
10
 74
0
 42
0.0000001
 43
0.0000001
 44
0.0000000001
 40
0.0
 40
0.0
 40
0.0
 40
0.0
 40
0.2632951814
 40
0.3891810604
 40
0.5123533361
 40
0.6338874762
 40
0.7549193011
 40
0.8765849748
 40
1.0
 40
1.0
 40
1.0
 40
1.0
 10
15.8862247284
 20
12.296627334
 30
0.0
 10
15.8851023531
 20
12.3002812546
 30
0.0
 10
15.8839265402
 20
12.3058601126
 30
0.0
 10
15.8836037995
 20
12.3133032237
 30
0.0
 10
15.8839768586
 20
12.3186828552
 30
0.0
 10
15.8849624916
 20
12.3239126804
 30
0.0
 10
15.8865570829
 20
12.3289676493
 30
0.0
 10
15.8887510306
 20
12.333821761
 30
0.0
 10
15.8905900141
 20
12.3368785101
 30
0.0
 10
15.8915984276
 20
12.3383594753
 30
0.0
  0
SPLINE
  5
31C
100
AcDbEntity
  8
0
100
AcDbSpline
 62
7
  6
CONTINUOUS
 70
0
 71
3
 72
13
 73
9
 74
0
 42
0.0000001
 43
0.0000001
 44
0.0000000001
 40
0.0
 40
0.0
 40
0.0
 40
0.0
 40
0.1085314732
 40
0.2206642321
 40
0.4583515048
 40
0.5852157827
 40
0.7177341693
 40
1.0
 40
1.0
 40
1.0
 40
1.0
 10
15.8915984276
 20
12.3383594753
 30
0.0
 10
15.8927319008
 20
12.3400241044
 30
0.0
 10
15.8952529578
 20
12.3432659646
 30
0.0
 10
15.9012293031
 20
12.3493381212
 30
0.0
 10
15.9084422457
 20
12.3545789777
 30
0.0
 10
15.9165664212
 20
12.358960085
 30
0.0
 10
15.9257893658
 20
12.3629800452
 30
0.0
 10
15.9331906614
 20
12.3652140857
 30
0.0
 10
15.9382891147
 20
12.3664136602
 30
0.0
  0
SPLINE
  5
31D
100
AcDbEntity
  8
0
100
AcDbSpline
 62
7
  6
CONTINUOUS
 70
0
 71
3
 72
9
 73
5
 74
0
 42
0.0000001
 43
0.0000001
 44
0.0000000001
 40
0.0
 40
0.0
 40
0.0
 40
0.0
 40
0.5149745245
 40
1.0
 40
1.0
 40
1.0
 40
1.0
 10
16.1390102753
 20
12.286314328
 30
0.0
 10
16.1404888038
 20
12.2833014035
 30
0.0
 10
16.1429858114
 20
12.277256251
 30
0.0
 10
16.1445501513
 20
12.2708962603
 30
0.0
 10
16.1450345216
 20
12.267772621
 30
0.0
  0
SPLINE
  5
31E
100
AcDbEntity
  8
0
100
AcDbSpline
 62
7
  6
CONTINUOUS
 70
0
 71
3
 72
15
 73
11
 74
0
 42
0.0000001
 43
0.0000001
 44
0.0000000001
 40
0.0
 40
0.0
 40
0.0
 40
0.0
 40
0.1268730042
 40
0.2500884274
 40
0.3711615482
 40
0.4917180514
 40
0.6133870644
 40
0.7377508654
 40
0.8662373784
 40
1.0
 40
1.0
 40
1.0
 40
1.0
 10
16.1450345216
 20
12.267772621
 30
0.0
 10
16.1453749049
 20
12.2655775347
 30
0.0
 10
16.1457796373
 20
12.261203239
 30
0.0
 10
16.1455099724
 20
12.2546909029
 30
0.0
 10
16.1443532101
 20
12.2483865562
 30
0.0
 10
16.1423146789
 20
12.2423383611
 30
0.0
 10
16.1394116397
 20
12.2365901447
 30
0.0
 10
16.1356592194
 20
12.2311879438
 30
0.0
 10
16.1310906374
 20
12.2261699293
 30
0.0
 10
16.1276036461
 20
12.22316443
 30
0.0
 10
16.1257495055
 20
12.221733741
 30
0.0
  0
SPLINE
  5
31F
100
AcDbEntity
  8
0
100
AcDbSpline
 62
7
  6
CONTINUOUS
 70
0
 71
3
 72
11
 73
7
 74
0
 42
0.0000001
 43
0.0000001
 44
0.0000000001
 40
0.0
 40
0.0
 40
0.0
 40
0.0
 40
0.3137866121
 40
0.5815480246
 40
0.8065561641
 40
1.0
 40
1.0
 40
1.0
 40
1.0
 10
15.6422357269
 20
10.9037931834
 30
0.0
 10
15.6423440718
 20
10.903424523
 30
0.0
 10
15.6425704207
 20
10.9027480163
 30
0.0
 10
15.6429941828
 20
10.9018520756
 30
0.0
 10
15.6434874498
 20
10.9011639752
 30
0.0
 10
15.6438995812
 20
10.9008408046
 30
0.0
 10
15.6441110821
 20
10.9007341207
 30
0.0
  0
SPLINE
  5
320
100
AcDbEntity
  8
0
100
AcDbSpline
 62
7
  6
CONTINUOUS
 70
0
 71
3
 72
15
 73
11
 74
0
 42
0.0000001
 43
0.0000001
 44
0.0000000001
 40
0.0
 40
0.0
 40
0.0
 40
0.0
 40
0.1384477179
 40
0.2769561502
 40
0.4133279418
 40
0.5454652011
 40
0.6714796368
 40
0.7898240571
 40
0.8995191317
 40
1.0
 40
1.0
 40
1.0
 40
1.0
 10
14.5415198547
 20
11.9231349929
 30
0.0
 10
14.5352494905
 20
11.9244605147
 30
0.0
 10
14.5228192356
 20
11.9276805818
 30
0.0
 10
14.50476582
 20
11.9340886074
 30
0.0
 10
14.48761731
 20
11.9419575604
 30
0.0
 10
14.4717767539
 20
11.9511038529
 30
0.0
 10
14.457609929
 20
11.9613106806
 30
0.0
 10
14.4454428631
 20
11.9723526619
 30
0.0
 10
14.4355674468
 20
11.9839766772
 30
0.0
 10
14.4304360275
 20
11.9923076635
 30
0.0
 10
14.4283868876
 20
11.9964833716
 30
0.0
  0
SPLINE
  5
321
100
AcDbEntity
  8
0
100
AcDbSpline
 62
7
  6
CONTINUOUS
 70
0
 71
3
 72
13
 73
9
 74
0
 42
0.0000001
 43
0.0000001
 44
0.0000000001
 40
0.0
 40
0.0
 40
0.0
 40
0.0
 40
0.2711952982
 40
0.5251947347
 40
0.6469921354
 40
0.7661612324
 40
0.8835343107
 40
1.0
 40
1.0
 40
1.0
 40
1.0
 10
14.5784680081
 20
12.4821460555
 30
0.0
 10
14.5769530751
 20
12.4852331644
 30
0.0
 10
14.5744413812
 20
12.4914340533
 30
0.0
 10
14.5726762473
 20
12.4994959623
 30
0.0
 10
14.5722477568
 20
12.5057670014
 30
0.0
 10
14.5723980023
 20
12.5103166329
 30
0.0
 10
14.5730144884
 20
12.514758219
 30
0.0
 10
14.5737368514
 20
12.5176410606
 30
0.0
 10
14.5741731675
 20
12.5190519335
 30
0.0
  0
SPLINE
  5
322
100
AcDbEntity
  8
0
100
AcDbSpline
 62
7
  6
CONTINUOUS
 70
0
 71
3
 72
9
 73
5
 74
0
 42
0.0000001
 43
0.0000001
 44
0.0000000001
 40
0.0
 40
0.0
 40
0.0
 40
0.0
 40
0.5163968685
 40
1.0
 40
1.0
 40
1.0
 40
1.0
 10
16.276832334
 20
12.7906188956
 30
0.0
 10
16.2792865024
 20
12.7876562087
 30
0.0
 10
16.2837555607
 20
12.7816757313
 30
0.0
 10
16.2875041979
 20
12.7752113812
 30
0.0
 10
16.2890913958
 20
12.7719770119
 30
0.0
  0
LINE
  5
323
100
AcDbEntity
  8
0
100
AcDbLine
 62
7
  6
CONTINUOUS
 10
15.3930537567
 20
10.9005431224
 11
15.3914785492
 21
10.9009627717
  0
SPLINE
  5
324
100
AcDbEntity
  8
0
100
AcDbSpline
 62
7
  6
CONTINUOUS
 70
0
 71
3
 72
9
 73
5
 74
0
 42
0.0000001
 43
0.0000001
 44
0.0000000001
 40
0.0
 40
0.0
 40
0.0
 40
0.0
 40
0.4541291098
 40
1.0
 40
1.0
 40
1.0
 40
1.0
 10
15.3914785492
 20
10.9009627717
 30
0.0
 10
15.3909175628
 20
10.9012459532
 30
0.0
 10
15.389796999
 20
10.9020951314
 30
0.0
 10
15.3889118022
 20
10.9031707569
 30
0.0
 10
15.3884838409
 20
10.9037931834
 30
0.0
  0
SPLINE
  5
325
100
AcDbEntity
  8
0
100
AcDbSpline
 62
7
  6
CONTINUOUS
 70
0
 71
3
 72
15
 73
11
 74
0
 42
0.0000001
 43
0.0000001
 44
0.0000000001
 40
0.0
 40
0.0
 40
0.0
 40
0.0
 40
0.1393614483
 40
0.2724933485
 40
0.4000399175
 40
0.5230319768
 40
0.6428969807
 40
0.7612355244
 40
0.8797200227
 40
1.0
 40
1.0
 40
1.0
 40
1.0
 10
14.5668445565
 20
12.474314172
 30
0.0
 10
14.5657258495
 20
12.4765938573
 30
0.0
 10
14.5637551497
 20
12.4811628489
 30
0.0
 10
14.5616125788
 20
12.4881462835
 30
0.0
 10
14.5603761547
 20
12.4950461462
 30
0.0
 10
14.5600651571
 20
12.5018089366
 30
0.0
 10
14.5606781882
 20
12.5083841209
 30
0.0
 10
14.5622158376
 20
12.5147231869
 30
0.0
 10
14.5646649889
 20
12.5207754912
 30
0.0
 10
14.5668693103
 20
12.5245463397
 30
0.0
 10
14.5681028542
 20
12.5263579336
 30
0.0
  0
SPLINE
  5
326
100
AcDbEntity
  8
0
100
AcDbSpline
 62
7
  6
CONTINUOUS
 70
0
 71
3
 72
13
 73
9
 74
0
 42
0.0000001
 43
0.0000001
 44
0.0000000001
 40
0.0
 40
0.0
 40
0.0
 40
0.0
 40
0.1085314732
 40
0.2206642321
 40
0.4583515048
 40
0.5852157827
 40
0.7177341693
 40
1.0
 40
1.0
 40
1.0
 40
1.0
 10
14.5681028542
 20
12.5263579336
 30
0.0
 10
14.5692363274
 20
12.5280225627
 30
0.0
 10
14.5717573845
 20
12.5312644229
 30
0.0
 10
14.5777337297
 20
12.5373365796
 30
0.0
 10
14.5849466723
 20
12.542577436
 30
0.0
 10
14.5930708478
 20
12.5469585433
 30
0.0
 10
14.6022937924
 20
12.5509785035
 30
0.0
 10
14.609695088
 20
12.553212544
 30
0.0
 10
14.6147935414
 20
12.5544121185
 30
0.0
  0
SPLINE
  5
327
100
AcDbEntity
  8
0
100
AcDbSpline
 62
7
  6
CONTINUOUS
 70
0
 71
3
 72
9
 73
5
 74
0
 42
0.0000001
 43
0.0000001
 44
0.0000000001
 40
0.0
 40
0.0
 40
0.0
 40
0.0
 40
0.2594227575
 40
1.0
 40
1.0
 40
1.0
 40
1.0
 10
14.5753676367
 20
12.4604405438
 30
0.0
 10
14.5745301201
 20
12.4615736875
 30
0.0
 10
14.5713905868
 20
12.4660057922
 30
0.0
 10
14.5686166215
 20
12.4707030834
 30
0.0
 10
14.5668445565
 20
12.474314172
 30
0.0
  0
SPLINE
  5
328
100
AcDbEntity
  8
0
100
AcDbSpline
 62
7
  6
CONTINUOUS
 70
0
 71
3
 72
13
 73
9
 74
0
 42
0.0000001
 43
0.0000001
 44
0.0000000001
 40
0.0
 40
0.0
 40
0.0
 40
0.0
 40
0.1118465309
 40
0.2299181808
 40
0.3528811738
 40
0.4793412977
 40
0.7380704402
 40
1.0
 40
1.0
 40
1.0
 40
1.0
 10
15.8433712005
 20
12.9436423764
 30
0.0
 10
15.8436917613
 20
12.9446797116
 30
0.0
 10
15.8445780195
 20
12.9467446724
 30
0.0
 10
15.8464217009
 20
12.9496438786
 30
0.0
 10
15.8487047456
 20
12.9523951064
 30
0.0
 10
15.8522193417
 20
12.9558650807
 30
0.0
 10
15.8571754972
 20
12.9597505839
 30
0.0
 10
15.8613672131
 20
12.9625734866
 30
0.0
 10
15.863476183
 20
12.9639938065
 30
0.0
  0
SPLINE
  5
329
100
AcDbEntity
  8
0
100
AcDbSpline
 62
7
  6
CONTINUOUS
 70
0
 71
3
 72
14
 73
10
 74
0
 42
0.0000001
 43
0.0000001
 44
0.0000000001
 40
0.0
 40
0.0
 40
0.0
 40
0.0
 40
0.2632951814
 40
0.3891810604
 40
0.5123533361
 40
0.6338874762
 40
0.7549193011
 40
0.8765849748
 40
1.0
 40
1.0
 40
1.0
 40
1.0
 10
16.036305849
 20
12.7822900179
 30
0.0
 10
16.0351834736
 20
12.7859439385
 30
0.0
 10
16.0340076608
 20
12.7915227966
 30
0.0
 10
16.03368492
 20
12.7989659076
 30
0.0
 10
16.0340579791
 20
12.8043455392
 30
0.0
 10
16.0350436121
 20
12.8095753643
 30
0.0
 10
16.0366382034
 20
12.8146303333
 30
0.0
 10
16.0388321511
 20
12.819484445
 30
0.0
 10
16.0406711347
 20
12.8225411941
 30
0.0
 10
16.0416795481
 20
12.8240221593
 30
0.0
  0
SPLINE
  5
32A
100
AcDbEntity
  8
0
100
AcDbSpline
 62
7
  6
CONTINUOUS
 70
0
 71
3
 72
13
 73
9
 74
0
 42
0.0000001
 43
0.0000001
 44
0.0000000001
 40
0.0
 40
0.0
 40
0.0
 40
0.0
 40
0.1085314732
 40
0.2206642321
 40
0.4583515048
 40
0.5852157827
 40
0.7177341693
 40
1.0
 40
1.0
 40
1.0
 40
1.0
 10
16.0416795481
 20
12.8240221593
 30
0.0
 10
16.0428130213
 20
12.8256867884
 30
0.0
 10
16.0453340784
 20
12.8289286485
 30
0.0
 10
16.0513104236
 20
12.8350008052
 30
0.0
 10
16.0585233662
 20
12.8402416616
 30
0.0
 10
16.0666475417
 20
12.844622769
 30
0.0
 10
16.0758704863
 20
12.8486427292
 30
0.0
 10
16.0832717819
 20
12.8508767697
 30
0.0
 10
16.0883702353
 20
12.8520763442
 30
0.0
  0
SPLINE
  5
32B
100
AcDbEntity
  8
0
100
AcDbSpline
 62
7
  6
CONTINUOUS
 70
0
 71
3
 72
9
 73
5
 74
0
 42
0.0000001
 43
0.0000001
 44
0.0000000001
 40
0.0
 40
0.0
 40
0.0
 40
0.0
 40
0.5149745245
 40
1.0
 40
1.0
 40
1.0
 40
1.0
 10
16.2890913958
 20
12.7719770119
 30
0.0
 10
16.2905699243
 20
12.7689640875
 30
0.0
 10
16.2930669319
 20
12.762918935
 30
0.0
 10
16.2946312719
 20
12.7565589443
 30
0.0
 10
16.2951156421
 20
12.7534353049
 30
0.0
  0
SPLINE
  5
32C
100
AcDbEntity
  8
0
100
AcDbSpline
 62
7
  6
CONTINUOUS
 70
0
 71
3
 72
15
 73
11
 74
0
 42
0.0000001
 43
0.0000001
 44
0.0000000001
 40
0.0
 40
0.0
 40
0.0
 40
0.0
 40
0.1268730042
 40
0.2500884274
 40
0.3711615482
 40
0.4917180514
 40
0.6133870644
 40
0.7377508654
 40
0.8662373784
 40
1.0
 40
1.0
 40
1.0
 40
1.0
 10
16.2951156421
 20
12.7534353049
 30
0.0
 10
16.2954560254
 20
12.7512402186
 30
0.0
 10
16.2958607578
 20
12.746865923
 30
0.0
 10
16.295591093
 20
12.7403535868
 30
0.0
 10
16.2944343306
 20
12.7340492401
 30
0.0
 10
16.2923957994
 20
12.7280010451
 30
0.0
 10
16.2894927603
 20
12.7222528287
 30
0.0
 10
16.2857403399
 20
12.7168506277
 30
0.0
 10
16.2811717579
 20
12.7118326133
 30
0.0
 10
16.2776847666
 20
12.7088271139
 30
0.0
 10
16.275830626
 20
12.707396425
 30
0.0
  0
ENDSEC
  0
SECTION
  2
OBJECTS
  0
DICTIONARY
  5
C
100
AcDbDictionary
280
0
281
1
  3
ACAD_GROUP
350
D
  3
ACAD_MLINESTYLE
350
17
  3
ACAD_LAYOUT
350
1A
  3
ACAD_PLOTSETTINGS
350
19
  3
ACAD_PLOTSTYLENAME
350
E
  0
DICTIONARY
  5
D
102
{ACAD_REACTORS
330
C
102
}
100
AcDbDictionary
280
0
281
1
  0
ACDBDICTIONARYWDFLT
  5
E
102
{ACAD_REACTORS
330
C
102
}
100
AcDbDictionary
281
1
  3
Normal
350
F
100
AcDbDictionaryWithDefault
340
F
  0
DICTIONARY
  5
17
102
{ACAD_REACTORS
330
C
102
}
100
AcDbDictionary
280
0
281
1
  3
Standard
350
18
  0
DICTIONARY
  5
19
102
{ACAD_REACTORS
330
C
102
}
100
AcDbDictionary
281
1
  0
DICTIONARY
  5
1A
102
{ACAD_REACTORS
330
C
102
}
100
AcDbDictionary
281
1
  3
Model
350
32D
  3
Layout1
350
32E
  0
ACDBPLACEHOLDER
  5
F
102
{ACAD_REACTORS
330
E
102
}
  0
MLINESTYLE
  5
18
102
{ACAD_REACTORS
330
17
102
}
100
AcDbMlineStyle
  2
STANDARD
 70
0
  3

 62
256
 51
90.0
 52
90.0
 71
2
 49
0.5
 62
256
  6
BYLAYER
 49
-0.5
 62
256
  6
BYLAYER
  0
LAYOUT
  5
32D
102
{ACAD_REACTORS
330
1A
102
}
100
AcDbPlotSettings
  1

  2
none_device
  4
ANSI_C_(22.00_x_17.00_Inches)
  6

 40
0.0
 41
0.0
 42
0.0
 43
0.0
 44
558.8
 45
431.8
 46
0.0
 47
0.0
 48
0.0
 49
0.0
140
0.0
141
0.0
142
1.0
143
1.0
 70
1024
 72
0
 73
0
 74
0
  7

 75
0
147
1.0
148
0.0
149
0.0
100
AcDbLayout
  1
Model
 70
0
 71
0
 10
0.0
 20
0.0
 11
22.0
 21
17.0
 12
0.0
 22
0.0
 32
0.0
 14
0.0
 24
0.0
 34
0.0
 15
0.0
 25
0.0
 35
0.0
146
0.0
 13
0.0
 23
0.0
 33
0.0
 16
1.0
 26
0.0
 36
0.0
 17
0.0
 27
1.0
 37
0.0
 76
0
330
218
345
0
346
0
  0
LAYOUT
  5
32E
102
{ACAD_REACTORS
330
1A
102
}
100
AcDbPlotSettings
  1

  2
none_device
  4
ANSI_C_(22.00_x_17.00_Inches)
  6

 40
0.0
 41
0.0
 42
0.0
 43
0.0
 44
558.8
 45
431.8
 46
0.0
 47
0.0
 48
0.0
 49
0.0
140
0.0
141
0.0
142
1.0
143
1.0
 70
0
 72
0
 73
0
 74
0
  7

 75
0
147
1.0
148
0.0
149
0.0
100
AcDbLayout
  1
Layout1
 70
0
 71
1
 10
0.0
 20
0.0
 11
22.0
 21
17.0
 12
0.0
 22
0.0
 32
0.0
 14
0.0
 24
0.0
 34
0.0
 15
0.0
 25
0.0
 35
0.0
146
0.0
 13
0.0
 23
0.0
 33
0.0
 16
1.0
 26
0.0
 36
0.0
 17
0.0
 27
1.0
 37
0.0
 76
0
330
219
345
0
346
0
  0
ENDSEC
  0
EOF