999
DXF file: _cgs_temp_output.dxf
999
Pro/ENGINEER 2016360 by Parametric Technology Corporation
  0
SECTION
  2
HEADER
  9
$ACADVER
  1
AC1021
  9
$DWGCODEPAGE
  3
ANSI_1252
  9
$EXTMAX
 10
22.0
 20
17.0
 30
0.0
  9
$EXTMIN
 10
0.0
 20
0.0
 30
0.0
  9
$LIMMIN
 10
0.0
 20
0.0
  9
$LIMMAX
 10
22.0
 20
17.0
  9
$VIEWCTR
 10
11.0
 20
8.5
  9
$VIEWSIZE
 40
17.0
  9
$CLAYER
  8
0
  9
$LTSCALE
 40
1.21
  9
$CELTYPE
  6
BYLAYER
  9
$DIMSCALE
 40
1.0
  9
$DIMASZ
 40
0.1875
  9
$DIMEXO
 40
0.0625
  9
$DIMDLI
 40
0.836
  9
$DIMEXE
 40
0.125
  9
$DIMCEN
 40
0.198
  9
$DIMLFAC
 40
1.0
  9
$DIMBLK
  1
_CLOSED
  9
$DIMALT
 70
0
  9
$DIMALTF
 40
25.4
  9
$DIMTXT
 40
0.15625
  9
$DIMTOL
 70
0
  9
$DIMLIM
 70
0
  9
$DIMTFAC
 40
1.0
  9
$DIMGAP
 40
0.09
  9
$DIMDSEP
 70
46
  9
$AUNITS
 70
0
  9
$PDMODE
 70
3
  9
$PDSIZE
 40
0.3125
  9
$HANDSEED
  5
642
  9
$TILEMODE
 70
1
  9
$MEASUREMENT
 70
0
  9
$INSUNITS
 70
1
  0
ENDSEC
  0
SECTION
  2
CLASSES
  0
CLASS
  1
ACDBDICTIONARYWDFLT
  2
AcDbDictionaryWithDefault
  3
AutoCAD 2000
 90
0
 91
1
280
0
281
0
  0
CLASS
  1
ACDBPLACEHOLDER
  2
AcDbPlaceHolder
  3
AutoCAD 2000
 90
0
 91
1
280
0
281
0
  0
CLASS
  1
LAYOUT
  2
AcDbLayout
  3
AutoCAD 2000
 90
0
 91
0
280
0
281
0
  0
ENDSEC
  0
SECTION
  2
TABLES
  0
TABLE
  2
VPORT
  5
8
100
AcDbSymbolTable
 70
2
  0
VPORT
  5
1F4
100
AcDbSymbolTableRecord
100
AcDbViewportTableRecord
  2
*ACTIVE
 70
0
 10
0.0
 20
0.0
 11
1.0
 21
1.0
 12
11.0
 22
8.5
 13
0.0
 23
0.0
 14
1.0
 24
1.0
 15
0.0
 25
0.0
 16
0.0
 26
0.0
 36
1.0
 17
0.0
 27
0.0
 37
0.0
 40
17.0
 41
1.2941176471
 42
50.0
 43
0.0
 44
0.0
 50
0.0
 51
0.0
 71
0
 72
100
 73
1
 74
1
 75
0
 76
0
 77
0
 78
0
  0
ENDTAB
  0
TABLE
  2
LTYPE
  5
5
100
AcDbSymbolTable
 70
6
  0
LTYPE
  5
14
100
AcDbSymbolTableRecord
100
AcDbLinetypeTableRecord
  2
BYBLOCK
 70
0
  3

 72
65
 73
0
 40
0.0
  0
LTYPE
  5
15
100
AcDbSymbolTableRecord
100
AcDbLinetypeTableRecord
  2
BYLAYER
 70
0
  3

 72
65
 73
0
 40
0.0
  0
LTYPE
  5
16
100
AcDbSymbolTableRecord
100
AcDbLinetypeTableRecord
  2
CONTINUOUS
 70
64
  3
Solid line
 72
65
 73
0
 40
0.0
  0
LTYPE
  5
1F5
100
AcDbSymbolTableRecord
100
AcDbLinetypeTableRecord
  2
CENTER
 70
64
  3
____ _ ____ _ ____ _ ____ _ ____ _ ____ _ ____
 72
65
 73
4
 40
0.6
 49
0.375
 74
0
 49
-0.075
 74
0
 49
0.075
 74
0
 49
-0.075
 74
0
  0
LTYPE
  5
1F6
100
AcDbSymbolTableRecord
100
AcDbLinetypeTableRecord
  2
HIDDEN
 70
64
  3
- - - - - - - - - - - - - - - - - - - -
 72
65
 73
2
 40
0.2
 49
0.1
 74
0
 49
-0.1
 74
0
  0
LTYPE
  5
1F7
100
AcDbSymbolTableRecord
100
AcDbLinetypeTableRecord
  2
PHANTOM
 70
64
  3
_____ _ _ _____ _ _ _____ _ _ _____
 72
65
 73
6
 40
0.8
 49
0.45
 74
0
 49
-0.05
 74
0
 49
0.1
 74
0
 49
-0.05
 74
0
 49
0.1
 74
0
 49
-0.05
 74
0
  0
LTYPE
  5
1F8
100
AcDbSymbolTableRecord
100
AcDbLinetypeTableRecord
  2
DOT
 70
64
  3
. . . . . . . . . . . . . . . . . . . .
 72
65
 73
2
 40
0.2
 49
0.1
 74
0
 49
-0.1
 74
0
  0
LTYPE
  5
1F9
100
AcDbSymbolTableRecord
100
AcDbLinetypeTableRecord
  2
DASHED
 70
64
  3
- - - - - - - - - - - - - - - - - - - -
 72
65
 73
2
 40
0.2
 49
0.1
 74
0
 49
-0.1
 74
0
  0
ENDTAB
  0
TABLE
  2
LAYER
  5
2
100
AcDbSymbolTable
 70
36
  0
LAYER
  5
10
100
AcDbSymbolTableRecord
100
AcDbLayerTableRecord
  2
0
 70
0
 62
7
  6
CONTINUOUS
370
-3
390
F
  0
LAYER
  5
1FA
100
AcDbSymbolTableRecord
100
AcDbLayerTableRecord
  2
DEFAULT_1
 70
0
 62
7
  6
CENTER
370
-3
390
F
  0
LAYER
  5
1FB
100
AcDbSymbolTableRecord
100
AcDbLayerTableRecord
  2
DEFAULT_2
 70
0
 62
8
  6
HIDDEN
370
-3
390
F
  0
LAYER
  5
1FC
100
AcDbSymbolTableRecord
100
AcDbLayerTableRecord
  2
DEFAULT_3
 70
0
 62
7
  6
PHANTOM
370
-3
390
F
  0
LAYER
  5
1FD
100
AcDbSymbolTableRecord
100
AcDbLayerTableRecord
  2
01_ALL_DTM_PLN
 70
0
 62
7
  6
CONTINUOUS
370
-3
390
F
  0
LAYER
  5
1FE
100
AcDbSymbolTableRecord
100
AcDbLayerTableRecord
  2
01__ASM_ALL_DTM_PLN
 70
0
 62
7
  6
CONTINUOUS
370
-3
390
F
  0
LAYER
  5
1FF
100
AcDbSymbolTableRecord
100
AcDbLayerTableRecord
  2
01__ASM_DEF_DTM_PLN
 70
0
 62
7
  6
CONTINUOUS
370
-3
390
F
  0
LAYER
  5
200
100
AcDbSymbolTableRecord
100
AcDbLayerTableRecord
  2
01___PRT_ALL_DTM_PLN
 70
0
 62
7
  6
CONTINUOUS
370
-3
390
F
  0
LAYER
  5
201
100
AcDbSymbolTableRecord
100
AcDbLayerTableRecord
  2
01___PRT_DEF_DTM_PLN
 70
0
 62
7
  6
CONTINUOUS
370
-3
390
F
  0
LAYER
  5
202
100
AcDbSymbolTableRecord
100
AcDbLayerTableRecord
  2
02_ALL_AXES
 70
0
 62
7
  6
CONTINUOUS
370
-3
390
F
  0
LAYER
  5
203
100
AcDbSymbolTableRecord
100
AcDbLayerTableRecord
  2
02__ASM_ALL_AXES
 70
0
 62
7
  6
CONTINUOUS
370
-3
390
F
  0
LAYER
  5
204
100
AcDbSymbolTableRecord
100
AcDbLayerTableRecord
  2
02___PRT_ALL_AXES
 70
0
 62
7
  6
CONTINUOUS
370
-3
390
F
  0
LAYER
  5
205
100
AcDbSymbolTableRecord
100
AcDbLayerTableRecord
  2
03_ALL_CURVES
 70
0
 62
7
  6
CONTINUOUS
370
-3
390
F
  0
LAYER
  5
206
100
AcDbSymbolTableRecord
100
AcDbLayerTableRecord
  2
03__ASM_ALL_CURVES
 70
0
 62
7
  6
CONTINUOUS
370
-3
390
F
  0
LAYER
  5
207
100
AcDbSymbolTableRecord
100
AcDbLayerTableRecord
  2
03___PRT_ALL_CURVES
 70
0
 62
7
  6
CONTINUOUS
370
-3
390
F
  0
LAYER
  5
208
100
AcDbSymbolTableRecord
100
AcDbLayerTableRecord
  2
04_ALL_DTM_PNT
 70
0
 62
7
  6
CONTINUOUS
370
-3
390
F
  0
LAYER
  5
209
100
AcDbSymbolTableRecord
100
AcDbLayerTableRecord
  2
04__ASM_ALL_DTM_PNT
 70
0
 62
7
  6
CONTINUOUS
370
-3
390
F
  0
LAYER
  5
20A
100
AcDbSymbolTableRecord
100
AcDbLayerTableRecord
  2
04___PRT_ALL_DTM_PNT
 70
0
 62
7
  6
CONTINUOUS
370
-3
390
F
  0
LAYER
  5
20B
100
AcDbSymbolTableRecord
100
AcDbLayerTableRecord
  2
05_ALL_DTM_CSYS
 70
0
 62
7
  6
CONTINUOUS
370
-3
390
F
  0
LAYER
  5
20C
100
AcDbSymbolTableRecord
100
AcDbLayerTableRecord
  2
05__ASM_ALL_DTM_CSYS
 70
0
 62
7
  6
CONTINUOUS
370
-3
390
F
  0
LAYER
  5
20D
100
AcDbSymbolTableRecord
100
AcDbLayerTableRecord
  2
05__ASM_DEF_DTM_CSYS
 70
0
 62
7
  6
CONTINUOUS
370
-3
390
F
  0
LAYER
  5
20E
100
AcDbSymbolTableRecord
100
AcDbLayerTableRecord
  2
05___PRT_ALL_DTM_CSYS
 70
0
 62
7
  6
CONTINUOUS
370
-3
390
F
  0
LAYER
  5
20F
100
AcDbSymbolTableRecord
100
AcDbLayerTableRecord
  2
05___PRT_DEF_DTM_CSYS
 70
0
 62
7
  6
CONTINUOUS
370
-3
390
F
  0
LAYER
  5
210
100
AcDbSymbolTableRecord
100
AcDbLayerTableRecord
  2
06_ALL_SURFS
 70
0
 62
7
  6
CONTINUOUS
370
-3
390
F
  0
LAYER
  5
211
100
AcDbSymbolTableRecord
100
AcDbLayerTableRecord
  2
06__ASM_ALL_SURFS
 70
0
 62
7
  6
CONTINUOUS
370
-3
390
F
  0
LAYER
  5
212
100
AcDbSymbolTableRecord
100
AcDbLayerTableRecord
  2
06___PRT_ALL_SURFS
 70
0
 62
7
  6
CONTINUOUS
370
-3
390
F
  0
LAYER
  5
213
100
AcDbSymbolTableRecord
100
AcDbLayerTableRecord
  2
07__ASM_ALL_SKELETONS
 70
0
 62
7
  6
CONTINUOUS
370
-3
390
F
  0
LAYER
  5
214
100
AcDbSymbolTableRecord
100
AcDbLayerTableRecord
  2
SHELL
 70
0
 62
7
  6
CONTINUOUS
370
-3
390
F
  0
ENDTAB
  0
TABLE
  2
STYLE
  5
3
100
AcDbSymbolTable
 70
1
  0
STYLE
  5
11
100
AcDbSymbolTableRecord
100
AcDbTextStyleTableRecord
  2
STANDARD
 70
0
 40
0.0
 41
0.8
 50
0.0
 71
0
 42
0.2
  3
txt
  4

  0
STYLE
  5
215
100
AcDbSymbolTableRecord
100
AcDbTextStyleTableRecord
  2
TEXTSTYLE_1
 70
0
 40
0.0
 41
0.8
 50
0.0
 71
0
 42
0.2
  3
gdt
  4

  0
ENDTAB
  0
TABLE
  2
VIEW
  5
6
100
AcDbSymbolTable
 70
0
  0
ENDTAB
  0
TABLE
  2
UCS
  5
7
100
AcDbSymbolTable
 70
0
  0
ENDTAB
  0
TABLE
  2
APPID
  5
9
100
AcDbSymbolTable
 70
1
  0
APPID
  5
216
100
AcDbSymbolTableRecord
100
AcDbRegAppTableRecord
  2
ACAD
 70
0
  0
ENDTAB
  0
TABLE
  2
BLOCK_RECORD
  5
1
100
AcDbSymbolTable
 70
0
  0
BLOCK_RECORD
  5
217
100
AcDbSymbolTableRecord
100
AcDbBlockTableRecord
  2
*Model_Space
  0
BLOCK_RECORD
  5
218
100
AcDbSymbolTableRecord
100
AcDbBlockTableRecord
  2
*Paper_Space
  0
ENDTAB
  0
TABLE
  2
DIMSTYLE
  5
A
100
AcDbSymbolTable
 70
1
100
AcDbDimStyleTable
 71
0
  0
DIMSTYLE
105
219
100
AcDbSymbolTableRecord
100
AcDbDimStyleTableRecord
  2
STANDARD
 70
0
  3

  4

 40
1.0
 41
0.1875
 42
0.0625
 43
0.38
 44
0.125
 45
0.0
 46
0.0
 47
0.0001
 48
0.0001
140
0.15625
141
0.09
142
0.0
143
25.4
144
1.0
145
0.0
146
1.0
147
0.09
 71
0.0
 72
0.0
 73
1
 74
1
 75
0
 76
0
 77
0
 78
4
 79
1
170
0
171
3
172
0
173
0
174
0
175
0
176
0
177
0
178
0
270
2
179
4
271
4
272
4
273
2
274
2
275
0
280
0
281
0
282
0
283
1
284
4
285
0
286
0
287
3
288
0
340
11
278
46
  0
ENDTAB
  0
ENDSEC
  0
SECTION
  2
BLOCKS
  0
BLOCK
  5
20
100
AcDbEntity
  8
0
100
AcDbBlockBegin
  2
*Model_Space
 70
0
 10
0.0
 20
0.0
 30
0.0
  3
*Model_Space
  1

  0
ENDBLK
  5
21
100
AcDbEntity
  8
0
100
AcDbBlockEnd
  0
BLOCK
  5
1C
100
AcDbEntity
  8
0
100
AcDbBlockBegin
  2
*Paper_Space
 70
0
 10
0.0
 20
0.0
 30
0.0
  3
*Paper_Space
  1

  0
ENDBLK
  5
1D
100
AcDbEntity
  8
0
100
AcDbBlockEnd
  0
ENDSEC
  0
SECTION
  2
ENTITIES
  0
MTEXT
  5
21A
100
AcDbEntity
  8
0
100
AcDbMText
 62
7
  6
CONTINUOUS
  7
STANDARD
 71
1
 72
1
 10
15.9560215477
 20
0.9479130325
 30
0.0
 11
1.0
 21
0.0
 31
0.0
 44
0.9
  1
SCALE: 1:0.200
 40
0.3
 41
3.36
  0
LINE
  5
21B
100
AcDbEntity
  8
0
100
AcDbLine
 62
7
  6
CONTINUOUS
 10
0.0
 20
0.0
 11
0.0
 21
17.0
  0
LINE
  5
21C
100
AcDbEntity
  8
0
100
AcDbLine
 62
7
  6
CONTINUOUS
 10
0.0
 20
0.0
 11
22.0
 21
0.0
  0
LINE
  5
21D
100
AcDbEntity
  8
0
100
AcDbLine
 62
7
  6
CONTINUOUS
 10
0.0
 20
17.0
 11
22.0
 21
17.0
  0
LINE
  5
21E
100
AcDbEntity
  8
0
100
AcDbLine
 62
7
  6
CONTINUOUS
 10
22.0
 20
0.0
 11
22.0
 21
17.0
  0
LINE
  5
21F
100
AcDbEntity
  8
0
100
AcDbLine
 62
7
  6
CONTINUOUS
 10
3.7328672762
 20
5.6021198968
 11
3.7328672762
 21
5.6341198968
  0
LINE
  5
220
100
AcDbEntity
  8
0
100
AcDbLine
 62
7
  6
CONTINUOUS
 10
3.7673162542
 20
5.4220665714
 11
3.7328672762
 21
5.6021198968
  0
LINE
  5
221
100
AcDbEntity
  8
0
100
AcDbLine
 62
7
  6
CONTINUOUS
 10
3.767594968
 20
5.4221198968
 11
3.7703672762
 21
5.4061198968
  0
LINE
  5
222
100
AcDbEntity
  8
0
100
AcDbLine
 62
7
  6
CONTINUOUS
 10
4.0278672762
 20
5.6021198968
 11
4.0278672762
 21
5.6341198968
  0
LINE
  5
223
100
AcDbEntity
  8
0
100
AcDbLine
 62
7
  6
CONTINUOUS
 10
4.0328672762
 20
5.6021198968
 11
4.0328672762
 21
5.6341198968
  0
LINE
  5
224
100
AcDbEntity
  8
0
100
AcDbLine
 62
7
  6
CONTINUOUS
 10
3.9903672762
 20
5.4061198968
 11
3.9932041994
 21
5.4224928138
  0
LINE
  5
225
100
AcDbEntity
  8
0
100
AcDbLine
 62
7
  6
CONTINUOUS
 10
4.0278672762
 20
5.6021198968
 11
3.9934894092
 21
5.4224382456
  0
LINE
  5
226
100
AcDbEntity
  8
0
100
AcDbLine
 62
7
  6
CONTINUOUS
 10
4.0673162542
 20
5.4220665714
 11
4.0328672762
 21
5.6021198968
  0
LINE
  5
227
100
AcDbEntity
  8
0
100
AcDbLine
 62
7
  6
CONTINUOUS
 10
4.067594968
 20
5.4221198968
 11
4.0703672762
 21
5.4061198968
  0
LINE
  5
228
100
AcDbEntity
  8
0
100
AcDbLine
 62
7
  6
CONTINUOUS
 10
4.3278672762
 20
5.6021198968
 11
4.3278672762
 21
5.6341198968
  0
LINE
  5
229
100
AcDbEntity
  8
0
100
AcDbLine
 62
7
  6
CONTINUOUS
 10
4.3328672762
 20
5.6021198968
 11
4.3328672762
 21
5.6341198968
  0
LINE
  5
22A
100
AcDbEntity
  8
0
100
AcDbLine
 62
7
  6
CONTINUOUS
 10
4.2903672762
 20
5.4061198968
 11
4.2932041994
 21
5.4224928138
  0
LINE
  5
22B
100
AcDbEntity
  8
0
100
AcDbLine
 62
7
  6
CONTINUOUS
 10
4.3278672762
 20
5.6021198968
 11
4.2934894092
 21
5.4224382456
  0
LINE
  5
22C
100
AcDbEntity
  8
0
100
AcDbLine
 62
7
  6
CONTINUOUS
 10
4.3673162542
 20
5.4220665714
 11
4.3328672762
 21
5.6021198968
  0
LINE
  5
22D
100
AcDbEntity
  8
0
100
AcDbLine
 62
7
  6
CONTINUOUS
 10
4.367594968
 20
5.4221198968
 11
4.3703672762
 21
5.4061198968
  0
LINE
  5
22E
100
AcDbEntity
  8
0
100
AcDbLine
 62
7
  6
CONTINUOUS
 10
4.6278672762
 20
5.6021198968
 11
4.6278672762
 21
5.6341198968
  0
LINE
  5
22F
100
AcDbEntity
  8
0
100
AcDbLine
 62
7
  6
CONTINUOUS
 10
4.6328672762
 20
5.6021198968
 11
4.6328672762
 21
5.6341198968
  0
LINE
  5
230
100
AcDbEntity
  8
0
100
AcDbLine
 62
7
  6
CONTINUOUS
 10
4.5903672762
 20
5.4061198968
 11
4.5932041994
 21
5.4224928138
  0
LINE
  5
231
100
AcDbEntity
  8
0
100
AcDbLine
 62
7
  6
CONTINUOUS
 10
4.6278672762
 20
5.6021198968
 11
4.5934894092
 21
5.4224382456
  0
LINE
  5
232
100
AcDbEntity
  8
0
100
AcDbLine
 62
7
  6
CONTINUOUS
 10
4.6673162542
 20
5.4220665714
 11
4.6328672762
 21
5.6021198968
  0
LINE
  5
233
100
AcDbEntity
  8
0
100
AcDbLine
 62
7
  6
CONTINUOUS
 10
4.667594968
 20
5.4221198968
 11
4.6703672762
 21
5.4061198968
  0
LINE
  5
234
100
AcDbEntity
  8
0
100
AcDbLine
 62
7
  6
CONTINUOUS
 10
4.9278672762
 20
5.6021198968
 11
4.9278672762
 21
5.6341198968
  0
LINE
  5
235
100
AcDbEntity
  8
0
100
AcDbLine
 62
7
  6
CONTINUOUS
 10
4.9328672762
 20
5.6021198968
 11
4.9328672762
 21
5.6341198968
  0
LINE
  5
236
100
AcDbEntity
  8
0
100
AcDbLine
 62
7
  6
CONTINUOUS
 10
4.8903672762
 20
5.4061198968
 11
4.8932041994
 21
5.4224928138
  0
LINE
  5
237
100
AcDbEntity
  8
0
100
AcDbLine
 62
7
  6
CONTINUOUS
 10
4.9278672762
 20
5.6021198968
 11
4.8934894092
 21
5.4224382456
  0
LINE
  5
238
100
AcDbEntity
  8
0
100
AcDbLine
 62
7
  6
CONTINUOUS
 10
4.9673162542
 20
5.4220665714
 11
4.9328672762
 21
5.6021198968
  0
LINE
  5
239
100
AcDbEntity
  8
0
100
AcDbLine
 62
7
  6
CONTINUOUS
 10
4.967594968
 20
5.4221198968
 11
4.9703672762
 21
5.4061198968
  0
LINE
  5
23A
100
AcDbEntity
  8
0
100
AcDbLine
 62
7
  6
CONTINUOUS
 10
5.2278672762
 20
5.6021198968
 11
5.2278672762
 21
5.6341198968
  0
LINE
  5
23B
100
AcDbEntity
  8
0
100
AcDbLine
 62
7
  6
CONTINUOUS
 10
5.2328672762
 20
5.6021198968
 11
5.2328672762
 21
5.6341198968
  0
LINE
  5
23C
100
AcDbEntity
  8
0
100
AcDbLine
 62
7
  6
CONTINUOUS
 10
5.1903672762
 20
5.4061198968
 11
5.1932041994
 21
5.4224928138
  0
LINE
  5
23D
100
AcDbEntity
  8
0
100
AcDbLine
 62
7
  6
CONTINUOUS
 10
5.2278672762
 20
5.6021198968
 11
5.1934894092
 21
5.4224382456
  0
LINE
  5
23E
100
AcDbEntity
  8
0
100
AcDbLine
 62
7
  6
CONTINUOUS
 10
5.2673162542
 20
5.4220665714
 11
5.2328672762
 21
5.6021198968
  0
LINE
  5
23F
100
AcDbEntity
  8
0
100
AcDbLine
 62
7
  6
CONTINUOUS
 10
5.267594968
 20
5.4221198968
 11
5.2703672762
 21
5.4061198968
  0
LINE
  5
240
100
AcDbEntity
  8
0
100
AcDbLine
 62
7
  6
CONTINUOUS
 10
5.5278672762
 20
5.6021198968
 11
5.5278672762
 21
5.6341198968
  0
LINE
  5
241
100
AcDbEntity
  8
0
100
AcDbLine
 62
7
  6
CONTINUOUS
 10
5.5328672762
 20
5.6021198968
 11
5.5328672762
 21
5.6341198968
  0
LINE
  5
242
100
AcDbEntity
  8
0
100
AcDbLine
 62
7
  6
CONTINUOUS
 10
5.4903672762
 20
5.4061198968
 11
5.4932041994
 21
5.4224928138
  0
LINE
  5
243
100
AcDbEntity
  8
0
100
AcDbLine
 62
7
  6
CONTINUOUS
 10
5.5278672762
 20
5.6021198968
 11
5.4934894092
 21
5.4224382456
  0
LINE
  5
244
100
AcDbEntity
  8
0
100
AcDbLine
 62
7
  6
CONTINUOUS
 10
5.5673162542
 20
5.4220665714
 11
5.5328672762
 21
5.6021198968
  0
LINE
  5
245
100
AcDbEntity
  8
0
100
AcDbLine
 62
7
  6
CONTINUOUS
 10
5.567594968
 20
5.4221198968
 11
5.5703672762
 21
5.4061198968
  0
LINE
  5
246
100
AcDbEntity
  8
0
100
AcDbLine
 62
7
  6
CONTINUOUS
 10
5.8278672762
 20
5.6021198968
 11
5.8278672762
 21
5.6341198968
  0
LINE
  5
247
100
AcDbEntity
  8
0
100
AcDbLine
 62
7
  6
CONTINUOUS
 10
5.8328672762
 20
5.6021198968
 11
5.8328672762
 21
5.6341198968
  0
LINE
  5
248
100
AcDbEntity
  8
0
100
AcDbLine
 62
7
  6
CONTINUOUS
 10
5.7903672762
 20
5.4061198968
 11
5.7932041994
 21
5.4224928138
  0
LINE
  5
249
100
AcDbEntity
  8
0
100
AcDbLine
 62
7
  6
CONTINUOUS
 10
5.8278672762
 20
5.6021198968
 11
5.7934894092
 21
5.4224382456
  0
LINE
  5
24A
100
AcDbEntity
  8
0
100
AcDbLine
 62
7
  6
CONTINUOUS
 10
5.8673162542
 20
5.4220665714
 11
5.8328672762
 21
5.6021198968
  0
LINE
  5
24B
100
AcDbEntity
  8
0
100
AcDbLine
 62
7
  6
CONTINUOUS
 10
5.867594968
 20
5.4221198968
 11
5.8703672762
 21
5.4061198968
  0
LINE
  5
24C
100
AcDbEntity
  8
0
100
AcDbLine
 62
7
  6
CONTINUOUS
 10
6.1278672762
 20
5.6021198968
 11
6.1278672762
 21
5.6341198968
  0
LINE
  5
24D
100
AcDbEntity
  8
0
100
AcDbLine
 62
7
  6
CONTINUOUS
 10
6.1328672762
 20
5.6021198968
 11
6.1328672762
 21
5.6341198968
  0
LINE
  5
24E
100
AcDbEntity
  8
0
100
AcDbLine
 62
7
  6
CONTINUOUS
 10
6.0903672762
 20
5.4061198968
 11
6.0932041994
 21
5.4224928138
  0
LINE
  5
24F
100
AcDbEntity
  8
0
100
AcDbLine
 62
7
  6
CONTINUOUS
 10
6.1278672762
 20
5.6021198968
 11
6.0934894092
 21
5.4224382456
  0
LINE
  5
250
100
AcDbEntity
  8
0
100
AcDbLine
 62
7
  6
CONTINUOUS
 10
3.7703672762
 20
5.4061198968
 11
3.9903672762
 21
5.4061198968
  0
LINE
  5
251
100
AcDbEntity
  8
0
100
AcDbLine
 62
7
  6
CONTINUOUS
 10
4.0703672762
 20
5.4061198968
 11
4.2903672762
 21
5.4061198968
  0
LINE
  5
252
100
AcDbEntity
  8
0
100
AcDbLine
 62
7
  6
CONTINUOUS
 10
4.3703672762
 20
5.4061198968
 11
4.5903672762
 21
5.4061198968
  0
LINE
  5
253
100
AcDbEntity
  8
0
100
AcDbLine
 62
7
  6
CONTINUOUS
 10
4.6703672762
 20
5.4061198968
 11
4.8903672762
 21
5.4061198968
  0
LINE
  5
254
100
AcDbEntity
  8
0
100
AcDbLine
 62
7
  6
CONTINUOUS
 10
4.9703672762
 20
5.4061198968
 11
5.1903672762
 21
5.4061198968
  0
LINE
  5
255
100
AcDbEntity
  8
0
100
AcDbLine
 62
7
  6
CONTINUOUS
 10
5.2703672762
 20
5.4061198968
 11
5.4903672762
 21
5.4061198968
  0
LINE
  5
256
100
AcDbEntity
  8
0
100
AcDbLine
 62
7
  6
CONTINUOUS
 10
5.5703672762
 20
5.4061198968
 11
5.7903672762
 21
5.4061198968
  0
LINE
  5
257
100
AcDbEntity
  8
0
100
AcDbLine
 62
7
  6
CONTINUOUS
 10
5.8703672762
 20
5.4061198968
 11
6.0903672762
 21
5.4061198968
  0
LINE
  5
258
100
AcDbEntity
  8
0
100
AcDbLine
 62
7
  6
CONTINUOUS
 10
6.1703672762
 20
5.4061198968
 11
6.3903672762
 21
5.4061198968
  0
LINE
  5
259
100
AcDbEntity
  8
0
100
AcDbLine
 62
7
  6
CONTINUOUS
 10
6.4703672762
 20
5.4061198968
 11
6.6903672762
 21
5.4061198968
  0
LINE
  5
25A
100
AcDbEntity
  8
0
100
AcDbLine
 62
7
  6
CONTINUOUS
 10
6.7703672762
 20
5.4061198968
 11
6.9903672762
 21
5.4061198968
  0
LINE
  5
25B
100
AcDbEntity
  8
0
100
AcDbLine
 62
7
  6
CONTINUOUS
 10
7.0703672762
 20
5.4061198968
 11
7.2903672762
 21
5.4061198968
  0
LINE
  5
25C
100
AcDbEntity
  8
0
100
AcDbLine
 62
7
  6
CONTINUOUS
 10
7.3703672762
 20
5.4061198968
 11
7.5903672762
 21
5.4061198968
  0
LINE
  5
25D
100
AcDbEntity
  8
0
100
AcDbLine
 62
7
  6
CONTINUOUS
 10
7.6703672762
 20
5.4061198968
 11
7.8903672762
 21
5.4061198968
  0
LINE
  5
25E
100
AcDbEntity
  8
0
100
AcDbLine
 62
7
  6
CONTINUOUS
 10
7.9703672762
 20
5.4061198968
 11
8.1903672762
 21
5.4061198968
  0
LINE
  5
25F
100
AcDbEntity
  8
0
100
AcDbLine
 62
7
  6
CONTINUOUS
 10
8.2703672762
 20
5.4061198968
 11
8.4903672762
 21
5.4061198968
  0
LINE
  5
260
100
AcDbEntity
  8
0
100
AcDbLine
 62
7
  6
CONTINUOUS
 10
8.4711577737
 20
5.4381198968
 11
8.2895767786
 21
5.4381198968
  0
LINE
  5
261
100
AcDbEntity
  8
0
100
AcDbLine
 62
7
  6
CONTINUOUS
 10
8.1711577737
 20
5.4381198968
 11
7.9895767786
 21
5.4381198968
  0
LINE
  5
262
100
AcDbEntity
  8
0
100
AcDbLine
 62
7
  6
CONTINUOUS
 10
7.8711577737
 20
5.4381198968
 11
7.6895767786
 21
5.4381198968
  0
LINE
  5
263
100
AcDbEntity
  8
0
100
AcDbLine
 62
7
  6
CONTINUOUS
 10
7.5711577737
 20
5.4381198968
 11
7.3895767786
 21
5.4381198968
  0
LINE
  5
264
100
AcDbEntity
  8
0
100
AcDbLine
 62
7
  6
CONTINUOUS
 10
7.2711577737
 20
5.4381198968
 11
7.0895767786
 21
5.4381198968
  0
LINE
  5
265
100
AcDbEntity
  8
0
100
AcDbLine
 62
7
  6
CONTINUOUS
 10
6.9711577737
 20
5.4381198968
 11
6.7895767786
 21
5.4381198968
  0
LINE
  5
266
100
AcDbEntity
  8
0
100
AcDbLine
 62
7
  6
CONTINUOUS
 10
6.6711577737
 20
5.4381198968
 11
6.4895767786
 21
5.4381198968
  0
LINE
  5
267
100
AcDbEntity
  8
0
100
AcDbLine
 62
7
  6
CONTINUOUS
 10
6.3711577737
 20
5.4381198968
 11
6.1895767786
 21
5.4381198968
  0
LINE
  5
268
100
AcDbEntity
  8
0
100
AcDbLine
 62
7
  6
CONTINUOUS
 10
6.0711577737
 20
5.4381198968
 11
5.8895767786
 21
5.4381198968
  0
LINE
  5
269
100
AcDbEntity
  8
0
100
AcDbLine
 62
7
  6
CONTINUOUS
 10
5.7711577737
 20
5.4381198968
 11
5.5895767786
 21
5.4381198968
  0
LINE
  5
26A
100
AcDbEntity
  8
0
100
AcDbLine
 62
7
  6
CONTINUOUS
 10
5.4711577737
 20
5.4381198968
 11
5.2895767786
 21
5.4381198968
  0
LINE
  5
26B
100
AcDbEntity
  8
0
100
AcDbLine
 62
7
  6
CONTINUOUS
 10
5.1711577737
 20
5.4381198968
 11
4.9895767786
 21
5.4381198968
  0
LINE
  5
26C
100
AcDbEntity
  8
0
100
AcDbLine
 62
7
  6
CONTINUOUS
 10
4.8711577737
 20
5.4381198968
 11
4.6895767786
 21
5.4381198968
  0
LINE
  5
26D
100
AcDbEntity
  8
0
100
AcDbLine
 62
7
  6
CONTINUOUS
 10
4.5711577737
 20
5.4381198968
 11
4.3895767786
 21
5.4381198968
  0
LINE
  5
26E
100
AcDbEntity
  8
0
100
AcDbLine
 62
7
  6
CONTINUOUS
 10
4.2711577737
 20
5.4381198968
 11
4.0895767786
 21
5.4381198968
  0
LINE
  5
26F
100
AcDbEntity
  8
0
100
AcDbLine
 62
7
  6
CONTINUOUS
 10
3.9711577737
 20
5.4381198968
 11
3.7895767786
 21
5.4381198968
  0
LINE
  5
270
100
AcDbEntity
  8
0
100
AcDbLine
 62
7
  6
CONTINUOUS
 10
3.6463672762
 20
5.4541198968
 11
3.7611836027
 21
5.4541198968
  0
LINE
  5
271
100
AcDbEntity
  8
0
100
AcDbLine
 62
7
  6
CONTINUOUS
 10
3.9995509496
 20
5.4541198968
 11
4.0611836027
 21
5.4541198968
  0
LINE
  5
272
100
AcDbEntity
  8
0
100
AcDbLine
 62
7
  6
CONTINUOUS
 10
4.2995509496
 20
5.4541198968
 11
4.3611836027
 21
5.4541198968
  0
LINE
  5
273
100
AcDbEntity
  8
0
100
AcDbLine
 62
7
  6
CONTINUOUS
 10
4.5995509496
 20
5.4541198968
 11
4.6611836027
 21
5.4541198968
  0
LINE
  5
274
100
AcDbEntity
  8
0
100
AcDbLine
 62
7
  6
CONTINUOUS
 10
4.8995509496
 20
5.4541198968
 11
4.9611836027
 21
5.4541198968
  0
LINE
  5
275
100
AcDbEntity
  8
0
100
AcDbLine
 62
7
  6
CONTINUOUS
 10
5.1995509496
 20
5.4541198968
 11
5.2611836027
 21
5.4541198968
  0
LINE
  5
276
100
AcDbEntity
  8
0
100
AcDbLine
 62
7
  6
CONTINUOUS
 10
5.4995509496
 20
5.4541198968
 11
5.5611836027
 21
5.4541198968
  0
LINE
  5
277
100
AcDbEntity
  8
0
100
AcDbLine
 62
7
  6
CONTINUOUS
 10
5.7995509496
 20
5.4541198968
 11
5.8611836027
 21
5.4541198968
  0
LINE
  5
278
100
AcDbEntity
  8
0
100
AcDbLine
 62
7
  6
CONTINUOUS
 10
6.0995509496
 20
5.4541198968
 11
6.1611836027
 21
5.4541198968
  0
LINE
  5
279
100
AcDbEntity
  8
0
100
AcDbLine
 62
7
  6
CONTINUOUS
 10
6.3995509496
 20
5.4541198968
 11
6.4611836027
 21
5.4541198968
  0
LINE
  5
27A
100
AcDbEntity
  8
0
100
AcDbLine
 62
7
  6
CONTINUOUS
 10
6.6995509496
 20
5.4541198968
 11
6.7611836027
 21
5.4541198968
  0
LINE
  5
27B
100
AcDbEntity
  8
0
100
AcDbLine
 62
7
  6
CONTINUOUS
 10
6.9995509496
 20
5.4541198968
 11
7.0611836027
 21
5.4541198968
  0
LINE
  5
27C
100
AcDbEntity
  8
0
100
AcDbLine
 62
7
  6
CONTINUOUS
 10
7.2995509496
 20
5.4541198968
 11
7.3611836027
 21
5.4541198968
  0
LINE
  5
27D
100
AcDbEntity
  8
0
100
AcDbLine
 62
7
  6
CONTINUOUS
 10
7.5995509496
 20
5.4541198968
 11
7.6611836027
 21
5.4541198968
  0
LINE
  5
27E
100
AcDbEntity
  8
0
100
AcDbLine
 62
7
  6
CONTINUOUS
 10
7.8995509496
 20
5.4541198968
 11
7.9611836027
 21
5.4541198968
  0
LINE
  5
27F
100
AcDbEntity
  8
0
100
AcDbLine
 62
7
  6
CONTINUOUS
 10
8.1995509496
 20
5.4541198968
 11
8.2611836027
 21
5.4541198968
  0
LINE
  5
280
100
AcDbEntity
  8
0
100
AcDbLine
 62
7
  6
CONTINUOUS
 10
8.4995509496
 20
5.4541198968
 11
8.6143672762
 21
5.4541198968
  0
LINE
  5
281
100
AcDbEntity
  8
0
100
AcDbLine
 62
7
  6
CONTINUOUS
 10
6.1673162542
 20
5.4220665714
 11
6.1328672762
 21
5.6021198968
  0
LINE
  5
282
100
AcDbEntity
  8
0
100
AcDbLine
 62
7
  6
CONTINUOUS
 10
6.167594968
 20
5.4221198968
 11
6.1703672762
 21
5.4061198968
  0
LINE
  5
283
100
AcDbEntity
  8
0
100
AcDbLine
 62
7
  6
CONTINUOUS
 10
8.6143672762
 20
5.5861198968
 11
8.5248060517
 21
5.5861198968
  0
LINE
  5
284
100
AcDbEntity
  8
0
100
AcDbLine
 62
7
  6
CONTINUOUS
 10
8.2359285007
 20
5.5861198968
 11
8.2248060517
 21
5.5861198968
  0
LINE
  5
285
100
AcDbEntity
  8
0
100
AcDbLine
 62
7
  6
CONTINUOUS
 10
7.9359285007
 20
5.5861198968
 11
7.9248060517
 21
5.5861198968
  0
LINE
  5
286
100
AcDbEntity
  8
0
100
AcDbLine
 62
7
  6
CONTINUOUS
 10
7.6359285007
 20
5.5861198968
 11
7.6248060517
 21
5.5861198968
  0
LINE
  5
287
100
AcDbEntity
  8
0
100
AcDbLine
 62
7
  6
CONTINUOUS
 10
7.3359285007
 20
5.5861198968
 11
7.3248060517
 21
5.5861198968
  0
LINE
  5
288
100
AcDbEntity
  8
0
100
AcDbLine
 62
7
  6
CONTINUOUS
 10
7.0359285007
 20
5.5861198968
 11
7.0248060517
 21
5.5861198968
  0
LINE
  5
289
100
AcDbEntity
  8
0
100
AcDbLine
 62
7
  6
CONTINUOUS
 10
6.7359285007
 20
5.5861198968
 11
6.7248060517
 21
5.5861198968
  0
LINE
  5
28A
100
AcDbEntity
  8
0
100
AcDbLine
 62
7
  6
CONTINUOUS
 10
6.4359285007
 20
5.5861198968
 11
6.4248060517
 21
5.5861198968
  0
LINE
  5
28B
100
AcDbEntity
  8
0
100
AcDbLine
 62
7
  6
CONTINUOUS
 10
6.1359285007
 20
5.5861198968
 11
6.1248060517
 21
5.5861198968
  0
LINE
  5
28C
100
AcDbEntity
  8
0
100
AcDbLine
 62
7
  6
CONTINUOUS
 10
5.8359285007
 20
5.5861198968
 11
5.8248060517
 21
5.5861198968
  0
LINE
  5
28D
100
AcDbEntity
  8
0
100
AcDbLine
 62
7
  6
CONTINUOUS
 10
5.5359285007
 20
5.5861198968
 11
5.5248060517
 21
5.5861198968
  0
LINE
  5
28E
100
AcDbEntity
  8
0
100
AcDbLine
 62
7
  6
CONTINUOUS
 10
5.2359285007
 20
5.5861198968
 11
5.2248060517
 21
5.5861198968
  0
LINE
  5
28F
100
AcDbEntity
  8
0
100
AcDbLine
 62
7
  6
CONTINUOUS
 10
4.9359285007
 20
5.5861198968
 11
4.9248060517
 21
5.5861198968
  0
LINE
  5
290
100
AcDbEntity
  8
0
100
AcDbLine
 62
7
  6
CONTINUOUS
 10
4.6359285007
 20
5.5861198968
 11
4.6248060517
 21
5.5861198968
  0
LINE
  5
291
100
AcDbEntity
  8
0
100
AcDbLine
 62
7
  6
CONTINUOUS
 10
4.3359285007
 20
5.5861198968
 11
4.3248060517
 21
5.5861198968
  0
LINE
  5
292
100
AcDbEntity
  8
0
100
AcDbLine
 62
7
  6
CONTINUOUS
 10
4.0359285007
 20
5.5861198968
 11
4.0248060517
 21
5.5861198968
  0
LINE
  5
293
100
AcDbEntity
  8
0
100
AcDbLine
 62
7
  6
CONTINUOUS
 10
3.7359285007
 20
5.5861198968
 11
3.6463672762
 21
5.5861198968
  0
LINE
  5
294
100
AcDbEntity
  8
0
100
AcDbLine
 62
7
  6
CONTINUOUS
 10
3.7328672762
 20
5.6021198968
 11
4.0278672762
 21
5.6021198968
  0
LINE
  5
295
100
AcDbEntity
  8
0
100
AcDbLine
 62
7
  6
CONTINUOUS
 10
4.0328672762
 20
5.6021198968
 11
4.3278672762
 21
5.6021198968
  0
LINE
  5
296
100
AcDbEntity
  8
0
100
AcDbLine
 62
7
  6
CONTINUOUS
 10
4.3328672762
 20
5.6021198968
 11
4.6278672762
 21
5.6021198968
  0
LINE
  5
297
100
AcDbEntity
  8
0
100
AcDbLine
 62
7
  6
CONTINUOUS
 10
4.6328672762
 20
5.6021198968
 11
4.9278672762
 21
5.6021198968
  0
LINE
  5
298
100
AcDbEntity
  8
0
100
AcDbLine
 62
7
  6
CONTINUOUS
 10
4.9328672762
 20
5.6021198968
 11
5.2278672762
 21
5.6021198968
  0
LINE
  5
299
100
AcDbEntity
  8
0
100
AcDbLine
 62
7
  6
CONTINUOUS
 10
5.2328672762
 20
5.6021198968
 11
5.5278672762
 21
5.6021198968
  0
LINE
  5
29A
100
AcDbEntity
  8
0
100
AcDbLine
 62
7
  6
CONTINUOUS
 10
5.5328672762
 20
5.6021198968
 11
5.8278672762
 21
5.6021198968
  0
LINE
  5
29B
100
AcDbEntity
  8
0
100
AcDbLine
 62
7
  6
CONTINUOUS
 10
5.8328672762
 20
5.6021198968
 11
6.1278672762
 21
5.6021198968
  0
LINE
  5
29C
100
AcDbEntity
  8
0
100
AcDbLine
 62
7
  6
CONTINUOUS
 10
6.1328672762
 20
5.6021198968
 11
6.4278672762
 21
5.6021198968
  0
LINE
  5
29D
100
AcDbEntity
  8
0
100
AcDbLine
 62
7
  6
CONTINUOUS
 10
6.4328672762
 20
5.6021198968
 11
6.7278672762
 21
5.6021198968
  0
LINE
  5
29E
100
AcDbEntity
  8
0
100
AcDbLine
 62
7
  6
CONTINUOUS
 10
6.7328672762
 20
5.6021198968
 11
7.0278672762
 21
5.6021198968
  0
LINE
  5
29F
100
AcDbEntity
  8
0
100
AcDbLine
 62
7
  6
CONTINUOUS
 10
7.0328672762
 20
5.6021198968
 11
7.3278672762
 21
5.6021198968
  0
LINE
  5
2A0
100
AcDbEntity
  8
0
100
AcDbLine
 62
7
  6
CONTINUOUS
 10
7.3328672762
 20
5.6021198968
 11
7.6278672762
 21
5.6021198968
  0
LINE
  5
2A1
100
AcDbEntity
  8
0
100
AcDbLine
 62
7
  6
CONTINUOUS
 10
7.6328672762
 20
5.6021198968
 11
7.9278672762
 21
5.6021198968
  0
LINE
  5
2A2
100
AcDbEntity
  8
0
100
AcDbLine
 62
7
  6
CONTINUOUS
 10
7.9328672762
 20
5.6021198968
 11
8.2278672762
 21
5.6021198968
  0
LINE
  5
2A3
100
AcDbEntity
  8
0
100
AcDbLine
 62
7
  6
CONTINUOUS
 10
8.2328672762
 20
5.6021198968
 11
8.5278672762
 21
5.6021198968
  0
LINE
  5
2A4
100
AcDbEntity
  8
0
100
AcDbLine
 62
7
  6
CONTINUOUS
 10
3.7328672762
 20
5.6341198968
 11
4.0278672762
 21
5.6341198968
  0
LINE
  5
2A5
100
AcDbEntity
  8
0
100
AcDbLine
 62
7
  6
CONTINUOUS
 10
4.0328672762
 20
5.6341198968
 11
4.3278672762
 21
5.6341198968
  0
LINE
  5
2A6
100
AcDbEntity
  8
0
100
AcDbLine
 62
7
  6
CONTINUOUS
 10
4.3328672762
 20
5.6341198968
 11
4.6278672762
 21
5.6341198968
  0
LINE
  5
2A7
100
AcDbEntity
  8
0
100
AcDbLine
 62
7
  6
CONTINUOUS
 10
4.6328672762
 20
5.6341198968
 11
4.9278672762
 21
5.6341198968
  0
LINE
  5
2A8
100
AcDbEntity
  8
0
100
AcDbLine
 62
7
  6
CONTINUOUS
 10
4.9328672762
 20
5.6341198968
 11
5.2278672762
 21
5.6341198968
  0
LINE
  5
2A9
100
AcDbEntity
  8
0
100
AcDbLine
 62
7
  6
CONTINUOUS
 10
5.2328672762
 20
5.6341198968
 11
5.5278672762
 21
5.6341198968
  0
LINE
  5
2AA
100
AcDbEntity
  8
0
100
AcDbLine
 62
7
  6
CONTINUOUS
 10
5.5328672762
 20
5.6341198968
 11
5.8278672762
 21
5.6341198968
  0
LINE
  5
2AB
100
AcDbEntity
  8
0
100
AcDbLine
 62
7
  6
CONTINUOUS
 10
5.8328672762
 20
5.6341198968
 11
6.1278672762
 21
5.6341198968
  0
LINE
  5
2AC
100
AcDbEntity
  8
0
100
AcDbLine
 62
7
  6
CONTINUOUS
 10
6.1328672762
 20
5.6341198968
 11
6.4278672762
 21
5.6341198968
  0
LINE
  5
2AD
100
AcDbEntity
  8
0
100
AcDbLine
 62
7
  6
CONTINUOUS
 10
6.4328672762
 20
5.6341198968
 11
6.7278672762
 21
5.6341198968
  0
LINE
  5
2AE
100
AcDbEntity
  8
0
100
AcDbLine
 62
7
  6
CONTINUOUS
 10
6.7328672762
 20
5.6341198968
 11
7.0278672762
 21
5.6341198968
  0
LINE
  5
2AF
100
AcDbEntity
  8
0
100
AcDbLine
 62
7
  6
CONTINUOUS
 10
7.0328672762
 20
5.6341198968
 11
7.3278672762
 21
5.6341198968
  0
LINE
  5
2B0
100
AcDbEntity
  8
0
100
AcDbLine
 62
7
  6
CONTINUOUS
 10
7.3328672762
 20
5.6341198968
 11
7.6278672762
 21
5.6341198968
  0
LINE
  5
2B1
100
AcDbEntity
  8
0
100
AcDbLine
 62
7
  6
CONTINUOUS
 10
7.6328672762
 20
5.6341198968
 11
7.9278672762
 21
5.6341198968
  0
LINE
  5
2B2
100
AcDbEntity
  8
0
100
AcDbLine
 62
7
  6
CONTINUOUS
 10
7.9328672762
 20
5.6341198968
 11
8.2278672762
 21
5.6341198968
  0
LINE
  5
2B3
100
AcDbEntity
  8
0
100
AcDbLine
 62
7
  6
CONTINUOUS
 10
8.2328672762
 20
5.6341198968
 11
8.5278672762
 21
5.6341198968
  0
LINE
  5
2B4
100
AcDbEntity
  8
0
100
AcDbLine
 62
7
  6
CONTINUOUS
 10
6.4278672762
 20
5.6021198968
 11
6.4278672762
 21
5.6341198968
  0
LINE
  5
2B5
100
AcDbEntity
  8
0
100
AcDbLine
 62
7
  6
CONTINUOUS
 10
6.4328672762
 20
5.6021198968
 11
6.4328672762
 21
5.6341198968
  0
LINE
  5
2B6
100
AcDbEntity
  8
0
100
AcDbLine
 62
7
  6
CONTINUOUS
 10
6.3903672762
 20
5.4061198968
 11
6.3932041994
 21
5.4224928138
  0
LINE
  5
2B7
100
AcDbEntity
  8
0
100
AcDbLine
 62
7
  6
CONTINUOUS
 10
6.4278672762
 20
5.6021198968
 11
6.3934894092
 21
5.4224382456
  0
LINE
  5
2B8
100
AcDbEntity
  8
0
100
AcDbLine
 62
7
  6
CONTINUOUS
 10
6.4673162542
 20
5.4220665714
 11
6.4328672762
 21
5.6021198968
  0
LINE
  5
2B9
100
AcDbEntity
  8
0
100
AcDbLine
 62
7
  6
CONTINUOUS
 10
6.467594968
 20
5.4221198968
 11
6.4703672762
 21
5.4061198968
  0
LINE
  5
2BA
100
AcDbEntity
  8
0
100
AcDbLine
 62
7
  6
CONTINUOUS
 10
6.7278672762
 20
5.6021198968
 11
6.7278672762
 21
5.6341198968
  0
LINE
  5
2BB
100
AcDbEntity
  8
0
100
AcDbLine
 62
7
  6
CONTINUOUS
 10
6.7328672762
 20
5.6021198968
 11
6.7328672762
 21
5.6341198968
  0
LINE
  5
2BC
100
AcDbEntity
  8
0
100
AcDbLine
 62
7
  6
CONTINUOUS
 10
6.6903672762
 20
5.4061198968
 11
6.6932041994
 21
5.4224928138
  0
LINE
  5
2BD
100
AcDbEntity
  8
0
100
AcDbLine
 62
7
  6
CONTINUOUS
 10
6.7278672762
 20
5.6021198968
 11
6.6934894092
 21
5.4224382456
  0
LINE
  5
2BE
100
AcDbEntity
  8
0
100
AcDbLine
 62
7
  6
CONTINUOUS
 10
6.7673162542
 20
5.4220665714
 11
6.7328672762
 21
5.6021198968
  0
LINE
  5
2BF
100
AcDbEntity
  8
0
100
AcDbLine
 62
7
  6
CONTINUOUS
 10
6.767594968
 20
5.4221198968
 11
6.7703672762
 21
5.4061198968
  0
LINE
  5
2C0
100
AcDbEntity
  8
0
100
AcDbLine
 62
7
  6
CONTINUOUS
 10
6.9903672762
 20
5.4061198968
 11
6.9932041994
 21
5.4224928138
  0
LINE
  5
2C1
100
AcDbEntity
  8
0
100
AcDbLine
 62
7
  6
CONTINUOUS
 10
7.0278672762
 20
5.6021198968
 11
6.9934894092
 21
5.4224382456
  0
LINE
  5
2C2
100
AcDbEntity
  8
0
100
AcDbLine
 62
7
  6
CONTINUOUS
 10
7.0278672762
 20
5.6021198968
 11
7.0278672762
 21
5.6341198968
  0
LINE
  5
2C3
100
AcDbEntity
  8
0
100
AcDbLine
 62
7
  6
CONTINUOUS
 10
7.0328672762
 20
5.6021198968
 11
7.0328672762
 21
5.6341198968
  0
LINE
  5
2C4
100
AcDbEntity
  8
0
100
AcDbLine
 62
7
  6
CONTINUOUS
 10
7.0673162542
 20
5.4220665714
 11
7.0328672762
 21
5.6021198968
  0
LINE
  5
2C5
100
AcDbEntity
  8
0
100
AcDbLine
 62
7
  6
CONTINUOUS
 10
7.067594968
 20
5.4221198968
 11
7.0703672762
 21
5.4061198968
  0
LINE
  5
2C6
100
AcDbEntity
  8
0
100
AcDbLine
 62
7
  6
CONTINUOUS
 10
7.3278672762
 20
5.6021198968
 11
7.3278672762
 21
5.6341198968
  0
LINE
  5
2C7
100
AcDbEntity
  8
0
100
AcDbLine
 62
7
  6
CONTINUOUS
 10
7.3328672762
 20
5.6021198968
 11
7.3328672762
 21
5.6341198968
  0
LINE
  5
2C8
100
AcDbEntity
  8
0
100
AcDbLine
 62
7
  6
CONTINUOUS
 10
7.2903672762
 20
5.4061198968
 11
7.2932041994
 21
5.4224928138
  0
LINE
  5
2C9
100
AcDbEntity
  8
0
100
AcDbLine
 62
7
  6
CONTINUOUS
 10
7.3278672762
 20
5.6021198968
 11
7.2934894092
 21
5.4224382456
  0
LINE
  5
2CA
100
AcDbEntity
  8
0
100
AcDbLine
 62
7
  6
CONTINUOUS
 10
7.3673162542
 20
5.4220665714
 11
7.3328672762
 21
5.6021198968
  0
LINE
  5
2CB
100
AcDbEntity
  8
0
100
AcDbLine
 62
7
  6
CONTINUOUS
 10
7.367594968
 20
5.4221198968
 11
7.3703672762
 21
5.4061198968
  0
LINE
  5
2CC
100
AcDbEntity
  8
0
100
AcDbLine
 62
7
  6
CONTINUOUS
 10
7.6278672762
 20
5.6021198968
 11
7.6278672762
 21
5.6341198968
  0
LINE
  5
2CD
100
AcDbEntity
  8
0
100
AcDbLine
 62
7
  6
CONTINUOUS
 10
7.6328672762
 20
5.6021198968
 11
7.6328672762
 21
5.6341198968
  0
LINE
  5
2CE
100
AcDbEntity
  8
0
100
AcDbLine
 62
7
  6
CONTINUOUS
 10
7.5903672762
 20
5.4061198968
 11
7.5932041994
 21
5.4224928138
  0
LINE
  5
2CF
100
AcDbEntity
  8
0
100
AcDbLine
 62
7
  6
CONTINUOUS
 10
7.6278672762
 20
5.6021198968
 11
7.5934894092
 21
5.4224382456
  0
LINE
  5
2D0
100
AcDbEntity
  8
0
100
AcDbLine
 62
7
  6
CONTINUOUS
 10
7.6673162542
 20
5.4220665714
 11
7.6328672762
 21
5.6021198968
  0
LINE
  5
2D1
100
AcDbEntity
  8
0
100
AcDbLine
 62
7
  6
CONTINUOUS
 10
7.667594968
 20
5.4221198968
 11
7.6703672762
 21
5.4061198968
  0
LINE
  5
2D2
100
AcDbEntity
  8
0
100
AcDbLine
 62
7
  6
CONTINUOUS
 10
7.9278672762
 20
5.6021198968
 11
7.9278672762
 21
5.6341198968
  0
LINE
  5
2D3
100
AcDbEntity
  8
0
100
AcDbLine
 62
7
  6
CONTINUOUS
 10
7.9328672762
 20
5.6021198968
 11
7.9328672762
 21
5.6341198968
  0
LINE
  5
2D4
100
AcDbEntity
  8
0
100
AcDbLine
 62
7
  6
CONTINUOUS
 10
7.8903672762
 20
5.4061198968
 11
7.8932041994
 21
5.4224928138
  0
LINE
  5
2D5
100
AcDbEntity
  8
0
100
AcDbLine
 62
7
  6
CONTINUOUS
 10
7.9278672762
 20
5.6021198968
 11
7.8934894092
 21
5.4224382456
  0
LINE
  5
2D6
100
AcDbEntity
  8
0
100
AcDbLine
 62
7
  6
CONTINUOUS
 10
7.9673162542
 20
5.4220665714
 11
7.9328672762
 21
5.6021198968
  0
LINE
  5
2D7
100
AcDbEntity
  8
0
100
AcDbLine
 62
7
  6
CONTINUOUS
 10
7.967594968
 20
5.4221198968
 11
7.9703672762
 21
5.4061198968
  0
LINE
  5
2D8
100
AcDbEntity
  8
0
100
AcDbLine
 62
7
  6
CONTINUOUS
 10
8.1903672762
 20
5.4061198968
 11
8.1932041994
 21
5.4224928138
  0
LINE
  5
2D9
100
AcDbEntity
  8
0
100
AcDbLine
 62
7
  6
CONTINUOUS
 10
8.2278672762
 20
5.6021198968
 11
8.1934894092
 21
5.4224382456
  0
LINE
  5
2DA
100
AcDbEntity
  8
0
100
AcDbLine
 62
7
  6
CONTINUOUS
 10
8.2278672762
 20
5.6021198968
 11
8.2278672762
 21
5.6341198968
  0
LINE
  5
2DB
100
AcDbEntity
  8
0
100
AcDbLine
 62
7
  6
CONTINUOUS
 10
8.2328672762
 20
5.6021198968
 11
8.2328672762
 21
5.6341198968
  0
LINE
  5
2DC
100
AcDbEntity
  8
0
100
AcDbLine
 62
7
  6
CONTINUOUS
 10
8.2673162542
 20
5.4220665714
 11
8.2328672762
 21
5.6021198968
  0
LINE
  5
2DD
100
AcDbEntity
  8
0
100
AcDbLine
 62
7
  6
CONTINUOUS
 10
8.267594968
 20
5.4221198968
 11
8.2703672762
 21
5.4061198968
  0
LINE
  5
2DE
100
AcDbEntity
  8
0
100
AcDbLine
 62
7
  6
CONTINUOUS
 10
8.5278672762
 20
5.6021198968
 11
8.5278672762
 21
5.6341198968
  0
LINE
  5
2DF
100
AcDbEntity
  8
0
100
AcDbLine
 62
7
  6
CONTINUOUS
 10
8.4903672762
 20
5.4061198968
 11
8.4932041994
 21
5.4224928138
  0
LINE
  5
2E0
100
AcDbEntity
  8
0
100
AcDbLine
 62
7
  6
CONTINUOUS
 10
8.5278672762
 20
5.6021198968
 11
8.4934894092
 21
5.4224382456
  0
LINE
  5
2E1
100
AcDbEntity
  8
0
100
AcDbLine
 62
7
  6
CONTINUOUS
 10
3.5208720839
 20
12.6690477814
 11
3.5208720839
 21
12.6500477814
  0
LINE
  5
2E2
100
AcDbEntity
  8
0
100
AcDbLine
 62
7
  6
CONTINUOUS
 10
3.5208720839
 20
12.5310477814
 11
3.5208720839
 21
12.5500477814
  0
LINE
  5
2E3
100
AcDbEntity
  8
0
100
AcDbLine
 62
7
  6
CONTINUOUS
 10
3.6855904508
 20
11.6197620962
 11
3.6733720839
 21
12.4750477814
  0
LINE
  5
2E4
100
AcDbEntity
  8
0
100
AcDbLine
 62
7
  6
CONTINUOUS
 10
3.5558720839
 20
12.6500477814
 11
3.5558720839
 21
12.5500477814
  0
LINE
  5
2E5
100
AcDbEntity
  8
0
100
AcDbLine
 62
7
  6
CONTINUOUS
 10
3.6358720839
 20
12.6500477814
 11
3.6358720839
 21
12.5500477814
  0
LINE
  5
2E6
100
AcDbEntity
  8
0
100
AcDbLine
 62
7
  6
CONTINUOUS
 10
3.6733720839
 20
12.7250477814
 11
3.6733720839
 21
12.4750477814
  0
LINE
  5
2E7
100
AcDbEntity
  8
0
100
AcDbLine
 62
7
  6
CONTINUOUS
 10
3.6733720839
 20
12.7250477814
 11
3.6855904508
 21
13.5803334665
  0
LINE
  5
2E8
100
AcDbEntity
  8
0
100
AcDbLine
 62
7
  6
CONTINUOUS
 10
3.9561537169
 20
13.5803334665
 11
3.9683720839
 21
12.7250477814
  0
LINE
  5
2E9
100
AcDbEntity
  8
0
100
AcDbLine
 62
7
  6
CONTINUOUS
 10
3.9855904508
 20
11.6197620962
 11
3.9733720839
 21
12.4750477814
  0
LINE
  5
2EA
100
AcDbEntity
  8
0
100
AcDbLine
 62
7
  6
CONTINUOUS
 10
3.9683720839
 20
12.7250477814
 11
3.9683720839
 21
12.4750477814
  0
LINE
  5
2EB
100
AcDbEntity
  8
0
100
AcDbLine
 62
7
  6
CONTINUOUS
 10
3.9733720839
 20
12.7250477814
 11
3.9733720839
 21
12.4750477814
  0
LINE
  5
2EC
100
AcDbEntity
  8
0
100
AcDbLine
 62
7
  6
CONTINUOUS
 10
3.9683720839
 20
12.4750477814
 11
3.9561537169
 21
11.6197620962
  0
LINE
  5
2ED
100
AcDbEntity
  8
0
100
AcDbLine
 62
7
  6
CONTINUOUS
 10
3.9733720839
 20
12.7250477814
 11
3.9855904508
 21
13.5803334665
  0
LINE
  5
2EE
100
AcDbEntity
  8
0
100
AcDbLine
 62
7
  6
CONTINUOUS
 10
4.2683720839
 20
12.7250477814
 11
4.2683720839
 21
12.4750477814
  0
LINE
  5
2EF
100
AcDbEntity
  8
0
100
AcDbLine
 62
7
  6
CONTINUOUS
 10
4.2561537169
 20
13.5803334665
 11
4.2683720839
 21
12.7250477814
  0
LINE
  5
2F0
100
AcDbEntity
  8
0
100
AcDbLine
 62
7
  6
CONTINUOUS
 10
4.2855904508
 20
11.6197620962
 11
4.2733720839
 21
12.4750477814
  0
LINE
  5
2F1
100
AcDbEntity
  8
0
100
AcDbLine
 62
7
  6
CONTINUOUS
 10
4.2733720839
 20
12.7250477814
 11
4.2733720839
 21
12.4750477814
  0
LINE
  5
2F2
100
AcDbEntity
  8
0
100
AcDbLine
 62
7
  6
CONTINUOUS
 10
4.2683720839
 20
12.4750477814
 11
4.2561537169
 21
11.6197620962
  0
LINE
  5
2F3
100
AcDbEntity
  8
0
100
AcDbLine
 62
7
  6
CONTINUOUS
 10
4.2733720839
 20
12.7250477814
 11
4.2855904508
 21
13.5803334665
  0
LINE
  5
2F4
100
AcDbEntity
  8
0
100
AcDbLine
 62
7
  6
CONTINUOUS
 10
4.5561537169
 20
13.5803334665
 11
4.5683720839
 21
12.7250477814
  0
LINE
  5
2F5
100
AcDbEntity
  8
0
100
AcDbLine
 62
7
  6
CONTINUOUS
 10
4.5855904508
 20
11.6197620962
 11
4.5733720839
 21
12.4750477814
  0
LINE
  5
2F6
100
AcDbEntity
  8
0
100
AcDbLine
 62
7
  6
CONTINUOUS
 10
4.5683720839
 20
12.7250477814
 11
4.5683720839
 21
12.4750477814
  0
LINE
  5
2F7
100
AcDbEntity
  8
0
100
AcDbLine
 62
7
  6
CONTINUOUS
 10
4.5733720839
 20
12.7250477814
 11
4.5733720839
 21
12.4750477814
  0
LINE
  5
2F8
100
AcDbEntity
  8
0
100
AcDbLine
 62
7
  6
CONTINUOUS
 10
4.5683720839
 20
12.4750477814
 11
4.5561537169
 21
11.6197620962
  0
LINE
  5
2F9
100
AcDbEntity
  8
0
100
AcDbLine
 62
7
  6
CONTINUOUS
 10
4.5733720839
 20
12.7250477814
 11
4.5855904508
 21
13.5803334665
  0
LINE
  5
2FA
100
AcDbEntity
  8
0
100
AcDbLine
 62
7
  6
CONTINUOUS
 10
4.8561537169
 20
13.5803334665
 11
4.8683720839
 21
12.7250477814
  0
LINE
  5
2FB
100
AcDbEntity
  8
0
100
AcDbLine
 62
7
  6
CONTINUOUS
 10
4.8855904508
 20
11.6197620962
 11
4.8733720839
 21
12.4750477814
  0
LINE
  5
2FC
100
AcDbEntity
  8
0
100
AcDbLine
 62
7
  6
CONTINUOUS
 10
4.8683720839
 20
12.7250477814
 11
4.8683720839
 21
12.4750477814
  0
LINE
  5
2FD
100
AcDbEntity
  8
0
100
AcDbLine
 62
7
  6
CONTINUOUS
 10
4.8733720839
 20
12.7250477814
 11
4.8733720839
 21
12.4750477814
  0
LINE
  5
2FE
100
AcDbEntity
  8
0
100
AcDbLine
 62
7
  6
CONTINUOUS
 10
4.8683720839
 20
12.4750477814
 11
4.8561537169
 21
11.6197620962
  0
LINE
  5
2FF
100
AcDbEntity
  8
0
100
AcDbLine
 62
7
  6
CONTINUOUS
 10
4.8733720839
 20
12.7250477814
 11
4.8855904508
 21
13.5803334665
  0
LINE
  5
300
100
AcDbEntity
  8
0
100
AcDbLine
 62
7
  6
CONTINUOUS
 10
5.1561537169
 20
13.5803334665
 11
5.1683720839
 21
12.7250477814
  0
LINE
  5
301
100
AcDbEntity
  8
0
100
AcDbLine
 62
7
  6
CONTINUOUS
 10
5.1855904508
 20
11.6197620962
 11
5.1733720839
 21
12.4750477814
  0
LINE
  5
302
100
AcDbEntity
  8
0
100
AcDbLine
 62
7
  6
CONTINUOUS
 10
5.1683720839
 20
12.7250477814
 11
5.1683720839
 21
12.4750477814
  0
LINE
  5
303
100
AcDbEntity
  8
0
100
AcDbLine
 62
7
  6
CONTINUOUS
 10
5.1733720839
 20
12.7250477814
 11
5.1733720839
 21
12.4750477814
  0
LINE
  5
304
100
AcDbEntity
  8
0
100
AcDbLine
 62
7
  6
CONTINUOUS
 10
5.1683720839
 20
12.4750477814
 11
5.1561537169
 21
11.6197620962
  0
LINE
  5
305
100
AcDbEntity
  8
0
100
AcDbLine
 62
7
  6
CONTINUOUS
 10
5.1733720839
 20
12.7250477814
 11
5.1855904508
 21
13.5803334665
  0
LINE
  5
306
100
AcDbEntity
  8
0
100
AcDbLine
 62
7
  6
CONTINUOUS
 10
3.7055884103
 20
11.6000477814
 11
3.9361557574
 21
11.6000477814
  0
LINE
  5
307
100
AcDbEntity
  8
0
100
AcDbLine
 62
7
  6
CONTINUOUS
 10
4.0055884103
 20
11.6000477814
 11
4.2361557574
 21
11.6000477814
  0
LINE
  5
308
100
AcDbEntity
  8
0
100
AcDbLine
 62
7
  6
CONTINUOUS
 10
4.3055884103
 20
11.6000477814
 11
4.5361557574
 21
11.6000477814
  0
LINE
  5
309
100
AcDbEntity
  8
0
100
AcDbLine
 62
7
  6
CONTINUOUS
 10
4.6055884103
 20
11.6000477814
 11
4.8361557574
 21
11.6000477814
  0
LINE
  5
30A
100
AcDbEntity
  8
0
100
AcDbLine
 62
7
  6
CONTINUOUS
 10
4.9055884103
 20
11.6000477814
 11
5.1361557574
 21
11.6000477814
  0
LINE
  5
30B
100
AcDbEntity
  8
0
100
AcDbLine
 62
7
  6
CONTINUOUS
 10
5.2055884103
 20
11.6000477814
 11
5.4361557574
 21
11.6000477814
  0
LINE
  5
30C
100
AcDbEntity
  8
0
100
AcDbLine
 62
7
  6
CONTINUOUS
 10
5.5055884103
 20
11.6000477814
 11
5.7361557574
 21
11.6000477814
  0
LINE
  5
30D
100
AcDbEntity
  8
0
100
AcDbLine
 62
7
  6
CONTINUOUS
 10
5.8055884103
 20
11.6000477814
 11
6.0361557574
 21
11.6000477814
  0
LINE
  5
30E
100
AcDbEntity
  8
0
100
AcDbLine
 62
7
  6
CONTINUOUS
 10
6.1055884103
 20
11.6000477814
 11
6.3361557574
 21
11.6000477814
  0
LINE
  5
30F
100
AcDbEntity
  8
0
100
AcDbLine
 62
7
  6
CONTINUOUS
 10
6.4055884103
 20
11.6000477814
 11
6.6361557574
 21
11.6000477814
  0
LINE
  5
310
100
AcDbEntity
  8
0
100
AcDbLine
 62
7
  6
CONTINUOUS
 10
6.7055884103
 20
11.6000477814
 11
6.9361557574
 21
11.6000477814
  0
LINE
  5
311
100
AcDbEntity
  8
0
100
AcDbLine
 62
7
  6
CONTINUOUS
 10
7.0055884103
 20
11.6000477814
 11
7.2361557574
 21
11.6000477814
  0
LINE
  5
312
100
AcDbEntity
  8
0
100
AcDbLine
 62
7
  6
CONTINUOUS
 10
7.3055884103
 20
11.6000477814
 11
7.5361557574
 21
11.6000477814
  0
LINE
  5
313
100
AcDbEntity
  8
0
100
AcDbLine
 62
7
  6
CONTINUOUS
 10
7.6055884103
 20
11.6000477814
 11
7.8361557574
 21
11.6000477814
  0
LINE
  5
314
100
AcDbEntity
  8
0
100
AcDbLine
 62
7
  6
CONTINUOUS
 10
7.9055884103
 20
11.6000477814
 11
8.1361557574
 21
11.6000477814
  0
LINE
  5
315
100
AcDbEntity
  8
0
100
AcDbLine
 62
7
  6
CONTINUOUS
 10
8.2055884103
 20
11.6000477814
 11
8.4361557574
 21
11.6000477814
  0
LINE
  5
316
100
AcDbEntity
  8
0
100
AcDbLine
 62
7
  6
CONTINUOUS
 10
5.4561537169
 20
13.5803334665
 11
5.4683720839
 21
12.7250477814
  0
LINE
  5
317
100
AcDbEntity
  8
0
100
AcDbLine
 62
7
  6
CONTINUOUS
 10
5.4855904508
 20
11.6197620962
 11
5.4733720839
 21
12.4750477814
  0
LINE
  5
318
100
AcDbEntity
  8
0
100
AcDbLine
 62
7
  6
CONTINUOUS
 10
5.4683720839
 20
12.7250477814
 11
5.4683720839
 21
12.4750477814
  0
LINE
  5
319
100
AcDbEntity
  8
0
100
AcDbLine
 62
7
  6
CONTINUOUS
 10
5.4733720839
 20
12.7250477814
 11
5.4733720839
 21
12.4750477814
  0
LINE
  5
31A
100
AcDbEntity
  8
0
100
AcDbLine
 62
7
  6
CONTINUOUS
 10
5.4683720839
 20
12.4750477814
 11
5.4561537169
 21
11.6197620962
  0
LINE
  5
31B
100
AcDbEntity
  8
0
100
AcDbLine
 62
7
  6
CONTINUOUS
 10
5.4733720839
 20
12.7250477814
 11
5.4855904508
 21
13.5803334665
  0
LINE
  5
31C
100
AcDbEntity
  8
0
100
AcDbLine
 62
7
  6
CONTINUOUS
 10
5.7561537169
 20
13.5803334665
 11
5.7683720839
 21
12.7250477814
  0
LINE
  5
31D
100
AcDbEntity
  8
0
100
AcDbLine
 62
7
  6
CONTINUOUS
 10
5.7855904508
 20
11.6197620962
 11
5.7733720839
 21
12.4750477814
  0
LINE
  5
31E
100
AcDbEntity
  8
0
100
AcDbLine
 62
7
  6
CONTINUOUS
 10
5.7683720839
 20
12.7250477814
 11
5.7683720839
 21
12.4750477814
  0
LINE
  5
31F
100
AcDbEntity
  8
0
100
AcDbLine
 62
7
  6
CONTINUOUS
 10
5.7733720839
 20
12.7250477814
 11
5.7733720839
 21
12.4750477814
  0
LINE
  5
320
100
AcDbEntity
  8
0
100
AcDbLine
 62
7
  6
CONTINUOUS
 10
5.7683720839
 20
12.4750477814
 11
5.7561537169
 21
11.6197620962
  0
LINE
  5
321
100
AcDbEntity
  8
0
100
AcDbLine
 62
7
  6
CONTINUOUS
 10
5.7733720839
 20
12.7250477814
 11
5.7855904508
 21
13.5803334665
  0
LINE
  5
322
100
AcDbEntity
  8
0
100
AcDbLine
 62
7
  6
CONTINUOUS
 10
6.0561537169
 20
13.5803334665
 11
6.0683720839
 21
12.7250477814
  0
LINE
  5
323
100
AcDbEntity
  8
0
100
AcDbLine
 62
7
  6
CONTINUOUS
 10
6.0855904508
 20
11.6197620962
 11
6.0733720839
 21
12.4750477814
  0
LINE
  5
324
100
AcDbEntity
  8
0
100
AcDbLine
 62
7
  6
CONTINUOUS
 10
6.0683720839
 20
12.7250477814
 11
6.0683720839
 21
12.4750477814
  0
LINE
  5
325
100
AcDbEntity
  8
0
100
AcDbLine
 62
7
  6
CONTINUOUS
 10
6.0733720839
 20
12.7250477814
 11
6.0733720839
 21
12.4750477814
  0
LINE
  5
326
100
AcDbEntity
  8
0
100
AcDbLine
 62
7
  6
CONTINUOUS
 10
6.0683720839
 20
12.4750477814
 11
6.0561537169
 21
11.6197620962
  0
LINE
  5
327
100
AcDbEntity
  8
0
100
AcDbLine
 62
7
  6
CONTINUOUS
 10
6.0733720839
 20
12.7250477814
 11
6.0855904508
 21
13.5803334665
  0
LINE
  5
328
100
AcDbEntity
  8
0
100
AcDbLine
 62
7
  6
CONTINUOUS
 10
8.6208720839
 20
12.5310477814
 11
8.4683720839
 21
12.5310477814
  0
LINE
  5
329
100
AcDbEntity
  8
0
100
AcDbLine
 62
7
  6
CONTINUOUS
 10
8.1733720839
 20
12.5310477814
 11
8.1683720839
 21
12.5310477814
  0
LINE
  5
32A
100
AcDbEntity
  8
0
100
AcDbLine
 62
7
  6
CONTINUOUS
 10
7.8733720839
 20
12.5310477814
 11
7.8683720839
 21
12.5310477814
  0
LINE
  5
32B
100
AcDbEntity
  8
0
100
AcDbLine
 62
7
  6
CONTINUOUS
 10
7.5733720839
 20
12.5310477814
 11
7.5683720839
 21
12.5310477814
  0
LINE
  5
32C
100
AcDbEntity
  8
0
100
AcDbLine
 62
7
  6
CONTINUOUS
 10
7.2733720839
 20
12.5310477814
 11
7.2683720839
 21
12.5310477814
  0
LINE
  5
32D
100
AcDbEntity
  8
0
100
AcDbLine
 62
7
  6
CONTINUOUS
 10
6.9733720839
 20
12.5310477814
 11
6.9683720839
 21
12.5310477814
  0
LINE
  5
32E
100
AcDbEntity
  8
0
100
AcDbLine
 62
7
  6
CONTINUOUS
 10
6.6733720839
 20
12.5310477814
 11
6.6683720839
 21
12.5310477814
  0
LINE
  5
32F
100
AcDbEntity
  8
0
100
AcDbLine
 62
7
  6
CONTINUOUS
 10
6.3733720839
 20
12.5310477814
 11
6.3683720839
 21
12.5310477814
  0
LINE
  5
330
100
AcDbEntity
  8
0
100
AcDbLine
 62
7
  6
CONTINUOUS
 10
6.0733720839
 20
12.5310477814
 11
6.0683720839
 21
12.5310477814
  0
LINE
  5
331
100
AcDbEntity
  8
0
100
AcDbLine
 62
7
  6
CONTINUOUS
 10
5.7733720839
 20
12.5310477814
 11
5.7683720839
 21
12.5310477814
  0
LINE
  5
332
100
AcDbEntity
  8
0
100
AcDbLine
 62
7
  6
CONTINUOUS
 10
5.4733720839
 20
12.5310477814
 11
5.4683720839
 21
12.5310477814
  0
LINE
  5
333
100
AcDbEntity
  8
0
100
AcDbLine
 62
7
  6
CONTINUOUS
 10
5.1733720839
 20
12.5310477814
 11
5.1683720839
 21
12.5310477814
  0
LINE
  5
334
100
AcDbEntity
  8
0
100
AcDbLine
 62
7
  6
CONTINUOUS
 10
4.8733720839
 20
12.5310477814
 11
4.8683720839
 21
12.5310477814
  0
LINE
  5
335
100
AcDbEntity
  8
0
100
AcDbLine
 62
7
  6
CONTINUOUS
 10
4.5733720839
 20
12.5310477814
 11
4.5683720839
 21
12.5310477814
  0
LINE
  5
336
100
AcDbEntity
  8
0
100
AcDbLine
 62
7
  6
CONTINUOUS
 10
4.2733720839
 20
12.5310477814
 11
4.2683720839
 21
12.5310477814
  0
LINE
  5
337
100
AcDbEntity
  8
0
100
AcDbLine
 62
7
  6
CONTINUOUS
 10
3.9733720839
 20
12.5310477814
 11
3.9683720839
 21
12.5310477814
  0
LINE
  5
338
100
AcDbEntity
  8
0
100
AcDbLine
 62
7
  6
CONTINUOUS
 10
3.6733720839
 20
12.5310477814
 11
3.5208720839
 21
12.5310477814
  0
LINE
  5
339
100
AcDbEntity
  8
0
100
AcDbLine
 62
7
  6
CONTINUOUS
 10
3.5208720839
 20
12.5500477814
 11
3.6733720839
 21
12.5500477814
  0
LINE
  5
33A
100
AcDbEntity
  8
0
100
AcDbLine
 62
7
  6
CONTINUOUS
 10
3.9683720839
 20
12.5500477814
 11
3.9733720839
 21
12.5500477814
  0
LINE
  5
33B
100
AcDbEntity
  8
0
100
AcDbLine
 62
7
  6
CONTINUOUS
 10
4.2683720839
 20
12.5500477814
 11
4.2733720839
 21
12.5500477814
  0
LINE
  5
33C
100
AcDbEntity
  8
0
100
AcDbLine
 62
7
  6
CONTINUOUS
 10
4.5683720839
 20
12.5500477814
 11
4.5733720839
 21
12.5500477814
  0
LINE
  5
33D
100
AcDbEntity
  8
0
100
AcDbLine
 62
7
  6
CONTINUOUS
 10
4.8683720839
 20
12.5500477814
 11
4.8733720839
 21
12.5500477814
  0
LINE
  5
33E
100
AcDbEntity
  8
0
100
AcDbLine
 62
7
  6
CONTINUOUS
 10
5.1683720839
 20
12.5500477814
 11
5.1733720839
 21
12.5500477814
  0
LINE
  5
33F
100
AcDbEntity
  8
0
100
AcDbLine
 62
7
  6
CONTINUOUS
 10
5.4683720839
 20
12.5500477814
 11
5.4733720839
 21
12.5500477814
  0
LINE
  5
340
100
AcDbEntity
  8
0
100
AcDbLine
 62
7
  6
CONTINUOUS
 10
5.7683720839
 20
12.5500477814
 11
5.7733720839
 21
12.5500477814
  0
LINE
  5
341
100
AcDbEntity
  8
0
100
AcDbLine
 62
7
  6
CONTINUOUS
 10
6.0683720839
 20
12.5500477814
 11
6.0733720839
 21
12.5500477814
  0
LINE
  5
342
100
AcDbEntity
  8
0
100
AcDbLine
 62
7
  6
CONTINUOUS
 10
6.3683720839
 20
12.5500477814
 11
6.3733720839
 21
12.5500477814
  0
LINE
  5
343
100
AcDbEntity
  8
0
100
AcDbLine
 62
7
  6
CONTINUOUS
 10
6.6683720839
 20
12.5500477814
 11
6.6733720839
 21
12.5500477814
  0
LINE
  5
344
100
AcDbEntity
  8
0
100
AcDbLine
 62
7
  6
CONTINUOUS
 10
6.9683720839
 20
12.5500477814
 11
6.9733720839
 21
12.5500477814
  0
LINE
  5
345
100
AcDbEntity
  8
0
100
AcDbLine
 62
7
  6
CONTINUOUS
 10
7.2683720839
 20
12.5500477814
 11
7.2733720839
 21
12.5500477814
  0
LINE
  5
346
100
AcDbEntity
  8
0
100
AcDbLine
 62
7
  6
CONTINUOUS
 10
7.5683720839
 20
12.5500477814
 11
7.5733720839
 21
12.5500477814
  0
LINE
  5
347
100
AcDbEntity
  8
0
100
AcDbLine
 62
7
  6
CONTINUOUS
 10
7.8683720839
 20
12.5500477814
 11
7.8733720839
 21
12.5500477814
  0
LINE
  5
348
100
AcDbEntity
  8
0
100
AcDbLine
 62
7
  6
CONTINUOUS
 10
8.1683720839
 20
12.5500477814
 11
8.1733720839
 21
12.5500477814
  0
LINE
  5
349
100
AcDbEntity
  8
0
100
AcDbLine
 62
7
  6
CONTINUOUS
 10
8.4683720839
 20
12.5500477814
 11
8.6208720839
 21
12.5500477814
  0
LINE
  5
34A
100
AcDbEntity
  8
0
100
AcDbLine
 62
7
  6
CONTINUOUS
 10
8.6208720839
 20
12.6500477814
 11
8.4683720839
 21
12.6500477814
  0
LINE
  5
34B
100
AcDbEntity
  8
0
100
AcDbLine
 62
7
  6
CONTINUOUS
 10
8.1733720839
 20
12.6500477814
 11
8.1683720839
 21
12.6500477814
  0
LINE
  5
34C
100
AcDbEntity
  8
0
100
AcDbLine
 62
7
  6
CONTINUOUS
 10
7.8733720839
 20
12.6500477814
 11
7.8683720839
 21
12.6500477814
  0
LINE
  5
34D
100
AcDbEntity
  8
0
100
AcDbLine
 62
7
  6
CONTINUOUS
 10
7.5733720839
 20
12.6500477814
 11
7.5683720839
 21
12.6500477814
  0
LINE
  5
34E
100
AcDbEntity
  8
0
100
AcDbLine
 62
7
  6
CONTINUOUS
 10
7.2733720839
 20
12.6500477814
 11
7.2683720839
 21
12.6500477814
  0
LINE
  5
34F
100
AcDbEntity
  8
0
100
AcDbLine
 62
7
  6
CONTINUOUS
 10
6.9733720839
 20
12.6500477814
 11
6.9683720839
 21
12.6500477814
  0
LINE
  5
350
100
AcDbEntity
  8
0
100
AcDbLine
 62
7
  6
CONTINUOUS
 10
6.6733720839
 20
12.6500477814
 11
6.6683720839
 21
12.6500477814
  0
LINE
  5
351
100
AcDbEntity
  8
0
100
AcDbLine
 62
7
  6
CONTINUOUS
 10
6.3733720839
 20
12.6500477814
 11
6.3683720839
 21
12.6500477814
  0
LINE
  5
352
100
AcDbEntity
  8
0
100
AcDbLine
 62
7
  6
CONTINUOUS
 10
6.0733720839
 20
12.6500477814
 11
6.0683720839
 21
12.6500477814
  0
LINE
  5
353
100
AcDbEntity
  8
0
100
AcDbLine
 62
7
  6
CONTINUOUS
 10
5.7733720839
 20
12.6500477814
 11
5.7683720839
 21
12.6500477814
  0
LINE
  5
354
100
AcDbEntity
  8
0
100
AcDbLine
 62
7
  6
CONTINUOUS
 10
5.4733720839
 20
12.6500477814
 11
5.4683720839
 21
12.6500477814
  0
LINE
  5
355
100
AcDbEntity
  8
0
100
AcDbLine
 62
7
  6
CONTINUOUS
 10
5.1733720839
 20
12.6500477814
 11
5.1683720839
 21
12.6500477814
  0
LINE
  5
356
100
AcDbEntity
  8
0
100
AcDbLine
 62
7
  6
CONTINUOUS
 10
4.8733720839
 20
12.6500477814
 11
4.8683720839
 21
12.6500477814
  0
LINE
  5
357
100
AcDbEntity
  8
0
100
AcDbLine
 62
7
  6
CONTINUOUS
 10
4.5733720839
 20
12.6500477814
 11
4.5683720839
 21
12.6500477814
  0
LINE
  5
358
100
AcDbEntity
  8
0
100
AcDbLine
 62
7
  6
CONTINUOUS
 10
4.2733720839
 20
12.6500477814
 11
4.2683720839
 21
12.6500477814
  0
LINE
  5
359
100
AcDbEntity
  8
0
100
AcDbLine
 62
7
  6
CONTINUOUS
 10
3.9733720839
 20
12.6500477814
 11
3.9683720839
 21
12.6500477814
  0
LINE
  5
35A
100
AcDbEntity
  8
0
100
AcDbLine
 62
7
  6
CONTINUOUS
 10
3.6733720839
 20
12.6500477814
 11
3.5208720839
 21
12.6500477814
  0
LINE
  5
35B
100
AcDbEntity
  8
0
100
AcDbLine
 62
7
  6
CONTINUOUS
 10
8.1733720839
 20
12.6690477814
 11
8.1683720839
 21
12.6690477814
  0
LINE
  5
35C
100
AcDbEntity
  8
0
100
AcDbLine
 62
7
  6
CONTINUOUS
 10
7.8733720839
 20
12.6690477814
 11
7.8683720839
 21
12.6690477814
  0
LINE
  5
35D
100
AcDbEntity
  8
0
100
AcDbLine
 62
7
  6
CONTINUOUS
 10
7.5733720839
 20
12.6690477814
 11
7.5683720839
 21
12.6690477814
  0
LINE
  5
35E
100
AcDbEntity
  8
0
100
AcDbLine
 62
7
  6
CONTINUOUS
 10
7.2733720839
 20
12.6690477814
 11
7.2683720839
 21
12.6690477814
  0
LINE
  5
35F
100
AcDbEntity
  8
0
100
AcDbLine
 62
7
  6
CONTINUOUS
 10
6.9733720839
 20
12.6690477814
 11
6.9683720839
 21
12.6690477814
  0
LINE
  5
360
100
AcDbEntity
  8
0
100
AcDbLine
 62
7
  6
CONTINUOUS
 10
6.6733720839
 20
12.6690477814
 11
6.6683720839
 21
12.6690477814
  0
LINE
  5
361
100
AcDbEntity
  8
0
100
AcDbLine
 62
7
  6
CONTINUOUS
 10
6.3733720839
 20
12.6690477814
 11
6.3683720839
 21
12.6690477814
  0
LINE
  5
362
100
AcDbEntity
  8
0
100
AcDbLine
 62
7
  6
CONTINUOUS
 10
6.0733720839
 20
12.6690477814
 11
6.0683720839
 21
12.6690477814
  0
LINE
  5
363
100
AcDbEntity
  8
0
100
AcDbLine
 62
7
  6
CONTINUOUS
 10
5.7733720839
 20
12.6690477814
 11
5.7683720839
 21
12.6690477814
  0
LINE
  5
364
100
AcDbEntity
  8
0
100
AcDbLine
 62
7
  6
CONTINUOUS
 10
5.4733720839
 20
12.6690477814
 11
5.4683720839
 21
12.6690477814
  0
LINE
  5
365
100
AcDbEntity
  8
0
100
AcDbLine
 62
7
  6
CONTINUOUS
 10
5.1733720839
 20
12.6690477814
 11
5.1683720839
 21
12.6690477814
  0
LINE
  5
366
100
AcDbEntity
  8
0
100
AcDbLine
 62
7
  6
CONTINUOUS
 10
4.8733720839
 20
12.6690477814
 11
4.8683720839
 21
12.6690477814
  0
LINE
  5
367
100
AcDbEntity
  8
0
100
AcDbLine
 62
7
  6
CONTINUOUS
 10
4.5733720839
 20
12.6690477814
 11
4.5683720839
 21
12.6690477814
  0
LINE
  5
368
100
AcDbEntity
  8
0
100
AcDbLine
 62
7
  6
CONTINUOUS
 10
4.2733720839
 20
12.6690477814
 11
4.2683720839
 21
12.6690477814
  0
LINE
  5
369
100
AcDbEntity
  8
0
100
AcDbLine
 62
7
  6
CONTINUOUS
 10
3.9733720839
 20
12.6690477814
 11
3.9683720839
 21
12.6690477814
  0
LINE
  5
36A
100
AcDbEntity
  8
0
100
AcDbLine
 62
7
  6
CONTINUOUS
 10
3.5208720839
 20
12.6690477814
 11
3.6733720839
 21
12.6690477814
  0
LINE
  5
36B
100
AcDbEntity
  8
0
100
AcDbLine
 62
7
  6
CONTINUOUS
 10
8.4683720839
 20
12.6690477814
 11
8.6208720839
 21
12.6690477814
  0
LINE
  5
36C
100
AcDbEntity
  8
0
100
AcDbLine
 62
7
  6
CONTINUOUS
 10
6.3561537169
 20
13.5803334665
 11
6.3683720839
 21
12.7250477814
  0
LINE
  5
36D
100
AcDbEntity
  8
0
100
AcDbLine
 62
7
  6
CONTINUOUS
 10
6.3855904508
 20
11.6197620962
 11
6.3733720839
 21
12.4750477814
  0
LINE
  5
36E
100
AcDbEntity
  8
0
100
AcDbLine
 62
7
  6
CONTINUOUS
 10
6.3683720839
 20
12.7250477814
 11
6.3683720839
 21
12.4750477814
  0
LINE
  5
36F
100
AcDbEntity
  8
0
100
AcDbLine
 62
7
  6
CONTINUOUS
 10
6.3733720839
 20
12.7250477814
 11
6.3733720839
 21
12.4750477814
  0
LINE
  5
370
100
AcDbEntity
  8
0
100
AcDbLine
 62
7
  6
CONTINUOUS
 10
6.3683720839
 20
12.4750477814
 11
6.3561537169
 21
11.6197620962
  0
LINE
  5
371
100
AcDbEntity
  8
0
100
AcDbLine
 62
7
  6
CONTINUOUS
 10
6.3733720839
 20
12.7250477814
 11
6.3855904508
 21
13.5803334665
  0
LINE
  5
372
100
AcDbEntity
  8
0
100
AcDbLine
 62
7
  6
CONTINUOUS
 10
6.6561537169
 20
13.5803334665
 11
6.6683720839
 21
12.7250477814
  0
LINE
  5
373
100
AcDbEntity
  8
0
100
AcDbLine
 62
7
  6
CONTINUOUS
 10
6.6855904508
 20
11.6197620962
 11
6.6733720839
 21
12.4750477814
  0
LINE
  5
374
100
AcDbEntity
  8
0
100
AcDbLine
 62
7
  6
CONTINUOUS
 10
6.6683720839
 20
12.7250477814
 11
6.6683720839
 21
12.4750477814
  0
LINE
  5
375
100
AcDbEntity
  8
0
100
AcDbLine
 62
7
  6
CONTINUOUS
 10
6.6733720839
 20
12.7250477814
 11
6.6733720839
 21
12.4750477814
  0
LINE
  5
376
100
AcDbEntity
  8
0
100
AcDbLine
 62
7
  6
CONTINUOUS
 10
6.6683720839
 20
12.4750477814
 11
6.6561537169
 21
11.6197620962
  0
LINE
  5
377
100
AcDbEntity
  8
0
100
AcDbLine
 62
7
  6
CONTINUOUS
 10
6.6733720839
 20
12.7250477814
 11
6.6855904508
 21
13.5803334665
  0
LINE
  5
378
100
AcDbEntity
  8
0
100
AcDbLine
 62
7
  6
CONTINUOUS
 10
6.9561537169
 20
13.5803334665
 11
6.9683720839
 21
12.7250477814
  0
LINE
  5
379
100
AcDbEntity
  8
0
100
AcDbLine
 62
7
  6
CONTINUOUS
 10
6.9855904508
 20
11.6197620962
 11
6.9733720839
 21
12.4750477814
  0
LINE
  5
37A
100
AcDbEntity
  8
0
100
AcDbLine
 62
7
  6
CONTINUOUS
 10
6.9683720839
 20
12.7250477814
 11
6.9683720839
 21
12.4750477814
  0
LINE
  5
37B
100
AcDbEntity
  8
0
100
AcDbLine
 62
7
  6
CONTINUOUS
 10
6.9733720839
 20
12.7250477814
 11
6.9733720839
 21
12.4750477814
  0
LINE
  5
37C
100
AcDbEntity
  8
0
100
AcDbLine
 62
7
  6
CONTINUOUS
 10
6.9683720839
 20
12.4750477814
 11
6.9561537169
 21
11.6197620962
  0
LINE
  5
37D
100
AcDbEntity
  8
0
100
AcDbLine
 62
7
  6
CONTINUOUS
 10
6.9733720839
 20
12.7250477814
 11
6.9855904508
 21
13.5803334665
  0
LINE
  5
37E
100
AcDbEntity
  8
0
100
AcDbLine
 62
7
  6
CONTINUOUS
 10
3.7055884103
 20
13.6000477814
 11
3.9361557574
 21
13.6000477814
  0
LINE
  5
37F
100
AcDbEntity
  8
0
100
AcDbLine
 62
7
  6
CONTINUOUS
 10
4.0055884103
 20
13.6000477814
 11
4.2361557574
 21
13.6000477814
  0
LINE
  5
380
100
AcDbEntity
  8
0
100
AcDbLine
 62
7
  6
CONTINUOUS
 10
4.3055884103
 20
13.6000477814
 11
4.5361557574
 21
13.6000477814
  0
LINE
  5
381
100
AcDbEntity
  8
0
100
AcDbLine
 62
7
  6
CONTINUOUS
 10
4.6055884103
 20
13.6000477814
 11
4.8361557574
 21
13.6000477814
  0
LINE
  5
382
100
AcDbEntity
  8
0
100
AcDbLine
 62
7
  6
CONTINUOUS
 10
4.9055884103
 20
13.6000477814
 11
5.1361557574
 21
13.6000477814
  0
LINE
  5
383
100
AcDbEntity
  8
0
100
AcDbLine
 62
7
  6
CONTINUOUS
 10
5.2055884103
 20
13.6000477814
 11
5.4361557574
 21
13.6000477814
  0
LINE
  5
384
100
AcDbEntity
  8
0
100
AcDbLine
 62
7
  6
CONTINUOUS
 10
5.5055884103
 20
13.6000477814
 11
5.7361557574
 21
13.6000477814
  0
LINE
  5
385
100
AcDbEntity
  8
0
100
AcDbLine
 62
7
  6
CONTINUOUS
 10
5.8055884103
 20
13.6000477814
 11
6.0361557574
 21
13.6000477814
  0
LINE
  5
386
100
AcDbEntity
  8
0
100
AcDbLine
 62
7
  6
CONTINUOUS
 10
6.1055884103
 20
13.6000477814
 11
6.3361557574
 21
13.6000477814
  0
LINE
  5
387
100
AcDbEntity
  8
0
100
AcDbLine
 62
7
  6
CONTINUOUS
 10
6.4055884103
 20
13.6000477814
 11
6.6361557574
 21
13.6000477814
  0
LINE
  5
388
100
AcDbEntity
  8
0
100
AcDbLine
 62
7
  6
CONTINUOUS
 10
6.7055884103
 20
13.6000477814
 11
6.9361557574
 21
13.6000477814
  0
LINE
  5
389
100
AcDbEntity
  8
0
100
AcDbLine
 62
7
  6
CONTINUOUS
 10
7.0055884103
 20
13.6000477814
 11
7.2361557574
 21
13.6000477814
  0
LINE
  5
38A
100
AcDbEntity
  8
0
100
AcDbLine
 62
7
  6
CONTINUOUS
 10
7.3055884103
 20
13.6000477814
 11
7.5361557574
 21
13.6000477814
  0
LINE
  5
38B
100
AcDbEntity
  8
0
100
AcDbLine
 62
7
  6
CONTINUOUS
 10
7.6055884103
 20
13.6000477814
 11
7.8361557574
 21
13.6000477814
  0
LINE
  5
38C
100
AcDbEntity
  8
0
100
AcDbLine
 62
7
  6
CONTINUOUS
 10
7.9055884103
 20
13.6000477814
 11
8.1361557574
 21
13.6000477814
  0
LINE
  5
38D
100
AcDbEntity
  8
0
100
AcDbLine
 62
7
  6
CONTINUOUS
 10
8.2055884103
 20
13.6000477814
 11
8.4361557574
 21
13.6000477814
  0
LINE
  5
38E
100
AcDbEntity
  8
0
100
AcDbLine
 62
7
  6
CONTINUOUS
 10
7.2561537169
 20
13.5803334665
 11
7.2683720839
 21
12.7250477814
  0
LINE
  5
38F
100
AcDbEntity
  8
0
100
AcDbLine
 62
7
  6
CONTINUOUS
 10
7.2855904508
 20
11.6197620962
 11
7.2733720839
 21
12.4750477814
  0
LINE
  5
390
100
AcDbEntity
  8
0
100
AcDbLine
 62
7
  6
CONTINUOUS
 10
7.2683720839
 20
12.7250477814
 11
7.2683720839
 21
12.4750477814
  0
LINE
  5
391
100
AcDbEntity
  8
0
100
AcDbLine
 62
7
  6
CONTINUOUS
 10
7.2733720839
 20
12.7250477814
 11
7.2733720839
 21
12.4750477814
  0
LINE
  5
392
100
AcDbEntity
  8
0
100
AcDbLine
 62
7
  6
CONTINUOUS
 10
7.2683720839
 20
12.4750477814
 11
7.2561537169
 21
11.6197620962
  0
LINE
  5
393
100
AcDbEntity
  8
0
100
AcDbLine
 62
7
  6
CONTINUOUS
 10
7.2733720839
 20
12.7250477814
 11
7.2855904508
 21
13.5803334665
  0
LINE
  5
394
100
AcDbEntity
  8
0
100
AcDbLine
 62
7
  6
CONTINUOUS
 10
7.5561537169
 20
13.5803334665
 11
7.5683720839
 21
12.7250477814
  0
LINE
  5
395
100
AcDbEntity
  8
0
100
AcDbLine
 62
7
  6
CONTINUOUS
 10
7.5855904508
 20
11.6197620962
 11
7.5733720839
 21
12.4750477814
  0
LINE
  5
396
100
AcDbEntity
  8
0
100
AcDbLine
 62
7
  6
CONTINUOUS
 10
7.5683720839
 20
12.7250477814
 11
7.5683720839
 21
12.4750477814
  0
LINE
  5
397
100
AcDbEntity
  8
0
100
AcDbLine
 62
7
  6
CONTINUOUS
 10
7.5733720839
 20
12.7250477814
 11
7.5733720839
 21
12.4750477814
  0
LINE
  5
398
100
AcDbEntity
  8
0
100
AcDbLine
 62
7
  6
CONTINUOUS
 10
7.5683720839
 20
12.4750477814
 11
7.5561537169
 21
11.6197620962
  0
LINE
  5
399
100
AcDbEntity
  8
0
100
AcDbLine
 62
7
  6
CONTINUOUS
 10
7.5733720839
 20
12.7250477814
 11
7.5855904508
 21
13.5803334665
  0
LINE
  5
39A
100
AcDbEntity
  8
0
100
AcDbLine
 62
7
  6
CONTINUOUS
 10
7.8561537169
 20
13.5803334665
 11
7.8683720839
 21
12.7250477814
  0
LINE
  5
39B
100
AcDbEntity
  8
0
100
AcDbLine
 62
7
  6
CONTINUOUS
 10
7.8855904508
 20
11.6197620962
 11
7.8733720839
 21
12.4750477814
  0
LINE
  5
39C
100
AcDbEntity
  8
0
100
AcDbLine
 62
7
  6
CONTINUOUS
 10
7.8683720839
 20
12.7250477814
 11
7.8683720839
 21
12.4750477814
  0
LINE
  5
39D
100
AcDbEntity
  8
0
100
AcDbLine
 62
7
  6
CONTINUOUS
 10
7.8733720839
 20
12.7250477814
 11
7.8733720839
 21
12.4750477814
  0
LINE
  5
39E
100
AcDbEntity
  8
0
100
AcDbLine
 62
7
  6
CONTINUOUS
 10
7.8683720839
 20
12.4750477814
 11
7.8561537169
 21
11.6197620962
  0
LINE
  5
39F
100
AcDbEntity
  8
0
100
AcDbLine
 62
7
  6
CONTINUOUS
 10
7.8733720839
 20
12.7250477814
 11
7.8855904508
 21
13.5803334665
  0
LINE
  5
3A0
100
AcDbEntity
  8
0
100
AcDbLine
 62
7
  6
CONTINUOUS
 10
8.1561537169
 20
13.5803334665
 11
8.1683720839
 21
12.7250477814
  0
LINE
  5
3A1
100
AcDbEntity
  8
0
100
AcDbLine
 62
7
  6
CONTINUOUS
 10
8.1855904508
 20
11.6197620962
 11
8.1733720839
 21
12.4750477814
  0
LINE
  5
3A2
100
AcDbEntity
  8
0
100
AcDbLine
 62
7
  6
CONTINUOUS
 10
8.1683720839
 20
12.7250477814
 11
8.1683720839
 21
12.4750477814
  0
LINE
  5
3A3
100
AcDbEntity
  8
0
100
AcDbLine
 62
7
  6
CONTINUOUS
 10
8.1733720839
 20
12.7250477814
 11
8.1733720839
 21
12.4750477814
  0
LINE
  5
3A4
100
AcDbEntity
  8
0
100
AcDbLine
 62
7
  6
CONTINUOUS
 10
8.1683720839
 20
12.4750477814
 11
8.1561537169
 21
11.6197620962
  0
LINE
  5
3A5
100
AcDbEntity
  8
0
100
AcDbLine
 62
7
  6
CONTINUOUS
 10
8.1733720839
 20
12.7250477814
 11
8.1855904508
 21
13.5803334665
  0
LINE
  5
3A6
100
AcDbEntity
  8
0
100
AcDbLine
 62
7
  6
CONTINUOUS
 10
8.4683720839
 20
12.7250477814
 11
8.4683720839
 21
12.4750477814
  0
LINE
  5
3A7
100
AcDbEntity
  8
0
100
AcDbLine
 62
7
  6
CONTINUOUS
 10
8.4561537169
 20
13.5803334665
 11
8.4683720839
 21
12.7250477814
  0
LINE
  5
3A8
100
AcDbEntity
  8
0
100
AcDbLine
 62
7
  6
CONTINUOUS
 10
8.5058720839
 20
12.6500477814
 11
8.5058720839
 21
12.5500477814
  0
LINE
  5
3A9
100
AcDbEntity
  8
0
100
AcDbLine
 62
7
  6
CONTINUOUS
 10
8.5858720839
 20
12.6500477814
 11
8.5858720839
 21
12.5500477814
  0
LINE
  5
3AA
100
AcDbEntity
  8
0
100
AcDbLine
 62
7
  6
CONTINUOUS
 10
8.6208720839
 20
12.6690477814
 11
8.6208720839
 21
12.6500477814
  0
LINE
  5
3AB
100
AcDbEntity
  8
0
100
AcDbLine
 62
7
  6
CONTINUOUS
 10
8.6208720839
 20
12.5310477814
 11
8.6208720839
 21
12.5500477814
  0
LINE
  5
3AC
100
AcDbEntity
  8
0
100
AcDbLine
 62
7
  6
CONTINUOUS
 10
8.4683720839
 20
12.4750477814
 11
8.4561537169
 21
11.6197620962
  0
LINE
  5
3AD
100
AcDbEntity
  8
0
100
AcDbLine
 62
7
  6
CONTINUOUS
 10
14.5603552569
 20
5.5426247044
 11
14.5603552569
 21
5.5746247044
  0
LINE
  5
3AE
100
AcDbEntity
  8
0
100
AcDbLine
 62
7
  6
CONTINUOUS
 10
15.3373552569
 20
5.3466247044
 11
15.3373552569
 21
5.3786247044
  0
LINE
  5
3AF
100
AcDbEntity
  8
0
100
AcDbLine
 62
7
  6
CONTINUOUS
 10
15.4353552569
 20
5.3466247044
 11
15.4353552569
 21
5.5746247044
  0
LINE
  5
3B0
100
AcDbEntity
  8
0
100
AcDbLine
 62
7
  6
CONTINUOUS
 10
15.4653552569
 20
5.5426247044
 11
15.4653552569
 21
5.3466247044
  0
LINE
  5
3B1
100
AcDbEntity
  8
0
100
AcDbLine
 62
7
  6
CONTINUOUS
 10
15.4723552569
 20
5.4106252405
 11
15.4723552569
 21
5.5106241677
  0
LINE
  5
3B2
100
AcDbEntity
  8
0
100
AcDbLine
 62
7
  6
CONTINUOUS
 10
15.4893552569
 20
5.5106241684
 11
15.4893552569
 21
5.4106252412
  0
LINE
  5
3B3
100
AcDbEntity
  8
0
100
AcDbLine
 62
7
  6
CONTINUOUS
 10
15.4913552569
 20
5.3946247044
 11
15.4913552569
 21
5.5266247044
  0
LINE
  5
3B4
100
AcDbEntity
  8
0
100
AcDbLine
 62
7
  6
CONTINUOUS
 10
15.3373552569
 20
5.3466247044
 11
15.4653552569
 21
5.3466247044
  0
LINE
  5
3B5
100
AcDbEntity
  8
0
100
AcDbLine
 62
7
  6
CONTINUOUS
 10
15.6553552569
 20
5.3466247044
 11
15.7833552569
 21
5.3466247044
  0
LINE
  5
3B6
100
AcDbEntity
  8
0
100
AcDbLine
 62
7
  6
CONTINUOUS
 10
15.4353552569
 20
5.3629976215
 11
15.3373552569
 21
5.3629976215
  0
LINE
  5
3B7
100
AcDbEntity
  8
0
100
AcDbLine
 62
7
  6
CONTINUOUS
 10
15.6853552569
 20
5.3629976215
 11
15.7833552569
 21
5.3629976215
  0
LINE
  5
3B8
100
AcDbEntity
  8
0
100
AcDbLine
 62
7
  6
CONTINUOUS
 10
15.4353552569
 20
5.3786247044
 11
15.3373552569
 21
5.3786247044
  0
LINE
  5
3B9
100
AcDbEntity
  8
0
100
AcDbLine
 62
7
  6
CONTINUOUS
 10
15.6853552569
 20
5.3786247044
 11
15.7833552569
 21
5.3786247044
  0
LINE
  5
3BA
100
AcDbEntity
  8
0
100
AcDbLine
 62
7
  6
CONTINUOUS
 10
15.4913552569
 20
5.3946247044
 11
15.5103552569
 21
5.3946247044
  0
LINE
  5
3BB
100
AcDbEntity
  8
0
100
AcDbLine
 62
7
  6
CONTINUOUS
 10
15.6103552569
 20
5.3946247044
 11
15.6293552569
 21
5.3946247044
  0
LINE
  5
3BC
100
AcDbEntity
  8
0
100
AcDbLine
 62
7
  6
CONTINUOUS
 10
15.5103552569
 20
5.5266247044
 11
15.5103552569
 21
5.3946247044
  0
LINE
  5
3BD
100
AcDbEntity
  8
0
100
AcDbLine
 62
7
  6
CONTINUOUS
 10
15.4723552569
 20
5.4106247044
 11
15.4893552569
 21
5.4106247044
  0
LINE
  5
3BE
100
AcDbEntity
  8
0
100
AcDbLine
 62
7
  6
CONTINUOUS
 10
15.6313552569
 20
5.4106247044
 11
15.6483552569
 21
5.4106247044
  0
LINE
  5
3BF
100
AcDbEntity
  8
0
100
AcDbLine
 62
7
  6
CONTINUOUS
 10
15.6103552569
 20
5.4206247044
 11
15.5103552569
 21
5.4206247044
  0
LINE
  5
3C0
100
AcDbEntity
  8
0
100
AcDbLine
 62
7
  6
CONTINUOUS
 10
15.4653552569
 20
5.4406247044
 11
15.4723552569
 21
5.4406247044
  0
LINE
  5
3C1
100
AcDbEntity
  8
0
100
AcDbLine
 62
7
  6
CONTINUOUS
 10
15.4893552569
 20
5.4406247044
 11
15.4913552569
 21
5.4406247044
  0
LINE
  5
3C2
100
AcDbEntity
  8
0
100
AcDbLine
 62
7
  6
CONTINUOUS
 10
15.6293552569
 20
5.4406247044
 11
15.6313552569
 21
5.4406247044
  0
LINE
  5
3C3
100
AcDbEntity
  8
0
100
AcDbLine
 62
7
  6
CONTINUOUS
 10
15.6483552569
 20
5.4406247044
 11
15.6553552569
 21
5.4406247044
  0
LINE
  5
3C4
100
AcDbEntity
  8
0
100
AcDbLine
 62
7
  6
CONTINUOUS
 10
15.6103552569
 20
5.3946247044
 11
15.6103552569
 21
5.5266247044
  0
LINE
  5
3C5
100
AcDbEntity
  8
0
100
AcDbLine
 62
7
  6
CONTINUOUS
 10
15.6293552569
 20
5.5266247044
 11
15.6293552569
 21
5.3946247044
  0
LINE
  5
3C6
100
AcDbEntity
  8
0
100
AcDbLine
 62
7
  6
CONTINUOUS
 10
15.6313552569
 20
5.4106252405
 11
15.6313552569
 21
5.5106241677
  0
LINE
  5
3C7
100
AcDbEntity
  8
0
100
AcDbLine
 62
7
  6
CONTINUOUS
 10
15.4653552569
 20
5.4806247044
 11
15.4723552569
 21
5.4806247044
  0
LINE
  5
3C8
100
AcDbEntity
  8
0
100
AcDbLine
 62
7
  6
CONTINUOUS
 10
15.4893552569
 20
5.4806247044
 11
15.4913552569
 21
5.4806247044
  0
LINE
  5
3C9
100
AcDbEntity
  8
0
100
AcDbLine
 62
7
  6
CONTINUOUS
 10
15.6293552569
 20
5.4806247044
 11
15.6313552569
 21
5.4806247044
  0
LINE
  5
3CA
100
AcDbEntity
  8
0
100
AcDbLine
 62
7
  6
CONTINUOUS
 10
15.6483552569
 20
5.4806247044
 11
15.6553552569
 21
5.4806247044
  0
LINE
  5
3CB
100
AcDbEntity
  8
0
100
AcDbLine
 62
7
  6
CONTINUOUS
 10
15.6103552569
 20
5.5006247044
 11
15.5103552569
 21
5.5006247044
  0
LINE
  5
3CC
100
AcDbEntity
  8
0
100
AcDbLine
 62
7
  6
CONTINUOUS
 10
15.4723552569
 20
5.5106247044
 11
15.4893552569
 21
5.5106247044
  0
LINE
  5
3CD
100
AcDbEntity
  8
0
100
AcDbLine
 62
7
  6
CONTINUOUS
 10
15.6313552569
 20
5.5106247044
 11
15.6483552569
 21
5.5106247044
  0
LINE
  5
3CE
100
AcDbEntity
  8
0
100
AcDbLine
 62
7
  6
CONTINUOUS
 10
15.6293552569
 20
5.5266247044
 11
15.6103552569
 21
5.5266247044
  0
LINE
  5
3CF
100
AcDbEntity
  8
0
100
AcDbLine
 62
7
  6
CONTINUOUS
 10
15.5103552569
 20
5.5266247044
 11
15.4913552569
 21
5.5266247044
  0
LINE
  5
3D0
100
AcDbEntity
  8
0
100
AcDbLine
 62
7
  6
CONTINUOUS
 10
15.6483552569
 20
5.5106241684
 11
15.6483552569
 21
5.4106252412
  0
LINE
  5
3D1
100
AcDbEntity
  8
0
100
AcDbLine
 62
7
  6
CONTINUOUS
 10
15.6553552569
 20
5.5426247044
 11
15.6553552569
 21
5.3466247044
  0
LINE
  5
3D2
100
AcDbEntity
  8
0
100
AcDbLine
 62
7
  6
CONTINUOUS
 10
15.6853552569
 20
5.3466247044
 11
15.6853552569
 21
5.5746247044
  0
LINE
  5
3D3
100
AcDbEntity
  8
0
100
AcDbLine
 62
7
  6
CONTINUOUS
 10
14.5603552569
 20
5.5426247044
 11
16.5603552569
 21
5.5426247044
  0
LINE
  5
3D4
100
AcDbEntity
  8
0
100
AcDbLine
 62
7
  6
CONTINUOUS
 10
14.5603552569
 20
5.5746247044
 11
16.5603552569
 21
5.5746247044
  0
LINE
  5
3D5
100
AcDbEntity
  8
0
100
AcDbLine
 62
7
  6
CONTINUOUS
 10
15.7833552569
 20
5.3466247044
 11
15.7833552569
 21
5.3786247044
  0
LINE
  5
3D6
100
AcDbEntity
  8
0
100
AcDbLine
 62
7
  6
CONTINUOUS
 10
16.5603552569
 20
5.5746247044
 11
16.5603552569
 21
5.5426247044
  0
LINE
  5
3D7
100
AcDbEntity
  8
0
100
AcDbLine
 62
7
  6
CONTINUOUS
 10
13.0324816371
 20
11.7442795268
 11
13.0422429769
 21
11.7243880078
  0
LINE
  5
3D8
100
AcDbEntity
  8
0
100
AcDbLine
 62
7
  6
CONTINUOUS
 10
13.1667358629
 20
12.5234230993
 11
13.1621366028
 21
12.508539888
  0
LINE
  5
3D9
100
AcDbEntity
  8
0
100
AcDbLine
 62
7
  6
CONTINUOUS
 10
13.1333307103
 20
12.4153239858
 11
13.1379299704
 21
12.4302071971
  0
LINE
  5
3DA
100
AcDbEntity
  8
0
100
AcDbLine
 62
7
  6
CONTINUOUS
 10
13.3087999353
 20
11.7442795268
 11
13.3185612751
 21
11.7243880078
  0
LINE
  5
3DB
100
AcDbEntity
  8
0
100
AcDbLine
 62
7
  6
CONTINUOUS
 10
13.031947775
 20
11.7528665961
 11
13.2277297751
 21
12.4228348887
  0
LINE
  5
3DC
100
AcDbEntity
  8
0
100
AcDbLine
 62
7
  6
CONTINUOUS
 10
13.1952670936
 20
12.5008634564
 11
13.1800758289
 21
12.4517045057
  0
LINE
  5
3DD
100
AcDbEntity
  8
0
100
AcDbLine
 62
7
  6
CONTINUOUS
 10
13.2882463559
 20
12.6186666161
 11
13.2277297751
 21
12.4228348887
  0
LINE
  5
3DE
100
AcDbEntity
  8
0
100
AcDbLine
 62
7
  6
CONTINUOUS
 10
13.2882463559
 20
12.6186666161
 11
13.5065360784
 21
13.2886349087
  0
LINE
  5
3DF
100
AcDbEntity
  8
0
100
AcDbLine
 62
7
  6
CONTINUOUS
 10
13.5851182335
 20
11.7442795268
 11
13.5948795733
 21
11.7243880078
  0
LINE
  5
3E0
100
AcDbEntity
  8
0
100
AcDbLine
 62
7
  6
CONTINUOUS
 10
13.7557413492
 20
13.2886349087
 11
13.5599593491
 21
12.6186666161
  0
LINE
  5
3E1
100
AcDbEntity
  8
0
100
AcDbLine
 62
7
  6
CONTINUOUS
 10
13.3082660732
 20
11.7528665961
 11
13.5040480733
 21
12.4228348887
  0
LINE
  5
3E2
100
AcDbEntity
  8
0
100
AcDbLine
 62
7
  6
CONTINUOUS
 10
13.7655026889
 20
13.2687433897
 11
13.6709453447
 21
12.9451670524
  0
LINE
  5
3E3
100
AcDbEntity
  8
0
100
AcDbLine
 62
7
  6
CONTINUOUS
 10
13.5599593491
 20
12.6186666161
 11
13.4994427683
 21
12.4228348887
  0
LINE
  5
3E4
100
AcDbEntity
  8
0
100
AcDbLine
 62
7
  6
CONTINUOUS
 10
13.5645646541
 20
12.6186666161
 11
13.5040480733
 21
12.4228348887
  0
LINE
  5
3E5
100
AcDbEntity
  8
0
100
AcDbLine
 62
7
  6
CONTINUOUS
 10
13.4994427683
 20
12.4228348887
 11
13.2811530458
 21
11.7528665961
  0
LINE
  5
3E6
100
AcDbEntity
  8
0
100
AcDbLine
 62
7
  6
CONTINUOUS
 10
13.5645646541
 20
12.6186666161
 11
13.7828543766
 21
13.2886349087
  0
LINE
  5
3E7
100
AcDbEntity
  8
0
100
AcDbLine
 62
7
  6
CONTINUOUS
 10
13.4028234175
 20
12.0764429334
 11
13.2909143856
 21
11.7329750771
  0
LINE
  5
3E8
100
AcDbEntity
  8
0
100
AcDbLine
 62
7
  6
CONTINUOUS
 10
13.5023292137
 20
12.4169529313
 11
13.4994427683
 21
12.4228348887
  0
LINE
  5
3E9
100
AcDbEntity
  8
0
100
AcDbLine
 62
7
  6
CONTINUOUS
 10
13.8614365317
 20
11.7442795268
 11
13.8711978715
 21
11.7243880078
  0
LINE
  5
3EA
100
AcDbEntity
  8
0
100
AcDbLine
 62
7
  6
CONTINUOUS
 10
14.0320596474
 20
13.2886349087
 11
13.8362776473
 21
12.6186666161
  0
LINE
  5
3EB
100
AcDbEntity
  8
0
100
AcDbLine
 62
7
  6
CONTINUOUS
 10
13.5845843714
 20
11.7528665961
 11
13.7803663715
 21
12.4228348887
  0
LINE
  5
3EC
100
AcDbEntity
  8
0
100
AcDbLine
 62
7
  6
CONTINUOUS
 10
14.0418209871
 20
13.2687433897
 11
13.9472636429
 21
12.9451670524
  0
LINE
  5
3ED
100
AcDbEntity
  8
0
100
AcDbLine
 62
7
  6
CONTINUOUS
 10
13.8362776473
 20
12.6186666161
 11
13.7757610665
 21
12.4228348887
  0
LINE
  5
3EE
100
AcDbEntity
  8
0
100
AcDbLine
 62
7
  6
CONTINUOUS
 10
13.8408829523
 20
12.6186666161
 11
13.7803663715
 21
12.4228348887
  0
LINE
  5
3EF
100
AcDbEntity
  8
0
100
AcDbLine
 62
7
  6
CONTINUOUS
 10
13.7757610665
 20
12.4228348887
 11
13.557471344
 21
11.7528665961
  0
LINE
  5
3F0
100
AcDbEntity
  8
0
100
AcDbLine
 62
7
  6
CONTINUOUS
 10
13.8408829523
 20
12.6186666161
 11
14.0591726748
 21
13.2886349087
  0
LINE
  5
3F1
100
AcDbEntity
  8
0
100
AcDbLine
 62
7
  6
CONTINUOUS
 10
13.6791417157
 20
12.0764429334
 11
13.5672326838
 21
11.7329750771
  0
LINE
  5
3F2
100
AcDbEntity
  8
0
100
AcDbLine
 62
7
  6
CONTINUOUS
 10
13.5627851691
 20
12.6129082005
 11
13.5599593491
 21
12.6186666161
  0
LINE
  5
3F3
100
AcDbEntity
  8
0
100
AcDbLine
 62
7
  6
CONTINUOUS
 10
13.7786475119
 20
12.4169529313
 11
13.7757610665
 21
12.4228348887
  0
LINE
  5
3F4
100
AcDbEntity
  8
0
100
AcDbLine
 62
7
  6
CONTINUOUS
 10
14.1377548299
 20
11.7442795268
 11
14.1475161697
 21
11.7243880078
  0
LINE
  5
3F5
100
AcDbEntity
  8
0
100
AcDbLine
 62
7
  6
CONTINUOUS
 10
13.8391034673
 20
12.6129082005
 11
13.8362776473
 21
12.6186666161
  0
LINE
  5
3F6
100
AcDbEntity
  8
0
100
AcDbLine
 62
7
  6
CONTINUOUS
 10
14.3083779456
 20
13.2886349087
 11
14.1125959455
 21
12.6186666161
  0
LINE
  5
3F7
100
AcDbEntity
  8
0
100
AcDbLine
 62
7
  6
CONTINUOUS
 10
13.8609026696
 20
11.7528665961
 11
14.0566846697
 21
12.4228348887
  0
LINE
  5
3F8
100
AcDbEntity
  8
0
100
AcDbLine
 62
7
  6
CONTINUOUS
 10
14.3181392853
 20
13.2687433897
 11
14.2235819411
 21
12.9451670524
  0
LINE
  5
3F9
100
AcDbEntity
  8
0
100
AcDbLine
 62
7
  6
CONTINUOUS
 10
14.1125959455
 20
12.6186666161
 11
14.0520793647
 21
12.4228348887
  0
LINE
  5
3FA
100
AcDbEntity
  8
0
100
AcDbLine
 62
7
  6
CONTINUOUS
 10
14.1172012505
 20
12.6186666161
 11
14.0566846697
 21
12.4228348887
  0
LINE
  5
3FB
100
AcDbEntity
  8
0
100
AcDbLine
 62
7
  6
CONTINUOUS
 10
14.0520793647
 20
12.4228348887
 11
13.8337896422
 21
11.7528665961
  0
LINE
  5
3FC
100
AcDbEntity
  8
0
100
AcDbLine
 62
7
  6
CONTINUOUS
 10
14.1172012505
 20
12.6186666161
 11
14.335490973
 21
13.2886349087
  0
LINE
  5
3FD
100
AcDbEntity
  8
0
100
AcDbLine
 62
7
  6
CONTINUOUS
 10
13.9554600139
 20
12.0764429334
 11
13.843550982
 21
11.7329750771
  0
LINE
  5
3FE
100
AcDbEntity
  8
0
100
AcDbLine
 62
7
  6
CONTINUOUS
 10
14.0549658101
 20
12.4169529313
 11
14.0520793647
 21
12.4228348887
  0
LINE
  5
3FF
100
AcDbEntity
  8
0
100
AcDbLine
 62
7
  6
CONTINUOUS
 10
14.4140731281
 20
11.7442795268
 11
14.4238344679
 21
11.7243880078
  0
LINE
  5
400
100
AcDbEntity
  8
0
100
AcDbLine
 62
7
  6
CONTINUOUS
 10
13.7552074871
 20
13.297221978
 11
13.7649688268
 21
13.277330459
  0
LINE
  5
401
100
AcDbEntity
  8
0
100
AcDbLine
 62
7
  6
CONTINUOUS
 10
14.5846962438
 20
13.2886349087
 11
14.3889142437
 21
12.6186666161
  0
LINE
  5
402
100
AcDbEntity
  8
0
100
AcDbLine
 62
7
  6
CONTINUOUS
 10
14.1372209678
 20
11.7528665961
 11
14.3330029679
 21
12.4228348887
  0
LINE
  5
403
100
AcDbEntity
  8
0
100
AcDbLine
 62
7
  6
CONTINUOUS
 10
14.5944575836
 20
13.2687433897
 11
14.4999002393
 21
12.9451670524
  0
LINE
  5
404
100
AcDbEntity
  8
0
100
AcDbLine
 62
7
  6
CONTINUOUS
 10
14.3889142437
 20
12.6186666161
 11
14.3283976629
 21
12.4228348887
  0
LINE
  5
405
100
AcDbEntity
  8
0
100
AcDbLine
 62
7
  6
CONTINUOUS
 10
14.3935195487
 20
12.6186666161
 11
14.3330029679
 21
12.4228348887
  0
LINE
  5
406
100
AcDbEntity
  8
0
100
AcDbLine
 62
7
  6
CONTINUOUS
 10
14.3283976629
 20
12.4228348887
 11
14.1101079404
 21
11.7528665961
  0
LINE
  5
407
100
AcDbEntity
  8
0
100
AcDbLine
 62
7
  6
CONTINUOUS
 10
14.3935195487
 20
12.6186666161
 11
14.6118092712
 21
13.2886349087
  0
LINE
  5
408
100
AcDbEntity
  8
0
100
AcDbLine
 62
7
  6
CONTINUOUS
 10
14.2317783121
 20
12.0764429334
 11
14.1198692802
 21
11.7329750771
  0
LINE
  5
409
100
AcDbEntity
  8
0
100
AcDbLine
 62
7
  6
CONTINUOUS
 10
14.1154217655
 20
12.6129082005
 11
14.1125959455
 21
12.6186666161
  0
LINE
  5
40A
100
AcDbEntity
  8
0
100
AcDbLine
 62
7
  6
CONTINUOUS
 10
14.3312841083
 20
12.4169529313
 11
14.3283976629
 21
12.4228348887
  0
LINE
  5
40B
100
AcDbEntity
  8
0
100
AcDbLine
 62
7
  6
CONTINUOUS
 10
14.6903914263
 20
11.7442795268
 11
14.7001527661
 21
11.7243880078
  0
LINE
  5
40C
100
AcDbEntity
  8
0
100
AcDbLine
 62
7
  6
CONTINUOUS
 10
14.0315257853
 20
13.297221978
 11
14.041287125
 21
13.277330459
  0
LINE
  5
40D
100
AcDbEntity
  8
0
100
AcDbLine
 62
7
  6
CONTINUOUS
 10
14.3917400637
 20
12.6129082005
 11
14.3889142437
 21
12.6186666161
  0
LINE
  5
40E
100
AcDbEntity
  8
0
100
AcDbLine
 62
7
  6
CONTINUOUS
 10
14.861014542
 20
13.2886349087
 11
14.6652325419
 21
12.6186666161
  0
LINE
  5
40F
100
AcDbEntity
  8
0
100
AcDbLine
 62
7
  6
CONTINUOUS
 10
14.413539266
 20
11.7528665961
 11
14.6093212661
 21
12.4228348887
  0
LINE
  5
410
100
AcDbEntity
  8
0
100
AcDbLine
 62
7
  6
CONTINUOUS
 10
14.8707758818
 20
13.2687433897
 11
14.7762185375
 21
12.9451670524
  0
LINE
  5
411
100
AcDbEntity
  8
0
100
AcDbLine
 62
7
  6
CONTINUOUS
 10
14.6652325419
 20
12.6186666161
 11
14.6047159611
 21
12.4228348887
  0
LINE
  5
412
100
AcDbEntity
  8
0
100
AcDbLine
 62
7
  6
CONTINUOUS
 10
14.6698378469
 20
12.6186666161
 11
14.6093212661
 21
12.4228348887
  0
LINE
  5
413
100
AcDbEntity
  8
0
100
AcDbLine
 62
7
  6
CONTINUOUS
 10
14.6047159611
 20
12.4228348887
 11
14.3864262386
 21
11.7528665961
  0
LINE
  5
414
100
AcDbEntity
  8
0
100
AcDbLine
 62
7
  6
CONTINUOUS
 10
14.6698378469
 20
12.6186666161
 11
14.8881275694
 21
13.2886349087
  0
LINE
  5
415
100
AcDbEntity
  8
0
100
AcDbLine
 62
7
  6
CONTINUOUS
 10
14.5080966103
 20
12.0764429334
 11
14.3961875784
 21
11.7329750771
  0
LINE
  5
416
100
AcDbEntity
  8
0
100
AcDbLine
 62
7
  6
CONTINUOUS
 10
13.0553562835
 20
11.7175323238
 11
13.2677228734
 21
11.7175323238
  0
LINE
  5
417
100
AcDbEntity
  8
0
100
AcDbLine
 62
7
  6
CONTINUOUS
 10
13.3316745817
 20
11.7175323238
 11
13.5440411716
 21
11.7175323238
  0
LINE
  5
418
100
AcDbEntity
  8
0
100
AcDbLine
 62
7
  6
CONTINUOUS
 10
13.6079928799
 20
11.7175323238
 11
13.8203594698
 21
11.7175323238
  0
LINE
  5
419
100
AcDbEntity
  8
0
100
AcDbLine
 62
7
  6
CONTINUOUS
 10
13.8843111781
 20
11.7175323238
 11
14.096677768
 21
11.7175323238
  0
LINE
  5
41A
100
AcDbEntity
  8
0
100
AcDbLine
 62
7
  6
CONTINUOUS
 10
14.1606294763
 20
11.7175323238
 11
14.3729960662
 21
11.7175323238
  0
LINE
  5
41B
100
AcDbEntity
  8
0
100
AcDbLine
 62
7
  6
CONTINUOUS
 10
14.4369477745
 20
11.7175323238
 11
14.6493143644
 21
11.7175323238
  0
LINE
  5
41C
100
AcDbEntity
  8
0
100
AcDbLine
 62
7
  6
CONTINUOUS
 10
14.7132660727
 20
11.7175323238
 11
14.9256326626
 21
11.7175323238
  0
LINE
  5
41D
100
AcDbEntity
  8
0
100
AcDbLine
 62
7
  6
CONTINUOUS
 10
14.9895843709
 20
11.7175323238
 11
15.2019509608
 21
11.7175323238
  0
LINE
  5
41E
100
AcDbEntity
  8
0
100
AcDbLine
 62
7
  6
CONTINUOUS
 10
15.2659026691
 20
11.7175323238
 11
15.478269259
 21
11.7175323238
  0
LINE
  5
41F
100
AcDbEntity
  8
0
100
AcDbLine
 62
7
  6
CONTINUOUS
 10
15.5422209673
 20
11.7175323238
 11
15.7545875572
 21
11.7175323238
  0
LINE
  5
420
100
AcDbEntity
  8
0
100
AcDbLine
 62
7
  6
CONTINUOUS
 10
15.8185392655
 20
11.7175323238
 11
16.0309058554
 21
11.7175323238
  0
LINE
  5
421
100
AcDbEntity
  8
0
100
AcDbLine
 62
7
  6
CONTINUOUS
 10
16.0948575637
 20
11.7175323238
 11
16.3072241536
 21
11.7175323238
  0
LINE
  5
422
100
AcDbEntity
  8
0
100
AcDbLine
 62
7
  6
CONTINUOUS
 10
16.3711758619
 20
11.7175323238
 11
16.5835424518
 21
11.7175323238
  0
LINE
  5
423
100
AcDbEntity
  8
0
100
AcDbLine
 62
7
  6
CONTINUOUS
 10
16.6474941601
 20
11.7175323238
 11
16.85986075
 21
11.7175323238
  0
LINE
  5
424
100
AcDbEntity
  8
0
100
AcDbLine
 62
7
  6
CONTINUOUS
 10
16.9238124583
 20
11.7175323238
 11
17.1361790482
 21
11.7175323238
  0
LINE
  5
425
100
AcDbEntity
  8
0
100
AcDbLine
 62
7
  6
CONTINUOUS
 10
17.2001307565
 20
11.7175323238
 11
17.4124973464
 21
11.7175323238
  0
LINE
  5
426
100
AcDbEntity
  8
0
100
AcDbLine
 62
7
  6
CONTINUOUS
 10
13.0455949437
 20
11.7374238428
 11
13.2579615337
 21
11.7374238428
  0
LINE
  5
427
100
AcDbEntity
  8
0
100
AcDbLine
 62
7
  6
CONTINUOUS
 10
13.3219132419
 20
11.7374238428
 11
13.5342798319
 21
11.7374238428
  0
LINE
  5
428
100
AcDbEntity
  8
0
100
AcDbLine
 62
7
  6
CONTINUOUS
 10
13.5982315401
 20
11.7374238428
 11
13.8105981301
 21
11.7374238428
  0
LINE
  5
429
100
AcDbEntity
  8
0
100
AcDbLine
 62
7
  6
CONTINUOUS
 10
13.8745498383
 20
11.7374238428
 11
14.0869164283
 21
11.7374238428
  0
LINE
  5
42A
100
AcDbEntity
  8
0
100
AcDbLine
 62
7
  6
CONTINUOUS
 10
14.1508681365
 20
11.7374238428
 11
14.3632347265
 21
11.7374238428
  0
LINE
  5
42B
100
AcDbEntity
  8
0
100
AcDbLine
 62
7
  6
CONTINUOUS
 10
14.4271864347
 20
11.7374238428
 11
14.6395530247
 21
11.7374238428
  0
LINE
  5
42C
100
AcDbEntity
  8
0
100
AcDbLine
 62
7
  6
CONTINUOUS
 10
14.7035047329
 20
11.7374238428
 11
14.9158713229
 21
11.7374238428
  0
LINE
  5
42D
100
AcDbEntity
  8
0
100
AcDbLine
 62
7
  6
CONTINUOUS
 10
14.9798230311
 20
11.7374238428
 11
15.1921896211
 21
11.7374238428
  0
LINE
  5
42E
100
AcDbEntity
  8
0
100
AcDbLine
 62
7
  6
CONTINUOUS
 10
15.2561413293
 20
11.7374238428
 11
15.4685079193
 21
11.7374238428
  0
LINE
  5
42F
100
AcDbEntity
  8
0
100
AcDbLine
 62
7
  6
CONTINUOUS
 10
15.5324596275
 20
11.7374238428
 11
15.7448262175
 21
11.7374238428
  0
LINE
  5
430
100
AcDbEntity
  8
0
100
AcDbLine
 62
7
  6
CONTINUOUS
 10
15.8087779257
 20
11.7374238428
 11
16.0211445157
 21
11.7374238428
  0
LINE
  5
431
100
AcDbEntity
  8
0
100
AcDbLine
 62
7
  6
CONTINUOUS
 10
16.0850962239
 20
11.7374238428
 11
16.2974628139
 21
11.7374238428
  0
LINE
  5
432
100
AcDbEntity
  8
0
100
AcDbLine
 62
7
  6
CONTINUOUS
 10
16.3614145221
 20
11.7374238428
 11
16.5737811121
 21
11.7374238428
  0
LINE
  5
433
100
AcDbEntity
  8
0
100
AcDbLine
 62
7
  6
CONTINUOUS
 10
16.6377328203
 20
11.7374238428
 11
16.8500994103
 21
11.7374238428
  0
LINE
  5
434
100
AcDbEntity
  8
0
100
AcDbLine
 62
7
  6
CONTINUOUS
 10
16.9140511185
 20
11.7374238428
 11
17.1264177085
 21
11.7374238428
  0
LINE
  5
435
100
AcDbEntity
  8
0
100
AcDbLine
 62
7
  6
CONTINUOUS
 10
17.1903694167
 20
11.7374238428
 11
17.4027360067
 21
11.7374238428
  0
LINE
  5
436
100
AcDbEntity
  8
0
100
AcDbLine
 62
7
  6
CONTINUOUS
 10
14.6076024065
 20
12.4169529313
 11
14.6047159611
 21
12.4228348887
  0
LINE
  5
437
100
AcDbEntity
  8
0
100
AcDbLine
 62
7
  6
CONTINUOUS
 10
14.9667097245
 20
11.7442795268
 11
14.9764710643
 21
11.7243880078
  0
LINE
  5
438
100
AcDbEntity
  8
0
100
AcDbLine
 62
7
  6
CONTINUOUS
 10
14.3078440835
 20
13.297221978
 11
14.3176054232
 21
13.277330459
  0
LINE
  5
439
100
AcDbEntity
  8
0
100
AcDbLine
 62
7
  6
CONTINUOUS
 10
14.6680583619
 20
12.6129082005
 11
14.6652325419
 21
12.6186666161
  0
LINE
  5
43A
100
AcDbEntity
  8
0
100
AcDbLine
 62
7
  6
CONTINUOUS
 10
15.1373328402
 20
13.2886349087
 11
14.9415508401
 21
12.6186666161
  0
LINE
  5
43B
100
AcDbEntity
  8
0
100
AcDbLine
 62
7
  6
CONTINUOUS
 10
14.6898575642
 20
11.7528665961
 11
14.8856395643
 21
12.4228348887
  0
LINE
  5
43C
100
AcDbEntity
  8
0
100
AcDbLine
 62
7
  6
CONTINUOUS
 10
15.14709418
 20
13.2687433897
 11
15.0525368357
 21
12.9451670524
  0
LINE
  5
43D
100
AcDbEntity
  8
0
100
AcDbLine
 62
7
  6
CONTINUOUS
 10
14.9415508401
 20
12.6186666161
 11
14.8810342593
 21
12.4228348887
  0
LINE
  5
43E
100
AcDbEntity
  8
0
100
AcDbLine
 62
7
  6
CONTINUOUS
 10
14.9461561451
 20
12.6186666161
 11
14.8856395643
 21
12.4228348887
  0
LINE
  5
43F
100
AcDbEntity
  8
0
100
AcDbLine
 62
7
  6
CONTINUOUS
 10
14.8810342593
 20
12.4228348887
 11
14.6627445368
 21
11.7528665961
  0
LINE
  5
440
100
AcDbEntity
  8
0
100
AcDbLine
 62
7
  6
CONTINUOUS
 10
14.9461561451
 20
12.6186666161
 11
15.1644458676
 21
13.2886349087
  0
LINE
  5
441
100
AcDbEntity
  8
0
100
AcDbLine
 62
7
  6
CONTINUOUS
 10
14.7844149085
 20
12.0764429334
 11
14.6725058766
 21
11.7329750771
  0
LINE
  5
442
100
AcDbEntity
  8
0
100
AcDbLine
 62
7
  6
CONTINUOUS
 10
14.8839207047
 20
12.4169529313
 11
14.8810342593
 21
12.4228348887
  0
LINE
  5
443
100
AcDbEntity
  8
0
100
AcDbLine
 62
7
  6
CONTINUOUS
 10
15.2430280227
 20
11.7442795268
 11
15.2527893625
 21
11.7243880078
  0
LINE
  5
444
100
AcDbEntity
  8
0
100
AcDbLine
 62
7
  6
CONTINUOUS
 10
14.5841623817
 20
13.297221978
 11
14.5939237214
 21
13.277330459
  0
LINE
  5
445
100
AcDbEntity
  8
0
100
AcDbLine
 62
7
  6
CONTINUOUS
 10
14.9443766601
 20
12.6129082005
 11
14.9415508401
 21
12.6186666161
  0
LINE
  5
446
100
AcDbEntity
  8
0
100
AcDbLine
 62
7
  6
CONTINUOUS
 10
15.1602390029
 20
12.4169529313
 11
15.1573525575
 21
12.4228348887
  0
LINE
  5
447
100
AcDbEntity
  8
0
100
AcDbLine
 62
7
  6
CONTINUOUS
 10
15.4136511384
 20
13.2886349087
 11
15.2178691383
 21
12.6186666161
  0
LINE
  5
448
100
AcDbEntity
  8
0
100
AcDbLine
 62
7
  6
CONTINUOUS
 10
14.9661758624
 20
11.7528665961
 11
15.1619578625
 21
12.4228348887
  0
LINE
  5
449
100
AcDbEntity
  8
0
100
AcDbLine
 62
7
  6
CONTINUOUS
 10
15.4234124782
 20
13.2687433897
 11
15.3288551339
 21
12.9451670524
  0
LINE
  5
44A
100
AcDbEntity
  8
0
100
AcDbLine
 62
7
  6
CONTINUOUS
 10
15.2178691383
 20
12.6186666161
 11
15.1573525575
 21
12.4228348887
  0
LINE
  5
44B
100
AcDbEntity
  8
0
100
AcDbLine
 62
7
  6
CONTINUOUS
 10
15.2224744433
 20
12.6186666161
 11
15.1619578625
 21
12.4228348887
  0
LINE
  5
44C
100
AcDbEntity
  8
0
100
AcDbLine
 62
7
  6
CONTINUOUS
 10
15.1573525575
 20
12.4228348887
 11
14.939062835
 21
11.7528665961
  0
LINE
  5
44D
100
AcDbEntity
  8
0
100
AcDbLine
 62
7
  6
CONTINUOUS
 10
15.2224744433
 20
12.6186666161
 11
15.4407641658
 21
13.2886349087
  0
LINE
  5
44E
100
AcDbEntity
  8
0
100
AcDbLine
 62
7
  6
CONTINUOUS
 10
15.0607332067
 20
12.0764429334
 11
14.9488241748
 21
11.7329750771
  0
LINE
  5
44F
100
AcDbEntity
  8
0
100
AcDbLine
 62
7
  6
CONTINUOUS
 10
17.589270017
 20
12.2043417788
 11
17.6555044999
 21
12.2043417788
  0
LINE
  5
450
100
AcDbEntity
  8
0
100
AcDbLine
 62
7
  6
CONTINUOUS
 10
17.6280500368
 20
12.2242332978
 11
17.5957510911
 21
12.2242332978
  0
LINE
  5
451
100
AcDbEntity
  8
0
100
AcDbLine
 62
7
  6
CONTINUOUS
 10
17.6517725365
 20
12.3009993349
 11
17.6207630762
 21
12.3009993349
  0
LINE
  5
452
100
AcDbEntity
  8
0
100
AcDbLine
 62
7
  6
CONTINUOUS
 10
17.6760850804
 20
12.3548114013
 11
17.7923522674
 21
12.3548114013
  0
LINE
  5
453
100
AcDbEntity
  8
0
100
AcDbLine
 62
7
  6
CONTINUOUS
 10
15.5193463209
 20
11.7442795268
 11
15.5291076607
 21
11.7243880078
  0
LINE
  5
454
100
AcDbEntity
  8
0
100
AcDbLine
 62
7
  6
CONTINUOUS
 10
14.8604806799
 20
13.297221978
 11
14.8702420196
 21
13.277330459
  0
LINE
  5
455
100
AcDbEntity
  8
0
100
AcDbLine
 62
7
  6
CONTINUOUS
 10
15.2206949583
 20
12.6129082005
 11
15.2178691383
 21
12.6186666161
  0
LINE
  5
456
100
AcDbEntity
  8
0
100
AcDbLine
 62
7
  6
CONTINUOUS
 10
15.6899694366
 20
13.2886349087
 11
15.4941874365
 21
12.6186666161
  0
LINE
  5
457
100
AcDbEntity
  8
0
100
AcDbLine
 62
7
  6
CONTINUOUS
 10
15.2424941606
 20
11.7528665961
 11
15.4382761607
 21
12.4228348887
  0
LINE
  5
458
100
AcDbEntity
  8
0
100
AcDbLine
 62
7
  6
CONTINUOUS
 10
15.6997307764
 20
13.2687433897
 11
15.6051734321
 21
12.9451670524
  0
LINE
  5
459
100
AcDbEntity
  8
0
100
AcDbLine
 62
7
  6
CONTINUOUS
 10
15.4941874365
 20
12.6186666161
 11
15.4336708557
 21
12.4228348887
  0
LINE
  5
45A
100
AcDbEntity
  8
0
100
AcDbLine
 62
7
  6
CONTINUOUS
 10
15.4987927415
 20
12.6186666161
 11
15.4382761607
 21
12.4228348887
  0
LINE
  5
45B
100
AcDbEntity
  8
0
100
AcDbLine
 62
7
  6
CONTINUOUS
 10
15.4336708557
 20
12.4228348887
 11
15.2153811332
 21
11.7528665961
  0
LINE
  5
45C
100
AcDbEntity
  8
0
100
AcDbLine
 62
7
  6
CONTINUOUS
 10
15.4987927415
 20
12.6186666161
 11
15.717082464
 21
13.2886349087
  0
LINE
  5
45D
100
AcDbEntity
  8
0
100
AcDbLine
 62
7
  6
CONTINUOUS
 10
15.3370515049
 20
12.0764429334
 11
15.225142473
 21
11.7329750771
  0
LINE
  5
45E
100
AcDbEntity
  8
0
100
AcDbLine
 62
7
  6
CONTINUOUS
 10
17.752086741
 20
12.4368639172
 11
17.664460823
 21
12.4368639172
  0
LINE
  5
45F
100
AcDbEntity
  8
0
100
AcDbLine
 62
7
  6
CONTINUOUS
 10
13.2320650727
 20
12.4368639172
 11
13.1762557228
 21
12.4368639172
  0
LINE
  5
460
100
AcDbEntity
  8
0
100
AcDbLine
 62
7
  6
CONTINUOUS
 10
13.1808549829
 20
12.4517471284
 11
13.2366643329
 21
12.4517471284
  0
LINE
  5
461
100
AcDbEntity
  8
0
100
AcDbLine
 62
7
  6
CONTINUOUS
 10
17.6690600832
 20
12.4517471284
 11
17.7566860011
 21
12.4517471284
  0
LINE
  5
462
100
AcDbEntity
  8
0
100
AcDbLine
 62
7
  6
CONTINUOUS
 10
17.7808926335
 20
12.5300798194
 11
17.6932667155
 21
12.5300798194
  0
LINE
  5
463
100
AcDbEntity
  8
0
100
AcDbLine
 62
7
  6
CONTINUOUS
 10
13.2608709652
 20
12.5300798194
 11
13.2050616153
 21
12.5300798194
  0
LINE
  5
464
100
AcDbEntity
  8
0
100
AcDbLine
 62
7
  6
CONTINUOUS
 10
15.4365573011
 20
12.4169529313
 11
15.4336708557
 21
12.4228348887
  0
LINE
  5
465
100
AcDbEntity
  8
0
100
AcDbLine
 62
7
  6
CONTINUOUS
 10
15.7956646191
 20
11.7442795268
 11
15.8054259589
 21
11.7243880078
  0
LINE
  5
466
100
AcDbEntity
  8
0
100
AcDbLine
 62
7
  6
CONTINUOUS
 10
17.7854918936
 20
12.5449630307
 11
17.6978659756
 21
12.5449630307
  0
LINE
  5
467
100
AcDbEntity
  8
0
100
AcDbLine
 62
7
  6
CONTINUOUS
 10
13.2654702254
 20
12.5449630307
 11
13.2096608754
 21
12.5449630307
  0
LINE
  5
468
100
AcDbEntity
  8
0
100
AcDbLine
 62
7
  6
CONTINUOUS
 10
17.736011617
 20
12.5735970995
 11
17.7197128886
 21
12.5735970995
  0
LINE
  5
469
100
AcDbEntity
  8
0
100
AcDbLine
 62
7
  6
CONTINUOUS
 10
15.1367989781
 20
13.297221978
 11
15.1465603178
 21
13.277330459
  0
LINE
  5
46A
100
AcDbEntity
  8
0
100
AcDbLine
 62
7
  6
CONTINUOUS
 10
15.4970132565
 20
12.6129082005
 11
15.4941874365
 21
12.6186666161
  0
LINE
  5
46B
100
AcDbEntity
  8
0
100
AcDbLine
 62
7
  6
CONTINUOUS
 10
15.7128755993
 20
12.4169529313
 11
15.7099891539
 21
12.4228348887
  0
LINE
  5
46C
100
AcDbEntity
  8
0
100
AcDbLine
 62
7
  6
CONTINUOUS
 10
15.9662877348
 20
13.2886349087
 11
15.7705057347
 21
12.6186666161
  0
LINE
  5
46D
100
AcDbEntity
  8
0
100
AcDbLine
 62
7
  6
CONTINUOUS
 10
15.5188124588
 20
11.7528665961
 11
15.7145944589
 21
12.4228348887
  0
LINE
  5
46E
100
AcDbEntity
  8
0
100
AcDbLine
 62
7
  6
CONTINUOUS
 10
15.9760490746
 20
13.2687433897
 11
15.8814917303
 21
12.9451670524
  0
LINE
  5
46F
100
AcDbEntity
  8
0
100
AcDbLine
 62
7
  6
CONTINUOUS
 10
15.7705057347
 20
12.6186666161
 11
15.7099891539
 21
12.4228348887
  0
LINE
  5
470
100
AcDbEntity
  8
0
100
AcDbLine
 62
7
  6
CONTINUOUS
 10
15.7751110397
 20
12.6186666161
 11
15.7145944589
 21
12.4228348887
  0
LINE
  5
471
100
AcDbEntity
  8
0
100
AcDbLine
 62
7
  6
CONTINUOUS
 10
15.7099891539
 20
12.4228348887
 11
15.4916994314
 21
11.7528665961
  0
LINE
  5
472
100
AcDbEntity
  8
0
100
AcDbLine
 62
7
  6
CONTINUOUS
 10
15.7751110397
 20
12.6186666161
 11
15.9934007622
 21
13.2886349087
  0
LINE
  5
473
100
AcDbEntity
  8
0
100
AcDbLine
 62
7
  6
CONTINUOUS
 10
15.6133698031
 20
12.0764429334
 11
15.5014607712
 21
11.7329750771
  0
LINE
  5
474
100
AcDbEntity
  8
0
100
AcDbLine
 62
7
  6
CONTINUOUS
 10
16.0719829173
 20
11.7442795268
 11
16.0817442571
 21
11.7243880078
  0
LINE
  5
475
100
AcDbEntity
  8
0
100
AcDbLine
 62
7
  6
CONTINUOUS
 10
15.4131172763
 20
13.297221978
 11
15.422878616
 21
13.277330459
  0
LINE
  5
476
100
AcDbEntity
  8
0
100
AcDbLine
 62
7
  6
CONTINUOUS
 10
15.7733315547
 20
12.6129082005
 11
15.7705057347
 21
12.6186666161
  0
LINE
  5
477
100
AcDbEntity
  8
0
100
AcDbLine
 62
7
  6
CONTINUOUS
 10
16.242606033
 20
13.2886349087
 11
16.046824033
 21
12.6186666161
  0
LINE
  5
478
100
AcDbEntity
  8
0
100
AcDbLine
 62
7
  6
CONTINUOUS
 10
15.795130757
 20
11.7528665961
 11
15.9909127571
 21
12.4228348887
  0
LINE
  5
479
100
AcDbEntity
  8
0
100
AcDbLine
 62
7
  6
CONTINUOUS
 10
16.046824033
 20
12.6186666161
 11
15.9863074521
 21
12.4228348887
  0
LINE
  5
47A
100
AcDbEntity
  8
0
100
AcDbLine
 62
7
  6
CONTINUOUS
 10
16.0514293379
 20
12.6186666161
 11
15.9909127571
 21
12.4228348887
  0
LINE
  5
47B
100
AcDbEntity
  8
0
100
AcDbLine
 62
7
  6
CONTINUOUS
 10
15.9863074521
 20
12.4228348887
 11
15.7680177296
 21
11.7528665961
  0
LINE
  5
47C
100
AcDbEntity
  8
0
100
AcDbLine
 62
7
  6
CONTINUOUS
 10
16.0514293379
 20
12.6186666161
 11
16.2697190604
 21
13.2886349087
  0
LINE
  5
47D
100
AcDbEntity
  8
0
100
AcDbLine
 62
7
  6
CONTINUOUS
 10
15.8896881013
 20
12.0764429334
 11
15.7777790694
 21
11.7329750771
  0
LINE
  5
47E
100
AcDbEntity
  8
0
100
AcDbLine
 62
7
  6
CONTINUOUS
 10
15.9891938975
 20
12.4169529313
 11
15.9863074521
 21
12.4228348887
  0
LINE
  5
47F
100
AcDbEntity
  8
0
100
AcDbLine
 62
7
  6
CONTINUOUS
 10
16.3483012155
 20
11.7442795268
 11
16.3580625553
 21
11.7243880078
  0
LINE
  5
480
100
AcDbEntity
  8
0
100
AcDbLine
 62
7
  6
CONTINUOUS
 10
16.2523673728
 20
13.2687433897
 11
16.1578100285
 21
12.9451670524
  0
LINE
  5
481
100
AcDbEntity
  8
0
100
AcDbLine
 62
7
  6
CONTINUOUS
 10
15.6894355745
 20
13.297221978
 11
15.6991969142
 21
13.277330459
  0
LINE
  5
482
100
AcDbEntity
  8
0
100
AcDbLine
 62
7
  6
CONTINUOUS
 10
16.0496498529
 20
12.6129082005
 11
16.046824033
 21
12.6186666161
  0
LINE
  5
483
100
AcDbEntity
  8
0
100
AcDbLine
 62
7
  6
CONTINUOUS
 10
16.2655121957
 20
12.4169529313
 11
16.2626257503
 21
12.4228348887
  0
LINE
  5
484
100
AcDbEntity
  8
0
100
AcDbLine
 62
7
  6
CONTINUOUS
 10
16.6246195137
 20
11.7442795268
 11
16.6343808535
 21
11.7243880078
  0
LINE
  5
485
100
AcDbEntity
  8
0
100
AcDbLine
 62
7
  6
CONTINUOUS
 10
16.5189243312
 20
13.2886349087
 11
16.3231423312
 21
12.6186666161
  0
LINE
  5
486
100
AcDbEntity
  8
0
100
AcDbLine
 62
7
  6
CONTINUOUS
 10
16.0714490552
 20
11.7528665961
 11
16.2672310553
 21
12.4228348887
  0
LINE
  5
487
100
AcDbEntity
  8
0
100
AcDbLine
 62
7
  6
CONTINUOUS
 10
16.528685671
 20
13.2687433897
 11
16.4341283267
 21
12.9451670524
  0
LINE
  5
488
100
AcDbEntity
  8
0
100
AcDbLine
 62
7
  6
CONTINUOUS
 10
16.3231423312
 20
12.6186666161
 11
16.2626257503
 21
12.4228348887
  0
LINE
  5
489
100
AcDbEntity
  8
0
100
AcDbLine
 62
7
  6
CONTINUOUS
 10
16.3277476361
 20
12.6186666161
 11
16.2672310553
 21
12.4228348887
  0
LINE
  5
48A
100
AcDbEntity
  8
0
100
AcDbLine
 62
7
  6
CONTINUOUS
 10
16.2626257503
 20
12.4228348887
 11
16.0443360278
 21
11.7528665961
  0
LINE
  5
48B
100
AcDbEntity
  8
0
100
AcDbLine
 62
7
  6
CONTINUOUS
 10
16.3277476361
 20
12.6186666161
 11
16.5460373586
 21
13.2886349087
  0
LINE
  5
48C
100
AcDbEntity
  8
0
100
AcDbLine
 62
7
  6
CONTINUOUS
 10
16.1660063995
 20
12.0764429334
 11
16.0540973676
 21
11.7329750771
  0
LINE
  5
48D
100
AcDbEntity
  8
0
100
AcDbLine
 62
7
  6
CONTINUOUS
 10
13.5297275905
 20
13.304077662
 11
13.7420941805
 21
13.304077662
  0
LINE
  5
48E
100
AcDbEntity
  8
0
100
AcDbLine
 62
7
  6
CONTINUOUS
 10
13.8060458887
 20
13.304077662
 11
14.0184124787
 21
13.304077662
  0
LINE
  5
48F
100
AcDbEntity
  8
0
100
AcDbLine
 62
7
  6
CONTINUOUS
 10
14.0823641869
 20
13.304077662
 11
14.2947307769
 21
13.304077662
  0
LINE
  5
490
100
AcDbEntity
  8
0
100
AcDbLine
 62
7
  6
CONTINUOUS
 10
14.3586824851
 20
13.304077662
 11
14.5710490751
 21
13.304077662
  0
LINE
  5
491
100
AcDbEntity
  8
0
100
AcDbLine
 62
7
  6
CONTINUOUS
 10
14.6350007833
 20
13.304077662
 11
14.8473673733
 21
13.304077662
  0
LINE
  5
492
100
AcDbEntity
  8
0
100
AcDbLine
 62
7
  6
CONTINUOUS
 10
14.9113190815
 20
13.304077662
 11
15.1236856715
 21
13.304077662
  0
LINE
  5
493
100
AcDbEntity
  8
0
100
AcDbLine
 62
7
  6
CONTINUOUS
 10
15.1876373797
 20
13.304077662
 11
15.4000039697
 21
13.304077662
  0
LINE
  5
494
100
AcDbEntity
  8
0
100
AcDbLine
 62
7
  6
CONTINUOUS
 10
15.4639556779
 20
13.304077662
 11
15.6763222679
 21
13.304077662
  0
LINE
  5
495
100
AcDbEntity
  8
0
100
AcDbLine
 62
7
  6
CONTINUOUS
 10
15.7402739761
 20
13.304077662
 11
15.9526405661
 21
13.304077662
  0
LINE
  5
496
100
AcDbEntity
  8
0
100
AcDbLine
 62
7
  6
CONTINUOUS
 10
16.0165922743
 20
13.304077662
 11
16.2289588643
 21
13.304077662
  0
LINE
  5
497
100
AcDbEntity
  8
0
100
AcDbLine
 62
7
  6
CONTINUOUS
 10
16.2929105725
 20
13.304077662
 11
16.5052771625
 21
13.304077662
  0
LINE
  5
498
100
AcDbEntity
  8
0
100
AcDbLine
 62
7
  6
CONTINUOUS
 10
16.5692288707
 20
13.304077662
 11
16.7815954607
 21
13.304077662
  0
LINE
  5
499
100
AcDbEntity
  8
0
100
AcDbLine
 62
7
  6
CONTINUOUS
 10
16.8455471689
 20
13.304077662
 11
17.0579137589
 21
13.304077662
  0
LINE
  5
49A
100
AcDbEntity
  8
0
100
AcDbLine
 62
7
  6
CONTINUOUS
 10
17.1218654671
 20
13.304077662
 11
17.3342320571
 21
13.304077662
  0
LINE
  5
49B
100
AcDbEntity
  8
0
100
AcDbLine
 62
7
  6
CONTINUOUS
 10
17.3981837653
 20
13.304077662
 11
17.6105503553
 21
13.304077662
  0
LINE
  5
49C
100
AcDbEntity
  8
0
100
AcDbLine
 62
7
  6
CONTINUOUS
 10
17.6745020635
 20
13.304077662
 11
17.8868686535
 21
13.304077662
  0
LINE
  5
49D
100
AcDbEntity
  8
0
100
AcDbLine
 62
7
  6
CONTINUOUS
 10
15.9657538727
 20
13.297221978
 11
15.9755152124
 21
13.277330459
  0
LINE
  5
49E
100
AcDbEntity
  8
0
100
AcDbLine
 62
7
  6
CONTINUOUS
 10
16.3259681511
 20
12.6129082005
 11
16.3231423312
 21
12.6186666161
  0
LINE
  5
49F
100
AcDbEntity
  8
0
100
AcDbLine
 62
7
  6
CONTINUOUS
 10
16.5994606294
 20
12.6186666161
 11
16.5389440485
 21
12.4228348887
  0
LINE
  5
4A0
100
AcDbEntity
  8
0
100
AcDbLine
 62
7
  6
CONTINUOUS
 10
16.5389440485
 20
12.4228348887
 11
16.320654326
 21
11.7528665961
  0
LINE
  5
4A1
100
AcDbEntity
  8
0
100
AcDbLine
 62
7
  6
CONTINUOUS
 10
16.6040659343
 20
12.6186666161
 11
16.8223556568
 21
13.2886349087
  0
LINE
  5
4A2
100
AcDbEntity
  8
0
100
AcDbLine
 62
7
  6
CONTINUOUS
 10
16.5418304939
 20
12.4169529313
 11
16.5389440485
 21
12.4228348887
  0
LINE
  5
4A3
100
AcDbEntity
  8
0
100
AcDbLine
 62
7
  6
CONTINUOUS
 10
16.9009378119
 20
11.7442795268
 11
16.9106991517
 21
11.7243880078
  0
LINE
  5
4A4
100
AcDbEntity
  8
0
100
AcDbLine
 62
7
  6
CONTINUOUS
 10
16.2420721709
 20
13.297221978
 11
16.2518335106
 21
13.277330459
  0
LINE
  5
4A5
100
AcDbEntity
  8
0
100
AcDbLine
 62
7
  6
CONTINUOUS
 10
16.7952426294
 20
13.2886349087
 11
16.5994606294
 21
12.6186666161
  0
LINE
  5
4A6
100
AcDbEntity
  8
0
100
AcDbLine
 62
7
  6
CONTINUOUS
 10
16.3477673534
 20
11.7528665961
 11
16.5435493535
 21
12.4228348887
  0
LINE
  5
4A7
100
AcDbEntity
  8
0
100
AcDbLine
 62
7
  6
CONTINUOUS
 10
16.8050039692
 20
13.2687433897
 11
16.7104466249
 21
12.9451670524
  0
LINE
  5
4A8
100
AcDbEntity
  8
0
100
AcDbLine
 62
7
  6
CONTINUOUS
 10
16.6040659343
 20
12.6186666161
 11
16.5435493535
 21
12.4228348887
  0
LINE
  5
4A9
100
AcDbEntity
  8
0
100
AcDbLine
 62
7
  6
CONTINUOUS
 10
16.4423246977
 20
12.0764429334
 11
16.3304156658
 21
11.7329750771
  0
LINE
  5
4AA
100
AcDbEntity
  8
0
100
AcDbLine
 62
7
  6
CONTINUOUS
 10
16.6022864493
 20
12.6129082005
 11
16.5994606294
 21
12.6186666161
  0
LINE
  5
4AB
100
AcDbEntity
  8
0
100
AcDbLine
 62
7
  6
CONTINUOUS
 10
16.8181487921
 20
12.4169529313
 11
16.8152623467
 21
12.4228348887
  0
LINE
  5
4AC
100
AcDbEntity
  8
0
100
AcDbLine
 62
7
  6
CONTINUOUS
 10
17.1772561101
 20
11.7442795268
 11
17.1870174499
 21
11.7243880078
  0
LINE
  5
4AD
100
AcDbEntity
  8
0
100
AcDbLine
 62
7
  6
CONTINUOUS
 10
17.0715609276
 20
13.2886349087
 11
16.8757789276
 21
12.6186666161
  0
LINE
  5
4AE
100
AcDbEntity
  8
0
100
AcDbLine
 62
7
  6
CONTINUOUS
 10
16.6240856516
 20
11.7528665961
 11
16.8198676517
 21
12.4228348887
  0
LINE
  5
4AF
100
AcDbEntity
  8
0
100
AcDbLine
 62
7
  6
CONTINUOUS
 10
17.0813222674
 20
13.2687433897
 11
16.9867649231
 21
12.9451670524
  0
LINE
  5
4B0
100
AcDbEntity
  8
0
100
AcDbLine
 62
7
  6
CONTINUOUS
 10
16.8757789276
 20
12.6186666161
 11
16.8152623467
 21
12.4228348887
  0
LINE
  5
4B1
100
AcDbEntity
  8
0
100
AcDbLine
 62
7
  6
CONTINUOUS
 10
16.8803842325
 20
12.6186666161
 11
16.8198676517
 21
12.4228348887
  0
LINE
  5
4B2
100
AcDbEntity
  8
0
100
AcDbLine
 62
7
  6
CONTINUOUS
 10
16.8152623467
 20
12.4228348887
 11
16.5969726242
 21
11.7528665961
  0
LINE
  5
4B3
100
AcDbEntity
  8
0
100
AcDbLine
 62
7
  6
CONTINUOUS
 10
16.8803842325
 20
12.6186666161
 11
17.098673955
 21
13.2886349087
  0
LINE
  5
4B4
100
AcDbEntity
  8
0
100
AcDbLine
 62
7
  6
CONTINUOUS
 10
16.7186429959
 20
12.0764429334
 11
16.606733964
 21
11.7329750771
  0
LINE
  5
4B5
100
AcDbEntity
  8
0
100
AcDbLine
 62
7
  6
CONTINUOUS
 10
16.5183904691
 20
13.297221978
 11
16.5281518088
 21
13.277330459
  0
LINE
  5
4B6
100
AcDbEntity
  8
0
100
AcDbLine
 62
7
  6
CONTINUOUS
 10
16.8786047475
 20
12.6129082005
 11
16.8757789276
 21
12.6186666161
  0
LINE
  5
4B7
100
AcDbEntity
  8
0
100
AcDbLine
 62
7
  6
CONTINUOUS
 10
17.0944670903
 20
12.4169529313
 11
17.0915806449
 21
12.4228348887
  0
LINE
  5
4B8
100
AcDbEntity
  8
0
100
AcDbLine
 62
7
  6
CONTINUOUS
 10
16.7947087673
 20
13.297221978
 11
16.804470107
 21
13.277330459
  0
LINE
  5
4B9
100
AcDbEntity
  8
0
100
AcDbLine
 62
7
  6
CONTINUOUS
 10
17.1549230457
 20
12.6129082005
 11
17.1520972258
 21
12.6186666161
  0
LINE
  5
4BA
100
AcDbEntity
  8
0
100
AcDbLine
 62
7
  6
CONTINUOUS
 10
17.3478792258
 20
13.2886349087
 11
17.1520972258
 21
12.6186666161
  0
LINE
  5
4BB
100
AcDbEntity
  8
0
100
AcDbLine
 62
7
  6
CONTINUOUS
 10
16.9004039498
 20
11.7528665961
 11
17.0961859499
 21
12.4228348887
  0
LINE
  5
4BC
100
AcDbEntity
  8
0
100
AcDbLine
 62
7
  6
CONTINUOUS
 10
17.3576405656
 20
13.2687433897
 11
17.2630832213
 21
12.9451670524
  0
LINE
  5
4BD
100
AcDbEntity
  8
0
100
AcDbLine
 62
7
  6
CONTINUOUS
 10
17.1520972258
 20
12.6186666161
 11
17.0915806449
 21
12.4228348887
  0
LINE
  5
4BE
100
AcDbEntity
  8
0
100
AcDbLine
 62
7
  6
CONTINUOUS
 10
17.1567025307
 20
12.6186666161
 11
17.0961859499
 21
12.4228348887
  0
LINE
  5
4BF
100
AcDbEntity
  8
0
100
AcDbLine
 62
7
  6
CONTINUOUS
 10
17.0915806449
 20
12.4228348887
 11
16.8732909224
 21
11.7528665961
  0
LINE
  5
4C0
100
AcDbEntity
  8
0
100
AcDbLine
 62
7
  6
CONTINUOUS
 10
17.1567025307
 20
12.6186666161
 11
17.3749922532
 21
13.2886349087
  0
LINE
  5
4C1
100
AcDbEntity
  8
0
100
AcDbLine
 62
7
  6
CONTINUOUS
 10
16.9949612941
 20
12.0764429334
 11
16.8830522622
 21
11.7329750771
  0
LINE
  5
4C2
100
AcDbEntity
  8
0
100
AcDbLine
 62
7
  6
CONTINUOUS
 10
17.3707853885
 20
12.4169529313
 11
17.3678989431
 21
12.4228348887
  0
LINE
  5
4C3
100
AcDbEntity
  8
0
100
AcDbLine
 62
7
  6
CONTINUOUS
 10
17.624197524
 20
13.2886349087
 11
17.428415524
 21
12.6186666161
  0
LINE
  5
4C4
100
AcDbEntity
  8
0
100
AcDbLine
 62
7
  6
CONTINUOUS
 10
17.176722248
 20
11.7528665961
 11
17.3725042481
 21
12.4228348887
  0
LINE
  5
4C5
100
AcDbEntity
  8
0
100
AcDbLine
 62
7
  6
CONTINUOUS
 10
17.6339588638
 20
13.2687433897
 11
17.5394015195
 21
12.9451670524
  0
LINE
  5
4C6
100
AcDbEntity
  8
0
100
AcDbLine
 62
7
  6
CONTINUOUS
 10
17.428415524
 20
12.6186666161
 11
17.3678989431
 21
12.4228348887
  0
LINE
  5
4C7
100
AcDbEntity
  8
0
100
AcDbLine
 62
7
  6
CONTINUOUS
 10
17.4330208289
 20
12.6186666161
 11
17.3725042481
 21
12.4228348887
  0
LINE
  5
4C8
100
AcDbEntity
  8
0
100
AcDbLine
 62
7
  6
CONTINUOUS
 10
17.3678989431
 20
12.4228348887
 11
17.1496092207
 21
11.7528665961
  0
LINE
  5
4C9
100
AcDbEntity
  8
0
100
AcDbLine
 62
7
  6
CONTINUOUS
 10
17.4330208289
 20
12.6186666161
 11
17.6513105514
 21
13.2886349087
  0
LINE
  5
4CA
100
AcDbEntity
  8
0
100
AcDbLine
 62
7
  6
CONTINUOUS
 10
17.2712795923
 20
12.0764429334
 11
17.1593705604
 21
11.7329750771
  0
LINE
  5
4CB
100
AcDbEntity
  8
0
100
AcDbLine
 62
7
  6
CONTINUOUS
 10
17.0710270655
 20
13.297221978
 11
17.0807884052
 21
13.277330459
  0
LINE
  5
4CC
100
AcDbEntity
  8
0
100
AcDbLine
 62
7
  6
CONTINUOUS
 10
17.4312413439
 20
12.6129082005
 11
17.428415524
 21
12.6186666161
  0
LINE
  5
4CD
100
AcDbEntity
  8
0
100
AcDbLine
 62
7
  6
CONTINUOUS
 10
17.653978581
 20
12.4029433697
 11
17.6442172413
 21
12.4228348887
  0
LINE
  5
4CE
100
AcDbEntity
  8
0
100
AcDbLine
 62
7
  6
CONTINUOUS
 10
17.3473453637
 20
13.297221978
 11
17.3571067034
 21
13.277330459
  0
LINE
  5
4CF
100
AcDbEntity
  8
0
100
AcDbLine
 62
7
  6
CONTINUOUS
 10
17.7144951619
 20
12.5987750971
 11
17.7047338222
 21
12.6186666161
  0
LINE
  5
4D0
100
AcDbEntity
  8
0
100
AcDbLine
 62
7
  6
CONTINUOUS
 10
17.6555044999
 20
12.2043417788
 11
17.6531230541
 21
12.2145193472
  0
LINE
  5
4D1
100
AcDbEntity
  8
0
100
AcDbLine
 62
7
  6
CONTINUOUS
 10
17.9005158222
 20
13.2886349087
 11
17.7047338222
 21
12.6186666161
  0
LINE
  5
4D2
100
AcDbEntity
  8
0
100
AcDbLine
 62
7
  6
CONTINUOUS
 10
17.910277162
 20
13.2687433897
 11
17.7144951619
 21
12.5987750971
  0
LINE
  5
4D3
100
AcDbEntity
  8
0
100
AcDbLine
 62
7
  6
CONTINUOUS
 10
17.7047338222
 20
12.6186666161
 11
17.6442172413
 21
12.4228348887
  0
LINE
  5
4D4
100
AcDbEntity
  8
0
100
AcDbLine
 62
7
  6
CONTINUOUS
 10
17.653978581
 20
12.4029433697
 11
17.7144951619
 21
12.5987750971
  0
LINE
  5
4D5
100
AcDbEntity
  8
0
100
AcDbLine
 62
7
  6
CONTINUOUS
 10
17.6927935324
 20
12.4772436666
 11
17.6849145062
 21
12.4517471284
  0
LINE
  5
4D6
100
AcDbEntity
  8
0
100
AcDbLine
 62
7
  6
CONTINUOUS
 10
17.6718062361
 20
12.3754588474
 11
17.6730577157
 21
12.3795086369
  0
LINE
  5
4D7
100
AcDbEntity
  8
0
100
AcDbLine
 62
7
  6
CONTINUOUS
 10
17.6768455538
 20
12.2912853844
 11
17.6531230541
 21
12.2145193472
  0
LINE
  5
4D8
100
AcDbEntity
  8
0
100
AcDbLine
 62
7
  6
CONTINUOUS
 10
17.7552378756
 20
12.5449630307
 11
17.7610846343
 21
12.5638831489
  0
LINE
  5
4D9
100
AcDbEntity
  8
0
100
AcDbLine
 62
7
  6
CONTINUOUS
 10
17.6555044999
 20
12.2043417788
 11
17.6864889893
 21
12.3046076232
  0
LINE
  5
4DA
100
AcDbEntity
  8
0
100
AcDbLine
 62
7
  6
CONTINUOUS
 10
17.7607644279
 20
12.5449630307
 11
17.7634660802
 21
12.5537055805
  0
LINE
  5
4DB
100
AcDbEntity
  8
0
100
AcDbLine
 62
7
  6
CONTINUOUS
 10
17.754519014
 20
12.5008634564
 11
17.7393409207
 21
12.4517471284
  0
LINE
  5
4DC
100
AcDbEntity
  8
0
100
AcDbLine
 62
7
  6
CONTINUOUS
 10
17.6442172413
 20
12.4228348887
 11
17.4259275189
 21
11.7528665961
  0
LINE
  5
4DD
100
AcDbEntity
  8
0
100
AcDbLine
 62
7
  6
CONTINUOUS
 10
17.653978581
 20
12.4029433697
 11
17.4356888586
 21
11.7329750771
  0
LINE
  5
4DE
100
AcDbEntity
  8
0
100
AcDbLine
 62
7
  6
CONTINUOUS
 10
17.6792269996
 20
12.2811078159
 11
17.6768455538
 21
12.2912853844
  0
LINE
  5
4DF
100
AcDbEntity
  8
0
100
AcDbLine
 62
7
  6
CONTINUOUS
 10
17.7634660802
 20
12.5537055805
 11
17.7610846343
 21
12.5638831489
  0
LINE
  5
4E0
100
AcDbEntity
  8
0
100
AcDbLine
 62
7
  6
CONTINUOUS
 10
17.653978581
 20
12.4029433697
 11
17.6792269996
 21
12.2811078159
  0
LINE
  5
4E1
100
AcDbEntity
  8
0
100
AcDbLine
 62
7
  6
CONTINUOUS
 10
17.6612405707
 20
12.426443177
 11
17.6864889893
 21
12.3046076232
  0
LINE
  5
4E2
100
AcDbEntity
  8
0
100
AcDbLine
 62
7
  6
CONTINUOUS
 10
17.7072331722
 20
12.5752752898
 11
17.7135148903
 21
12.5449630307
  0
LINE
  5
4E3
100
AcDbEntity
  8
0
100
AcDbLine
 62
7
  6
CONTINUOUS
 10
17.7144951619
 20
12.5987750971
 11
17.7256468293
 21
12.5449630307
  0
LINE
  5
4E4
100
AcDbEntity
  8
0
100
AcDbLine
 62
7
  6
CONTINUOUS
 10
17.8309526815
 20
12.4772436666
 11
17.8171812496
 21
12.4326792966
  0
LINE
  5
4E5
100
AcDbEntity
  8
0
100
AcDbLine
 62
7
  6
CONTINUOUS
 10
17.8686824325
 20
12.4844504463
 11
17.8640831724
 21
12.469567235
  0
LINE
  5
4E6
100
AcDbEntity
  8
0
100
AcDbLine
 62
7
  6
CONTINUOUS
 10
17.8352772799
 20
12.3763513327
 11
17.8398765401
 21
12.391234544
  0
LINE
  5
4E7
100
AcDbEntity
  8
0
100
AcDbLine
 62
7
  6
CONTINUOUS
 10
17.6236636619
 20
13.297221978
 11
17.6334250016
 21
13.277330459
  0
LINE
  5
4E8
100
AcDbEntity
  8
0
100
AcDbLine
 62
7
  6
CONTINUOUS
 10
17.8999819601
 20
13.297221978
 11
17.9097432998
 21
13.277330459
  0
ARC
  5
4E9
100
AcDbEntity
  8
0
100
AcDbCircle
 62
7
  6
CONTINUOUS
 10
3.9711577737
 20
5.4147549921
 40
0.0233649047
100
AcDbArc
 50
19.3399772092
 51
90.0
  0
ARC
  5
4EA
100
AcDbEntity
  8
0
100
AcDbCircle
 62
7
  6
CONTINUOUS
 10
4.2711577737
 20
5.4147549921
 40
0.0233649047
100
AcDbArc
 50
19.3399772092
 51
90.0
  0
ARC
  5
4EB
100
AcDbEntity
  8
0
100
AcDbCircle
 62
7
  6
CONTINUOUS
 10
4.5711577737
 20
5.4147549921
 40
0.0233649047
100
AcDbArc
 50
19.3399772092
 51
90.0
  0
ARC
  5
4EC
100
AcDbEntity
  8
0
100
AcDbCircle
 62
7
  6
CONTINUOUS
 10
4.8711577737
 20
5.4147549921
 40
0.0233649047
100
AcDbArc
 50
19.3399772092
 51
90.0
  0
ARC
  5
4ED
100
AcDbEntity
  8
0
100
AcDbCircle
 62
7
  6
CONTINUOUS
 10
5.1711577737
 20
5.4147549921
 40
0.0233649047
100
AcDbArc
 50
19.3399772092
 51
90.0
  0
ARC
  5
4EE
100
AcDbEntity
  8
0
100
AcDbCircle
 62
7
  6
CONTINUOUS
 10
5.4711577737
 20
5.4147549921
 40
0.0233649047
100
AcDbArc
 50
19.3399772092
 51
90.0
  0
ARC
  5
4EF
100
AcDbEntity
  8
0
100
AcDbCircle
 62
7
  6
CONTINUOUS
 10
5.7711577737
 20
5.4147549921
 40
0.0233649047
100
AcDbArc
 50
19.3399772092
 51
90.0
  0
ARC
  5
4F0
100
AcDbEntity
  8
0
100
AcDbCircle
 62
7
  6
CONTINUOUS
 10
6.0711577737
 20
5.4147549921
 40
0.0233649047
100
AcDbArc
 50
19.3399772092
 51
90.0
  0
ARC
  5
4F1
100
AcDbEntity
  8
0
100
AcDbCircle
 62
7
  6
CONTINUOUS
 10
3.7895767786
 20
5.4150198968
 40
0.0231
100
AcDbArc
 50
90.0
 51
162.0998380608
  0
ARC
  5
4F2
100
AcDbEntity
  8
0
100
AcDbCircle
 62
7
  6
CONTINUOUS
 10
4.0895767786
 20
5.4150198968
 40
0.0231
100
AcDbArc
 50
90.0
 51
162.0998380608
  0
ARC
  5
4F3
100
AcDbEntity
  8
0
100
AcDbCircle
 62
7
  6
CONTINUOUS
 10
4.3895767786
 20
5.4150198968
 40
0.0231
100
AcDbArc
 50
90.0
 51
162.0998380608
  0
ARC
  5
4F4
100
AcDbEntity
  8
0
100
AcDbCircle
 62
7
  6
CONTINUOUS
 10
4.6895767786
 20
5.4150198968
 40
0.0231
100
AcDbArc
 50
90.0
 51
162.0998380608
  0
ARC
  5
4F5
100
AcDbEntity
  8
0
100
AcDbCircle
 62
7
  6
CONTINUOUS
 10
4.9895767786
 20
5.4150198968
 40
0.0231
100
AcDbArc
 50
90.0
 51
162.0998380608
  0
ARC
  5
4F6
100
AcDbEntity
  8
0
100
AcDbCircle
 62
7
  6
CONTINUOUS
 10
5.2895767786
 20
5.4150198968
 40
0.0231
100
AcDbArc
 50
90.0
 51
162.0998380608
  0
ARC
  5
4F7
100
AcDbEntity
  8
0
100
AcDbCircle
 62
7
  6
CONTINUOUS
 10
5.5895767786
 20
5.4150198968
 40
0.0231
100
AcDbArc
 50
90.0
 51
162.0998380608
  0
ARC
  5
4F8
100
AcDbEntity
  8
0
100
AcDbCircle
 62
7
  6
CONTINUOUS
 10
5.8895767786
 20
5.4150198968
 40
0.0231
100
AcDbArc
 50
90.0
 51
162.0998380608
  0
ARC
  5
4F9
100
AcDbEntity
  8
0
100
AcDbCircle
 62
7
  6
CONTINUOUS
 10
3.6463672762
 20
5.5201198968
 40
0.066
100
AcDbArc
 50
90.0
 51
270.0
  0
CIRCLE
  5
4FA
100
AcDbEntity
  8
0
100
AcDbCircle
 62
7
  6
CONTINUOUS
 10
3.6553672762
 20
5.5201198968
 40
0.02
  0
CIRCLE
  5
4FB
100
AcDbEntity
  8
02___PRT_ALL_AXES
100
AcDbCircle
 62
7
  6
CONTINUOUS
 10
3.8053672762
 20
5.5201198968
 40
0.02
  0
CIRCLE
  5
4FC
100
AcDbEntity
  8
02___PRT_ALL_AXES
100
AcDbCircle
 62
7
  6
CONTINUOUS
 10
3.9553672762
 20
5.5201198968
 40
0.02
  0
CIRCLE
  5
4FD
100
AcDbEntity
  8
02___PRT_ALL_AXES
100
AcDbCircle
 62
7
  6
CONTINUOUS
 10
4.1053672762
 20
5.5201198968
 40
0.02
  0
CIRCLE
  5
4FE
100
AcDbEntity
  8
02___PRT_ALL_AXES
100
AcDbCircle
 62
7
  6
CONTINUOUS
 10
4.2553672762
 20
5.5201198968
 40
0.02
  0
CIRCLE
  5
4FF
100
AcDbEntity
  8
02___PRT_ALL_AXES
100
AcDbCircle
 62
7
  6
CONTINUOUS
 10
4.4053672762
 20
5.5201198968
 40
0.02
  0
CIRCLE
  5
500
100
AcDbEntity
  8
02___PRT_ALL_AXES
100
AcDbCircle
 62
7
  6
CONTINUOUS
 10
4.5553672762
 20
5.5201198968
 40
0.02
  0
CIRCLE
  5
501
100
AcDbEntity
  8
02___PRT_ALL_AXES
100
AcDbCircle
 62
7
  6
CONTINUOUS
 10
4.7053672762
 20
5.5201198968
 40
0.02
  0
CIRCLE
  5
502
100
AcDbEntity
  8
02___PRT_ALL_AXES
100
AcDbCircle
 62
7
  6
CONTINUOUS
 10
4.8553672762
 20
5.5201198968
 40
0.02
  0
CIRCLE
  5
503
100
AcDbEntity
  8
02___PRT_ALL_AXES
100
AcDbCircle
 62
7
  6
CONTINUOUS
 10
5.0053672762
 20
5.5201198968
 40
0.02
  0
CIRCLE
  5
504
100
AcDbEntity
  8
02___PRT_ALL_AXES
100
AcDbCircle
 62
7
  6
CONTINUOUS
 10
5.1553672762
 20
5.5201198968
 40
0.02
  0
CIRCLE
  5
505
100
AcDbEntity
  8
02___PRT_ALL_AXES
100
AcDbCircle
 62
7
  6
CONTINUOUS
 10
5.3053672762
 20
5.5201198968
 40
0.02
  0
CIRCLE
  5
506
100
AcDbEntity
  8
02___PRT_ALL_AXES
100
AcDbCircle
 62
7
  6
CONTINUOUS
 10
5.4553672762
 20
5.5201198968
 40
0.02
  0
CIRCLE
  5
507
100
AcDbEntity
  8
02___PRT_ALL_AXES
100
AcDbCircle
 62
7
  6
CONTINUOUS
 10
5.6053672762
 20
5.5201198968
 40
0.02
  0
CIRCLE
  5
508
100
AcDbEntity
  8
02___PRT_ALL_AXES
100
AcDbCircle
 62
7
  6
CONTINUOUS
 10
5.7553672762
 20
5.5201198968
 40
0.02
  0
CIRCLE
  5
509
100
AcDbEntity
  8
02___PRT_ALL_AXES
100
AcDbCircle
 62
7
  6
CONTINUOUS
 10
5.9053672762
 20
5.5201198968
 40
0.02
  0
CIRCLE
  5
50A
100
AcDbEntity
  8
02___PRT_ALL_AXES
100
AcDbCircle
 62
7
  6
CONTINUOUS
 10
6.0553672762
 20
5.5201198968
 40
0.02
  0
CIRCLE
  5
50B
100
AcDbEntity
  8
0
100
AcDbCircle
 62
7
  6
CONTINUOUS
 10
3.9553672762
 20
5.5201198968
 40
0.016
  0
CIRCLE
  5
50C
100
AcDbEntity
  8
0
100
AcDbCircle
 62
7
  6
CONTINUOUS
 10
4.2553672762
 20
5.5201198968
 40
0.016
  0
CIRCLE
  5
50D
100
AcDbEntity
  8
0
100
AcDbCircle
 62
7
  6
CONTINUOUS
 10
4.5553672762
 20
5.5201198968
 40
0.016
  0
CIRCLE
  5
50E
100
AcDbEntity
  8
0
100
AcDbCircle
 62
7
  6
CONTINUOUS
 10
4.8553672762
 20
5.5201198968
 40
0.016
  0
CIRCLE
  5
50F
100
AcDbEntity
  8
0
100
AcDbCircle
 62
7
  6
CONTINUOUS
 10
5.1553672762
 20
5.5201198968
 40
0.016
  0
CIRCLE
  5
510
100
AcDbEntity
  8
0
100
AcDbCircle
 62
7
  6
CONTINUOUS
 10
5.4553672762
 20
5.5201198968
 40
0.016
  0
CIRCLE
  5
511
100
AcDbEntity
  8
0
100
AcDbCircle
 62
7
  6
CONTINUOUS
 10
5.7553672762
 20
5.5201198968
 40
0.016
  0
CIRCLE
  5
512
100
AcDbEntity
  8
0
100
AcDbCircle
 62
7
  6
CONTINUOUS
 10
6.0553672762
 20
5.5201198968
 40
0.016
  0
CIRCLE
  5
513
100
AcDbEntity
  8
0
100
AcDbCircle
 62
7
  6
CONTINUOUS
 10
3.8053672762
 20
5.5201198968
 40
0.016
  0
CIRCLE
  5
514
100
AcDbEntity
  8
0
100
AcDbCircle
 62
7
  6
CONTINUOUS
 10
4.1053672762
 20
5.5201198968
 40
0.016
  0
CIRCLE
  5
515
100
AcDbEntity
  8
0
100
AcDbCircle
 62
7
  6
CONTINUOUS
 10
4.4053672762
 20
5.5201198968
 40
0.016
  0
CIRCLE
  5
516
100
AcDbEntity
  8
0
100
AcDbCircle
 62
7
  6
CONTINUOUS
 10
4.7053672762
 20
5.5201198968
 40
0.016
  0
CIRCLE
  5
517
100
AcDbEntity
  8
0
100
AcDbCircle
 62
7
  6
CONTINUOUS
 10
5.0053672762
 20
5.5201198968
 40
0.016
  0
CIRCLE
  5
518
100
AcDbEntity
  8
0
100
AcDbCircle
 62
7
  6
CONTINUOUS
 10
5.3053672762
 20
5.5201198968
 40
0.016
  0
CIRCLE
  5
519
100
AcDbEntity
  8
0
100
AcDbCircle
 62
7
  6
CONTINUOUS
 10
5.6053672762
 20
5.5201198968
 40
0.016
  0
CIRCLE
  5
51A
100
AcDbEntity
  8
0
100
AcDbCircle
 62
7
  6
CONTINUOUS
 10
5.9053672762
 20
5.5201198968
 40
0.016
  0
ARC
  5
51B
100
AcDbEntity
  8
0
100
AcDbCircle
 62
7
  6
CONTINUOUS
 10
6.3711577737
 20
5.4147549921
 40
0.0233649047
100
AcDbArc
 50
19.3399772092
 51
90.0
  0
ARC
  5
51C
100
AcDbEntity
  8
0
100
AcDbCircle
 62
7
  6
CONTINUOUS
 10
6.6711577737
 20
5.4147549921
 40
0.0233649047
100
AcDbArc
 50
19.3399772092
 51
90.0
  0
ARC
  5
51D
100
AcDbEntity
  8
0
100
AcDbCircle
 62
7
  6
CONTINUOUS
 10
6.9711577737
 20
5.4147549921
 40
0.0233649047
100
AcDbArc
 50
19.3399772092
 51
90.0
  0
ARC
  5
51E
100
AcDbEntity
  8
0
100
AcDbCircle
 62
7
  6
CONTINUOUS
 10
7.2711577737
 20
5.4147549921
 40
0.0233649047
100
AcDbArc
 50
19.3399772092
 51
90.0
  0
ARC
  5
51F
100
AcDbEntity
  8
0
100
AcDbCircle
 62
7
  6
CONTINUOUS
 10
7.5711577737
 20
5.4147549921
 40
0.0233649047
100
AcDbArc
 50
19.3399772092
 51
90.0
  0
ARC
  5
520
100
AcDbEntity
  8
0
100
AcDbCircle
 62
7
  6
CONTINUOUS
 10
7.8711577737
 20
5.4147549921
 40
0.0233649047
100
AcDbArc
 50
19.3399772092
 51
90.0
  0
ARC
  5
521
100
AcDbEntity
  8
0
100
AcDbCircle
 62
7
  6
CONTINUOUS
 10
8.1711577737
 20
5.4147549921
 40
0.0233649047
100
AcDbArc
 50
19.3399772092
 51
90.0
  0
ARC
  5
522
100
AcDbEntity
  8
0
100
AcDbCircle
 62
7
  6
CONTINUOUS
 10
8.4711577737
 20
5.4147549921
 40
0.0233649047
100
AcDbArc
 50
19.3399772092
 51
90.0
  0
ARC
  5
523
100
AcDbEntity
  8
0
100
AcDbCircle
 62
7
  6
CONTINUOUS
 10
6.1895767786
 20
5.4150198968
 40
0.0231
100
AcDbArc
 50
90.0
 51
162.0998380608
  0
ARC
  5
524
100
AcDbEntity
  8
0
100
AcDbCircle
 62
7
  6
CONTINUOUS
 10
6.4895767786
 20
5.4150198968
 40
0.0231
100
AcDbArc
 50
90.0
 51
162.0998380608
  0
ARC
  5
525
100
AcDbEntity
  8
0
100
AcDbCircle
 62
7
  6
CONTINUOUS
 10
6.7895767786
 20
5.4150198968
 40
0.0231
100
AcDbArc
 50
90.0
 51
162.0998380608
  0
ARC
  5
526
100
AcDbEntity
  8
0
100
AcDbCircle
 62
7
  6
CONTINUOUS
 10
7.0895767786
 20
5.4150198968
 40
0.0231
100
AcDbArc
 50
90.0
 51
162.0998380608
  0
ARC
  5
527
100
AcDbEntity
  8
0
100
AcDbCircle
 62
7
  6
CONTINUOUS
 10
7.3895767786
 20
5.4150198968
 40
0.0231
100
AcDbArc
 50
90.0
 51
162.0998380608
  0
ARC
  5
528
100
AcDbEntity
  8
0
100
AcDbCircle
 62
7
  6
CONTINUOUS
 10
7.6895767786
 20
5.4150198968
 40
0.0231
100
AcDbArc
 50
90.0
 51
162.0998380608
  0
ARC
  5
529
100
AcDbEntity
  8
0
100
AcDbCircle
 62
7
  6
CONTINUOUS
 10
7.9895767786
 20
5.4150198968
 40
0.0231
100
AcDbArc
 50
90.0
 51
162.0998380608
  0
ARC
  5
52A
100
AcDbEntity
  8
0
100
AcDbCircle
 62
7
  6
CONTINUOUS
 10
8.2895767786
 20
5.4150198968
 40
0.0231
100
AcDbArc
 50
90.0
 51
162.0998380608
  0
ARC
  5
52B
100
AcDbEntity
  8
0
100
AcDbCircle
 62
7
  6
CONTINUOUS
 10
8.6143672762
 20
5.5201198968
 40
0.066
100
AcDbArc
 50
270.0
 51
90.0
  0
CIRCLE
  5
52C
100
AcDbEntity
  8
0
100
AcDbCircle
 62
7
  6
CONTINUOUS
 10
8.6053672762
 20
5.5201198968
 40
0.02
  0
CIRCLE
  5
52D
100
AcDbEntity
  8
02___PRT_ALL_AXES
100
AcDbCircle
 62
7
  6
CONTINUOUS
 10
6.2053672762
 20
5.5201198968
 40
0.02
  0
CIRCLE
  5
52E
100
AcDbEntity
  8
02___PRT_ALL_AXES
100
AcDbCircle
 62
7
  6
CONTINUOUS
 10
6.3553672762
 20
5.5201198968
 40
0.02
  0
CIRCLE
  5
52F
100
AcDbEntity
  8
02___PRT_ALL_AXES
100
AcDbCircle
 62
7
  6
CONTINUOUS
 10
6.5053672762
 20
5.5201198968
 40
0.02
  0
CIRCLE
  5
530
100
AcDbEntity
  8
02___PRT_ALL_AXES
100
AcDbCircle
 62
7
  6
CONTINUOUS
 10
6.6553672762
 20
5.5201198968
 40
0.02
  0
CIRCLE
  5
531
100
AcDbEntity
  8
02___PRT_ALL_AXES
100
AcDbCircle
 62
7
  6
CONTINUOUS
 10
6.8053672762
 20
5.5201198968
 40
0.02
  0
CIRCLE
  5
532
100
AcDbEntity
  8
02___PRT_ALL_AXES
100
AcDbCircle
 62
7
  6
CONTINUOUS
 10
6.9553672762
 20
5.5201198968
 40
0.02
  0
CIRCLE
  5
533
100
AcDbEntity
  8
02___PRT_ALL_AXES
100
AcDbCircle
 62
7
  6
CONTINUOUS
 10
7.1053672762
 20
5.5201198968
 40
0.02
  0
CIRCLE
  5
534
100
AcDbEntity
  8
02___PRT_ALL_AXES
100
AcDbCircle
 62
7
  6
CONTINUOUS
 10
7.2553672762
 20
5.5201198968
 40
0.02
  0
CIRCLE
  5
535
100
AcDbEntity
  8
02___PRT_ALL_AXES
100
AcDbCircle
 62
7
  6
CONTINUOUS
 10
7.4053672762
 20
5.5201198968
 40
0.02
  0
CIRCLE
  5
536
100
AcDbEntity
  8
02___PRT_ALL_AXES
100
AcDbCircle
 62
7
  6
CONTINUOUS
 10
7.5553672762
 20
5.5201198968
 40
0.02
  0
CIRCLE
  5
537
100
AcDbEntity
  8
02___PRT_ALL_AXES
100
AcDbCircle
 62
7
  6
CONTINUOUS
 10
7.7053672762
 20
5.5201198968
 40
0.02
  0
CIRCLE
  5
538
100
AcDbEntity
  8
02___PRT_ALL_AXES
100
AcDbCircle
 62
7
  6
CONTINUOUS
 10
7.8553672762
 20
5.5201198968
 40
0.02
  0
CIRCLE
  5
539
100
AcDbEntity
  8
02___PRT_ALL_AXES
100
AcDbCircle
 62
7
  6
CONTINUOUS
 10
8.0053672762
 20
5.5201198968
 40
0.02
  0
CIRCLE
  5
53A
100
AcDbEntity
  8
02___PRT_ALL_AXES
100
AcDbCircle
 62
7
  6
CONTINUOUS
 10
8.1553672762
 20
5.5201198968
 40
0.02
  0
CIRCLE
  5
53B
100
AcDbEntity
  8
02___PRT_ALL_AXES
100
AcDbCircle
 62
7
  6
CONTINUOUS
 10
8.3053672762
 20
5.5201198968
 40
0.02
  0
CIRCLE
  5
53C
100
AcDbEntity
  8
02___PRT_ALL_AXES
100
AcDbCircle
 62
7
  6
CONTINUOUS
 10
8.4553672762
 20
5.5201198968
 40
0.02
  0
CIRCLE
  5
53D
100
AcDbEntity
  8
0
100
AcDbCircle
 62
7
  6
CONTINUOUS
 10
6.3553672762
 20
5.5201198968
 40
0.016
  0
CIRCLE
  5
53E
100
AcDbEntity
  8
0
100
AcDbCircle
 62
7
  6
CONTINUOUS
 10
6.6553672762
 20
5.5201198968
 40
0.016
  0
CIRCLE
  5
53F
100
AcDbEntity
  8
0
100
AcDbCircle
 62
7
  6
CONTINUOUS
 10
6.9553672762
 20
5.5201198968
 40
0.016
  0
CIRCLE
  5
540
100
AcDbEntity
  8
0
100
AcDbCircle
 62
7
  6
CONTINUOUS
 10
7.2553672762
 20
5.5201198968
 40
0.016
  0
CIRCLE
  5
541
100
AcDbEntity
  8
0
100
AcDbCircle
 62
7
  6
CONTINUOUS
 10
7.5553672762
 20
5.5201198968
 40
0.016
  0
CIRCLE
  5
542
100
AcDbEntity
  8
0
100
AcDbCircle
 62
7
  6
CONTINUOUS
 10
7.8553672762
 20
5.5201198968
 40
0.016
  0
CIRCLE
  5
543
100
AcDbEntity
  8
0
100
AcDbCircle
 62
7
  6
CONTINUOUS
 10
8.1553672762
 20
5.5201198968
 40
0.016
  0
CIRCLE
  5
544
100
AcDbEntity
  8
0
100
AcDbCircle
 62
7
  6
CONTINUOUS
 10
8.4553672762
 20
5.5201198968
 40
0.016
  0
CIRCLE
  5
545
100
AcDbEntity
  8
0
100
AcDbCircle
 62
7
  6
CONTINUOUS
 10
6.2053672762
 20
5.5201198968
 40
0.016
  0
CIRCLE
  5
546
100
AcDbEntity
  8
0
100
AcDbCircle
 62
7
  6
CONTINUOUS
 10
6.5053672762
 20
5.5201198968
 40
0.016
  0
CIRCLE
  5
547
100
AcDbEntity
  8
0
100
AcDbCircle
 62
7
  6
CONTINUOUS
 10
6.8053672762
 20
5.5201198968
 40
0.016
  0
CIRCLE
  5
548
100
AcDbEntity
  8
0
100
AcDbCircle
 62
7
  6
CONTINUOUS
 10
7.1053672762
 20
5.5201198968
 40
0.016
  0
CIRCLE
  5
549
100
AcDbEntity
  8
0
100
AcDbCircle
 62
7
  6
CONTINUOUS
 10
7.4053672762
 20
5.5201198968
 40
0.016
  0
CIRCLE
  5
54A
100
AcDbEntity
  8
0
100
AcDbCircle
 62
7
  6
CONTINUOUS
 10
7.7053672762
 20
5.5201198968
 40
0.016
  0
CIRCLE
  5
54B
100
AcDbEntity
  8
0
100
AcDbCircle
 62
7
  6
CONTINUOUS
 10
8.0053672762
 20
5.5201198968
 40
0.016
  0
CIRCLE
  5
54C
100
AcDbEntity
  8
0
100
AcDbCircle
 62
7
  6
CONTINUOUS
 10
8.3053672762
 20
5.5201198968
 40
0.016
  0
ARC
  5
54D
100
AcDbEntity
  8
0
100
AcDbCircle
 62
7
  6
CONTINUOUS
 10
3.9361557574
 20
11.6200477814
 40
0.02
100
AcDbArc
 50
270.0
 51
359.1815445383
  0
ARC
  5
54E
100
AcDbEntity
  8
0
100
AcDbCircle
 62
7
  6
CONTINUOUS
 10
3.7055884103
 20
11.6200477814
 40
0.02
100
AcDbArc
 50
180.8184554617
 51
270.0
  0
ARC
  5
54F
100
AcDbEntity
  8
0
100
AcDbCircle
 62
7
  6
CONTINUOUS
 10
4.2361557574
 20
11.6200477814
 40
0.02
100
AcDbArc
 50
270.0
 51
359.1815445383
  0
ARC
  5
550
100
AcDbEntity
  8
0
100
AcDbCircle
 62
7
  6
CONTINUOUS
 10
4.0055884103
 20
11.6200477814
 40
0.02
100
AcDbArc
 50
180.8184554617
 51
270.0
  0
ARC
  5
551
100
AcDbEntity
  8
0
100
AcDbCircle
 62
7
  6
CONTINUOUS
 10
4.5361557574
 20
11.6200477814
 40
0.02
100
AcDbArc
 50
270.0
 51
359.1815445383
  0
ARC
  5
552
100
AcDbEntity
  8
0
100
AcDbCircle
 62
7
  6
CONTINUOUS
 10
4.3055884103
 20
11.6200477814
 40
0.02
100
AcDbArc
 50
180.8184554617
 51
270.0
  0
ARC
  5
553
100
AcDbEntity
  8
0
100
AcDbCircle
 62
7
  6
CONTINUOUS
 10
4.8361557574
 20
11.6200477814
 40
0.02
100
AcDbArc
 50
270.0
 51
359.1815445383
  0
ARC
  5
554
100
AcDbEntity
  8
0
100
AcDbCircle
 62
7
  6
CONTINUOUS
 10
4.6055884103
 20
11.6200477814
 40
0.02
100
AcDbArc
 50
180.8184554617
 51
270.0
  0
ARC
  5
555
100
AcDbEntity
  8
0
100
AcDbCircle
 62
7
  6
CONTINUOUS
 10
5.1361557574
 20
11.6200477814
 40
0.02
100
AcDbArc
 50
270.0
 51
359.1815445383
  0
ARC
  5
556
100
AcDbEntity
  8
0
100
AcDbCircle
 62
7
  6
CONTINUOUS
 10
4.9055884103
 20
11.6200477814
 40
0.02
100
AcDbArc
 50
180.8184554617
 51
270.0
  0
ARC
  5
557
100
AcDbEntity
  8
0
100
AcDbCircle
 62
7
  6
CONTINUOUS
 10
5.4361557574
 20
11.6200477814
 40
0.02
100
AcDbArc
 50
270.0
 51
359.1815445383
  0
ARC
  5
558
100
AcDbEntity
  8
0
100
AcDbCircle
 62
7
  6
CONTINUOUS
 10
5.2055884103
 20
11.6200477814
 40
0.02
100
AcDbArc
 50
180.8184554617
 51
270.0
  0
ARC
  5
559
100
AcDbEntity
  8
0
100
AcDbCircle
 62
7
  6
CONTINUOUS
 10
5.7361557574
 20
11.6200477814
 40
0.02
100
AcDbArc
 50
270.0
 51
359.1815445383
  0
ARC
  5
55A
100
AcDbEntity
  8
0
100
AcDbCircle
 62
7
  6
CONTINUOUS
 10
5.5055884103
 20
11.6200477814
 40
0.02
100
AcDbArc
 50
180.8184554617
 51
270.0
  0
ARC
  5
55B
100
AcDbEntity
  8
0
100
AcDbCircle
 62
7
  6
CONTINUOUS
 10
6.0361557574
 20
11.6200477814
 40
0.02
100
AcDbArc
 50
270.0
 51
359.1815445383
  0
ARC
  5
55C
100
AcDbEntity
  8
0
100
AcDbCircle
 62
7
  6
CONTINUOUS
 10
5.8055884103
 20
11.6200477814
 40
0.02
100
AcDbArc
 50
180.8184554617
 51
270.0
  0
ARC
  5
55D
100
AcDbEntity
  8
0
100
AcDbCircle
 62
7
  6
CONTINUOUS
 10
3.9361557574
 20
13.5800477814
 40
0.02
100
AcDbArc
 50
0.8184554617
 51
90.0
  0
ARC
  5
55E
100
AcDbEntity
  8
0
100
AcDbCircle
 62
7
  6
CONTINUOUS
 10
3.7055884103
 20
13.5800477814
 40
0.02
100
AcDbArc
 50
90.0
 51
179.1815445383
  0
ARC
  5
55F
100
AcDbEntity
  8
0
100
AcDbCircle
 62
7
  6
CONTINUOUS
 10
4.2361557574
 20
13.5800477814
 40
0.02
100
AcDbArc
 50
0.8184554617
 51
90.0
  0
ARC
  5
560
100
AcDbEntity
  8
0
100
AcDbCircle
 62
7
  6
CONTINUOUS
 10
4.0055884103
 20
13.5800477814
 40
0.02
100
AcDbArc
 50
90.0
 51
179.1815445383
  0
ARC
  5
561
100
AcDbEntity
  8
0
100
AcDbCircle
 62
7
  6
CONTINUOUS
 10
4.5361557574
 20
13.5800477814
 40
0.02
100
AcDbArc
 50
0.8184554617
 51
90.0
  0
ARC
  5
562
100
AcDbEntity
  8
0
100
AcDbCircle
 62
7
  6
CONTINUOUS
 10
4.3055884103
 20
13.5800477814
 40
0.02
100
AcDbArc
 50
90.0
 51
179.1815445383
  0
ARC
  5
563
100
AcDbEntity
  8
0
100
AcDbCircle
 62
7
  6
CONTINUOUS
 10
4.8361557574
 20
13.5800477814
 40
0.02
100
AcDbArc
 50
0.8184554617
 51
90.0
  0
ARC
  5
564
100
AcDbEntity
  8
0
100
AcDbCircle
 62
7
  6
CONTINUOUS
 10
4.6055884103
 20
13.5800477814
 40
0.02
100
AcDbArc
 50
90.0
 51
179.1815445383
  0
ARC
  5
565
100
AcDbEntity
  8
0
100
AcDbCircle
 62
7
  6
CONTINUOUS
 10
5.1361557574
 20
13.5800477814
 40
0.02
100
AcDbArc
 50
0.8184554617
 51
90.0
  0
ARC
  5
566
100
AcDbEntity
  8
0
100
AcDbCircle
 62
7
  6
CONTINUOUS
 10
4.9055884103
 20
13.5800477814
 40
0.02
100
AcDbArc
 50
90.0
 51
179.1815445383
  0
ARC
  5
567
100
AcDbEntity
  8
0
100
AcDbCircle
 62
7
  6
CONTINUOUS
 10
5.4361557574
 20
13.5800477814
 40
0.02
100
AcDbArc
 50
0.8184554617
 51
90.0
  0
ARC
  5
568
100
AcDbEntity
  8
0
100
AcDbCircle
 62
7
  6
CONTINUOUS
 10
5.2055884103
 20
13.5800477814
 40
0.02
100
AcDbArc
 50
90.0
 51
179.1815445383
  0
ARC
  5
569
100
AcDbEntity
  8
0
100
AcDbCircle
 62
7
  6
CONTINUOUS
 10
5.7361557574
 20
13.5800477814
 40
0.02
100
AcDbArc
 50
0.8184554617
 51
90.0
  0
ARC
  5
56A
100
AcDbEntity
  8
0
100
AcDbCircle
 62
7
  6
CONTINUOUS
 10
5.5055884103
 20
13.5800477814
 40
0.02
100
AcDbArc
 50
90.0
 51
179.1815445383
  0
ARC
  5
56B
100
AcDbEntity
  8
0
100
AcDbCircle
 62
7
  6
CONTINUOUS
 10
6.0361557574
 20
13.5800477814
 40
0.02
100
AcDbArc
 50
0.8184554617
 51
90.0
  0
ARC
  5
56C
100
AcDbEntity
  8
0
100
AcDbCircle
 62
7
  6
CONTINUOUS
 10
5.8055884103
 20
13.5800477814
 40
0.02
100
AcDbArc
 50
90.0
 51
179.1815445383
  0
ARC
  5
56D
100
AcDbEntity
  8
0
100
AcDbCircle
 62
7
  6
CONTINUOUS
 10
6.3361557574
 20
11.6200477814
 40
0.02
100
AcDbArc
 50
270.0
 51
359.1815445383
  0
ARC
  5
56E
100
AcDbEntity
  8
0
100
AcDbCircle
 62
7
  6
CONTINUOUS
 10
6.1055884103
 20
11.6200477814
 40
0.02
100
AcDbArc
 50
180.8184554617
 51
270.0
  0
ARC
  5
56F
100
AcDbEntity
  8
0
100
AcDbCircle
 62
7
  6
CONTINUOUS
 10
6.6361557574
 20
11.6200477814
 40
0.02
100
AcDbArc
 50
270.0
 51
359.1815445383
  0
ARC
  5
570
100
AcDbEntity
  8
0
100
AcDbCircle
 62
7
  6
CONTINUOUS
 10
6.4055884103
 20
11.6200477814
 40
0.02
100
AcDbArc
 50
180.8184554617
 51
270.0
  0
ARC
  5
571
100
AcDbEntity
  8
0
100
AcDbCircle
 62
7
  6
CONTINUOUS
 10
6.9361557574
 20
11.6200477814
 40
0.02
100
AcDbArc
 50
270.0
 51
359.1815445383
  0
ARC
  5
572
100
AcDbEntity
  8
0
100
AcDbCircle
 62
7
  6
CONTINUOUS
 10
6.7055884103
 20
11.6200477814
 40
0.02
100
AcDbArc
 50
180.8184554617
 51
270.0
  0
ARC
  5
573
100
AcDbEntity
  8
0
100
AcDbCircle
 62
7
  6
CONTINUOUS
 10
7.2361557574
 20
11.6200477814
 40
0.02
100
AcDbArc
 50
270.0
 51
359.1815445383
  0
ARC
  5
574
100
AcDbEntity
  8
0
100
AcDbCircle
 62
7
  6
CONTINUOUS
 10
7.0055884103
 20
11.6200477814
 40
0.02
100
AcDbArc
 50
180.8184554617
 51
270.0
  0
ARC
  5
575
100
AcDbEntity
  8
0
100
AcDbCircle
 62
7
  6
CONTINUOUS
 10
7.5361557574
 20
11.6200477814
 40
0.02
100
AcDbArc
 50
270.0
 51
359.1815445383
  0
ARC
  5
576
100
AcDbEntity
  8
0
100
AcDbCircle
 62
7
  6
CONTINUOUS
 10
7.3055884103
 20
11.6200477814
 40
0.02
100
AcDbArc
 50
180.8184554617
 51
270.0
  0
ARC
  5
577
100
AcDbEntity
  8
0
100
AcDbCircle
 62
7
  6
CONTINUOUS
 10
7.8361557574
 20
11.6200477814
 40
0.02
100
AcDbArc
 50
270.0
 51
359.1815445383
  0
ARC
  5
578
100
AcDbEntity
  8
0
100
AcDbCircle
 62
7
  6
CONTINUOUS
 10
7.6055884103
 20
11.6200477814
 40
0.02
100
AcDbArc
 50
180.8184554617
 51
270.0
  0
ARC
  5
579
100
AcDbEntity
  8
0
100
AcDbCircle
 62
7
  6
CONTINUOUS
 10
8.1361557574
 20
11.6200477814
 40
0.02
100
AcDbArc
 50
270.0
 51
359.1815445383
  0
ARC
  5
57A
100
AcDbEntity
  8
0
100
AcDbCircle
 62
7
  6
CONTINUOUS
 10
7.9055884103
 20
11.6200477814
 40
0.02
100
AcDbArc
 50
180.8184554617
 51
270.0
  0
ARC
  5
57B
100
AcDbEntity
  8
0
100
AcDbCircle
 62
7
  6
CONTINUOUS
 10
8.4361557574
 20
11.6200477814
 40
0.02
100
AcDbArc
 50
270.0
 51
359.1815445383
  0
ARC
  5
57C
100
AcDbEntity
  8
0
100
AcDbCircle
 62
7
  6
CONTINUOUS
 10
8.2055884103
 20
11.6200477814
 40
0.02
100
AcDbArc
 50
180.8184554617
 51
270.0
  0
ARC
  5
57D
100
AcDbEntity
  8
0
100
AcDbCircle
 62
7
  6
CONTINUOUS
 10
6.3361557574
 20
13.5800477814
 40
0.02
100
AcDbArc
 50
0.8184554617
 51
90.0
  0
ARC
  5
57E
100
AcDbEntity
  8
0
100
AcDbCircle
 62
7
  6
CONTINUOUS
 10
6.1055884103
 20
13.5800477814
 40
0.02
100
AcDbArc
 50
90.0
 51
179.1815445383
  0
ARC
  5
57F
100
AcDbEntity
  8
0
100
AcDbCircle
 62
7
  6
CONTINUOUS
 10
6.6361557574
 20
13.5800477814
 40
0.02
100
AcDbArc
 50
0.8184554617
 51
90.0
  0
ARC
  5
580
100
AcDbEntity
  8
0
100
AcDbCircle
 62
7
  6
CONTINUOUS
 10
6.4055884103
 20
13.5800477814
 40
0.02
100
AcDbArc
 50
90.0
 51
179.1815445383
  0
ARC
  5
581
100
AcDbEntity
  8
0
100
AcDbCircle
 62
7
  6
CONTINUOUS
 10
6.9361557574
 20
13.5800477814
 40
0.02
100
AcDbArc
 50
0.8184554617
 51
90.0
  0
ARC
  5
582
100
AcDbEntity
  8
0
100
AcDbCircle
 62
7
  6
CONTINUOUS
 10
6.7055884103
 20
13.5800477814
 40
0.02
100
AcDbArc
 50
90.0
 51
179.1815445383
  0
ARC
  5
583
100
AcDbEntity
  8
0
100
AcDbCircle
 62
7
  6
CONTINUOUS
 10
7.2361557574
 20
13.5800477814
 40
0.02
100
AcDbArc
 50
0.8184554617
 51
90.0
  0
ARC
  5
584
100
AcDbEntity
  8
0
100
AcDbCircle
 62
7
  6
CONTINUOUS
 10
7.0055884103
 20
13.5800477814
 40
0.02
100
AcDbArc
 50
90.0
 51
179.1815445383
  0
ARC
  5
585
100
AcDbEntity
  8
0
100
AcDbCircle
 62
7
  6
CONTINUOUS
 10
7.5361557574
 20
13.5800477814
 40
0.02
100
AcDbArc
 50
0.8184554617
 51
90.0
  0
ARC
  5
586
100
AcDbEntity
  8
0
100
AcDbCircle
 62
7
  6
CONTINUOUS
 10
7.3055884103
 20
13.5800477814
 40
0.02
100
AcDbArc
 50
90.0
 51
179.1815445383
  0
ARC
  5
587
100
AcDbEntity
  8
0
100
AcDbCircle
 62
7
  6
CONTINUOUS
 10
7.8361557574
 20
13.5800477814
 40
0.02
100
AcDbArc
 50
0.8184554617
 51
90.0
  0
ARC
  5
588
100
AcDbEntity
  8
0
100
AcDbCircle
 62
7
  6
CONTINUOUS
 10
7.6055884103
 20
13.5800477814
 40
0.02
100
AcDbArc
 50
90.0
 51
179.1815445383
  0
ARC
  5
589
100
AcDbEntity
  8
0
100
AcDbCircle
 62
7
  6
CONTINUOUS
 10
8.1361557574
 20
13.5800477814
 40
0.02
100
AcDbArc
 50
0.8184554617
 51
90.0
  0
ARC
  5
58A
100
AcDbEntity
  8
0
100
AcDbCircle
 62
7
  6
CONTINUOUS
 10
7.9055884103
 20
13.5800477814
 40
0.02
100
AcDbArc
 50
90.0
 51
179.1815445383
  0
ARC
  5
58B
100
AcDbEntity
  8
0
100
AcDbCircle
 62
7
  6
CONTINUOUS
 10
8.4361557574
 20
13.5800477814
 40
0.02
100
AcDbArc
 50
0.8184554617
 51
90.0
  0
ARC
  5
58C
100
AcDbEntity
  8
0
100
AcDbCircle
 62
7
  6
CONTINUOUS
 10
8.2055884103
 20
13.5800477814
 40
0.02
100
AcDbArc
 50
90.0
 51
179.1815445383
  0
SPLINE
  5
58D
100
AcDbEntity
  8
0
100
AcDbSpline
 62
7
  6
CONTINUOUS
 70
0
 71
3
 72
9
 73
5
 74
0
 42
0.0000001
 43
0.0000001
 44
0.0000000001
 40
0.0
 40
0.0
 40
0.0
 40
0.0
 40
0.5168752027
 40
1.0
 40
1.0
 40
1.0
 40
1.0
 10
17.666531177
 20
12.4014977047
 30
0.0
 10
17.6674982248
 20
12.4003532258
 30
0.0
 10
17.669256504
 20
12.3980401007
 30
0.0
 10
17.6707227432
 20
12.3955282786
 30
0.0
 10
17.6713397232
 20
12.3942710054
 30
0.0
  0
SPLINE
  5
58E
100
AcDbEntity
  8
0
100
AcDbSpline
 62
7
  6
CONTINUOUS
 70
0
 71
3
 72
13
 73
9
 74
0
 42
0.0000001
 43
0.0000001
 44
0.0000000001
 40
0.0
 40
0.0
 40
0.0
 40
0.0
 40
0.2713916723
 40
0.5252006658
 40
0.6469469645
 40
0.7661149863
 40
0.8835113227
 40
1.0
 40
1.0
 40
1.0
 40
1.0
 10
17.6713397232
 20
12.3942710054
 30
0.0
 10
17.6719461395
 20
12.393035259
 30
0.0
 10
17.6729521969
 20
12.3905553033
 30
0.0
 10
17.6736562607
 20
12.3873302802
 30
0.0
 10
17.6738277109
 20
12.3848231277
 30
0.0
 10
17.6737676836
 20
12.3830034001
 30
0.0
 10
17.6735211578
 20
12.3812265083
 30
0.0
 10
17.6732321352
 20
12.3800731455
 30
0.0
 10
17.6730576668
 20
12.379508652
 30
0.0
  0
SPLINE
  5
58F
100
AcDbEntity
  8
0
100
AcDbSpline
 62
7
  6
CONTINUOUS
 70
0
 71
3
 72
11
 73
7
 74
0
 42
0.0000001
 43
0.0000001
 44
0.0000000001
 40
0.0
 40
0.0
 40
0.0
 40
0.0
 40
0.2229133226
 40
0.4644790066
 40
0.7240878501
 40
1.0
 40
1.0
 40
1.0
 40
1.0
 10
13.1644043529
 20
12.4890535615
 30
0.0
 10
13.1653944837
 20
12.4870358869
 30
0.0
 10
13.1678290135
 20
12.4830087422
 30
0.0
 10
13.17246694
 20
12.4773456142
 30
0.0
 10
13.1781437406
 20
12.4719211943
 30
0.0
 10
13.1824314134
 20
12.4686220972
 30
0.0
 10
13.1847129763
 20
12.4670304433
 30
0.0
  0
SPLINE
  5
590
100
AcDbEntity
  8
0
100
AcDbSpline
 62
7
  6
CONTINUOUS
 70
0
 71
3
 72
13
 73
9
 74
0
 42
0.0000001
 43
0.0000001
 44
0.0000000001
 40
0.0
 40
0.0
 40
0.0
 40
0.0
 40
0.1164894056
 40
0.233885119
 40
0.3530507903
 40
0.4747963609
 40
0.7286147955
 40
1.0
 40
1.0
 40
1.0
 40
1.0
 10
13.1621366529
 20
12.5085398725
 30
0.0
 10
13.1619063536
 20
12.5077947368
 30
0.0
 10
13.1615249684
 20
12.5062722684
 30
0.0
 10
13.1611994452
 20
12.5039268096
 30
0.0
 10
13.1611201944
 20
12.5015247913
 30
0.0
 10
13.1613465332
 20
12.4982153111
 30
0.0
 10
13.1622759527
 20
12.493958283
 30
0.0
 10
13.163603903
 20
12.4906847068
 30
0.0
 10
13.1644043529
 20
12.4890535615
 30
0.0
  0
SPLINE
  5
591
100
AcDbEntity
  8
0
100
AcDbSpline
 62
7
  6
CONTINUOUS
 70
0
 71
3
 72
17
 73
13
 74
0
 42
0.0000001
 43
0.0000001
 44
0.0000000001
 40
0.0
 40
0.0
 40
0.0
 40
0.0
 40
0.0496761484
 40
0.0998072904
 40
0.1508303056
 40
0.2031415334
 40
0.3128338176
 40
0.4310931029
 40
0.5590228053
 40
0.6968608288
 40
0.8441957182
 40
1.0
 40
1.0
 40
1.0
 40
1.0
 10
13.1667359131
 20
12.5234230838
 30
0.0
 10
13.1669862551
 20
12.5242330678
 30
0.0
 10
13.1675858518
 20
12.5258323313
 30
0.0
 10
13.168766458
 20
12.5281258328
 30
0.0
 10
13.1702249657
 20
12.5303079802
 30
0.0
 10
13.1725646022
 20
12.5330986877
 30
0.0
 10
13.176196914
 20
12.5362611053
 30
0.0
 10
13.1814352326
 20
12.5393861585
 30
0.0
 10
13.1875265335
 20
12.5418629665
 30
0.0
 10
13.1943627681
 20
12.5436549953
 30
0.0
 10
13.2018244064
 20
12.5447347002
 30
0.0
 10
13.2070018715
 20
12.5449630307
 30
0.0
 10
13.2096608754
 20
12.5449630307
 30
0.0
  0
SPLINE
  5
592
100
AcDbEntity
  8
0
100
AcDbSpline
 62
7
  6
CONTINUOUS
 70
0
 71
3
 72
23
 73
19
 74
0
 42
0.0000001
 43
0.0000001
 44
0.0000000001
 40
0.0
 40
0.0
 40
0.0
 40
0.0
 40
0.0425659826
 40
0.0869679526
 40
0.1346872083
 40
0.1866631601
 40
0.2432980566
 40
0.3045398326
 40
0.3699811028
 40
0.4389531953
 40
0.5105953918
 40
0.5839132787
 40
0.6578378223
 40
0.7312724312
 40
0.8031394058
 40
0.8724400237
 40
0.9382930865
 40
1.0
 40
1.0
 40
1.0
 40
1.0
 10
13.1855697588
 20
12.4017425627
 30
0.0
 10
13.1857383538
 20
12.4022879361
 30
0.0
 10
13.1862328964
 20
12.4033612242
 30
0.0
 10
13.1873858501
 20
12.4047727391
 30
0.0
 10
13.1889181172
 20
12.4059724204
 30
0.0
 10
13.1907896237
 20
12.4069395355
 30
0.0
 10
13.1929590966
 20
12.4076590579
 30
0.0
 10
13.195380487
 20
12.4081184942
 30
0.0
 10
13.1980024607
 20
12.4083096838
 30
0.0
 10
13.2007689746
 20
12.4082290034
 30
0.0
 10
13.2036203375
 20
12.4078781887
 30
0.0
 10
13.206494686
 20
12.4072650405
 30
0.0
 10
13.209329479
 20
12.406402989
 30
0.0
 10
13.2120629057
 20
12.4053106887
 30
0.0
 10
13.2146354363
 20
12.4040119375
 30
0.0
 10
13.2169913059
 20
12.4025347626
 30
0.0
 10
13.21907925
 20
12.400911653
 30
0.0
 10
13.2203060983
 20
12.3997121778
 30
0.0
 10
13.2208573117
 20
12.3990949489
 30
0.0
  0
SPLINE
  5
593
100
AcDbEntity
  8
0
100
AcDbSpline
 62
7
  6
CONTINUOUS
 70
0
 71
3
 72
18
 73
14
 74
0
 42
0.0000001
 43
0.0000001
 44
0.0000000001
 40
0.0
 40
0.0
 40
0.0
 40
0.0
 40
0.0487594476
 40
0.1001462795
 40
0.1541391434
 40
0.2106866526
 40
0.2696654481
 40
0.3308835228
 40
0.4589944829
 40
0.5927631934
 40
0.7294643348
 40
0.8661816662
 40
1.0
 40
1.0
 40
1.0
 40
1.0
 10
13.1355984604
 20
12.3958376593
 30
0.0
 10
13.1362152733
 20
12.3945807267
 30
0.0
 10
13.1376246841
 20
12.3920673401
 30
0.0
 10
13.1401523103
 20
12.3884270495
 30
0.0
 10
13.1431288656
 20
12.3848478918
 30
0.0
 10
13.1465291715
 20
12.3813583971
 30
0.0
 10
13.1503265264
 20
12.3779849875
 30
0.0
 10
13.1559640221
 20
12.3736124249
 30
0.0
 10
13.1638169269
 20
12.3686276761
 30
0.0
 10
13.1741166481
 20
12.3635896108
 30
0.0
 10
13.1851155349
 20
12.3595613853
 30
0.0
 10
13.1964659235
 20
12.3566702156
 30
0.0
 10
13.2041697561
 20
12.3555404905
 30
0.0
 10
13.2079971109
 20
12.3551988296
 30
0.0
  0
SPLINE
  5
594
100
AcDbEntity
  8
0
100
AcDbSpline
 62
7
  6
CONTINUOUS
 70
0
 71
3
 72
17
 73
13
 74
0
 42
0.0000001
 43
0.0000001
 44
0.0000000001
 40
0.0
 40
0.0
 40
0.0
 40
0.0
 40
0.0496761484
 40
0.0998072904
 40
0.1508303056
 40
0.2031415334
 40
0.3128338176
 40
0.4310931029
 40
0.5590228053
 40
0.6968608288
 40
0.8441957182
 40
1.0
 40
1.0
 40
1.0
 40
1.0
 10
13.1379300206
 20
12.4302071815
 30
0.0
 10
13.1381803626
 20
12.4310171656
 30
0.0
 10
13.1387799593
 20
12.432616429
 30
0.0
 10
13.1399605655
 20
12.4349099306
 30
0.0
 10
13.1414190732
 20
12.437092078
 30
0.0
 10
13.1437587097
 20
12.4398827854
 30
0.0
 10
13.1473910215
 20
12.443045203
 30
0.0
 10
13.1526293401
 20
12.4461702562
 30
0.0
 10
13.158720641
 20
12.4486470643
 30
0.0
 10
13.1655568756
 20
12.450439093
 30
0.0
 10
13.1730185139
 20
12.4515187979
 30
0.0
 10
13.178195979
 20
12.4517471284
 30
0.0
 10
13.1808549829
 20
12.4517471284
 30
0.0
  0
SPLINE
  5
595
100
AcDbEntity
  8
0
100
AcDbSpline
 62
7
  6
CONTINUOUS
 70
0
 71
3
 72
13
 73
9
 74
0
 42
0.0000001
 43
0.0000001
 44
0.0000000001
 40
0.0
 40
0.0
 40
0.0
 40
0.0
 40
0.1164894056
 40
0.233885119
 40
0.3530507903
 40
0.4747963609
 40
0.7286147955
 40
1.0
 40
1.0
 40
1.0
 40
1.0
 10
13.1333307604
 20
12.4153239702
 30
0.0
 10
13.1331004611
 20
12.4145788346
 30
0.0
 10
13.1327190759
 20
12.4130563661
 30
0.0
 10
13.1323935528
 20
12.4107109074
 30
0.0
 10
13.1323143019
 20
12.408308889
 30
0.0
 10
13.1325406407
 20
12.4049994088
 30
0.0
 10
13.1334700602
 20
12.4007423807
 30
0.0
 10
13.1347980105
 20
12.3974688046
 30
0.0
 10
13.1355984604
 20
12.3958376593
 30
0.0
  0
SPLINE
  5
596
100
AcDbEntity
  8
0
100
AcDbSpline
 62
7
  6
CONTINUOUS
 70
0
 71
3
 72
17
 73
13
 74
0
 42
0.0000001
 43
0.0000001
 44
0.0000000001
 40
0.0
 40
0.0
 40
0.0
 40
0.0
 40
0.1558042818
 40
0.3031391712
 40
0.4409771947
 40
0.5689068971
 40
0.6871661824
 40
0.7968584666
 40
0.8491696944
 40
0.9001927096
 40
0.9503238516
 40
1.0
 40
1.0
 40
1.0
 40
1.0
 10
13.2050616153
 20
12.5300798194
 30
0.0
 10
13.2024026114
 20
12.5300798194
 30
0.0
 10
13.1972251463
 20
12.5298514889
 30
0.0
 10
13.1897635079
 20
12.528771784
 30
0.0
 10
13.1829272733
 20
12.5269797553
 30
0.0
 10
13.1768359725
 20
12.5245029472
 30
0.0
 10
13.1715976539
 20
12.521377894
 30
0.0
 10
13.1679653421
 20
12.5182154764
 30
0.0
 10
13.1656257055
 20
12.5154247689
 30
0.0
 10
13.1641671978
 20
12.5132426215
 30
0.0
 10
13.1629865916
 20
12.51094912
 30
0.0
 10
13.1623869949
 20
12.5093498565
 30
0.0
 10
13.1621366529
 20
12.5085398725
 30
0.0
  0
SPLINE
  5
597
100
AcDbEntity
  8
0
100
AcDbSpline
 62
7
  6
CONTINUOUS
 70
0
 71
3
 72
19
 73
15
 74
0
 42
0.0000001
 43
0.0000001
 44
0.0000000001
 40
0.0
 40
0.0
 40
0.0
 40
0.0
 40
0.0568386368
 40
0.1168881882
 40
0.1797941399
 40
0.2450902288
 40
0.380552415
 40
0.5184710753
 40
0.6536567232
 40
0.7812443233
 40
0.8409611412
 40
0.8974404544
 40
0.9504894776
 40
1.0
 40
1.0
 40
1.0
 40
1.0
 10
13.2164269128
 20
12.3840783879
 30
0.0
 10
13.2157966522
 20
12.3839137129
 30
0.0
 10
13.2144812483
 20
12.3836461485
 30
0.0
 10
13.2124298153
 20
12.3834268869
 30
0.0
 10
13.2102702459
 20
12.3833813991
 30
0.0
 10
13.207250906
 20
12.383554837
 30
0.0
 10
13.2034103324
 20
12.3842074463
 30
0.0
 10
13.1989284342
 20
12.3856100995
 30
0.0
 10
13.1947579756
 20
12.3875662687
 30
0.0
 10
13.1916610106
 20
12.3896151601
 30
0.0
 10
13.1895493241
 20
12.3914498848
 30
0.0
 10
13.1882108208
 20
12.3928585396
 30
0.0
 10
13.1871026323
 20
12.3943102844
 30
0.0
 10
13.1865067932
 20
12.3953282574
 30
0.0
 10
13.1862568151
 20
12.3958376593
 30
0.0
  0
SPLINE
  5
598
100
AcDbEntity
  8
0
100
AcDbSpline
 62
7
  6
CONTINUOUS
 70
0
 71
3
 72
11
 73
7
 74
0
 42
0.0000001
 43
0.0000001
 44
0.0000000001
 40
0.0
 40
0.0
 40
0.0
 40
0.0
 40
0.2714642701
 40
0.5255562696
 40
0.7663250786
 40
1.0
 40
1.0
 40
1.0
 40
1.0
 10
13.1862568151
 20
12.3958376593
 30
0.0
 10
13.1860143408
 20
12.3963317698
 30
0.0
 10
13.1856122021
 20
12.3973240865
 30
0.0
 10
13.1852782997
 20
12.3988501405
 30
0.0
 10
13.185246034
 20
12.400336715
 30
0.0
 10
13.1854298295
 20
12.4012899177
 30
0.0
 10
13.1855697588
 20
12.4017425627
 30
0.0
  0
SPLINE
  5
599
100
AcDbEntity
  8
0
100
AcDbSpline
 62
7
  6
CONTINUOUS
 70
0
 71
3
 72
22
 73
18
 74
0
 42
0.0000001
 43
0.0000001
 44
0.0000000001
 40
0.0
 40
0.0
 40
0.0
 40
0.0
 40
0.0429996057
 40
0.0872391616
 40
0.1337948516
 40
0.1834686478
 40
0.2367583329
 40
0.2938808501
 40
0.3548118176
 40
0.4193273052
 40
0.487048555
 40
0.5574748515
 40
0.630010404
 40
0.7039936014
 40
0.7787193655
 40
0.8534596308
 40
1.0
 40
1.0
 40
1.0
 40
1.0
 10
13.1952671523
 20
12.5008634385
 30
0.0
 10
13.195539828
 20
12.5017461248
 30
0.0
 10
13.1962872
 20
12.5034828571
 30
0.0
 10
13.1979520752
 20
12.5058483127
 30
0.0
 10
13.2001346601
 20
12.507956225
 30
0.0
 10
13.2027962973
 20
12.5097780119
 30
0.0
 10
13.20589578
 20
12.5112930278
 30
0.0
 10
13.2093883769
 20
12.5124831057
 30
0.0
 10
13.2132247563
 20
12.5133333767
 30
0.0
 10
13.2173506689
 20
12.5138332194
 30
0.0
 10
13.2217076333
 20
12.5139760687
 30
0.0
 10
13.2262335227
 20
12.5137599003
 30
0.0
 10
13.2308635823
 20
12.5131880753
 30
0.0
 10
13.2355311862
 20
12.5122689618
 30
0.0
 10
13.240169821
 20
12.5110154092
 30
0.0
 10
13.2461834148
 20
12.5089370288
 30
0.0
 10
13.2505132851
 20
12.5069220043
 30
0.0
 10
13.2532585127
 20
12.5053805075
 30
0.0
  0
SPLINE
  5
59A
100
AcDbEntity
  8
0
100
AcDbSpline
 62
7
  6
CONTINUOUS
 70
0
 71
3
 72
17
 73
13
 74
0
 42
0.0000001
 43
0.0000001
 44
0.0000000001
 40
0.0
 40
0.0
 40
0.0
 40
0.0
 40
0.1558042818
 40
0.3031391712
 40
0.4409771947
 40
0.5689068971
 40
0.6871661824
 40
0.7968584666
 40
0.8491696944
 40
0.9001927096
 40
0.9503238516
 40
1.0
 40
1.0
 40
1.0
 40
1.0
 10
13.1762557228
 20
12.4368639172
 30
0.0
 10
13.1735967189
 20
12.4368639172
 30
0.0
 10
13.1684192538
 20
12.4366355867
 30
0.0
 10
13.1609576154
 20
12.4355558817
 30
0.0
 10
13.1541213809
 20
12.433763853
 30
0.0
 10
13.14803008
 20
12.4312870449
 30
0.0
 10
13.1427917614
 20
12.4281619917
 30
0.0
 10
13.1391594496
 20
12.4249995742
 30
0.0
 10
13.136819813
 20
12.4222088667
 30
0.0
 10
13.1353613053
 20
12.4200267193
 30
0.0
 10
13.1341806992
 20
12.4177332177
 30
0.0
 10
13.1335811025
 20
12.4161339543
 30
0.0
 10
13.1333307604
 20
12.4153239702
 30
0.0
  0
SPLINE
  5
59B
100
AcDbEntity
  8
0
100
AcDbSpline
 62
7
  6
CONTINUOUS
 70
0
 71
3
 72
17
 73
13
 74
0
 42
0.0000001
 43
0.0000001
 44
0.0000000001
 40
0.0
 40
0.0
 40
0.0
 40
0.0
 40
0.1556234261
 40
0.302726334
 40
0.4403708576
 40
0.5681869616
 40
0.6864505832
 40
0.7962803485
 40
0.8487059036
 40
0.8998682743
 40
0.9501568868
 40
1.0
 40
1.0
 40
1.0
 40
1.0
 10
17.8219572416
 20
12.4480308764
 30
0.0
 10
17.8245716538
 20
12.4480543005
 30
0.0
 10
17.8296592635
 20
12.4483232178
 30
0.0
 10
17.8369850996
 20
12.4494472586
 30
0.0
 10
17.8436911232
 20
12.4512644881
 30
0.0
 10
17.8496631897
 20
12.4537479286
 30
0.0
 10
17.8547976337
 20
12.4568616381
 30
0.0
 10
17.858357209
 20
12.4599989288
 30
0.0
 10
17.8606518907
 20
12.4627616223
 30
0.0
 10
17.8620840133
 20
12.4649203591
 30
0.0
 10
17.8632448706
 20
12.4671874356
 30
0.0
 10
17.8638358542
 20
12.4687672124
 30
0.0
 10
17.8640831222
 20
12.4695672505
 30
0.0
  0
SPLINE
  5
59C
100
AcDbEntity
  8
0
100
AcDbSpline
 62
7
  6
CONTINUOUS
 70
0
 71
3
 72
13
 73
9
 74
0
 42
0.0000001
 43
0.0000001
 44
0.0000000001
 40
0.0
 40
0.0
 40
0.0
 40
0.0
 40
0.2713852045
 40
0.5252036391
 40
0.6469492097
 40
0.766114881
 40
0.8835105944
 40
1.0
 40
1.0
 40
1.0
 40
1.0
 10
17.8376087899
 20
12.4107208705
 30
0.0
 10
17.8384092398
 20
12.4090897252
 30
0.0
 10
17.8397371901
 20
12.4058161491
 30
0.0
 10
17.8406666096
 20
12.401559121
 30
0.0
 10
17.8408929484
 20
12.3982496408
 30
0.0
 10
17.8408136976
 20
12.3958476224
 30
0.0
 10
17.8404881744
 20
12.3935021637
 30
0.0
 10
17.8401067892
 20
12.3919796952
 30
0.0
 10
17.8398764899
 20
12.3912345595
 30
0.0
  0
SPLINE
  5
59D
100
AcDbEntity
  8
0
100
AcDbSpline
 62
7
  6
CONTINUOUS
 70
0
 71
3
 72
21
 73
17
 74
0
 42
0.0000001
 43
0.0000001
 44
0.0000000001
 40
0.0
 40
0.0
 40
0.0
 40
0.0
 40
0.0639736353
 40
0.1296722166
 40
0.26447793
 40
0.4011212393
 40
0.4690546431
 40
0.5361320345
 40
0.6019358061
 40
0.6660755937
 40
0.7281967693
 40
0.7879900555
 40
0.8452015775
 40
0.8996514347
 40
0.9512608069
 40
1.0
 40
1.0
 40
1.0
 40
1.0
 10
17.7566860011
 20
12.4517471284
 30
0.0
 10
17.7587051462
 20
12.4517471284
 30
0.0
 10
17.7627990161
 20
12.4516095318
 30
0.0
 10
17.7711124064
 20
12.4508106056
 30
0.0
 10
17.7815959595
 20
12.448843218
 30
0.0
 10
17.7918599688
 20
12.4456975991
 30
0.0
 10
17.799820207
 20
12.4425015062
 30
0.0
 10
17.8055600264
 20
12.4398045115
 30
0.0
 10
17.8110246472
 20
12.4368290596
 30
0.0
 10
17.8161622621
 20
12.4336038071
 30
0.0
 10
17.8209237848
 20
12.430159322
 30
0.0
 10
17.8252636122
 20
12.4265280122
 30
0.0
 10
17.829140829
 20
12.4227447444
 30
0.0
 10
17.8325186426
 20
12.4188439197
 30
0.0
 10
17.8353633961
 20
12.414862778
 30
0.0
 10
17.8369310972
 20
12.4121018632
 30
0.0
 10
17.8376087899
 20
12.4107208705
 30
0.0
  0
SPLINE
  5
59E
100
AcDbEntity
  8
0
100
AcDbSpline
 62
7
  6
CONTINUOUS
 70
0
 71
3
 72
24
 73
20
 74
0
 42
0.0000001
 43
0.0000001
 44
0.0000000001
 40
0.0
 40
0.0
 40
0.0
 40
0.0
 40
0.0214630151
 40
0.043221698
 40
0.0886040429
 40
0.1380002607
 40
0.1923904081
 40
0.2520415852
 40
0.3166556345
 40
0.385514906
 40
0.457601904
 40
0.5316993544
 40
0.6064763699
 40
0.6805636896
 40
0.7526290361
 40
0.8214605721
 40
0.8860341055
 40
0.9456589759
 40
1.0
 40
1.0
 40
1.0
 40
1.0
 10
17.7448216791
 20
12.4017425627
 30
0.0
 10
17.7449150563
 20
12.4020446205
 30
0.0
 10
17.7451476083
 20
12.4026401679
 30
0.0
 10
17.7457926825
 20
12.403779101
 30
0.0
 10
17.7469456623
 20
12.4050796384
 30
0.0
 10
17.7487647034
 20
12.4063412588
 30
0.0
 10
17.750983317
 20
12.4073082488
 30
0.0
 10
17.7535423478
 20
12.407961476
 30
0.0
 10
17.7563758814
 20
12.4082878803
 30
0.0
 10
17.7594100517
 20
12.4082800047
 30
0.0
 10
17.7625647264
 20
12.4079385378
 30
0.0
 10
17.7657558691
 20
12.4072727588
 30
0.0
 10
17.7688980791
 20
12.40630049
 30
0.0
 10
17.7719071228
 20
12.4050478
 30
0.0
 10
17.7747025048
 20
12.4035481134
 30
0.0
 10
17.7772094062
 20
12.4018413022
 30
0.0
 10
17.7793622351
 20
12.3999719847
 30
0.0
 10
17.7811025661
 20
12.3979887452
 30
0.0
 10
17.7819985329
 20
12.3965562685
 30
0.0
 10
17.7823511751
 20
12.3958376593
 30
0.0
  0
SPLINE
  5
59F
100
AcDbEntity
  8
0
100
AcDbSpline
 62
7
  6
CONTINUOUS
 70
0
 71
3
 72
17
 73
13
 74
0
 42
0.0000001
 43
0.0000001
 44
0.0000000001
 40
0.0
 40
0.0
 40
0.0
 40
0.0
 40
0.1558042818
 40
0.3031391712
 40
0.4409771947
 40
0.5689068971
 40
0.6871661824
 40
0.7968584666
 40
0.8491696944
 40
0.9001927096
 40
0.9503238516
 40
1.0
 40
1.0
 40
1.0
 40
1.0
 10
17.7923522674
 20
12.3548114013
 30
0.0
 10
17.7950112713
 20
12.3548114013
 30
0.0
 10
17.8001887364
 20
12.3550397318
 30
0.0
 10
17.8076503748
 20
12.3561194368
 30
0.0
 10
17.8144866093
 20
12.3579114655
 30
0.0
 10
17.8205779102
 20
12.3603882736
 30
0.0
 10
17.8258162288
 20
12.3635133268
 30
0.0
 10
17.8294485406
 20
12.3666757443
 30
0.0
 10
17.8317881771
 20
12.3694664518
 30
0.0
 10
17.8332466848
 20
12.3716485992
 30
0.0
 10
17.834427291
 20
12.3739421008
 30
0.0
 10
17.8350268877
 20
12.3755413642
 30
0.0
 10
17.8352772297
 20
12.3763513483
 30
0.0
  0
SPLINE
  5
5A0
100
AcDbEntity
  8
0
100
AcDbSpline
 62
7
  6
CONTINUOUS
 70
0
 71
3
 72
11
 73
7
 74
0
 42
0.0000001
 43
0.0000001
 44
0.0000000001
 40
0.0
 40
0.0
 40
0.0
 40
0.0
 40
0.2714642701
 40
0.5255562696
 40
0.7663250786
 40
1.0
 40
1.0
 40
1.0
 40
1.0
 10
17.7823511751
 20
12.3958376593
 30
0.0
 10
17.7825936494
 20
12.3953435487
 30
0.0
 10
17.782995788
 20
12.394351232
 30
0.0
 10
17.7833296904
 20
12.392825178
 30
0.0
 10
17.7833619561
 20
12.3913386035
 30
0.0
 10
17.7831781607
 20
12.3903854008
 30
0.0
 10
17.7830382314
 20
12.3899327558
 30
0.0
  0
SPLINE
  5
5A1
100
AcDbEntity
  8
0
100
AcDbSpline
 62
7
  6
CONTINUOUS
 70
0
 71
3
 72
13
 73
9
 74
0
 42
0.0000001
 43
0.0000001
 44
0.0000000001
 40
0.0
 40
0.0
 40
0.0
 40
0.0
 40
0.2713852045
 40
0.5252036391
 40
0.6469492097
 40
0.766114881
 40
0.8835105944
 40
1.0
 40
1.0
 40
1.0
 40
1.0
 10
17.8664146824
 20
12.5039367728
 30
0.0
 10
17.8672151323
 20
12.5023056274
 30
0.0
 10
17.8685430826
 20
12.4990320513
 30
0.0
 10
17.8694725021
 20
12.4947750232
 30
0.0
 10
17.8696988409
 20
12.491465543
 30
0.0
 10
17.86961959
 20
12.4890635246
 30
0.0
 10
17.8692940669
 20
12.4867180659
 30
0.0
 10
17.8689126817
 20
12.4851955974
 30
0.0
 10
17.8686823824
 20
12.4844504618
 30
0.0
  0
SPLINE
  5
5A2
100
AcDbEntity
  8
0
100
AcDbSpline
 62
7
  6
CONTINUOUS
 70
0
 71
3
 72
21
 73
17
 74
0
 42
0.0000001
 43
0.0000001
 44
0.0000000001
 40
0.0
 40
0.0
 40
0.0
 40
0.0
 40
0.0639736353
 40
0.1296722166
 40
0.26447793
 40
0.4011212393
 40
0.4690546431
 40
0.5361320345
 40
0.6019358061
 40
0.6660755937
 40
0.7281967693
 40
0.7879900555
 40
0.8452015775
 40
0.8996514347
 40
0.9512608069
 40
1.0
 40
1.0
 40
1.0
 40
1.0
 10
17.7854918936
 20
12.5449630307
 30
0.0
 10
17.7875110387
 20
12.5449630307
 30
0.0
 10
17.7916049086
 20
12.5448254341
 30
0.0
 10
17.7999182988
 20
12.5440265078
 30
0.0
 10
17.810401852
 20
12.5420591203
 30
0.0
 10
17.8206658613
 20
12.5389135014
 30
0.0
 10
17.8286260995
 20
12.5357174085
 30
0.0
 10
17.8343659189
 20
12.5330204138
 30
0.0
 10
17.8398305397
 20
12.5300449619
 30
0.0
 10
17.8449681546
 20
12.5268197094
 30
0.0
 10
17.8497296773
 20
12.5233752243
 30
0.0
 10
17.8540695047
 20
12.5197439144
 30
0.0
 10
17.8579467215
 20
12.5159606466
 30
0.0
 10
17.861324535
 20
12.5120598219
 30
0.0
 10
17.8641692885
 20
12.5080786802
 30
0.0
 10
17.8657369897
 20
12.5053177654
 30
0.0
 10
17.8664146824
 20
12.5039367728
 30
0.0
  0
SPLINE
  5
5A3
100
AcDbEntity
  8
0
100
AcDbSpline
 62
7
  6
CONTINUOUS
 70
0
 71
3
 72
21
 73
17
 74
0
 42
0.0000001
 43
0.0000001
 44
0.0000000001
 40
0.0
 40
0.0
 40
0.0
 40
0.0
 40
0.0487391931
 40
0.1003485653
 40
0.1547984225
 40
0.2120099445
 40
0.2718032307
 40
0.3339244063
 40
0.3980641939
 40
0.4638679655
 40
0.5309453569
 40
0.5988787607
 40
0.73552207
 40
0.8703277834
 40
0.9360263647
 40
1.0
 40
1.0
 40
1.0
 40
1.0
 10
17.8330095298
 20
12.3958376593
 30
0.0
 10
17.832331837
 20
12.3972186519
 30
0.0
 10
17.8307641359
 20
12.3999795667
 30
0.0
 10
17.8279193824
 20
12.4039607084
 30
0.0
 10
17.8245415688
 20
12.4078615331
 30
0.0
 10
17.8206643521
 20
12.4116448009
 30
0.0
 10
17.8163245247
 20
12.4152761107
 30
0.0
 10
17.811563002
 20
12.4187205958
 30
0.0
 10
17.8064253871
 20
12.4219458483
 30
0.0
 10
17.8009607662
 20
12.4249213002
 30
0.0
 10
17.7952209469
 20
12.427618295
 30
0.0
 10
17.7872607087
 20
12.4308143879
 30
0.0
 10
17.7769966993
 20
12.4339600068
 30
0.0
 10
17.7665131462
 20
12.4359273943
 30
0.0
 10
17.758199756
 20
12.4367263205
 30
0.0
 10
17.7541058861
 20
12.4368639172
 30
0.0
 10
17.752086741
 20
12.4368639172
 30
0.0
  0
SPLINE
  5
5A4
100
AcDbEntity
  8
0
100
AcDbSpline
 62
7
  6
CONTINUOUS
 70
0
 71
3
 72
11
 73
7
 74
0
 42
0.0000001
 43
0.0000001
 44
0.0000000001
 40
0.0
 40
0.0
 40
0.0
 40
0.0
 40
0.2715342055
 40
0.5255464147
 40
0.7663010748
 40
1.0
 40
1.0
 40
1.0
 40
1.0
 10
17.8295782875
 20
12.4890535615
 30
0.0
 10
17.8300633629
 20
12.4880650818
 30
0.0
 10
17.8308680365
 20
12.4860806105
 30
0.0
 10
17.831535142
 20
12.4830284269
 30
0.0
 10
17.8315998061
 20
12.4800555918
 30
0.0
 10
17.8312323286
 20
12.4781491278
 30
0.0
 10
17.8309526228
 20
12.4772436845
 30
0.0
  0
SPLINE
  5
5A5
100
AcDbEntity
  8
0
100
AcDbSpline
 62
7
  6
CONTINUOUS
 70
0
 71
3
 72
11
 73
7
 74
0
 42
0.0000001
 43
0.0000001
 44
0.0000000001
 40
0.0
 40
0.0
 40
0.0
 40
0.0
 40
0.2714642701
 40
0.5255562696
 40
0.7663250786
 40
1.0
 40
1.0
 40
1.0
 40
1.0
 10
17.7455087354
 20
12.3958376593
 30
0.0
 10
17.7452662611
 20
12.3963317698
 30
0.0
 10
17.7448641225
 20
12.3973240865
 30
0.0
 10
17.7445302201
 20
12.3988501405
 30
0.0
 10
17.7444979543
 20
12.400336715
 30
0.0
 10
17.7446817498
 20
12.4012899177
 30
0.0
 10
17.7448216791
 20
12.4017425627
 30
0.0
  0
SPLINE
  5
5A6
100
AcDbEntity
  8
0
100
AcDbSpline
 62
7
  6
CONTINUOUS
 70
0
 71
3
 72
13
 73
9
 74
0
 42
0.0000001
 43
0.0000001
 44
0.0000000001
 40
0.0
 40
0.0
 40
0.0
 40
0.0
 40
0.1164894056
 40
0.233885119
 40
0.3530507903
 40
0.4747963609
 40
0.7286147955
 40
1.0
 40
1.0
 40
1.0
 40
1.0
 10
17.8352772297
 20
12.3763513483
 30
0.0
 10
17.8355075291
 20
12.3770964839
 30
0.0
 10
17.8358889143
 20
12.3786189524
 30
0.0
 10
17.8362144374
 20
12.3809644111
 30
0.0
 10
17.8362936883
 20
12.3833664295
 30
0.0
 10
17.8360673495
 20
12.3866759097
 30
0.0
 10
17.8351379299
 20
12.3909329378
 30
0.0
 10
17.8338099797
 20
12.3942065139
 30
0.0
 10
17.8330095298
 20
12.3958376593
 30
0.0
  0
SPLINE
  5
5A7
100
AcDbEntity
  8
0
100
AcDbSpline
 62
7
  6
CONTINUOUS
 70
0
 71
3
 72
24
 73
20
 74
0
 42
0.0000001
 43
0.0000001
 44
0.0000000001
 40
0.0
 40
0.0
 40
0.0
 40
0.0
 40
0.0214630151
 40
0.043221698
 40
0.0886040429
 40
0.1380002607
 40
0.1923904081
 40
0.2520415852
 40
0.3166556345
 40
0.385514906
 40
0.457601904
 40
0.5316993544
 40
0.6064763699
 40
0.6805636896
 40
0.7526290361
 40
0.8214605721
 40
0.8860341055
 40
0.9456589759
 40
1.0
 40
1.0
 40
1.0
 40
1.0
 10
17.7830382314
 20
12.3899327558
 30
0.0
 10
17.7829448542
 20
12.389630698
 30
0.0
 10
17.7827123022
 20
12.3890351506
 30
0.0
 10
17.782067228
 20
12.3878962175
 30
0.0
 10
17.7809142481
 20
12.3865956801
 30
0.0
 10
17.779095207
 20
12.3853340597
 30
0.0
 10
17.7768765935
 20
12.3843670697
 30
0.0
 10
17.7743175627
 20
12.3837138425
 30
0.0
 10
17.7714840291
 20
12.3833874382
 30
0.0
 10
17.7684498588
 20
12.3833953138
 30
0.0
 10
17.7652951841
 20
12.3837367807
 30
0.0
 10
17.7621040414
 20
12.3844025597
 30
0.0
 10
17.7589618314
 20
12.3853748285
 30
0.0
 10
17.7559527877
 20
12.3866275185
 30
0.0
 10
17.7531574057
 20
12.3881272051
 30
0.0
 10
17.7506505043
 20
12.3898340163
 30
0.0
 10
17.7484976754
 20
12.3917033338
 30
0.0
 10
17.7467573443
 20
12.3936865733
 30
0.0
 10
17.7458613776
 20
12.39511905
 30
0.0
 10
17.7455087354
 20
12.3958376593
 30
0.0
  0
SPLINE
  5
5A8
100
AcDbEntity
  8
0
100
AcDbSpline
 62
7
  6
CONTINUOUS
 70
0
 71
3
 72
21
 73
17
 74
0
 42
0.0000001
 43
0.0000001
 44
0.0000000001
 40
0.0
 40
0.0
 40
0.0
 40
0.0
 40
0.0487391931
 40
0.1003485653
 40
0.1547984225
 40
0.2120099445
 40
0.2718032307
 40
0.3339244063
 40
0.3980641939
 40
0.4638679655
 40
0.5309453569
 40
0.5988787607
 40
0.73552207
 40
0.8703277834
 40
0.9360263647
 40
1.0
 40
1.0
 40
1.0
 40
1.0
 10
17.8618154223
 20
12.4890535615
 30
0.0
 10
17.8611377295
 20
12.4904345541
 30
0.0
 10
17.8595700284
 20
12.4931954689
 30
0.0
 10
17.8567252749
 20
12.4971766106
 30
0.0
 10
17.8533474613
 20
12.5010774354
 30
0.0
 10
17.8494702446
 20
12.5048607031
 30
0.0
 10
17.8451304171
 20
12.508492013
 30
0.0
 10
17.8403688944
 20
12.5119364981
 30
0.0
 10
17.8352312796
 20
12.5151617506
 30
0.0
 10
17.8297666587
 20
12.5181372025
 30
0.0
 10
17.8240268394
 20
12.5208341972
 30
0.0
 10
17.8160666012
 20
12.5240302901
 30
0.0
 10
17.8058025918
 20
12.527175909
 30
0.0
 10
17.7953190387
 20
12.5291432965
 30
0.0
 10
17.7870056485
 20
12.5299422228
 30
0.0
 10
17.7829117785
 20
12.5300798194
 30
0.0
 10
17.7808926335
 20
12.5300798194
 30
0.0
  0
SPLINE
  5
5A9
100
AcDbEntity
  8
0
100
AcDbSpline
 62
7
  6
CONTINUOUS
 70
0
 71
3
 72
13
 73
9
 74
0
 42
0.0000001
 43
0.0000001
 44
0.0000000001
 40
0.0
 40
0.0
 40
0.0
 40
0.0
 40
0.1164894056
 40
0.233885119
 40
0.3530507903
 40
0.4747963609
 40
0.7286147955
 40
1.0
 40
1.0
 40
1.0
 40
1.0
 10
17.8640831222
 20
12.4695672505
 30
0.0
 10
17.8643134215
 20
12.4703123862
 30
0.0
 10
17.8646948067
 20
12.4718348546
 30
0.0
 10
17.8650203299
 20
12.4741803133
 30
0.0
 10
17.8650995808
 20
12.4765823317
 30
0.0
 10
17.864873242
 20
12.4798918119
 30
0.0
 10
17.8639438224
 20
12.48414884
 30
0.0
 10
17.8626158722
 20
12.4874224162
 30
0.0
 10
17.8618154223
 20
12.4890535615
 30
0.0
  0
SPLINE
  5
5AA
100
AcDbEntity
  8
0
100
AcDbSpline
 62
7
  6
CONTINUOUS
 70
0
 71
3
 72
26
 73
22
 74
0
 42
0.0000001
 43
0.0000001
 44
0.0000000001
 40
0.0
 40
0.0
 40
0.0
 40
0.0
 40
0.0214589368
 40
0.0432136416
 40
0.0655413605
 40
0.0886835505
 40
0.112835585
 40
0.1381447129
 40
0.1925259435
 40
0.2521678763
 40
0.3167719164
 40
0.3856197999
 40
0.4576947326
 40
0.5317802359
 40
0.6065449326
 40
0.6806201315
 40
0.7526740774
 40
0.8214916978
 40
0.8860584762
 40
0.9456613842
 40
1.0
 40
1.0
 40
1.0
 40
1.0
 10
17.7545190726
 20
12.5008634385
 30
0.0
 10
17.754705701
 20
12.5014675785
 30
0.0
 10
17.7551709283
 20
12.5026585111
 30
0.0
 10
17.7561261266
 20
12.5043439531
 30
0.0
 10
17.7573333243
 20
12.5059219533
 30
0.0
 10
17.7587825095
 20
12.507381341
 30
0.0
 10
17.7604629111
 20
12.5087128925
 30
0.0
 10
17.7630571204
 20
12.5103449368
 30
0.0
 10
17.7668433939
 20
12.5119952376
 30
0.0
 10
17.7719605004
 20
12.5133011924
 30
0.0
 10
17.7776279462
 20
12.5139540113
 30
0.0
 10
17.7836962219
 20
12.513938206
 30
0.0
 10
17.7900056291
 20
12.5132553622
 30
0.0
 10
17.796387934
 20
12.5119237963
 30
0.0
 10
17.8026723739
 20
12.5099792028
 30
0.0
 10
17.8086904526
 20
12.50747369
 30
0.0
 10
17.8142811408
 20
12.5044742931
 30
0.0
 10
17.8192951888
 20
12.5010608634
 30
0.0
 10
17.8236003168
 20
12.4973220987
 30
0.0
 10
17.8270813195
 20
12.4933559597
 30
0.0
 10
17.8288729157
 20
12.490490958
 30
0.0
 10
17.8295782875
 20
12.4890535615
 30
0.0
  0
SPLINE
  5
5AB
100
AcDbEntity
  8
0
100
AcDbSpline
 62
7
  6
CONTINUOUS
 70
0
 71
3
 72
11
 73
7
 74
0
 42
0.0000001
 43
0.0000001
 44
0.0000000001
 40
0.0
 40
0.0
 40
0.0
 40
0.0
 40
0.2715342055
 40
0.5255464147
 40
0.7663010748
 40
1.0
 40
1.0
 40
1.0
 40
1.0
 10
17.6914191384
 20
12.4890535615
 30
0.0
 10
17.6919042137
 20
12.4880650818
 30
0.0
 10
17.6927088874
 20
12.4860806105
 30
0.0
 10
17.6933759929
 20
12.4830284269
 30
0.0
 10
17.693440657
 20
12.4800555918
 30
0.0
 10
17.6930731795
 20
12.4781491278
 30
0.0
 10
17.6927934737
 20
12.4772436845
 30
0.0
  0
SPLINE
  5
5AC
100
AcDbEntity
  8
0
100
AcDbSpline
 62
7
  6
CONTINUOUS
 70
0
 71
3
 72
11
 73
7
 74
0
 42
0.0000001
 43
0.0000001
 44
0.0000000001
 40
0.0
 40
0.0
 40
0.0
 40
0.0
 40
0.2702573472
 40
0.5272629353
 40
0.7705810923
 40
1.0
 40
1.0
 40
1.0
 40
1.0
 10
17.6836847976
 20
12.4988026185
 30
0.0
 10
17.68452664
 20
12.4980525517
 30
0.0
 10
17.6861142928
 20
12.4965259002
 30
0.0
 10
17.6882358072
 20
12.494104688
 30
0.0
 10
17.6900182996
 20
12.4916306605
 30
0.0
 10
17.6909974773
 20
12.4899128166
 30
0.0
 10
17.6914191384
 20
12.4890535615
 30
0.0
  0
SPLINE
  5
5AD
100
AcDbEntity
  8
0
100
AcDbSpline
 62
7
  6
CONTINUOUS
 70
0
 71
3
 72
10
 73
6
 74
0
 42
0.0000001
 43
0.0000001
 44
0.0000000001
 40
0.0
 40
0.0
 40
0.0
 40
0.0
 40
0.2399269254
 40
0.4845800302
 40
1.0
 40
1.0
 40
1.0
 40
1.0
 10
13.7649689049
 20
13.2773304987
 30
0.0
 10
13.7652781614
 20
13.2767003456
 30
0.0
 10
13.7657740802
 20
13.2753595357
 30
0.0
 10
13.7662282821
 20
13.272454726
 30
0.0
 10
13.7659256616
 20
13.2701908071
 30
0.0
 10
13.7655026889
 20
13.2687433897
 30
0.0
  0
SPLINE
  5
5AE
100
AcDbEntity
  8
0
100
AcDbSpline
 62
7
  6
CONTINUOUS
 70
0
 71
3
 72
11
 73
7
 74
0
 42
0.0000001
 43
0.0000001
 44
0.0000000001
 40
0.0
 40
0.0
 40
0.0
 40
0.0
 40
0.2268583284
 40
0.4649942974
 40
0.7221540857
 40
1.0
 40
1.0
 40
1.0
 40
1.0
 10
13.7552075651
 20
13.2972220176
 30
0.0
 10
13.7546896178
 20
13.2982774069
 30
0.0
 10
13.7532405601
 20
13.30026923
 30
0.0
 10
13.7501429126
 20
13.3024663417
 30
0.0
 10
13.7463186094
 20
13.3038008704
 30
0.0
 10
13.7435340446
 20
13.304077662
 30
0.0
 10
13.7420941805
 20
13.304077662
 30
0.0
  0
SPLINE
  5
5AF
100
AcDbEntity
  8
0
100
AcDbSpline
 62
7
  6
CONTINUOUS
 70
0
 71
3
 72
11
 73
7
 74
0
 42
0.0000001
 43
0.0000001
 44
0.0000000001
 40
0.0
 40
0.0
 40
0.0
 40
0.0
 40
0.2778459143
 40
0.5350057026
 40
0.7731416716
 40
1.0
 40
1.0
 40
1.0
 40
1.0
 10
13.0553562835
 20
11.7175323238
 30
0.0
 10
13.0539164193
 20
11.7175323238
 30
0.0
 10
13.0511318546
 20
11.7178091155
 30
0.0
 10
13.0473075513
 20
11.7191436441
 30
0.0
 10
13.0442099038
 20
11.7213407558
 30
0.0
 10
13.0427608461
 20
11.7233325789
 30
0.0
 10
13.0422428988
 20
11.7243879682
 30
0.0
  0
SPLINE
  5
5B0
100
AcDbEntity
  8
0
100
AcDbSpline
 62
7
  6
CONTINUOUS
 70
0
 71
3
 72
11
 73
7
 74
0
 42
0.0000001
 43
0.0000001
 44
0.0000000001
 40
0.0
 40
0.0
 40
0.0
 40
0.0
 40
0.2305394221
 40
0.4845589157
 40
0.7471703859
 40
1.0
 40
1.0
 40
1.0
 40
1.0
 10
13.2909143856
 20
11.7329750771
 30
0.0
 10
13.2902134406
 20
11.7308237577
 30
0.0
 10
13.2877463271
 20
11.7266108895
 30
0.0
 10
13.2821703141
 20
11.7217027675
 30
0.0
 10
13.2752823348
 20
11.7183941729
 30
0.0
 10
13.2702042717
 20
11.7175323238
 30
0.0
 10
13.2677228734
 20
11.7175323238
 30
0.0
  0
SPLINE
  5
5B1
100
AcDbEntity
  8
0
100
AcDbSpline
 62
7
  6
CONTINUOUS
 70
0
 71
3
 72
10
 73
6
 74
0
 42
0.0000001
 43
0.0000001
 44
0.0000000001
 40
0.0
 40
0.0
 40
0.0
 40
0.0
 40
0.5154199698
 40
0.7600730746
 40
1.0
 40
1.0
 40
1.0
 40
1.0
 10
13.031947775
 20
11.7528665961
 30
0.0
 10
13.0315248023
 20
11.7514191787
 30
0.0
 10
13.0312221819
 20
11.7491552599
 30
0.0
 10
13.0316763838
 20
11.7462504501
 30
0.0
 10
13.0321723025
 20
11.7449096403
 30
0.0
 10
13.0324815591
 20
11.7442794872
 30
0.0
  0
SPLINE
  5
5B2
100
AcDbEntity
  8
0
100
AcDbSpline
 62
7
  6
CONTINUOUS
 70
0
 71
3
 72
11
 73
7
 74
0
 42
0.0000001
 43
0.0000001
 44
0.0000000001
 40
0.0
 40
0.0
 40
0.0
 40
0.0
 40
0.2528296141
 40
0.5154410843
 40
0.7694605779
 40
1.0
 40
1.0
 40
1.0
 40
1.0
 10
13.5297275905
 20
13.304077662
 30
0.0
 10
13.5272461922
 20
13.304077662
 30
0.0
 10
13.5221681291
 20
13.3032158129
 30
0.0
 10
13.5152801499
 20
13.2999072183
 30
0.0
 10
13.5097041369
 20
13.2949990963
 30
0.0
 10
13.5072370234
 20
13.2907862281
 30
0.0
 10
13.5065360784
 20
13.2886349087
 30
0.0
  0
SPLINE
  5
5B3
100
AcDbEntity
  8
0
100
AcDbSpline
 62
7
  6
CONTINUOUS
 70
0
 71
3
 72
11
 73
7
 74
0
 42
0.0000001
 43
0.0000001
 44
0.0000000001
 40
0.0
 40
0.0
 40
0.0
 40
0.0
 40
0.2268583284
 40
0.4649942974
 40
0.7221540857
 40
1.0
 40
1.0
 40
1.0
 40
1.0
 10
13.0324815591
 20
11.7442794872
 30
0.0
 10
13.0329995064
 20
11.7432240979
 30
0.0
 10
13.0344485641
 20
11.7412322748
 30
0.0
 10
13.0375462116
 20
11.7390351631
 30
0.0
 10
13.0413705148
 20
11.7377006344
 30
0.0
 10
13.0441550796
 20
11.7374238428
 30
0.0
 10
13.0455949437
 20
11.7374238428
 30
0.0
  0
SPLINE
  5
5B4
100
AcDbEntity
  8
0
100
AcDbSpline
 62
7
  6
CONTINUOUS
 70
0
 71
3
 72
10
 73
6
 74
0
 42
0.0000001
 43
0.0000001
 44
0.0000000001
 40
0.0
 40
0.0
 40
0.0
 40
0.0
 40
0.5154199698
 40
0.7600730746
 40
1.0
 40
1.0
 40
1.0
 40
1.0
 10
13.7557413492
 20
13.2886349087
 30
0.0
 10
13.7561643219
 20
13.2900823261
 30
0.0
 10
13.7564669423
 20
13.2923462449
 30
0.0
 10
13.7560127404
 20
13.2952510547
 30
0.0
 10
13.7555168217
 20
13.2965918645
 30
0.0
 10
13.7552075651
 20
13.2972220176
 30
0.0
  0
SPLINE
  5
5B5
100
AcDbEntity
  8
0
100
AcDbSpline
 62
7
  6
CONTINUOUS
 70
0
 71
3
 72
11
 73
7
 74
0
 42
0.0000001
 43
0.0000001
 44
0.0000000001
 40
0.0
 40
0.0
 40
0.0
 40
0.0
 40
0.2528296141
 40
0.5154410843
 40
0.7694605779
 40
1.0
 40
1.0
 40
1.0
 40
1.0
 10
13.2579615337
 20
11.7374238428
 30
0.0
 10
13.260442932
 20
11.7374238428
 30
0.0
 10
13.2655209951
 20
11.7382856919
 30
0.0
 10
13.2724089743
 20
11.7415942865
 30
0.0
 10
13.2779849873
 20
11.7465024085
 30
0.0
 10
13.2804521008
 20
11.7507152767
 30
0.0
 10
13.2811530458
 20
11.7528665961
 30
0.0
  0
SPLINE
  5
5B6
100
AcDbEntity
  8
0
100
AcDbSpline
 62
7
  6
CONTINUOUS
 70
0
 71
3
 72
10
 73
6
 74
0
 42
0.0000001
 43
0.0000001
 44
0.0000000001
 40
0.0
 40
0.0
 40
0.0
 40
0.0
 40
0.2399269254
 40
0.4845800302
 40
1.0
 40
1.0
 40
1.0
 40
1.0
 10
14.0412872031
 20
13.2773304987
 30
0.0
 10
14.0415964596
 20
13.2767003456
 30
0.0
 10
14.0420923784
 20
13.2753595357
 30
0.0
 10
14.0425465803
 20
13.272454726
 30
0.0
 10
14.0422439598
 20
13.2701908071
 30
0.0
 10
14.0418209871
 20
13.2687433897
 30
0.0
  0
SPLINE
  5
5B7
100
AcDbEntity
  8
0
100
AcDbSpline
 62
7
  6
CONTINUOUS
 70
0
 71
3
 72
11
 73
7
 74
0
 42
0.0000001
 43
0.0000001
 44
0.0000000001
 40
0.0
 40
0.0
 40
0.0
 40
0.0
 40
0.2268583284
 40
0.4649942974
 40
0.7221540857
 40
1.0
 40
1.0
 40
1.0
 40
1.0
 10
14.0315258633
 20
13.2972220176
 30
0.0
 10
14.031007916
 20
13.2982774069
 30
0.0
 10
14.0295588583
 20
13.30026923
 30
0.0
 10
14.0264612108
 20
13.3024663417
 30
0.0
 10
14.0226369076
 20
13.3038008704
 30
0.0
 10
14.0198523428
 20
13.304077662
 30
0.0
 10
14.0184124787
 20
13.304077662
 30
0.0
  0
SPLINE
  5
5B8
100
AcDbEntity
  8
0
100
AcDbSpline
 62
7
  6
CONTINUOUS
 70
0
 71
3
 72
11
 73
7
 74
0
 42
0.0000001
 43
0.0000001
 44
0.0000000001
 40
0.0
 40
0.0
 40
0.0
 40
0.0
 40
0.2778459143
 40
0.5350057026
 40
0.7731416716
 40
1.0
 40
1.0
 40
1.0
 40
1.0
 10
13.3316745817
 20
11.7175323238
 30
0.0
 10
13.3302347175
 20
11.7175323238
 30
0.0
 10
13.3274501528
 20
11.7178091155
 30
0.0
 10
13.3236258495
 20
11.7191436441
 30
0.0
 10
13.320528202
 20
11.7213407558
 30
0.0
 10
13.3190791443
 20
11.7233325789
 30
0.0
 10
13.318561197
 20
11.7243879682
 30
0.0
  0
SPLINE
  5
5B9
100
AcDbEntity
  8
0
100
AcDbSpline
 62
7
  6
CONTINUOUS
 70
0
 71
3
 72
11
 73
7
 74
0
 42
0.0000001
 43
0.0000001
 44
0.0000000001
 40
0.0
 40
0.0
 40
0.0
 40
0.0
 40
0.2305394221
 40
0.4845589157
 40
0.7471703859
 40
1.0
 40
1.0
 40
1.0
 40
1.0
 10
13.5672326838
 20
11.7329750771
 30
0.0
 10
13.5665317388
 20
11.7308237577
 30
0.0
 10
13.5640646253
 20
11.7266108895
 30
0.0
 10
13.5584886123
 20
11.7217027675
 30
0.0
 10
13.551600633
 20
11.7183941729
 30
0.0
 10
13.5465225699
 20
11.7175323238
 30
0.0
 10
13.5440411716
 20
11.7175323238
 30
0.0
  0
SPLINE
  5
5BA
100
AcDbEntity
  8
0
100
AcDbSpline
 62
7
  6
CONTINUOUS
 70
0
 71
3
 72
10
 73
6
 74
0
 42
0.0000001
 43
0.0000001
 44
0.0000000001
 40
0.0
 40
0.0
 40
0.0
 40
0.0
 40
0.5154199698
 40
0.7600730746
 40
1.0
 40
1.0
 40
1.0
 40
1.0
 10
13.3082660732
 20
11.7528665961
 30
0.0
 10
13.3078431005
 20
11.7514191787
 30
0.0
 10
13.3075404801
 20
11.7491552599
 30
0.0
 10
13.307994682
 20
11.7462504501
 30
0.0
 10
13.3084906007
 20
11.7449096403
 30
0.0
 10
13.3087998573
 20
11.7442794872
 30
0.0
  0
SPLINE
  5
5BB
100
AcDbEntity
  8
0
100
AcDbSpline
 62
7
  6
CONTINUOUS
 70
0
 71
3
 72
11
 73
7
 74
0
 42
0.0000001
 43
0.0000001
 44
0.0000000001
 40
0.0
 40
0.0
 40
0.0
 40
0.0
 40
0.2528296141
 40
0.5154410843
 40
0.7694605779
 40
1.0
 40
1.0
 40
1.0
 40
1.0
 10
13.8060458887
 20
13.304077662
 30
0.0
 10
13.8035644904
 20
13.304077662
 30
0.0
 10
13.7984864273
 20
13.3032158129
 30
0.0
 10
13.7915984481
 20
13.2999072183
 30
0.0
 10
13.7860224351
 20
13.2949990963
 30
0.0
 10
13.7835553216
 20
13.2907862281
 30
0.0
 10
13.7828543766
 20
13.2886349087
 30
0.0
  0
SPLINE
  5
5BC
100
AcDbEntity
  8
0
100
AcDbSpline
 62
7
  6
CONTINUOUS
 70
0
 71
3
 72
11
 73
7
 74
0
 42
0.0000001
 43
0.0000001
 44
0.0000000001
 40
0.0
 40
0.0
 40
0.0
 40
0.0
 40
0.2268583284
 40
0.4649942974
 40
0.7221540857
 40
1.0
 40
1.0
 40
1.0
 40
1.0
 10
13.3087998573
 20
11.7442794872
 30
0.0
 10
13.3093178046
 20
11.7432240979
 30
0.0
 10
13.3107668623
 20
11.7412322748
 30
0.0
 10
13.3138645098
 20
11.7390351631
 30
0.0
 10
13.317688813
 20
11.7377006344
 30
0.0
 10
13.3204733778
 20
11.7374238428
 30
0.0
 10
13.3219132419
 20
11.7374238428
 30
0.0
  0
SPLINE
  5
5BD
100
AcDbEntity
  8
0
100
AcDbSpline
 62
7
  6
CONTINUOUS
 70
0
 71
3
 72
10
 73
6
 74
0
 42
0.0000001
 43
0.0000001
 44
0.0000000001
 40
0.0
 40
0.0
 40
0.0
 40
0.0
 40
0.5154199698
 40
0.7600730746
 40
1.0
 40
1.0
 40
1.0
 40
1.0
 10
14.0320596474
 20
13.2886349087
 30
0.0
 10
14.0324826201
 20
13.2900823261
 30
0.0
 10
14.0327852405
 20
13.2923462449
 30
0.0
 10
14.0323310386
 20
13.2952510547
 30
0.0
 10
14.0318351199
 20
13.2965918645
 30
0.0
 10
14.0315258633
 20
13.2972220176
 30
0.0
  0
SPLINE
  5
5BE
100
AcDbEntity
  8
0
100
AcDbSpline
 62
7
  6
CONTINUOUS
 70
0
 71
3
 72
11
 73
7
 74
0
 42
0.0000001
 43
0.0000001
 44
0.0000000001
 40
0.0
 40
0.0
 40
0.0
 40
0.0
 40
0.2528296141
 40
0.5154410843
 40
0.7694605779
 40
1.0
 40
1.0
 40
1.0
 40
1.0
 10
13.5342798319
 20
11.7374238428
 30
0.0
 10
13.5367612302
 20
11.7374238428
 30
0.0
 10
13.5418392933
 20
11.7382856919
 30
0.0
 10
13.5487272725
 20
11.7415942865
 30
0.0
 10
13.5543032855
 20
11.7465024085
 30
0.0
 10
13.556770399
 20
11.7507152767
 30
0.0
 10
13.557471344
 20
11.7528665961
 30
0.0
  0
SPLINE
  5
5BF
100
AcDbEntity
  8
0
100
AcDbSpline
 62
7
  6
CONTINUOUS
 70
0
 71
3
 72
10
 73
6
 74
0
 42
0.0000001
 43
0.0000001
 44
0.0000000001
 40
0.0
 40
0.0
 40
0.0
 40
0.0
 40
0.2399269254
 40
0.4845800302
 40
1.0
 40
1.0
 40
1.0
 40
1.0
 10
14.3176055013
 20
13.2773304987
 30
0.0
 10
14.3179147578
 20
13.2767003456
 30
0.0
 10
14.3184106766
 20
13.2753595357
 30
0.0
 10
14.3188648785
 20
13.272454726
 30
0.0
 10
14.318562258
 20
13.2701908071
 30
0.0
 10
14.3181392853
 20
13.2687433897
 30
0.0
  0
SPLINE
  5
5C0
100
AcDbEntity
  8
0
100
AcDbSpline
 62
7
  6
CONTINUOUS
 70
0
 71
3
 72
11
 73
7
 74
0
 42
0.0000001
 43
0.0000001
 44
0.0000000001
 40
0.0
 40
0.0
 40
0.0
 40
0.0
 40
0.2268583284
 40
0.4649942974
 40
0.7221540857
 40
1.0
 40
1.0
 40
1.0
 40
1.0
 10
14.3078441615
 20
13.2972220176
 30
0.0
 10
14.3073262142
 20
13.2982774069
 30
0.0
 10
14.3058771565
 20
13.30026923
 30
0.0
 10
14.302779509
 20
13.3024663417
 30
0.0
 10
14.2989552058
 20
13.3038008704
 30
0.0
 10
14.296170641
 20
13.304077662
 30
0.0
 10
14.2947307769
 20
13.304077662
 30
0.0
  0
SPLINE
  5
5C1
100
AcDbEntity
  8
0
100
AcDbSpline
 62
7
  6
CONTINUOUS
 70
0
 71
3
 72
11
 73
7
 74
0
 42
0.0000001
 43
0.0000001
 44
0.0000000001
 40
0.0
 40
0.0
 40
0.0
 40
0.0
 40
0.2778459143
 40
0.5350057026
 40
0.7731416716
 40
1.0
 40
1.0
 40
1.0
 40
1.0
 10
13.6079928799
 20
11.7175323238
 30
0.0
 10
13.6065530157
 20
11.7175323238
 30
0.0
 10
13.603768451
 20
11.7178091155
 30
0.0
 10
13.5999441477
 20
11.7191436441
 30
0.0
 10
13.5968465002
 20
11.7213407558
 30
0.0
 10
13.5953974425
 20
11.7233325789
 30
0.0
 10
13.5948794952
 20
11.7243879682
 30
0.0
  0
SPLINE
  5
5C2
100
AcDbEntity
  8
0
100
AcDbSpline
 62
7
  6
CONTINUOUS
 70
0
 71
3
 72
11
 73
7
 74
0
 42
0.0000001
 43
0.0000001
 44
0.0000000001
 40
0.0
 40
0.0
 40
0.0
 40
0.0
 40
0.2305394221
 40
0.4845589157
 40
0.7471703859
 40
1.0
 40
1.0
 40
1.0
 40
1.0
 10
13.843550982
 20
11.7329750771
 30
0.0
 10
13.842850037
 20
11.7308237577
 30
0.0
 10
13.8403829235
 20
11.7266108895
 30
0.0
 10
13.8348069105
 20
11.7217027675
 30
0.0
 10
13.8279189312
 20
11.7183941729
 30
0.0
 10
13.8228408681
 20
11.7175323238
 30
0.0
 10
13.8203594698
 20
11.7175323238
 30
0.0
  0
SPLINE
  5
5C3
100
AcDbEntity
  8
0
100
AcDbSpline
 62
7
  6
CONTINUOUS
 70
0
 71
3
 72
10
 73
6
 74
0
 42
0.0000001
 43
0.0000001
 44
0.0000000001
 40
0.0
 40
0.0
 40
0.0
 40
0.0
 40
0.5154199698
 40
0.7600730746
 40
1.0
 40
1.0
 40
1.0
 40
1.0
 10
13.5845843714
 20
11.7528665961
 30
0.0
 10
13.5841613987
 20
11.7514191787
 30
0.0
 10
13.5838587783
 20
11.7491552599
 30
0.0
 10
13.5843129802
 20
11.7462504501
 30
0.0
 10
13.5848088989
 20
11.7449096403
 30
0.0
 10
13.5851181555
 20
11.7442794872
 30
0.0
  0
SPLINE
  5
5C4
100
AcDbEntity
  8
0
100
AcDbSpline
 62
7
  6
CONTINUOUS
 70
0
 71
3
 72
11
 73
7
 74
0
 42
0.0000001
 43
0.0000001
 44
0.0000000001
 40
0.0
 40
0.0
 40
0.0
 40
0.0
 40
0.2528296141
 40
0.5154410843
 40
0.7694605779
 40
1.0
 40
1.0
 40
1.0
 40
1.0
 10
14.0823641869
 20
13.304077662
 30
0.0
 10
14.0798827886
 20
13.304077662
 30
0.0
 10
14.0748047255
 20
13.3032158129
 30
0.0
 10
14.0679167463
 20
13.2999072183
 30
0.0
 10
14.0623407333
 20
13.2949990963
 30
0.0
 10
14.0598736198
 20
13.2907862281
 30
0.0
 10
14.0591726748
 20
13.2886349087
 30
0.0
  0
SPLINE
  5
5C5
100
AcDbEntity
  8
0
100
AcDbSpline
 62
7
  6
CONTINUOUS
 70
0
 71
3
 72
11
 73
7
 74
0
 42
0.0000001
 43
0.0000001
 44
0.0000000001
 40
0.0
 40
0.0
 40
0.0
 40
0.0
 40
0.2268583284
 40
0.4649942974
 40
0.7221540857
 40
1.0
 40
1.0
 40
1.0
 40
1.0
 10
13.5851181555
 20
11.7442794872
 30
0.0
 10
13.5856361028
 20
11.7432240979
 30
0.0
 10
13.5870851605
 20
11.7412322748
 30
0.0
 10
13.590182808
 20
11.7390351631
 30
0.0
 10
13.5940071112
 20
11.7377006344
 30
0.0
 10
13.596791676
 20
11.7374238428
 30
0.0
 10
13.5982315401
 20
11.7374238428
 30
0.0
  0
SPLINE
  5
5C6
100
AcDbEntity
  8
0
100
AcDbSpline
 62
7
  6
CONTINUOUS
 70
0
 71
3
 72
10
 73
6
 74
0
 42
0.0000001
 43
0.0000001
 44
0.0000000001
 40
0.0
 40
0.0
 40
0.0
 40
0.0
 40
0.5154199698
 40
0.7600730746
 40
1.0
 40
1.0
 40
1.0
 40
1.0
 10
14.3083779456
 20
13.2886349087
 30
0.0
 10
14.3088009183
 20
13.2900823261
 30
0.0
 10
14.3091035387
 20
13.2923462449
 30
0.0
 10
14.3086493368
 20
13.2952510547
 30
0.0
 10
14.3081534181
 20
13.2965918645
 30
0.0
 10
14.3078441615
 20
13.2972220176
 30
0.0
  0
SPLINE
  5
5C7
100
AcDbEntity
  8
0
100
AcDbSpline
 62
7
  6
CONTINUOUS
 70
0
 71
3
 72
11
 73
7
 74
0
 42
0.0000001
 43
0.0000001
 44
0.0000000001
 40
0.0
 40
0.0
 40
0.0
 40
0.0
 40
0.2528296141
 40
0.5154410843
 40
0.7694605779
 40
1.0
 40
1.0
 40
1.0
 40
1.0
 10
13.8105981301
 20
11.7374238428
 30
0.0
 10
13.8130795284
 20
11.7374238428
 30
0.0
 10
13.8181575915
 20
11.7382856919
 30
0.0
 10
13.8250455707
 20
11.7415942865
 30
0.0
 10
13.8306215837
 20
11.7465024085
 30
0.0
 10
13.8330886972
 20
11.7507152767
 30
0.0
 10
13.8337896422
 20
11.7528665961
 30
0.0
  0
SPLINE
  5
5C8
100
AcDbEntity
  8
0
100
AcDbSpline
 62
7
  6
CONTINUOUS
 70
0
 71
3
 72
10
 73
6
 74
0
 42
0.0000001
 43
0.0000001
 44
0.0000000001
 40
0.0
 40
0.0
 40
0.0
 40
0.0
 40
0.2399269254
 40
0.4845800302
 40
1.0
 40
1.0
 40
1.0
 40
1.0
 10
14.5939237995
 20
13.2773304987
 30
0.0
 10
14.594233056
 20
13.2767003456
 30
0.0
 10
14.5947289748
 20
13.2753595357
 30
0.0
 10
14.5951831767
 20
13.272454726
 30
0.0
 10
14.5948805562
 20
13.2701908071
 30
0.0
 10
14.5944575836
 20
13.2687433897
 30
0.0
  0
SPLINE
  5
5C9
100
AcDbEntity
  8
0
100
AcDbSpline
 62
7
  6
CONTINUOUS
 70
0
 71
3
 72
11
 73
7
 74
0
 42
0.0000001
 43
0.0000001
 44
0.0000000001
 40
0.0
 40
0.0
 40
0.0
 40
0.0
 40
0.2268583284
 40
0.4649942974
 40
0.7221540857
 40
1.0
 40
1.0
 40
1.0
 40
1.0
 10
14.5841624597
 20
13.2972220176
 30
0.0
 10
14.5836445124
 20
13.2982774069
 30
0.0
 10
14.5821954547
 20
13.30026923
 30
0.0
 10
14.5790978072
 20
13.3024663417
 30
0.0
 10
14.575273504
 20
13.3038008704
 30
0.0
 10
14.5724889392
 20
13.304077662
 30
0.0
 10
14.5710490751
 20
13.304077662
 30
0.0
  0
SPLINE
  5
5CA
100
AcDbEntity
  8
0
100
AcDbSpline
 62
7
  6
CONTINUOUS
 70
0
 71
3
 72
11
 73
7
 74
0
 42
0.0000001
 43
0.0000001
 44
0.0000000001
 40
0.0
 40
0.0
 40
0.0
 40
0.0
 40
0.2778459143
 40
0.5350057026
 40
0.7731416716
 40
1.0
 40
1.0
 40
1.0
 40
1.0
 10
13.8843111781
 20
11.7175323238
 30
0.0
 10
13.8828713139
 20
11.7175323238
 30
0.0
 10
13.8800867492
 20
11.7178091155
 30
0.0
 10
13.8762624459
 20
11.7191436441
 30
0.0
 10
13.8731647984
 20
11.7213407558
 30
0.0
 10
13.8717157407
 20
11.7233325789
 30
0.0
 10
13.8711977934
 20
11.7243879682
 30
0.0
  0
SPLINE
  5
5CB
100
AcDbEntity
  8
0
100
AcDbSpline
 62
7
  6
CONTINUOUS
 70
0
 71
3
 72
11
 73
7
 74
0
 42
0.0000001
 43
0.0000001
 44
0.0000000001
 40
0.0
 40
0.0
 40
0.0
 40
0.0
 40
0.2305394221
 40
0.4845589157
 40
0.7471703859
 40
1.0
 40
1.0
 40
1.0
 40
1.0
 10
14.1198692802
 20
11.7329750771
 30
0.0
 10
14.1191683352
 20
11.7308237577
 30
0.0
 10
14.1167012217
 20
11.7266108895
 30
0.0
 10
14.1111252087
 20
11.7217027675
 30
0.0
 10
14.1042372294
 20
11.7183941729
 30
0.0
 10
14.0991591663
 20
11.7175323238
 30
0.0
 10
14.096677768
 20
11.7175323238
 30
0.0
  0
SPLINE
  5
5CC
100
AcDbEntity
  8
0
100
AcDbSpline
 62
7
  6
CONTINUOUS
 70
0
 71
3
 72
10
 73
6
 74
0
 42
0.0000001
 43
0.0000001
 44
0.0000000001
 40
0.0
 40
0.0
 40
0.0
 40
0.0
 40
0.5154199698
 40
0.7600730746
 40
1.0
 40
1.0
 40
1.0
 40
1.0
 10
13.8609026696
 20
11.7528665961
 30
0.0
 10
13.8604796969
 20
11.7514191787
 30
0.0
 10
13.8601770765
 20
11.7491552599
 30
0.0
 10
13.8606312784
 20
11.7462504501
 30
0.0
 10
13.8611271971
 20
11.7449096403
 30
0.0
 10
13.8614364537
 20
11.7442794872
 30
0.0
  0
SPLINE
  5
5CD
100
AcDbEntity
  8
0
100
AcDbSpline
 62
7
  6
CONTINUOUS
 70
0
 71
3
 72
11
 73
7
 74
0
 42
0.0000001
 43
0.0000001
 44
0.0000000001
 40
0.0
 40
0.0
 40
0.0
 40
0.0
 40
0.2528296141
 40
0.5154410843
 40
0.7694605779
 40
1.0
 40
1.0
 40
1.0
 40
1.0
 10
14.3586824851
 20
13.304077662
 30
0.0
 10
14.3562010868
 20
13.304077662
 30
0.0
 10
14.3511230237
 20
13.3032158129
 30
0.0
 10
14.3442350445
 20
13.2999072183
 30
0.0
 10
14.3386590315
 20
13.2949990963
 30
0.0
 10
14.336191918
 20
13.2907862281
 30
0.0
 10
14.335490973
 20
13.2886349087
 30
0.0
  0
SPLINE
  5
5CE
100
AcDbEntity
  8
0
100
AcDbSpline
 62
7
  6
CONTINUOUS
 70
0
 71
3
 72
11
 73
7
 74
0
 42
0.0000001
 43
0.0000001
 44
0.0000000001
 40
0.0
 40
0.0
 40
0.0
 40
0.0
 40
0.2268583284
 40
0.4649942974
 40
0.7221540857
 40
1.0
 40
1.0
 40
1.0
 40
1.0
 10
13.8614364537
 20
11.7442794872
 30
0.0
 10
13.861954401
 20
11.7432240979
 30
0.0
 10
13.8634034587
 20
11.7412322748
 30
0.0
 10
13.8665011062
 20
11.7390351631
 30
0.0
 10
13.8703254094
 20
11.7377006344
 30
0.0
 10
13.8731099742
 20
11.7374238428
 30
0.0
 10
13.8745498383
 20
11.7374238428
 30
0.0
  0
SPLINE
  5
5CF
100
AcDbEntity
  8
0
100
AcDbSpline
 62
7
  6
CONTINUOUS
 70
0
 71
3
 72
10
 73
6
 74
0
 42
0.0000001
 43
0.0000001
 44
0.0000000001
 40
0.0
 40
0.0
 40
0.0
 40
0.0
 40
0.5154199698
 40
0.7600730746
 40
1.0
 40
1.0
 40
1.0
 40
1.0
 10
14.5846962438
 20
13.2886349087
 30
0.0
 10
14.5851192165
 20
13.2900823261
 30
0.0
 10
14.5854218369
 20
13.2923462449
 30
0.0
 10
14.584967635
 20
13.2952510547
 30
0.0
 10
14.5844717163
 20
13.2965918645
 30
0.0
 10
14.5841624597
 20
13.2972220176
 30
0.0
  0
SPLINE
  5
5D0
100
AcDbEntity
  8
0
100
AcDbSpline
 62
7
  6
CONTINUOUS
 70
0
 71
3
 72
11
 73
7
 74
0
 42
0.0000001
 43
0.0000001
 44
0.0000000001
 40
0.0
 40
0.0
 40
0.0
 40
0.0
 40
0.2528296141
 40
0.5154410843
 40
0.7694605779
 40
1.0
 40
1.0
 40
1.0
 40
1.0
 10
14.0869164283
 20
11.7374238428
 30
0.0
 10
14.0893978266
 20
11.7374238428
 30
0.0
 10
14.0944758897
 20
11.7382856919
 30
0.0
 10
14.1013638689
 20
11.7415942865
 30
0.0
 10
14.1069398819
 20
11.7465024085
 30
0.0
 10
14.1094069954
 20
11.7507152767
 30
0.0
 10
14.1101079404
 20
11.7528665961
 30
0.0
  0
SPLINE
  5
5D1
100
AcDbEntity
  8
0
100
AcDbSpline
 62
7
  6
CONTINUOUS
 70
0
 71
3
 72
10
 73
6
 74
0
 42
0.0000001
 43
0.0000001
 44
0.0000000001
 40
0.0
 40
0.0
 40
0.0
 40
0.0
 40
0.2399269254
 40
0.4845800302
 40
1.0
 40
1.0
 40
1.0
 40
1.0
 10
14.8702420977
 20
13.2773304987
 30
0.0
 10
14.8705513542
 20
13.2767003456
 30
0.0
 10
14.871047273
 20
13.2753595357
 30
0.0
 10
14.8715014749
 20
13.272454726
 30
0.0
 10
14.8711988544
 20
13.2701908071
 30
0.0
 10
14.8707758818
 20
13.2687433897
 30
0.0
  0
SPLINE
  5
5D2
100
AcDbEntity
  8
0
100
AcDbSpline
 62
7
  6
CONTINUOUS
 70
0
 71
3
 72
11
 73
7
 74
0
 42
0.0000001
 43
0.0000001
 44
0.0000000001
 40
0.0
 40
0.0
 40
0.0
 40
0.0
 40
0.2268583284
 40
0.4649942974
 40
0.7221540857
 40
1.0
 40
1.0
 40
1.0
 40
1.0
 10
14.8604807579
 20
13.2972220176
 30
0.0
 10
14.8599628106
 20
13.2982774069
 30
0.0
 10
14.8585137529
 20
13.30026923
 30
0.0
 10
14.8554161054
 20
13.3024663417
 30
0.0
 10
14.8515918022
 20
13.3038008704
 30
0.0
 10
14.8488072374
 20
13.304077662
 30
0.0
 10
14.8473673733
 20
13.304077662
 30
0.0
  0
SPLINE
  5
5D3
100
AcDbEntity
  8
0
100
AcDbSpline
 62
7
  6
CONTINUOUS
 70
0
 71
3
 72
11
 73
7
 74
0
 42
0.0000001
 43
0.0000001
 44
0.0000000001
 40
0.0
 40
0.0
 40
0.0
 40
0.0
 40
0.2778459143
 40
0.5350057026
 40
0.7731416716
 40
1.0
 40
1.0
 40
1.0
 40
1.0
 10
14.1606294763
 20
11.7175323238
 30
0.0
 10
14.1591896121
 20
11.7175323238
 30
0.0
 10
14.1564050474
 20
11.7178091155
 30
0.0
 10
14.1525807441
 20
11.7191436441
 30
0.0
 10
14.1494830966
 20
11.7213407558
 30
0.0
 10
14.1480340389
 20
11.7233325789
 30
0.0
 10
14.1475160916
 20
11.7243879682
 30
0.0
  0
SPLINE
  5
5D4
100
AcDbEntity
  8
0
100
AcDbSpline
 62
7
  6
CONTINUOUS
 70
0
 71
3
 72
11
 73
7
 74
0
 42
0.0000001
 43
0.0000001
 44
0.0000000001
 40
0.0
 40
0.0
 40
0.0
 40
0.0
 40
0.2305394221
 40
0.4845589157
 40
0.7471703859
 40
1.0
 40
1.0
 40
1.0
 40
1.0
 10
14.3961875784
 20
11.7329750771
 30
0.0
 10
14.3954866334
 20
11.7308237577
 30
0.0
 10
14.3930195199
 20
11.7266108895
 30
0.0
 10
14.3874435069
 20
11.7217027675
 30
0.0
 10
14.3805555276
 20
11.7183941729
 30
0.0
 10
14.3754774645
 20
11.7175323238
 30
0.0
 10
14.3729960662
 20
11.7175323238
 30
0.0
  0
SPLINE
  5
5D5
100
AcDbEntity
  8
0
100
AcDbSpline
 62
7
  6
CONTINUOUS
 70
0
 71
3
 72
10
 73
6
 74
0
 42
0.0000001
 43
0.0000001
 44
0.0000000001
 40
0.0
 40
0.0
 40
0.0
 40
0.0
 40
0.5154199698
 40
0.7600730746
 40
1.0
 40
1.0
 40
1.0
 40
1.0
 10
14.1372209678
 20
11.7528665961
 30
0.0
 10
14.1367979951
 20
11.7514191787
 30
0.0
 10
14.1364953747
 20
11.7491552599
 30
0.0
 10
14.1369495766
 20
11.7462504501
 30
0.0
 10
14.1374454953
 20
11.7449096403
 30
0.0
 10
14.1377547519
 20
11.7442794872
 30
0.0
  0
SPLINE
  5
5D6
100
AcDbEntity
  8
0
100
AcDbSpline
 62
7
  6
CONTINUOUS
 70
0
 71
3
 72
11
 73
7
 74
0
 42
0.0000001
 43
0.0000001
 44
0.0000000001
 40
0.0
 40
0.0
 40
0.0
 40
0.0
 40
0.2528296141
 40
0.5154410843
 40
0.7694605779
 40
1.0
 40
1.0
 40
1.0
 40
1.0
 10
14.6350007833
 20
13.304077662
 30
0.0
 10
14.632519385
 20
13.304077662
 30
0.0
 10
14.6274413219
 20
13.3032158129
 30
0.0
 10
14.6205533427
 20
13.2999072183
 30
0.0
 10
14.6149773297
 20
13.2949990963
 30
0.0
 10
14.6125102162
 20
13.2907862281
 30
0.0
 10
14.6118092712
 20
13.2886349087
 30
0.0
  0
SPLINE
  5
5D7
100
AcDbEntity
  8
0
100
AcDbSpline
 62
7
  6
CONTINUOUS
 70
0
 71
3
 72
11
 73
7
 74
0
 42
0.0000001
 43
0.0000001
 44
0.0000000001
 40
0.0
 40
0.0
 40
0.0
 40
0.0
 40
0.2268583284
 40
0.4649942974
 40
0.7221540857
 40
1.0
 40
1.0
 40
1.0
 40
1.0
 10
14.1377547519
 20
11.7442794872
 30
0.0
 10
14.1382726992
 20
11.7432240979
 30
0.0
 10
14.1397217569
 20
11.7412322748
 30
0.0
 10
14.1428194044
 20
11.7390351631
 30
0.0
 10
14.1466437076
 20
11.7377006344
 30
0.0
 10
14.1494282724
 20
11.7374238428
 30
0.0
 10
14.1508681365
 20
11.7374238428
 30
0.0
  0
SPLINE
  5
5D8
100
AcDbEntity
  8
0
100
AcDbSpline
 62
7
  6
CONTINUOUS
 70
0
 71
3
 72
10
 73
6
 74
0
 42
0.0000001
 43
0.0000001
 44
0.0000000001
 40
0.0
 40
0.0
 40
0.0
 40
0.0
 40
0.5154199698
 40
0.7600730746
 40
1.0
 40
1.0
 40
1.0
 40
1.0
 10
14.861014542
 20
13.2886349087
 30
0.0
 10
14.8614375147
 20
13.2900823261
 30
0.0
 10
14.8617401351
 20
13.2923462449
 30
0.0
 10
14.8612859332
 20
13.2952510547
 30
0.0
 10
14.8607900145
 20
13.2965918645
 30
0.0
 10
14.8604807579
 20
13.2972220176
 30
0.0
  0
SPLINE
  5
5D9
100
AcDbEntity
  8
0
100
AcDbSpline
 62
7
  6
CONTINUOUS
 70
0
 71
3
 72
11
 73
7
 74
0
 42
0.0000001
 43
0.0000001
 44
0.0000000001
 40
0.0
 40
0.0
 40
0.0
 40
0.0
 40
0.2528296141
 40
0.5154410843
 40
0.7694605779
 40
1.0
 40
1.0
 40
1.0
 40
1.0
 10
14.3632347265
 20
11.7374238428
 30
0.0
 10
14.3657161248
 20
11.7374238428
 30
0.0
 10
14.3707941879
 20
11.7382856919
 30
0.0
 10
14.3776821671
 20
11.7415942865
 30
0.0
 10
14.3832581801
 20
11.7465024085
 30
0.0
 10
14.3857252936
 20
11.7507152767
 30
0.0
 10
14.3864262386
 20
11.7528665961
 30
0.0
  0
SPLINE
  5
5DA
100
AcDbEntity
  8
0
100
AcDbSpline
 62
7
  6
CONTINUOUS
 70
0
 71
3
 72
10
 73
6
 74
0
 42
0.0000001
 43
0.0000001
 44
0.0000000001
 40
0.0
 40
0.0
 40
0.0
 40
0.0
 40
0.2399269254
 40
0.4845800302
 40
1.0
 40
1.0
 40
1.0
 40
1.0
 10
15.1465603959
 20
13.2773304987
 30
0.0
 10
15.1468696524
 20
13.2767003456
 30
0.0
 10
15.1473655712
 20
13.2753595357
 30
0.0
 10
15.1478197731
 20
13.272454726
 30
0.0
 10
15.1475171526
 20
13.2701908071
 30
0.0
 10
15.14709418
 20
13.2687433897
 30
0.0
  0
SPLINE
  5
5DB
100
AcDbEntity
  8
0
100
AcDbSpline
 62
7
  6
CONTINUOUS
 70
0
 71
3
 72
11
 73
7
 74
0
 42
0.0000001
 43
0.0000001
 44
0.0000000001
 40
0.0
 40
0.0
 40
0.0
 40
0.0
 40
0.2268583284
 40
0.4649942974
 40
0.7221540857
 40
1.0
 40
1.0
 40
1.0
 40
1.0
 10
15.1367990561
 20
13.2972220176
 30
0.0
 10
15.1362811088
 20
13.2982774069
 30
0.0
 10
15.1348320511
 20
13.30026923
 30
0.0
 10
15.1317344036
 20
13.3024663417
 30
0.0
 10
15.1279101004
 20
13.3038008704
 30
0.0
 10
15.1251255356
 20
13.304077662
 30
0.0
 10
15.1236856715
 20
13.304077662
 30
0.0
  0
SPLINE
  5
5DC
100
AcDbEntity
  8
0
100
AcDbSpline
 62
7
  6
CONTINUOUS
 70
0
 71
3
 72
11
 73
7
 74
0
 42
0.0000001
 43
0.0000001
 44
0.0000000001
 40
0.0
 40
0.0
 40
0.0
 40
0.0
 40
0.2778459143
 40
0.5350057026
 40
0.7731416716
 40
1.0
 40
1.0
 40
1.0
 40
1.0
 10
14.4369477745
 20
11.7175323238
 30
0.0
 10
14.4355079103
 20
11.7175323238
 30
0.0
 10
14.4327233456
 20
11.7178091155
 30
0.0
 10
14.4288990423
 20
11.7191436441
 30
0.0
 10
14.4258013948
 20
11.7213407558
 30
0.0
 10
14.4243523371
 20
11.7233325789
 30
0.0
 10
14.4238343898
 20
11.7243879682
 30
0.0
  0
SPLINE
  5
5DD
100
AcDbEntity
  8
0
100
AcDbSpline
 62
7
  6
CONTINUOUS
 70
0
 71
3
 72
11
 73
7
 74
0
 42
0.0000001
 43
0.0000001
 44
0.0000000001
 40
0.0
 40
0.0
 40
0.0
 40
0.0
 40
0.2305394221
 40
0.4845589157
 40
0.7471703859
 40
1.0
 40
1.0
 40
1.0
 40
1.0
 10
14.6725058766
 20
11.7329750771
 30
0.0
 10
14.6718049316
 20
11.7308237577
 30
0.0
 10
14.6693378181
 20
11.7266108895
 30
0.0
 10
14.6637618051
 20
11.7217027675
 30
0.0
 10
14.6568738258
 20
11.7183941729
 30
0.0
 10
14.6517957627
 20
11.7175323238
 30
0.0
 10
14.6493143644
 20
11.7175323238
 30
0.0
  0
SPLINE
  5
5DE
100
AcDbEntity
  8
0
100
AcDbSpline
 62
7
  6
CONTINUOUS
 70
0
 71
3
 72
10
 73
6
 74
0
 42
0.0000001
 43
0.0000001
 44
0.0000000001
 40
0.0
 40
0.0
 40
0.0
 40
0.0
 40
0.5154199698
 40
0.7600730746
 40
1.0
 40
1.0
 40
1.0
 40
1.0
 10
14.413539266
 20
11.7528665961
 30
0.0
 10
14.4131162933
 20
11.7514191787
 30
0.0
 10
14.4128136729
 20
11.7491552599
 30
0.0
 10
14.4132678748
 20
11.7462504501
 30
0.0
 10
14.4137637935
 20
11.7449096403
 30
0.0
 10
14.4140730501
 20
11.7442794872
 30
0.0
  0
SPLINE
  5
5DF
100
AcDbEntity
  8
0
100
AcDbSpline
 62
7
  6
CONTINUOUS
 70
0
 71
3
 72
11
 73
7
 74
0
 42
0.0000001
 43
0.0000001
 44
0.0000000001
 40
0.0
 40
0.0
 40
0.0
 40
0.0
 40
0.2528296141
 40
0.5154410843
 40
0.7694605779
 40
1.0
 40
1.0
 40
1.0
 40
1.0
 10
14.9113190815
 20
13.304077662
 30
0.0
 10
14.9088376832
 20
13.304077662
 30
0.0
 10
14.9037596201
 20
13.3032158129
 30
0.0
 10
14.8968716409
 20
13.2999072183
 30
0.0
 10
14.8912956279
 20
13.2949990963
 30
0.0
 10
14.8888285144
 20
13.2907862281
 30
0.0
 10
14.8881275694
 20
13.2886349087
 30
0.0
  0
SPLINE
  5
5E0
100
AcDbEntity
  8
0
100
AcDbSpline
 62
7
  6
CONTINUOUS
 70
0
 71
3
 72
11
 73
7
 74
0
 42
0.0000001
 43
0.0000001
 44
0.0000000001
 40
0.0
 40
0.0
 40
0.0
 40
0.0
 40
0.2268583284
 40
0.4649942974
 40
0.7221540857
 40
1.0
 40
1.0
 40
1.0
 40
1.0
 10
14.4140730501
 20
11.7442794872
 30
0.0
 10
14.4145909974
 20
11.7432240979
 30
0.0
 10
14.4160400551
 20
11.7412322748
 30
0.0
 10
14.4191377026
 20
11.7390351631
 30
0.0
 10
14.4229620058
 20
11.7377006344
 30
0.0
 10
14.4257465706
 20
11.7374238428
 30
0.0
 10
14.4271864347
 20
11.7374238428
 30
0.0
  0
SPLINE
  5
5E1
100
AcDbEntity
  8
0
100
AcDbSpline
 62
7
  6
CONTINUOUS
 70
0
 71
3
 72
10
 73
6
 74
0
 42
0.0000001
 43
0.0000001
 44
0.0000000001
 40
0.0
 40
0.0
 40
0.0
 40
0.0
 40
0.5154199698
 40
0.7600730746
 40
1.0
 40
1.0
 40
1.0
 40
1.0
 10
15.1373328402
 20
13.2886349087
 30
0.0
 10
15.1377558129
 20
13.2900823261
 30
0.0
 10
15.1380584333
 20
13.2923462449
 30
0.0
 10
15.1376042314
 20
13.2952510547
 30
0.0
 10
15.1371083127
 20
13.2965918645
 30
0.0
 10
15.1367990561
 20
13.2972220176
 30
0.0
  0
SPLINE
  5
5E2
100
AcDbEntity
  8
0
100
AcDbSpline
 62
7
  6
CONTINUOUS
 70
0
 71
3
 72
11
 73
7
 74
0
 42
0.0000001
 43
0.0000001
 44
0.0000000001
 40
0.0
 40
0.0
 40
0.0
 40
0.0
 40
0.2528296141
 40
0.5154410843
 40
0.7694605779
 40
1.0
 40
1.0
 40
1.0
 40
1.0
 10
14.6395530247
 20
11.7374238428
 30
0.0
 10
14.642034423
 20
11.7374238428
 30
0.0
 10
14.6471124861
 20
11.7382856919
 30
0.0
 10
14.6540004653
 20
11.7415942865
 30
0.0
 10
14.6595764783
 20
11.7465024085
 30
0.0
 10
14.6620435918
 20
11.7507152767
 30
0.0
 10
14.6627445368
 20
11.7528665961
 30
0.0
  0
SPLINE
  5
5E3
100
AcDbEntity
  8
0
100
AcDbSpline
 62
7
  6
CONTINUOUS
 70
0
 71
3
 72
10
 73
6
 74
0
 42
0.0000001
 43
0.0000001
 44
0.0000000001
 40
0.0
 40
0.0
 40
0.0
 40
0.0
 40
0.2399269254
 40
0.4845800302
 40
1.0
 40
1.0
 40
1.0
 40
1.0
 10
15.4228786941
 20
13.2773304987
 30
0.0
 10
15.4231879506
 20
13.2767003456
 30
0.0
 10
15.4236838694
 20
13.2753595357
 30
0.0
 10
15.4241380713
 20
13.272454726
 30
0.0
 10
15.4238354508
 20
13.2701908071
 30
0.0
 10
15.4234124782
 20
13.2687433897
 30
0.0
  0
SPLINE
  5
5E4
100
AcDbEntity
  8
0
100
AcDbSpline
 62
7
  6
CONTINUOUS
 70
0
 71
3
 72
11
 73
7
 74
0
 42
0.0000001
 43
0.0000001
 44
0.0000000001
 40
0.0
 40
0.0
 40
0.0
 40
0.0
 40
0.2268583284
 40
0.4649942974
 40
0.7221540857
 40
1.0
 40
1.0
 40
1.0
 40
1.0
 10
15.4131173543
 20
13.2972220176
 30
0.0
 10
15.412599407
 20
13.2982774069
 30
0.0
 10
15.4111503493
 20
13.30026923
 30
0.0
 10
15.4080527018
 20
13.3024663417
 30
0.0
 10
15.4042283986
 20
13.3038008704
 30
0.0
 10
15.4014438338
 20
13.304077662
 30
0.0
 10
15.4000039697
 20
13.304077662
 30
0.0
  0
SPLINE
  5
5E5
100
AcDbEntity
  8
0
100
AcDbSpline
 62
7
  6
CONTINUOUS
 70
0
 71
3
 72
11
 73
7
 74
0
 42
0.0000001
 43
0.0000001
 44
0.0000000001
 40
0.0
 40
0.0
 40
0.0
 40
0.0
 40
0.2778459143
 40
0.5350057026
 40
0.7731416716
 40
1.0
 40
1.0
 40
1.0
 40
1.0
 10
14.7132660727
 20
11.7175323238
 30
0.0
 10
14.7118262085
 20
11.7175323238
 30
0.0
 10
14.7090416438
 20
11.7178091155
 30
0.0
 10
14.7052173405
 20
11.7191436441
 30
0.0
 10
14.702119693
 20
11.7213407558
 30
0.0
 10
14.7006706353
 20
11.7233325789
 30
0.0
 10
14.700152688
 20
11.7243879682
 30
0.0
  0
SPLINE
  5
5E6
100
AcDbEntity
  8
0
100
AcDbSpline
 62
7
  6
CONTINUOUS
 70
0
 71
3
 72
11
 73
7
 74
0
 42
0.0000001
 43
0.0000001
 44
0.0000000001
 40
0.0
 40
0.0
 40
0.0
 40
0.0
 40
0.2305394221
 40
0.4845589157
 40
0.7471703859
 40
1.0
 40
1.0
 40
1.0
 40
1.0
 10
14.9488241748
 20
11.7329750771
 30
0.0
 10
14.9481232298
 20
11.7308237577
 30
0.0
 10
14.9456561163
 20
11.7266108895
 30
0.0
 10
14.9400801033
 20
11.7217027675
 30
0.0
 10
14.933192124
 20
11.7183941729
 30
0.0
 10
14.9281140609
 20
11.7175323238
 30
0.0
 10
14.9256326626
 20
11.7175323238
 30
0.0
  0
SPLINE
  5
5E7
100
AcDbEntity
  8
0
100
AcDbSpline
 62
7
  6
CONTINUOUS
 70
0
 71
3
 72
10
 73
6
 74
0
 42
0.0000001
 43
0.0000001
 44
0.0000000001
 40
0.0
 40
0.0
 40
0.0
 40
0.0
 40
0.5154199698
 40
0.7600730746
 40
1.0
 40
1.0
 40
1.0
 40
1.0
 10
14.6898575642
 20
11.7528665961
 30
0.0
 10
14.6894345915
 20
11.7514191787
 30
0.0
 10
14.6891319711
 20
11.7491552599
 30
0.0
 10
14.689586173
 20
11.7462504501
 30
0.0
 10
14.6900820917
 20
11.7449096403
 30
0.0
 10
14.6903913483
 20
11.7442794872
 30
0.0
  0
SPLINE
  5
5E8
100
AcDbEntity
  8
0
100
AcDbSpline
 62
7
  6
CONTINUOUS
 70
0
 71
3
 72
11
 73
7
 74
0
 42
0.0000001
 43
0.0000001
 44
0.0000000001
 40
0.0
 40
0.0
 40
0.0
 40
0.0
 40
0.2528296141
 40
0.5154410843
 40
0.7694605779
 40
1.0
 40
1.0
 40
1.0
 40
1.0
 10
15.1876373797
 20
13.304077662
 30
0.0
 10
15.1851559814
 20
13.304077662
 30
0.0
 10
15.1800779183
 20
13.3032158129
 30
0.0
 10
15.1731899391
 20
13.2999072183
 30
0.0
 10
15.1676139261
 20
13.2949990963
 30
0.0
 10
15.1651468126
 20
13.2907862281
 30
0.0
 10
15.1644458676
 20
13.2886349087
 30
0.0
  0
SPLINE
  5
5E9
100
AcDbEntity
  8
0
100
AcDbSpline
 62
7
  6
CONTINUOUS
 70
0
 71
3
 72
11
 73
7
 74
0
 42
0.0000001
 43
0.0000001
 44
0.0000000001
 40
0.0
 40
0.0
 40
0.0
 40
0.0
 40
0.2268583284
 40
0.4649942974
 40
0.7221540857
 40
1.0
 40
1.0
 40
1.0
 40
1.0
 10
14.6903913483
 20
11.7442794872
 30
0.0
 10
14.6909092956
 20
11.7432240979
 30
0.0
 10
14.6923583533
 20
11.7412322748
 30
0.0
 10
14.6954560008
 20
11.7390351631
 30
0.0
 10
14.699280304
 20
11.7377006344
 30
0.0
 10
14.7020648688
 20
11.7374238428
 30
0.0
 10
14.7035047329
 20
11.7374238428
 30
0.0
  0
SPLINE
  5
5EA
100
AcDbEntity
  8
0
100
AcDbSpline
 62
7
  6
CONTINUOUS
 70
0
 71
3
 72
10
 73
6
 74
0
 42
0.0000001
 43
0.0000001
 44
0.0000000001
 40
0.0
 40
0.0
 40
0.0
 40
0.0
 40
0.5154199698
 40
0.7600730746
 40
1.0
 40
1.0
 40
1.0
 40
1.0
 10
15.4136511384
 20
13.2886349087
 30
0.0
 10
15.4140741111
 20
13.2900823261
 30
0.0
 10
15.4143767315
 20
13.2923462449
 30
0.0
 10
15.4139225296
 20
13.2952510547
 30
0.0
 10
15.4134266109
 20
13.2965918645
 30
0.0
 10
15.4131173543
 20
13.2972220176
 30
0.0
  0
SPLINE
  5
5EB
100
AcDbEntity
  8
0
100
AcDbSpline
 62
7
  6
CONTINUOUS
 70
0
 71
3
 72
11
 73
7
 74
0
 42
0.0000001
 43
0.0000001
 44
0.0000000001
 40
0.0
 40
0.0
 40
0.0
 40
0.0
 40
0.2528296141
 40
0.5154410843
 40
0.7694605779
 40
1.0
 40
1.0
 40
1.0
 40
1.0
 10
14.9158713229
 20
11.7374238428
 30
0.0
 10
14.9183527212
 20
11.7374238428
 30
0.0
 10
14.9234307843
 20
11.7382856919
 30
0.0
 10
14.9303187635
 20
11.7415942865
 30
0.0
 10
14.9358947765
 20
11.7465024085
 30
0.0
 10
14.9383618901
 20
11.7507152767
 30
0.0
 10
14.939062835
 20
11.7528665961
 30
0.0
  0
SPLINE
  5
5EC
100
AcDbEntity
  8
0
100
AcDbSpline
 62
7
  6
CONTINUOUS
 70
0
 71
3
 72
10
 73
6
 74
0
 42
0.0000001
 43
0.0000001
 44
0.0000000001
 40
0.0
 40
0.0
 40
0.0
 40
0.0
 40
0.2399269254
 40
0.4845800302
 40
1.0
 40
1.0
 40
1.0
 40
1.0
 10
15.6991969923
 20
13.2773304987
 30
0.0
 10
15.6995062489
 20
13.2767003456
 30
0.0
 10
15.7000021676
 20
13.2753595357
 30
0.0
 10
15.7004563695
 20
13.272454726
 30
0.0
 10
15.700153749
 20
13.2701908071
 30
0.0
 10
15.6997307764
 20
13.2687433897
 30
0.0
  0
SPLINE
  5
5ED
100
AcDbEntity
  8
0
100
AcDbSpline
 62
7
  6
CONTINUOUS
 70
0
 71
3
 72
11
 73
7
 74
0
 42
0.0000001
 43
0.0000001
 44
0.0000000001
 40
0.0
 40
0.0
 40
0.0
 40
0.0
 40
0.2268583284
 40
0.4649942974
 40
0.7221540857
 40
1.0
 40
1.0
 40
1.0
 40
1.0
 10
15.6894356525
 20
13.2972220176
 30
0.0
 10
15.6889177052
 20
13.2982774069
 30
0.0
 10
15.6874686475
 20
13.30026923
 30
0.0
 10
15.684371
 20
13.3024663417
 30
0.0
 10
15.6805466968
 20
13.3038008704
 30
0.0
 10
15.677762132
 20
13.304077662
 30
0.0
 10
15.6763222679
 20
13.304077662
 30
0.0
  0
SPLINE
  5
5EE
100
AcDbEntity
  8
0
100
AcDbSpline
 62
7
  6
CONTINUOUS
 70
0
 71
3
 72
11
 73
7
 74
0
 42
0.0000001
 43
0.0000001
 44
0.0000000001
 40
0.0
 40
0.0
 40
0.0
 40
0.0
 40
0.2778459143
 40
0.5350057026
 40
0.7731416716
 40
1.0
 40
1.0
 40
1.0
 40
1.0
 10
14.9895843709
 20
11.7175323238
 30
0.0
 10
14.9881445067
 20
11.7175323238
 30
0.0
 10
14.985359942
 20
11.7178091155
 30
0.0
 10
14.9815356387
 20
11.7191436441
 30
0.0
 10
14.9784379912
 20
11.7213407558
 30
0.0
 10
14.9769889335
 20
11.7233325789
 30
0.0
 10
14.9764709862
 20
11.7243879682
 30
0.0
  0
SPLINE
  5
5EF
100
AcDbEntity
  8
0
100
AcDbSpline
 62
7
  6
CONTINUOUS
 70
0
 71
3
 72
11
 73
7
 74
0
 42
0.0000001
 43
0.0000001
 44
0.0000000001
 40
0.0
 40
0.0
 40
0.0
 40
0.0
 40
0.2305394221
 40
0.4845589157
 40
0.7471703859
 40
1.0
 40
1.0
 40
1.0
 40
1.0
 10
15.225142473
 20
11.7329750771
 30
0.0
 10
15.224441528
 20
11.7308237577
 30
0.0
 10
15.2219744145
 20
11.7266108895
 30
0.0
 10
15.2163984015
 20
11.7217027675
 30
0.0
 10
15.2095104222
 20
11.7183941729
 30
0.0
 10
15.2044323591
 20
11.7175323238
 30
0.0
 10
15.2019509608
 20
11.7175323238
 30
0.0
  0
SPLINE
  5
5F0
100
AcDbEntity
  8
0
100
AcDbSpline
 62
7
  6
CONTINUOUS
 70
0
 71
3
 72
10
 73
6
 74
0
 42
0.0000001
 43
0.0000001
 44
0.0000000001
 40
0.0
 40
0.0
 40
0.0
 40
0.0
 40
0.5154199698
 40
0.7600730746
 40
1.0
 40
1.0
 40
1.0
 40
1.0
 10
14.9661758624
 20
11.7528665961
 30
0.0
 10
14.9657528897
 20
11.7514191787
 30
0.0
 10
14.9654502693
 20
11.7491552599
 30
0.0
 10
14.9659044712
 20
11.7462504501
 30
0.0
 10
14.9664003899
 20
11.7449096403
 30
0.0
 10
14.9667096465
 20
11.7442794872
 30
0.0
  0
SPLINE
  5
5F1
100
AcDbEntity
  8
0
100
AcDbSpline
 62
7
  6
CONTINUOUS
 70
0
 71
3
 72
11
 73
7
 74
0
 42
0.0000001
 43
0.0000001
 44
0.0000000001
 40
0.0
 40
0.0
 40
0.0
 40
0.0
 40
0.2528296141
 40
0.5154410843
 40
0.7694605779
 40
1.0
 40
1.0
 40
1.0
 40
1.0
 10
15.4639556779
 20
13.304077662
 30
0.0
 10
15.4614742796
 20
13.304077662
 30
0.0
 10
15.4563962165
 20
13.3032158129
 30
0.0
 10
15.4495082373
 20
13.2999072183
 30
0.0
 10
15.4439322243
 20
13.2949990963
 30
0.0
 10
15.4414651108
 20
13.2907862281
 30
0.0
 10
15.4407641658
 20
13.2886349087
 30
0.0
  0
SPLINE
  5
5F2
100
AcDbEntity
  8
0
100
AcDbSpline
 62
7
  6
CONTINUOUS
 70
0
 71
3
 72
11
 73
7
 74
0
 42
0.0000001
 43
0.0000001
 44
0.0000000001
 40
0.0
 40
0.0
 40
0.0
 40
0.0
 40
0.2268583284
 40
0.4649942974
 40
0.7221540857
 40
1.0
 40
1.0
 40
1.0
 40
1.0
 10
14.9667096465
 20
11.7442794872
 30
0.0
 10
14.9672275938
 20
11.7432240979
 30
0.0
 10
14.9686766515
 20
11.7412322748
 30
0.0
 10
14.971774299
 20
11.7390351631
 30
0.0
 10
14.9755986022
 20
11.7377006344
 30
0.0
 10
14.978383167
 20
11.7374238428
 30
0.0
 10
14.9798230311
 20
11.7374238428
 30
0.0
  0
SPLINE
  5
5F3
100
AcDbEntity
  8
0
100
AcDbSpline
 62
7
  6
CONTINUOUS
 70
0
 71
3
 72
10
 73
6
 74
0
 42
0.0000001
 43
0.0000001
 44
0.0000000001
 40
0.0
 40
0.0
 40
0.0
 40
0.0
 40
0.5154199698
 40
0.7600730746
 40
1.0
 40
1.0
 40
1.0
 40
1.0
 10
15.6899694366
 20
13.2886349087
 30
0.0
 10
15.6903924093
 20
13.2900823261
 30
0.0
 10
15.6906950297
 20
13.2923462449
 30
0.0
 10
15.6902408278
 20
13.2952510547
 30
0.0
 10
15.6897449091
 20
13.2965918645
 30
0.0
 10
15.6894356525
 20
13.2972220176
 30
0.0
  0
SPLINE
  5
5F4
100
AcDbEntity
  8
0
100
AcDbSpline
 62
7
  6
CONTINUOUS
 70
0
 71
3
 72
11
 73
7
 74
0
 42
0.0000001
 43
0.0000001
 44
0.0000000001
 40
0.0
 40
0.0
 40
0.0
 40
0.0
 40
0.2528296141
 40
0.5154410843
 40
0.7694605779
 40
1.0
 40
1.0
 40
1.0
 40
1.0
 10
15.1921896211
 20
11.7374238428
 30
0.0
 10
15.1946710194
 20
11.7374238428
 30
0.0
 10
15.1997490825
 20
11.7382856919
 30
0.0
 10
15.2066370617
 20
11.7415942865
 30
0.0
 10
15.2122130747
 20
11.7465024085
 30
0.0
 10
15.2146801883
 20
11.7507152767
 30
0.0
 10
15.2153811332
 20
11.7528665961
 30
0.0
  0
SPLINE
  5
5F5
100
AcDbEntity
  8
0
100
AcDbSpline
 62
7
  6
CONTINUOUS
 70
0
 71
3
 72
10
 73
6
 74
0
 42
0.0000001
 43
0.0000001
 44
0.0000000001
 40
0.0
 40
0.0
 40
0.0
 40
0.0
 40
0.2399269254
 40
0.4845800302
 40
1.0
 40
1.0
 40
1.0
 40
1.0
 10
15.9755152905
 20
13.2773304987
 30
0.0
 10
15.9758245471
 20
13.2767003456
 30
0.0
 10
15.9763204658
 20
13.2753595357
 30
0.0
 10
15.9767746677
 20
13.272454726
 30
0.0
 10
15.9764720472
 20
13.2701908071
 30
0.0
 10
15.9760490746
 20
13.2687433897
 30
0.0
  0
SPLINE
  5
5F6
100
AcDbEntity
  8
0
100
AcDbSpline
 62
7
  6
CONTINUOUS
 70
0
 71
3
 72
11
 73
7
 74
0
 42
0.0000001
 43
0.0000001
 44
0.0000000001
 40
0.0
 40
0.0
 40
0.0
 40
0.0
 40
0.2268583284
 40
0.4649942974
 40
0.7221540857
 40
1.0
 40
1.0
 40
1.0
 40
1.0
 10
15.9657539507
 20
13.2972220176
 30
0.0
 10
15.9652360034
 20
13.2982774069
 30
0.0
 10
15.9637869457
 20
13.30026923
 30
0.0
 10
15.9606892982
 20
13.3024663417
 30
0.0
 10
15.956864995
 20
13.3038008704
 30
0.0
 10
15.9540804302
 20
13.304077662
 30
0.0
 10
15.9526405661
 20
13.304077662
 30
0.0
  0
SPLINE
  5
5F7
100
AcDbEntity
  8
0
100
AcDbSpline
 62
7
  6
CONTINUOUS
 70
0
 71
3
 72
11
 73
7
 74
0
 42
0.0000001
 43
0.0000001
 44
0.0000000001
 40
0.0
 40
0.0
 40
0.0
 40
0.0
 40
0.2778459143
 40
0.5350057026
 40
0.7731416716
 40
1.0
 40
1.0
 40
1.0
 40
1.0
 10
15.2659026691
 20
11.7175323238
 30
0.0
 10
15.2644628049
 20
11.7175323238
 30
0.0
 10
15.2616782402
 20
11.7178091155
 30
0.0
 10
15.2578539369
 20
11.7191436441
 30
0.0
 10
15.2547562894
 20
11.7213407558
 30
0.0
 10
15.2533072317
 20
11.7233325789
 30
0.0
 10
15.2527892844
 20
11.7243879682
 30
0.0
  0
SPLINE
  5
5F8
100
AcDbEntity
  8
0
100
AcDbSpline
 62
7
  6
CONTINUOUS
 70
0
 71
3
 72
11
 73
7
 74
0
 42
0.0000001
 43
0.0000001
 44
0.0000000001
 40
0.0
 40
0.0
 40
0.0
 40
0.0
 40
0.2305394221
 40
0.4845589157
 40
0.7471703859
 40
1.0
 40
1.0
 40
1.0
 40
1.0
 10
15.5014607712
 20
11.7329750771
 30
0.0
 10
15.5007598262
 20
11.7308237577
 30
0.0
 10
15.4982927127
 20
11.7266108895
 30
0.0
 10
15.4927166997
 20
11.7217027675
 30
0.0
 10
15.4858287204
 20
11.7183941729
 30
0.0
 10
15.4807506573
 20
11.7175323238
 30
0.0
 10
15.478269259
 20
11.7175323238
 30
0.0
  0
SPLINE
  5
5F9
100
AcDbEntity
  8
0
100
AcDbSpline
 62
7
  6
CONTINUOUS
 70
0
 71
3
 72
10
 73
6
 74
0
 42
0.0000001
 43
0.0000001
 44
0.0000000001
 40
0.0
 40
0.0
 40
0.0
 40
0.0
 40
0.5154199698
 40
0.7600730746
 40
1.0
 40
1.0
 40
1.0
 40
1.0
 10
15.2424941606
 20
11.7528665961
 30
0.0
 10
15.2420711879
 20
11.7514191787
 30
0.0
 10
15.2417685675
 20
11.7491552599
 30
0.0
 10
15.2422227694
 20
11.7462504501
 30
0.0
 10
15.2427186881
 20
11.7449096403
 30
0.0
 10
15.2430279447
 20
11.7442794872
 30
0.0
  0
SPLINE
  5
5FA
100
AcDbEntity
  8
0
100
AcDbSpline
 62
7
  6
CONTINUOUS
 70
0
 71
3
 72
11
 73
7
 74
0
 42
0.0000001
 43
0.0000001
 44
0.0000000001
 40
0.0
 40
0.0
 40
0.0
 40
0.0
 40
0.2528296141
 40
0.5154410843
 40
0.7694605779
 40
1.0
 40
1.0
 40
1.0
 40
1.0
 10
15.7402739761
 20
13.304077662
 30
0.0
 10
15.7377925779
 20
13.304077662
 30
0.0
 10
15.7327145147
 20
13.3032158129
 30
0.0
 10
15.7258265355
 20
13.2999072183
 30
0.0
 10
15.7202505225
 20
13.2949990963
 30
0.0
 10
15.717783409
 20
13.2907862281
 30
0.0
 10
15.717082464
 20
13.2886349087
 30
0.0
  0
SPLINE
  5
5FB
100
AcDbEntity
  8
0
100
AcDbSpline
 62
7
  6
CONTINUOUS
 70
0
 71
3
 72
11
 73
7
 74
0
 42
0.0000001
 43
0.0000001
 44
0.0000000001
 40
0.0
 40
0.0
 40
0.0
 40
0.0
 40
0.2268583284
 40
0.4649942974
 40
0.7221540857
 40
1.0
 40
1.0
 40
1.0
 40
1.0
 10
15.2430279447
 20
11.7442794872
 30
0.0
 10
15.243545892
 20
11.7432240979
 30
0.0
 10
15.2449949497
 20
11.7412322748
 30
0.0
 10
15.2480925972
 20
11.7390351631
 30
0.0
 10
15.2519169004
 20
11.7377006344
 30
0.0
 10
15.2547014652
 20
11.7374238428
 30
0.0
 10
15.2561413293
 20
11.7374238428
 30
0.0
  0
SPLINE
  5
5FC
100
AcDbEntity
  8
0
100
AcDbSpline
 62
7
  6
CONTINUOUS
 70
0
 71
3
 72
10
 73
6
 74
0
 42
0.0000001
 43
0.0000001
 44
0.0000000001
 40
0.0
 40
0.0
 40
0.0
 40
0.0
 40
0.5154199698
 40
0.7600730746
 40
1.0
 40
1.0
 40
1.0
 40
1.0
 10
15.9662877348
 20
13.2886349087
 30
0.0
 10
15.9667107075
 20
13.2900823261
 30
0.0
 10
15.9670133279
 20
13.2923462449
 30
0.0
 10
15.966559126
 20
13.2952510547
 30
0.0
 10
15.9660632073
 20
13.2965918645
 30
0.0
 10
15.9657539507
 20
13.2972220176
 30
0.0
  0
SPLINE
  5
5FD
100
AcDbEntity
  8
0
100
AcDbSpline
 62
7
  6
CONTINUOUS
 70
0
 71
3
 72
11
 73
7
 74
0
 42
0.0000001
 43
0.0000001
 44
0.0000000001
 40
0.0
 40
0.0
 40
0.0
 40
0.0
 40
0.2528296141
 40
0.5154410843
 40
0.7694605779
 40
1.0
 40
1.0
 40
1.0
 40
1.0
 10
15.4685079193
 20
11.7374238428
 30
0.0
 10
15.4709893176
 20
11.7374238428
 30
0.0
 10
15.4760673807
 20
11.7382856919
 30
0.0
 10
15.4829553599
 20
11.7415942865
 30
0.0
 10
15.4885313729
 20
11.7465024085
 30
0.0
 10
15.4909984865
 20
11.7507152767
 30
0.0
 10
15.4916994314
 20
11.7528665961
 30
0.0
  0
SPLINE
  5
5FE
100
AcDbEntity
  8
0
100
AcDbSpline
 62
7
  6
CONTINUOUS
 70
0
 71
3
 72
10
 73
6
 74
0
 42
0.0000001
 43
0.0000001
 44
0.0000000001
 40
0.0
 40
0.0
 40
0.0
 40
0.0
 40
0.2399269254
 40
0.4845800302
 40
1.0
 40
1.0
 40
1.0
 40
1.0
 10
16.2518335887
 20
13.2773304987
 30
0.0
 10
16.2521428453
 20
13.2767003456
 30
0.0
 10
16.252638764
 20
13.2753595357
 30
0.0
 10
16.2530929659
 20
13.272454726
 30
0.0
 10
16.2527903454
 20
13.2701908071
 30
0.0
 10
16.2523673728
 20
13.2687433897
 30
0.0
  0
SPLINE
  5
5FF
100
AcDbEntity
  8
0
100
AcDbSpline
 62
7
  6
CONTINUOUS
 70
0
 71
3
 72
11
 73
7
 74
0
 42
0.0000001
 43
0.0000001
 44
0.0000000001
 40
0.0
 40
0.0
 40
0.0
 40
0.0
 40
0.2268583284
 40
0.4649942974
 40
0.7221540857
 40
1.0
 40
1.0
 40
1.0
 40
1.0
 10
16.2420722489
 20
13.2972220176
 30
0.0
 10
16.2415543016
 20
13.2982774069
 30
0.0
 10
16.2401052439
 20
13.30026923
 30
0.0
 10
16.2370075964
 20
13.3024663417
 30
0.0
 10
16.2331832932
 20
13.3038008704
 30
0.0
 10
16.2303987284
 20
13.304077662
 30
0.0
 10
16.2289588643
 20
13.304077662
 30
0.0
  0
SPLINE
  5
600
100
AcDbEntity
  8
0
100
AcDbSpline
 62
7
  6
CONTINUOUS
 70
0
 71
3
 72
11
 73
7
 74
0
 42
0.0000001
 43
0.0000001
 44
0.0000000001
 40
0.0
 40
0.0
 40
0.0
 40
0.0
 40
0.2778459143
 40
0.5350057026
 40
0.7731416716
 40
1.0
 40
1.0
 40
1.0
 40
1.0
 10
15.5422209673
 20
11.7175323238
 30
0.0
 10
15.5407811031
 20
11.7175323238
 30
0.0
 10
15.5379965384
 20
11.7178091155
 30
0.0
 10
15.5341722351
 20
11.7191436441
 30
0.0
 10
15.5310745876
 20
11.7213407558
 30
0.0
 10
15.5296255299
 20
11.7233325789
 30
0.0
 10
15.5291075826
 20
11.7243879682
 30
0.0
  0
SPLINE
  5
601
100
AcDbEntity
  8
0
100
AcDbSpline
 62
7
  6
CONTINUOUS
 70
0
 71
3
 72
11
 73
7
 74
0
 42
0.0000001
 43
0.0000001
 44
0.0000000001
 40
0.0
 40
0.0
 40
0.0
 40
0.0
 40
0.2305394221
 40
0.4845589157
 40
0.7471703859
 40
1.0
 40
1.0
 40
1.0
 40
1.0
 10
15.7777790694
 20
11.7329750771
 30
0.0
 10
15.7770781244
 20
11.7308237577
 30
0.0
 10
15.7746110109
 20
11.7266108895
 30
0.0
 10
15.7690349979
 20
11.7217027675
 30
0.0
 10
15.7621470186
 20
11.7183941729
 30
0.0
 10
15.7570689555
 20
11.7175323238
 30
0.0
 10
15.7545875572
 20
11.7175323238
 30
0.0
  0
SPLINE
  5
602
100
AcDbEntity
  8
0
100
AcDbSpline
 62
7
  6
CONTINUOUS
 70
0
 71
3
 72
10
 73
6
 74
0
 42
0.0000001
 43
0.0000001
 44
0.0000000001
 40
0.0
 40
0.0
 40
0.0
 40
0.0
 40
0.5154199698
 40
0.7600730746
 40
1.0
 40
1.0
 40
1.0
 40
1.0
 10
15.5188124588
 20
11.7528665961
 30
0.0
 10
15.5183894861
 20
11.7514191787
 30
0.0
 10
15.5180868657
 20
11.7491552599
 30
0.0
 10
15.5185410676
 20
11.7462504501
 30
0.0
 10
15.5190369863
 20
11.7449096403
 30
0.0
 10
15.5193462429
 20
11.7442794872
 30
0.0
  0
SPLINE
  5
603
100
AcDbEntity
  8
0
100
AcDbSpline
 62
7
  6
CONTINUOUS
 70
0
 71
3
 72
11
 73
7
 74
0
 42
0.0000001
 43
0.0000001
 44
0.0000000001
 40
0.0
 40
0.0
 40
0.0
 40
0.0
 40
0.2528296141
 40
0.5154410843
 40
0.7694605779
 40
1.0
 40
1.0
 40
1.0
 40
1.0
 10
16.0165922743
 20
13.304077662
 30
0.0
 10
16.0141108761
 20
13.304077662
 30
0.0
 10
16.0090328129
 20
13.3032158129
 30
0.0
 10
16.0021448337
 20
13.2999072183
 30
0.0
 10
15.9965688207
 20
13.2949990963
 30
0.0
 10
15.9941017072
 20
13.2907862281
 30
0.0
 10
15.9934007622
 20
13.2886349087
 30
0.0
  0
SPLINE
  5
604
100
AcDbEntity
  8
0
100
AcDbSpline
 62
7
  6
CONTINUOUS
 70
0
 71
3
 72
11
 73
7
 74
0
 42
0.0000001
 43
0.0000001
 44
0.0000000001
 40
0.0
 40
0.0
 40
0.0
 40
0.0
 40
0.2268583284
 40
0.4649942974
 40
0.7221540857
 40
1.0
 40
1.0
 40
1.0
 40
1.0
 10
15.5193462429
 20
11.7442794872
 30
0.0
 10
15.5198641902
 20
11.7432240979
 30
0.0
 10
15.5213132479
 20
11.7412322748
 30
0.0
 10
15.5244108954
 20
11.7390351631
 30
0.0
 10
15.5282351986
 20
11.7377006344
 30
0.0
 10
15.5310197634
 20
11.7374238428
 30
0.0
 10
15.5324596275
 20
11.7374238428
 30
0.0
  0
SPLINE
  5
605
100
AcDbEntity
  8
0
100
AcDbSpline
 62
7
  6
CONTINUOUS
 70
0
 71
3
 72
10
 73
6
 74
0
 42
0.0000001
 43
0.0000001
 44
0.0000000001
 40
0.0
 40
0.0
 40
0.0
 40
0.0
 40
0.5154199698
 40
0.7600730746
 40
1.0
 40
1.0
 40
1.0
 40
1.0
 10
16.242606033
 20
13.2886349087
 30
0.0
 10
16.2430290057
 20
13.2900823261
 30
0.0
 10
16.2433316261
 20
13.2923462449
 30
0.0
 10
16.2428774242
 20
13.2952510547
 30
0.0
 10
16.2423815055
 20
13.2965918645
 30
0.0
 10
16.2420722489
 20
13.2972220176
 30
0.0
  0
SPLINE
  5
606
100
AcDbEntity
  8
0
100
AcDbSpline
 62
7
  6
CONTINUOUS
 70
0
 71
3
 72
11
 73
7
 74
0
 42
0.0000001
 43
0.0000001
 44
0.0000000001
 40
0.0
 40
0.0
 40
0.0
 40
0.0
 40
0.2528296141
 40
0.5154410843
 40
0.7694605779
 40
1.0
 40
1.0
 40
1.0
 40
1.0
 10
15.7448262175
 20
11.7374238428
 30
0.0
 10
15.7473076158
 20
11.7374238428
 30
0.0
 10
15.7523856789
 20
11.7382856919
 30
0.0
 10
15.7592736581
 20
11.7415942865
 30
0.0
 10
15.7648496711
 20
11.7465024085
 30
0.0
 10
15.7673167847
 20
11.7507152767
 30
0.0
 10
15.7680177296
 20
11.7528665961
 30
0.0
  0
SPLINE
  5
607
100
AcDbEntity
  8
0
100
AcDbSpline
 62
7
  6
CONTINUOUS
 70
0
 71
3
 72
10
 73
6
 74
0
 42
0.0000001
 43
0.0000001
 44
0.0000000001
 40
0.0
 40
0.0
 40
0.0
 40
0.0
 40
0.2399269254
 40
0.4845800302
 40
1.0
 40
1.0
 40
1.0
 40
1.0
 10
16.5281518869
 20
13.2773304987
 30
0.0
 10
16.5284611435
 20
13.2767003456
 30
0.0
 10
16.5289570622
 20
13.2753595357
 30
0.0
 10
16.5294112641
 20
13.272454726
 30
0.0
 10
16.5291086436
 20
13.2701908071
 30
0.0
 10
16.528685671
 20
13.2687433897
 30
0.0
  0
SPLINE
  5
608
100
AcDbEntity
  8
0
100
AcDbSpline
 62
7
  6
CONTINUOUS
 70
0
 71
3
 72
11
 73
7
 74
0
 42
0.0000001
 43
0.0000001
 44
0.0000000001
 40
0.0
 40
0.0
 40
0.0
 40
0.0
 40
0.2268583284
 40
0.4649942974
 40
0.7221540857
 40
1.0
 40
1.0
 40
1.0
 40
1.0
 10
16.5183905471
 20
13.2972220176
 30
0.0
 10
16.5178725998
 20
13.2982774069
 30
0.0
 10
16.5164235421
 20
13.30026923
 30
0.0
 10
16.5133258946
 20
13.3024663417
 30
0.0
 10
16.5095015914
 20
13.3038008704
 30
0.0
 10
16.5067170266
 20
13.304077662
 30
0.0
 10
16.5052771625
 20
13.304077662
 30
0.0
  0
SPLINE
  5
609
100
AcDbEntity
  8
0
100
AcDbSpline
 62
7
  6
CONTINUOUS
 70
0
 71
3
 72
11
 73
7
 74
0
 42
0.0000001
 43
0.0000001
 44
0.0000000001
 40
0.0
 40
0.0
 40
0.0
 40
0.0
 40
0.2778459143
 40
0.5350057026
 40
0.7731416716
 40
1.0
 40
1.0
 40
1.0
 40
1.0
 10
15.8185392655
 20
11.7175323238
 30
0.0
 10
15.8170994013
 20
11.7175323238
 30
0.0
 10
15.8143148366
 20
11.7178091155
 30
0.0
 10
15.8104905333
 20
11.7191436441
 30
0.0
 10
15.8073928858
 20
11.7213407558
 30
0.0
 10
15.8059438281
 20
11.7233325789
 30
0.0
 10
15.8054258808
 20
11.7243879682
 30
0.0
  0
SPLINE
  5
60A
100
AcDbEntity
  8
0
100
AcDbSpline
 62
7
  6
CONTINUOUS
 70
0
 71
3
 72
11
 73
7
 74
0
 42
0.0000001
 43
0.0000001
 44
0.0000000001
 40
0.0
 40
0.0
 40
0.0
 40
0.0
 40
0.2305394221
 40
0.4845589157
 40
0.7471703859
 40
1.0
 40
1.0
 40
1.0
 40
1.0
 10
16.0540973676
 20
11.7329750771
 30
0.0
 10
16.0533964226
 20
11.7308237577
 30
0.0
 10
16.0509293091
 20
11.7266108895
 30
0.0
 10
16.0453532961
 20
11.7217027675
 30
0.0
 10
16.0384653168
 20
11.7183941729
 30
0.0
 10
16.0333872537
 20
11.7175323238
 30
0.0
 10
16.0309058554
 20
11.7175323238
 30
0.0
  0
SPLINE
  5
60B
100
AcDbEntity
  8
0
100
AcDbSpline
 62
7
  6
CONTINUOUS
 70
0
 71
3
 72
10
 73
6
 74
0
 42
0.0000001
 43
0.0000001
 44
0.0000000001
 40
0.0
 40
0.0
 40
0.0
 40
0.0
 40
0.5154199698
 40
0.7600730746
 40
1.0
 40
1.0
 40
1.0
 40
1.0
 10
15.795130757
 20
11.7528665961
 30
0.0
 10
15.7947077843
 20
11.7514191787
 30
0.0
 10
15.7944051639
 20
11.7491552599
 30
0.0
 10
15.7948593658
 20
11.7462504501
 30
0.0
 10
15.7953552845
 20
11.7449096403
 30
0.0
 10
15.7956645411
 20
11.7442794872
 30
0.0
  0
SPLINE
  5
60C
100
AcDbEntity
  8
0
100
AcDbSpline
 62
7
  6
CONTINUOUS
 70
0
 71
3
 72
11
 73
7
 74
0
 42
0.0000001
 43
0.0000001
 44
0.0000000001
 40
0.0
 40
0.0
 40
0.0
 40
0.0
 40
0.2528296141
 40
0.5154410843
 40
0.7694605779
 40
1.0
 40
1.0
 40
1.0
 40
1.0
 10
16.2929105725
 20
13.304077662
 30
0.0
 10
16.2904291743
 20
13.304077662
 30
0.0
 10
16.2853511111
 20
13.3032158129
 30
0.0
 10
16.2784631319
 20
13.2999072183
 30
0.0
 10
16.2728871189
 20
13.2949990963
 30
0.0
 10
16.2704200054
 20
13.2907862281
 30
0.0
 10
16.2697190604
 20
13.2886349087
 30
0.0
  0
SPLINE
  5
60D
100
AcDbEntity
  8
0
100
AcDbSpline
 62
7
  6
CONTINUOUS
 70
0
 71
3
 72
11
 73
7
 74
0
 42
0.0000001
 43
0.0000001
 44
0.0000000001
 40
0.0
 40
0.0
 40
0.0
 40
0.0
 40
0.2268583284
 40
0.4649942974
 40
0.7221540857
 40
1.0
 40
1.0
 40
1.0
 40
1.0
 10
15.7956645411
 20
11.7442794872
 30
0.0
 10
15.7961824884
 20
11.7432240979
 30
0.0
 10
15.7976315461
 20
11.7412322748
 30
0.0
 10
15.8007291936
 20
11.7390351631
 30
0.0
 10
15.8045534968
 20
11.7377006344
 30
0.0
 10
15.8073380616
 20
11.7374238428
 30
0.0
 10
15.8087779257
 20
11.7374238428
 30
0.0
  0
SPLINE
  5
60E
100
AcDbEntity
  8
0
100
AcDbSpline
 62
7
  6
CONTINUOUS
 70
0
 71
3
 72
10
 73
6
 74
0
 42
0.0000001
 43
0.0000001
 44
0.0000000001
 40
0.0
 40
0.0
 40
0.0
 40
0.0
 40
0.5154199698
 40
0.7600730746
 40
1.0
 40
1.0
 40
1.0
 40
1.0
 10
16.5189243312
 20
13.2886349087
 30
0.0
 10
16.5193473039
 20
13.2900823261
 30
0.0
 10
16.5196499243
 20
13.2923462449
 30
0.0
 10
16.5191957224
 20
13.2952510547
 30
0.0
 10
16.5186998037
 20
13.2965918645
 30
0.0
 10
16.5183905471
 20
13.2972220176
 30
0.0
  0
SPLINE
  5
60F
100
AcDbEntity
  8
0
100
AcDbSpline
 62
7
  6
CONTINUOUS
 70
0
 71
3
 72
11
 73
7
 74
0
 42
0.0000001
 43
0.0000001
 44
0.0000000001
 40
0.0
 40
0.0
 40
0.0
 40
0.0
 40
0.2528296141
 40
0.5154410843
 40
0.7694605779
 40
1.0
 40
1.0
 40
1.0
 40
1.0
 10
16.0211445157
 20
11.7374238428
 30
0.0
 10
16.023625914
 20
11.7374238428
 30
0.0
 10
16.0287039771
 20
11.7382856919
 30
0.0
 10
16.0355919563
 20
11.7415942865
 30
0.0
 10
16.0411679693
 20
11.7465024085
 30
0.0
 10
16.0436350829
 20
11.7507152767
 30
0.0
 10
16.0443360278
 20
11.7528665961
 30
0.0
  0
SPLINE
  5
610
100
AcDbEntity
  8
0
100
AcDbSpline
 62
7
  6
CONTINUOUS
 70
0
 71
3
 72
10
 73
6
 74
0
 42
0.0000001
 43
0.0000001
 44
0.0000000001
 40
0.0
 40
0.0
 40
0.0
 40
0.0
 40
0.2399269254
 40
0.4845800302
 40
1.0
 40
1.0
 40
1.0
 40
1.0
 10
16.8044701851
 20
13.2773304987
 30
0.0
 10
16.8047794417
 20
13.2767003456
 30
0.0
 10
16.8052753604
 20
13.2753595357
 30
0.0
 10
16.8057295623
 20
13.272454726
 30
0.0
 10
16.8054269418
 20
13.2701908071
 30
0.0
 10
16.8050039692
 20
13.2687433897
 30
0.0
  0
SPLINE
  5
611
100
AcDbEntity
  8
0
100
AcDbSpline
 62
7
  6
CONTINUOUS
 70
0
 71
3
 72
11
 73
7
 74
0
 42
0.0000001
 43
0.0000001
 44
0.0000000001
 40
0.0
 40
0.0
 40
0.0
 40
0.0
 40
0.2268583284
 40
0.4649942974
 40
0.7221540857
 40
1.0
 40
1.0
 40
1.0
 40
1.0
 10
16.7947088453
 20
13.2972220176
 30
0.0
 10
16.794190898
 20
13.2982774069
 30
0.0
 10
16.7927418403
 20
13.30026923
 30
0.0
 10
16.7896441928
 20
13.3024663417
 30
0.0
 10
16.7858198896
 20
13.3038008704
 30
0.0
 10
16.7830353248
 20
13.304077662
 30
0.0
 10
16.7815954607
 20
13.304077662
 30
0.0
  0
SPLINE
  5
612
100
AcDbEntity
  8
0
100
AcDbSpline
 62
7
  6
CONTINUOUS
 70
0
 71
3
 72
11
 73
7
 74
0
 42
0.0000001
 43
0.0000001
 44
0.0000000001
 40
0.0
 40
0.0
 40
0.0
 40
0.0
 40
0.2778459143
 40
0.5350057026
 40
0.7731416716
 40
1.0
 40
1.0
 40
1.0
 40
1.0
 10
16.0948575637
 20
11.7175323238
 30
0.0
 10
16.0934176995
 20
11.7175323238
 30
0.0
 10
16.0906331348
 20
11.7178091155
 30
0.0
 10
16.0868088315
 20
11.7191436441
 30
0.0
 10
16.083711184
 20
11.7213407558
 30
0.0
 10
16.0822621263
 20
11.7233325789
 30
0.0
 10
16.081744179
 20
11.7243879682
 30
0.0
  0
SPLINE
  5
613
100
AcDbEntity
  8
0
100
AcDbSpline
 62
7
  6
CONTINUOUS
 70
0
 71
3
 72
11
 73
7
 74
0
 42
0.0000001
 43
0.0000001
 44
0.0000000001
 40
0.0
 40
0.0
 40
0.0
 40
0.0
 40
0.2305394221
 40
0.4845589157
 40
0.7471703859
 40
1.0
 40
1.0
 40
1.0
 40
1.0
 10
16.3304156658
 20
11.7329750771
 30
0.0
 10
16.3297147208
 20
11.7308237577
 30
0.0
 10
16.3272476073
 20
11.7266108895
 30
0.0
 10
16.3216715943
 20
11.7217027675
 30
0.0
 10
16.314783615
 20
11.7183941729
 30
0.0
 10
16.3097055519
 20
11.7175323238
 30
0.0
 10
16.3072241536
 20
11.7175323238
 30
0.0
  0
SPLINE
  5
614
100
AcDbEntity
  8
0
100
AcDbSpline
 62
7
  6
CONTINUOUS
 70
0
 71
3
 72
10
 73
6
 74
0
 42
0.0000001
 43
0.0000001
 44
0.0000000001
 40
0.0
 40
0.0
 40
0.0
 40
0.0
 40
0.5154199698
 40
0.7600730746
 40
1.0
 40
1.0
 40
1.0
 40
1.0
 10
16.0714490552
 20
11.7528665961
 30
0.0
 10
16.0710260825
 20
11.7514191787
 30
0.0
 10
16.0707234621
 20
11.7491552599
 30
0.0
 10
16.071177664
 20
11.7462504501
 30
0.0
 10
16.0716735827
 20
11.7449096403
 30
0.0
 10
16.0719828393
 20
11.7442794872
 30
0.0
  0
SPLINE
  5
615
100
AcDbEntity
  8
0
100
AcDbSpline
 62
7
  6
CONTINUOUS
 70
0
 71
3
 72
11
 73
7
 74
0
 42
0.0000001
 43
0.0000001
 44
0.0000000001
 40
0.0
 40
0.0
 40
0.0
 40
0.0
 40
0.2528296141
 40
0.5154410843
 40
0.7694605779
 40
1.0
 40
1.0
 40
1.0
 40
1.0
 10
16.5692288707
 20
13.304077662
 30
0.0
 10
16.5667474725
 20
13.304077662
 30
0.0
 10
16.5616694093
 20
13.3032158129
 30
0.0
 10
16.5547814301
 20
13.2999072183
 30
0.0
 10
16.5492054171
 20
13.2949990963
 30
0.0
 10
16.5467383036
 20
13.2907862281
 30
0.0
 10
16.5460373586
 20
13.2886349087
 30
0.0
  0
SPLINE
  5
616
100
AcDbEntity
  8
0
100
AcDbSpline
 62
7
  6
CONTINUOUS
 70
0
 71
3
 72
11
 73
7
 74
0
 42
0.0000001
 43
0.0000001
 44
0.0000000001
 40
0.0
 40
0.0
 40
0.0
 40
0.0
 40
0.2268583284
 40
0.4649942974
 40
0.7221540857
 40
1.0
 40
1.0
 40
1.0
 40
1.0
 10
16.0719828393
 20
11.7442794872
 30
0.0
 10
16.0725007866
 20
11.7432240979
 30
0.0
 10
16.0739498443
 20
11.7412322748
 30
0.0
 10
16.0770474918
 20
11.7390351631
 30
0.0
 10
16.080871795
 20
11.7377006344
 30
0.0
 10
16.0836563598
 20
11.7374238428
 30
0.0
 10
16.0850962239
 20
11.7374238428
 30
0.0
  0
SPLINE
  5
617
100
AcDbEntity
  8
0
100
AcDbSpline
 62
7
  6
CONTINUOUS
 70
0
 71
3
 72
10
 73
6
 74
0
 42
0.0000001
 43
0.0000001
 44
0.0000000001
 40
0.0
 40
0.0
 40
0.0
 40
0.0
 40
0.5154199698
 40
0.7600730746
 40
1.0
 40
1.0
 40
1.0
 40
1.0
 10
16.7952426294
 20
13.2886349087
 30
0.0
 10
16.7956656021
 20
13.2900823261
 30
0.0
 10
16.7959682225
 20
13.2923462449
 30
0.0
 10
16.7955140206
 20
13.2952510547
 30
0.0
 10
16.7950181019
 20
13.2965918645
 30
0.0
 10
16.7947088453
 20
13.2972220176
 30
0.0
  0
SPLINE
  5
618
100
AcDbEntity
  8
0
100
AcDbSpline
 62
7
  6
CONTINUOUS
 70
0
 71
3
 72
11
 73
7
 74
0
 42
0.0000001
 43
0.0000001
 44
0.0000000001
 40
0.0
 40
0.0
 40
0.0
 40
0.0
 40
0.2528296141
 40
0.5154410843
 40
0.7694605779
 40
1.0
 40
1.0
 40
1.0
 40
1.0
 10
16.2974628139
 20
11.7374238428
 30
0.0
 10
16.2999442122
 20
11.7374238428
 30
0.0
 10
16.3050222753
 20
11.7382856919
 30
0.0
 10
16.3119102545
 20
11.7415942865
 30
0.0
 10
16.3174862675
 20
11.7465024085
 30
0.0
 10
16.3199533811
 20
11.7507152767
 30
0.0
 10
16.320654326
 20
11.7528665961
 30
0.0
  0
SPLINE
  5
619
100
AcDbEntity
  8
0
100
AcDbSpline
 62
7
  6
CONTINUOUS
 70
0
 71
3
 72
10
 73
6
 74
0
 42
0.0000001
 43
0.0000001
 44
0.0000000001
 40
0.0
 40
0.0
 40
0.0
 40
0.0
 40
0.2399269254
 40
0.4845800302
 40
1.0
 40
1.0
 40
1.0
 40
1.0
 10
17.0807884833
 20
13.2773304987
 30
0.0
 10
17.0810977399
 20
13.2767003456
 30
0.0
 10
17.0815936586
 20
13.2753595357
 30
0.0
 10
17.0820478605
 20
13.272454726
 30
0.0
 10
17.08174524
 20
13.2701908071
 30
0.0
 10
17.0813222674
 20
13.2687433897
 30
0.0
  0
SPLINE
  5
61A
100
AcDbEntity
  8
0
100
AcDbSpline
 62
7
  6
CONTINUOUS
 70
0
 71
3
 72
11
 73
7
 74
0
 42
0.0000001
 43
0.0000001
 44
0.0000000001
 40
0.0
 40
0.0
 40
0.0
 40
0.0
 40
0.2268583284
 40
0.4649942974
 40
0.7221540857
 40
1.0
 40
1.0
 40
1.0
 40
1.0
 10
17.0710271435
 20
13.2972220176
 30
0.0
 10
17.0705091962
 20
13.2982774069
 30
0.0
 10
17.0690601385
 20
13.30026923
 30
0.0
 10
17.065962491
 20
13.3024663417
 30
0.0
 10
17.0621381878
 20
13.3038008704
 30
0.0
 10
17.059353623
 20
13.304077662
 30
0.0
 10
17.0579137589
 20
13.304077662
 30
0.0
  0
SPLINE
  5
61B
100
AcDbEntity
  8
0
100
AcDbSpline
 62
7
  6
CONTINUOUS
 70
0
 71
3
 72
11
 73
7
 74
0
 42
0.0000001
 43
0.0000001
 44
0.0000000001
 40
0.0
 40
0.0
 40
0.0
 40
0.0
 40
0.2778459143
 40
0.5350057026
 40
0.7731416716
 40
1.0
 40
1.0
 40
1.0
 40
1.0
 10
16.3711758619
 20
11.7175323238
 30
0.0
 10
16.3697359977
 20
11.7175323238
 30
0.0
 10
16.366951433
 20
11.7178091155
 30
0.0
 10
16.3631271297
 20
11.7191436441
 30
0.0
 10
16.3600294822
 20
11.7213407558
 30
0.0
 10
16.3585804245
 20
11.7233325789
 30
0.0
 10
16.3580624772
 20
11.7243879682
 30
0.0
  0
SPLINE
  5
61C
100
AcDbEntity
  8
0
100
AcDbSpline
 62
7
  6
CONTINUOUS
 70
0
 71
3
 72
11
 73
7
 74
0
 42
0.0000001
 43
0.0000001
 44
0.0000000001
 40
0.0
 40
0.0
 40
0.0
 40
0.0
 40
0.2305394221
 40
0.4845589157
 40
0.7471703859
 40
1.0
 40
1.0
 40
1.0
 40
1.0
 10
16.606733964
 20
11.7329750771
 30
0.0
 10
16.606033019
 20
11.7308237577
 30
0.0
 10
16.6035659055
 20
11.7266108895
 30
0.0
 10
16.5979898925
 20
11.7217027675
 30
0.0
 10
16.5911019132
 20
11.7183941729
 30
0.0
 10
16.5860238501
 20
11.7175323238
 30
0.0
 10
16.5835424518
 20
11.7175323238
 30
0.0
  0
SPLINE
  5
61D
100
AcDbEntity
  8
0
100
AcDbSpline
 62
7
  6
CONTINUOUS
 70
0
 71
3
 72
10
 73
6
 74
0
 42
0.0000001
 43
0.0000001
 44
0.0000000001
 40
0.0
 40
0.0
 40
0.0
 40
0.0
 40
0.5154199698
 40
0.7600730746
 40
1.0
 40
1.0
 40
1.0
 40
1.0
 10
16.3477673534
 20
11.7528665961
 30
0.0
 10
16.3473443807
 20
11.7514191787
 30
0.0
 10
16.3470417603
 20
11.7491552599
 30
0.0
 10
16.3474959622
 20
11.7462504501
 30
0.0
 10
16.3479918809
 20
11.7449096403
 30
0.0
 10
16.3483011375
 20
11.7442794872
 30
0.0
  0
SPLINE
  5
61E
100
AcDbEntity
  8
0
100
AcDbSpline
 62
7
  6
CONTINUOUS
 70
0
 71
3
 72
11
 73
7
 74
0
 42
0.0000001
 43
0.0000001
 44
0.0000000001
 40
0.0
 40
0.0
 40
0.0
 40
0.0
 40
0.2528296141
 40
0.5154410843
 40
0.7694605779
 40
1.0
 40
1.0
 40
1.0
 40
1.0
 10
16.8455471689
 20
13.304077662
 30
0.0
 10
16.8430657707
 20
13.304077662
 30
0.0
 10
16.8379877075
 20
13.3032158129
 30
0.0
 10
16.8310997283
 20
13.2999072183
 30
0.0
 10
16.8255237153
 20
13.2949990963
 30
0.0
 10
16.8230566018
 20
13.2907862281
 30
0.0
 10
16.8223556568
 20
13.2886349087
 30
0.0
  0
SPLINE
  5
61F
100
AcDbEntity
  8
0
100
AcDbSpline
 62
7
  6
CONTINUOUS
 70
0
 71
3
 72
11
 73
7
 74
0
 42
0.0000001
 43
0.0000001
 44
0.0000000001
 40
0.0
 40
0.0
 40
0.0
 40
0.0
 40
0.2268583284
 40
0.4649942974
 40
0.7221540857
 40
1.0
 40
1.0
 40
1.0
 40
1.0
 10
16.3483011375
 20
11.7442794872
 30
0.0
 10
16.3488190848
 20
11.7432240979
 30
0.0
 10
16.3502681425
 20
11.7412322748
 30
0.0
 10
16.35336579
 20
11.7390351631
 30
0.0
 10
16.3571900932
 20
11.7377006344
 30
0.0
 10
16.359974658
 20
11.7374238428
 30
0.0
 10
16.3614145221
 20
11.7374238428
 30
0.0
  0
SPLINE
  5
620
100
AcDbEntity
  8
0
100
AcDbSpline
 62
7
  6
CONTINUOUS
 70
0
 71
3
 72
10
 73
6
 74
0
 42
0.0000001
 43
0.0000001
 44
0.0000000001
 40
0.0
 40
0.0
 40
0.0
 40
0.0
 40
0.5154199698
 40
0.7600730746
 40
1.0
 40
1.0
 40
1.0
 40
1.0
 10
17.0715609276
 20
13.2886349087
 30
0.0
 10
17.0719839003
 20
13.2900823261
 30
0.0
 10
17.0722865207
 20
13.2923462449
 30
0.0
 10
17.0718323188
 20
13.2952510547
 30
0.0
 10
17.0713364001
 20
13.2965918645
 30
0.0
 10
17.0710271435
 20
13.2972220176
 30
0.0
  0
SPLINE
  5
621
100
AcDbEntity
  8
0
100
AcDbSpline
 62
7
  6
CONTINUOUS
 70
0
 71
3
 72
11
 73
7
 74
0
 42
0.0000001
 43
0.0000001
 44
0.0000000001
 40
0.0
 40
0.0
 40
0.0
 40
0.0
 40
0.2528296141
 40
0.5154410843
 40
0.7694605779
 40
1.0
 40
1.0
 40
1.0
 40
1.0
 10
16.5737811121
 20
11.7374238428
 30
0.0
 10
16.5762625104
 20
11.7374238428
 30
0.0
 10
16.5813405735
 20
11.7382856919
 30
0.0
 10
16.5882285527
 20
11.7415942865
 30
0.0
 10
16.5938045657
 20
11.7465024085
 30
0.0
 10
16.5962716793
 20
11.7507152767
 30
0.0
 10
16.5969726242
 20
11.7528665961
 30
0.0
  0
SPLINE
  5
622
100
AcDbEntity
  8
0
100
AcDbSpline
 62
7
  6
CONTINUOUS
 70
0
 71
3
 72
10
 73
6
 74
0
 42
0.0000001
 43
0.0000001
 44
0.0000000001
 40
0.0
 40
0.0
 40
0.0
 40
0.0
 40
0.2399269254
 40
0.4845800302
 40
1.0
 40
1.0
 40
1.0
 40
1.0
 10
17.3571067815
 20
13.2773304987
 30
0.0
 10
17.3574160381
 20
13.2767003456
 30
0.0
 10
17.3579119568
 20
13.2753595357
 30
0.0
 10
17.3583661587
 20
13.272454726
 30
0.0
 10
17.3580635382
 20
13.2701908071
 30
0.0
 10
17.3576405656
 20
13.2687433897
 30
0.0
  0
SPLINE
  5
623
100
AcDbEntity
  8
0
100
AcDbSpline
 62
7
  6
CONTINUOUS
 70
0
 71
3
 72
11
 73
7
 74
0
 42
0.0000001
 43
0.0000001
 44
0.0000000001
 40
0.0
 40
0.0
 40
0.0
 40
0.0
 40
0.2268583284
 40
0.4649942974
 40
0.7221540857
 40
1.0
 40
1.0
 40
1.0
 40
1.0
 10
17.3473454417
 20
13.2972220176
 30
0.0
 10
17.3468274945
 20
13.2982774069
 30
0.0
 10
17.3453784367
 20
13.30026923
 30
0.0
 10
17.3422807892
 20
13.3024663417
 30
0.0
 10
17.338456486
 20
13.3038008704
 30
0.0
 10
17.3356719212
 20
13.304077662
 30
0.0
 10
17.3342320571
 20
13.304077662
 30
0.0
  0
SPLINE
  5
624
100
AcDbEntity
  8
0
100
AcDbSpline
 62
7
  6
CONTINUOUS
 70
0
 71
3
 72
11
 73
7
 74
0
 42
0.0000001
 43
0.0000001
 44
0.0000000001
 40
0.0
 40
0.0
 40
0.0
 40
0.0
 40
0.2778459143
 40
0.5350057026
 40
0.7731416716
 40
1.0
 40
1.0
 40
1.0
 40
1.0
 10
16.6474941601
 20
11.7175323238
 30
0.0
 10
16.6460542959
 20
11.7175323238
 30
0.0
 10
16.6432697312
 20
11.7178091155
 30
0.0
 10
16.6394454279
 20
11.7191436441
 30
0.0
 10
16.6363477804
 20
11.7213407558
 30
0.0
 10
16.6348987227
 20
11.7233325789
 30
0.0
 10
16.6343807754
 20
11.7243879682
 30
0.0
  0
SPLINE
  5
625
100
AcDbEntity
  8
0
100
AcDbSpline
 62
7
  6
CONTINUOUS
 70
0
 71
3
 72
11
 73
7
 74
0
 42
0.0000001
 43
0.0000001
 44
0.0000000001
 40
0.0
 40
0.0
 40
0.0
 40
0.0
 40
0.2305394221
 40
0.4845589157
 40
0.7471703859
 40
1.0
 40
1.0
 40
1.0
 40
1.0
 10
16.8830522622
 20
11.7329750771
 30
0.0
 10
16.8823513172
 20
11.7308237577
 30
0.0
 10
16.8798842037
 20
11.7266108895
 30
0.0
 10
16.8743081907
 20
11.7217027675
 30
0.0
 10
16.8674202114
 20
11.7183941729
 30
0.0
 10
16.8623421483
 20
11.7175323238
 30
0.0
 10
16.85986075
 20
11.7175323238
 30
0.0
  0
SPLINE
  5
626
100
AcDbEntity
  8
0
100
AcDbSpline
 62
7
  6
CONTINUOUS
 70
0
 71
3
 72
10
 73
6
 74
0
 42
0.0000001
 43
0.0000001
 44
0.0000000001
 40
0.0
 40
0.0
 40
0.0
 40
0.0
 40
0.5154199698
 40
0.7600730746
 40
1.0
 40
1.0
 40
1.0
 40
1.0
 10
16.6240856516
 20
11.7528665961
 30
0.0
 10
16.6236626789
 20
11.7514191787
 30
0.0
 10
16.6233600585
 20
11.7491552599
 30
0.0
 10
16.6238142604
 20
11.7462504501
 30
0.0
 10
16.6243101791
 20
11.7449096403
 30
0.0
 10
16.6246194357
 20
11.7442794872
 30
0.0
  0
SPLINE
  5
627
100
AcDbEntity
  8
0
100
AcDbSpline
 62
7
  6
CONTINUOUS
 70
0
 71
3
 72
11
 73
7
 74
0
 42
0.0000001
 43
0.0000001
 44
0.0000000001
 40
0.0
 40
0.0
 40
0.0
 40
0.0
 40
0.2528296141
 40
0.5154410843
 40
0.7694605779
 40
1.0
 40
1.0
 40
1.0
 40
1.0
 10
17.1218654671
 20
13.304077662
 30
0.0
 10
17.1193840689
 20
13.304077662
 30
0.0
 10
17.1143060057
 20
13.3032158129
 30
0.0
 10
17.1074180265
 20
13.2999072183
 30
0.0
 10
17.1018420135
 20
13.2949990963
 30
0.0
 10
17.0993749
 20
13.2907862281
 30
0.0
 10
17.098673955
 20
13.2886349087
 30
0.0
  0
SPLINE
  5
628
100
AcDbEntity
  8
0
100
AcDbSpline
 62
7
  6
CONTINUOUS
 70
0
 71
3
 72
11
 73
7
 74
0
 42
0.0000001
 43
0.0000001
 44
0.0000000001
 40
0.0
 40
0.0
 40
0.0
 40
0.0
 40
0.2268583284
 40
0.4649942974
 40
0.7221540857
 40
1.0
 40
1.0
 40
1.0
 40
1.0
 10
16.6246194357
 20
11.7442794872
 30
0.0
 10
16.625137383
 20
11.7432240979
 30
0.0
 10
16.6265864407
 20
11.7412322748
 30
0.0
 10
16.6296840882
 20
11.7390351631
 30
0.0
 10
16.6335083914
 20
11.7377006344
 30
0.0
 10
16.6362929562
 20
11.7374238428
 30
0.0
 10
16.6377328203
 20
11.7374238428
 30
0.0
  0
SPLINE
  5
629
100
AcDbEntity
  8
0
100
AcDbSpline
 62
7
  6
CONTINUOUS
 70
0
 71
3
 72
10
 73
6
 74
0
 42
0.0000001
 43
0.0000001
 44
0.0000000001
 40
0.0
 40
0.0
 40
0.0
 40
0.0
 40
0.5154199698
 40
0.7600730746
 40
1.0
 40
1.0
 40
1.0
 40
1.0
 10
17.3478792258
 20
13.2886349087
 30
0.0
 10
17.3483021985
 20
13.2900823261
 30
0.0
 10
17.3486048189
 20
13.2923462449
 30
0.0
 10
17.348150617
 20
13.2952510547
 30
0.0
 10
17.3476546983
 20
13.2965918645
 30
0.0
 10
17.3473454417
 20
13.2972220176
 30
0.0
  0
SPLINE
  5
62A
100
AcDbEntity
  8
0
100
AcDbSpline
 62
7
  6
CONTINUOUS
 70
0
 71
3
 72
11
 73
7
 74
0
 42
0.0000001
 43
0.0000001
 44
0.0000000001
 40
0.0
 40
0.0
 40
0.0
 40
0.0
 40
0.2528296141
 40
0.5154410843
 40
0.7694605779
 40
1.0
 40
1.0
 40
1.0
 40
1.0
 10
16.8500994103
 20
11.7374238428
 30
0.0
 10
16.8525808086
 20
11.7374238428
 30
0.0
 10
16.8576588717
 20
11.7382856919
 30
0.0
 10
16.8645468509
 20
11.7415942865
 30
0.0
 10
16.8701228639
 20
11.7465024085
 30
0.0
 10
16.8725899775
 20
11.7507152767
 30
0.0
 10
16.8732909224
 20
11.7528665961
 30
0.0
  0
SPLINE
  5
62B
100
AcDbEntity
  8
0
100
AcDbSpline
 62
7
  6
CONTINUOUS
 70
0
 71
3
 72
10
 73
6
 74
0
 42
0.0000001
 43
0.0000001
 44
0.0000000001
 40
0.0
 40
0.0
 40
0.0
 40
0.0
 40
0.2399269254
 40
0.4845800302
 40
1.0
 40
1.0
 40
1.0
 40
1.0
 10
17.6334250797
 20
13.2773304987
 30
0.0
 10
17.6337343363
 20
13.2767003456
 30
0.0
 10
17.634230255
 20
13.2753595357
 30
0.0
 10
17.6346844569
 20
13.272454726
 30
0.0
 10
17.6343818364
 20
13.2701908071
 30
0.0
 10
17.6339588638
 20
13.2687433897
 30
0.0
  0
SPLINE
  5
62C
100
AcDbEntity
  8
0
100
AcDbSpline
 62
7
  6
CONTINUOUS
 70
0
 71
3
 72
11
 73
7
 74
0
 42
0.0000001
 43
0.0000001
 44
0.0000000001
 40
0.0
 40
0.0
 40
0.0
 40
0.0
 40
0.2268583284
 40
0.4649942974
 40
0.7221540857
 40
1.0
 40
1.0
 40
1.0
 40
1.0
 10
17.6236637399
 20
13.2972220176
 30
0.0
 10
17.6231457927
 20
13.2982774069
 30
0.0
 10
17.6216967349
 20
13.30026923
 30
0.0
 10
17.6185990874
 20
13.3024663417
 30
0.0
 10
17.6147747842
 20
13.3038008704
 30
0.0
 10
17.6119902194
 20
13.304077662
 30
0.0
 10
17.6105503553
 20
13.304077662
 30
0.0
  0
SPLINE
  5
62D
100
AcDbEntity
  8
0
100
AcDbSpline
 62
7
  6
CONTINUOUS
 70
0
 71
3
 72
11
 73
7
 74
0
 42
0.0000001
 43
0.0000001
 44
0.0000000001
 40
0.0
 40
0.0
 40
0.0
 40
0.0
 40
0.2778459143
 40
0.5350057026
 40
0.7731416716
 40
1.0
 40
1.0
 40
1.0
 40
1.0
 10
16.9238124583
 20
11.7175323238
 30
0.0
 10
16.9223725941
 20
11.7175323238
 30
0.0
 10
16.9195880294
 20
11.7178091155
 30
0.0
 10
16.9157637261
 20
11.7191436441
 30
0.0
 10
16.9126660786
 20
11.7213407558
 30
0.0
 10
16.9112170209
 20
11.7233325789
 30
0.0
 10
16.9106990736
 20
11.7243879682
 30
0.0
  0
SPLINE
  5
62E
100
AcDbEntity
  8
0
100
AcDbSpline
 62
7
  6
CONTINUOUS
 70
0
 71
3
 72
11
 73
7
 74
0
 42
0.0000001
 43
0.0000001
 44
0.0000000001
 40
0.0
 40
0.0
 40
0.0
 40
0.0
 40
0.2305394221
 40
0.4845589157
 40
0.7471703859
 40
1.0
 40
1.0
 40
1.0
 40
1.0
 10
17.1593705604
 20
11.7329750771
 30
0.0
 10
17.1586696154
 20
11.7308237577
 30
0.0
 10
17.1562025019
 20
11.7266108895
 30
0.0
 10
17.1506264889
 20
11.7217027675
 30
0.0
 10
17.1437385096
 20
11.7183941729
 30
0.0
 10
17.1386604465
 20
11.7175323238
 30
0.0
 10
17.1361790482
 20
11.7175323238
 30
0.0
  0
SPLINE
  5
62F
100
AcDbEntity
  8
0
100
AcDbSpline
 62
7
  6
CONTINUOUS
 70
0
 71
3
 72
10
 73
6
 74
0
 42
0.0000001
 43
0.0000001
 44
0.0000000001
 40
0.0
 40
0.0
 40
0.0
 40
0.0
 40
0.5154199698
 40
0.7600730746
 40
1.0
 40
1.0
 40
1.0
 40
1.0
 10
16.9004039498
 20
11.7528665961
 30
0.0
 10
16.8999809771
 20
11.7514191787
 30
0.0
 10
16.8996783567
 20
11.7491552599
 30
0.0
 10
16.9001325586
 20
11.7462504501
 30
0.0
 10
16.9006284773
 20
11.7449096403
 30
0.0
 10
16.9009377339
 20
11.7442794872
 30
0.0
  0
SPLINE
  5
630
100
AcDbEntity
  8
0
100
AcDbSpline
 62
7
  6
CONTINUOUS
 70
0
 71
3
 72
11
 73
7
 74
0
 42
0.0000001
 43
0.0000001
 44
0.0000000001
 40
0.0
 40
0.0
 40
0.0
 40
0.0
 40
0.2528296141
 40
0.5154410843
 40
0.7694605779
 40
1.0
 40
1.0
 40
1.0
 40
1.0
 10
17.3981837653
 20
13.304077662
 30
0.0
 10
17.3957023671
 20
13.304077662
 30
0.0
 10
17.3906243039
 20
13.3032158129
 30
0.0
 10
17.3837363247
 20
13.2999072183
 30
0.0
 10
17.3781603117
 20
13.2949990963
 30
0.0
 10
17.3756931982
 20
13.2907862281
 30
0.0
 10
17.3749922532
 20
13.2886349087
 30
0.0
  0
SPLINE
  5
631
100
AcDbEntity
  8
0
100
AcDbSpline
 62
7
  6
CONTINUOUS
 70
0
 71
3
 72
11
 73
7
 74
0
 42
0.0000001
 43
0.0000001
 44
0.0000000001
 40
0.0
 40
0.0
 40
0.0
 40
0.0
 40
0.2268583284
 40
0.4649942974
 40
0.7221540857
 40
1.0
 40
1.0
 40
1.0
 40
1.0
 10
16.9009377339
 20
11.7442794872
 30
0.0
 10
16.9014556812
 20
11.7432240979
 30
0.0
 10
16.9029047389
 20
11.7412322748
 30
0.0
 10
16.9060023864
 20
11.7390351631
 30
0.0
 10
16.9098266896
 20
11.7377006344
 30
0.0
 10
16.9126112544
 20
11.7374238428
 30
0.0
 10
16.9140511185
 20
11.7374238428
 30
0.0
  0
SPLINE
  5
632
100
AcDbEntity
  8
0
100
AcDbSpline
 62
7
  6
CONTINUOUS
 70
0
 71
3
 72
10
 73
6
 74
0
 42
0.0000001
 43
0.0000001
 44
0.0000000001
 40
0.0
 40
0.0
 40
0.0
 40
0.0
 40
0.5154199698
 40
0.7600730746
 40
1.0
 40
1.0
 40
1.0
 40
1.0
 10
17.624197524
 20
13.2886349087
 30
0.0
 10
17.6246204967
 20
13.2900823261
 30
0.0
 10
17.6249231172
 20
13.2923462449
 30
0.0
 10
17.6244689152
 20
13.2952510547
 30
0.0
 10
17.6239729965
 20
13.2965918645
 30
0.0
 10
17.6236637399
 20
13.2972220176
 30
0.0
  0
SPLINE
  5
633
100
AcDbEntity
  8
0
100
AcDbSpline
 62
7
  6
CONTINUOUS
 70
0
 71
3
 72
11
 73
7
 74
0
 42
0.0000001
 43
0.0000001
 44
0.0000000001
 40
0.0
 40
0.0
 40
0.0
 40
0.0
 40
0.2528296141
 40
0.5154410843
 40
0.7694605779
 40
1.0
 40
1.0
 40
1.0
 40
1.0
 10
17.1264177085
 20
11.7374238428
 30
0.0
 10
17.1288991068
 20
11.7374238428
 30
0.0
 10
17.1339771699
 20
11.7382856919
 30
0.0
 10
17.1408651491
 20
11.7415942865
 30
0.0
 10
17.1464411622
 20
11.7465024085
 30
0.0
 10
17.1489082757
 20
11.7507152767
 30
0.0
 10
17.1496092207
 20
11.7528665961
 30
0.0
  0
SPLINE
  5
634
100
AcDbEntity
  8
0
100
AcDbSpline
 62
7
  6
CONTINUOUS
 70
0
 71
3
 72
10
 73
6
 74
0
 42
0.0000001
 43
0.0000001
 44
0.0000000001
 40
0.0
 40
0.0
 40
0.0
 40
0.0
 40
0.2399269254
 40
0.4845800302
 40
1.0
 40
1.0
 40
1.0
 40
1.0
 10
17.9097433779
 20
13.2773304987
 30
0.0
 10
17.9100526345
 20
13.2767003456
 30
0.0
 10
17.9105485532
 20
13.2753595357
 30
0.0
 10
17.9110027551
 20
13.272454726
 30
0.0
 10
17.9107001346
 20
13.2701908071
 30
0.0
 10
17.910277162
 20
13.2687433897
 30
0.0
  0
SPLINE
  5
635
100
AcDbEntity
  8
0
100
AcDbSpline
 62
7
  6
CONTINUOUS
 70
0
 71
3
 72
11
 73
7
 74
0
 42
0.0000001
 43
0.0000001
 44
0.0000000001
 40
0.0
 40
0.0
 40
0.0
 40
0.0
 40
0.2268583284
 40
0.4649942974
 40
0.7221540857
 40
1.0
 40
1.0
 40
1.0
 40
1.0
 10
17.8999820381
 20
13.2972220176
 30
0.0
 10
17.8994640909
 20
13.2982774069
 30
0.0
 10
17.8980150331
 20
13.30026923
 30
0.0
 10
17.8949173856
 20
13.3024663417
 30
0.0
 10
17.8910930824
 20
13.3038008704
 30
0.0
 10
17.8883085176
 20
13.304077662
 30
0.0
 10
17.8868686535
 20
13.304077662
 30
0.0
  0
SPLINE
  5
636
100
AcDbEntity
  8
0
100
AcDbSpline
 62
7
  6
CONTINUOUS
 70
0
 71
3
 72
11
 73
7
 74
0
 42
0.0000001
 43
0.0000001
 44
0.0000000001
 40
0.0
 40
0.0
 40
0.0
 40
0.0
 40
0.2778459143
 40
0.5350057026
 40
0.7731416716
 40
1.0
 40
1.0
 40
1.0
 40
1.0
 10
17.2001307565
 20
11.7175323238
 30
0.0
 10
17.1986908923
 20
11.7175323238
 30
0.0
 10
17.1959063276
 20
11.7178091155
 30
0.0
 10
17.1920820243
 20
11.7191436441
 30
0.0
 10
17.1889843768
 20
11.7213407558
 30
0.0
 10
17.1875353191
 20
11.7233325789
 30
0.0
 10
17.1870173718
 20
11.7243879682
 30
0.0
  0
SPLINE
  5
637
100
AcDbEntity
  8
0
100
AcDbSpline
 62
7
  6
CONTINUOUS
 70
0
 71
3
 72
11
 73
7
 74
0
 42
0.0000001
 43
0.0000001
 44
0.0000000001
 40
0.0
 40
0.0
 40
0.0
 40
0.0
 40
0.2305394221
 40
0.4845589157
 40
0.7471703859
 40
1.0
 40
1.0
 40
1.0
 40
1.0
 10
17.4356888586
 20
11.7329750771
 30
0.0
 10
17.4349879136
 20
11.7308237577
 30
0.0
 10
17.4325208001
 20
11.7266108895
 30
0.0
 10
17.4269447871
 20
11.7217027675
 30
0.0
 10
17.4200568078
 20
11.7183941729
 30
0.0
 10
17.4149787447
 20
11.7175323238
 30
0.0
 10
17.4124973464
 20
11.7175323238
 30
0.0
  0
SPLINE
  5
638
100
AcDbEntity
  8
0
100
AcDbSpline
 62
7
  6
CONTINUOUS
 70
0
 71
3
 72
12
 73
8
 74
0
 42
0.0000001
 43
0.0000001
 44
0.0000000001
 40
0.0
 40
0.0
 40
0.0
 40
0.0
 40
0.1128334025
 40
0.2331400119
 40
0.4878086367
 40
0.7490131708
 40
1.0
 40
1.0
 40
1.0
 40
1.0
 10
17.7610846343
 20
12.5638831489
 30
0.0
 10
17.760349994
 20
12.5646099502
 30
0.0
 10
17.7587309011
 20
12.5660113725
 30
0.0
 10
17.755052149
 20
12.5685575419
 30
0.0
 10
17.7497858651
 20
12.571139299
 30
0.0
 10
17.7430084891
 20
12.5730938326
 30
0.0
 10
17.7383103366
 20
12.5735970995
 30
0.0
 10
17.736011617
 20
12.5735970995
 30
0.0
  0
SPLINE
  5
639
100
AcDbEntity
  8
0
100
AcDbSpline
 62
7
  6
CONTINUOUS
 70
0
 71
3
 72
10
 73
6
 74
0
 42
0.0000001
 43
0.0000001
 44
0.0000000001
 40
0.0
 40
0.0
 40
0.0
 40
0.0
 40
0.5154199698
 40
0.7600730746
 40
1.0
 40
1.0
 40
1.0
 40
1.0
 10
17.176722248
 20
11.7528665961
 30
0.0
 10
17.1762992753
 20
11.7514191787
 30
0.0
 10
17.1759966549
 20
11.7491552599
 30
0.0
 10
17.1764508568
 20
11.7462504501
 30
0.0
 10
17.1769467755
 20
11.7449096403
 30
0.0
 10
17.1772560321
 20
11.7442794872
 30
0.0
  0
SPLINE
  5
63A
100
AcDbEntity
  8
0
100
AcDbSpline
 62
7
  6
CONTINUOUS
 70
0
 71
3
 72
11
 73
7
 74
0
 42
0.0000001
 43
0.0000001
 44
0.0000000001
 40
0.0
 40
0.0
 40
0.0
 40
0.0
 40
0.2528296141
 40
0.5154410843
 40
0.7694605779
 40
1.0
 40
1.0
 40
1.0
 40
1.0
 10
17.6745020635
 20
13.304077662
 30
0.0
 10
17.6720206653
 20
13.304077662
 30
0.0
 10
17.6669426021
 20
13.3032158129
 30
0.0
 10
17.6600546229
 20
13.2999072183
 30
0.0
 10
17.6544786099
 20
13.2949990963
 30
0.0
 10
17.6520114964
 20
13.2907862281
 30
0.0
 10
17.6513105514
 20
13.2886349087
 30
0.0
  0
SPLINE
  5
63B
100
AcDbEntity
  8
0
100
AcDbSpline
 62
7
  6
CONTINUOUS
 70
0
 71
3
 72
11
 73
7
 74
0
 42
0.0000001
 43
0.0000001
 44
0.0000000001
 40
0.0
 40
0.0
 40
0.0
 40
0.0
 40
0.2268583284
 40
0.4649942974
 40
0.7221540857
 40
1.0
 40
1.0
 40
1.0
 40
1.0
 10
17.1772560321
 20
11.7442794872
 30
0.0
 10
17.1777739794
 20
11.7432240979
 30
0.0
 10
17.1792230371
 20
11.7412322748
 30
0.0
 10
17.1823206846
 20
11.7390351631
 30
0.0
 10
17.1861449878
 20
11.7377006344
 30
0.0
 10
17.1889295526
 20
11.7374238428
 30
0.0
 10
17.1903694167
 20
11.7374238428
 30
0.0
  0
SPLINE
  5
63C
100
AcDbEntity
  8
0
100
AcDbSpline
 62
7
  6
CONTINUOUS
 70
0
 71
3
 72
10
 73
6
 74
0
 42
0.0000001
 43
0.0000001
 44
0.0000000001
 40
0.0
 40
0.0
 40
0.0
 40
0.0
 40
0.5154199698
 40
0.7600730746
 40
1.0
 40
1.0
 40
1.0
 40
1.0
 10
17.9005158222
 20
13.2886349087
 30
0.0
 10
17.9009387949
 20
13.2900823261
 30
0.0
 10
17.9012414154
 20
13.2923462449
 30
0.0
 10
17.9007872134
 20
13.2952510547
 30
0.0
 10
17.9002912947
 20
13.2965918645
 30
0.0
 10
17.8999820381
 20
13.2972220176
 30
0.0
  0
SPLINE
  5
63D
100
AcDbEntity
  8
0
100
AcDbSpline
 62
7
  6
CONTINUOUS
 70
0
 71
3
 72
11
 73
7
 74
0
 42
0.0000001
 43
0.0000001
 44
0.0000000001
 40
0.0
 40
0.0
 40
0.0
 40
0.0
 40
0.2528296141
 40
0.5154410843
 40
0.7694605779
 40
1.0
 40
1.0
 40
1.0
 40
1.0
 10
17.4027360067
 20
11.7374238428
 30
0.0
 10
17.405217405
 20
11.7374238428
 30
0.0
 10
17.4102954681
 20
11.7382856919
 30
0.0
 10
17.4171834473
 20
11.7415942865
 30
0.0
 10
17.4227594604
 20
11.7465024085
 30
0.0
 10
17.4252265739
 20
11.7507152767
 30
0.0
 10
17.4259275189
 20
11.7528665961
 30
0.0
  0
SPLINE
  5
63E
100
AcDbEntity
  8
0
100
AcDbSpline
 62
7
  6
CONTINUOUS
 70
0
 71
3
 72
11
 73
7
 74
0
 42
0.0000001
 43
0.0000001
 44
0.0000000001
 40
0.0
 40
0.0
 40
0.0
 40
0.0
 40
0.2329997575
 40
0.4876326401
 40
0.7487693922
 40
1.0
 40
1.0
 40
1.0
 40
1.0
 10
17.6768455538
 20
12.2912853844
 30
0.0
 10
17.6753290338
 20
12.2927857221
 30
0.0
 10
17.6717364079
 20
12.2955097352
 30
0.0
 10
17.665548219
 20
12.2985375494
 30
0.0
 10
17.6587709631
 20
12.300499948
 30
0.0
 10
17.6540727235
 20
12.3009993349
 30
0.0
 10
17.6517725365
 20
12.3009993349
 30
0.0
  0
SPLINE
  5
63F
100
AcDbEntity
  8
0
100
AcDbSpline
 62
7
  6
CONTINUOUS
 70
0
 71
3
 72
12
 73
8
 74
0
 42
0.0000001
 43
0.0000001
 44
0.0000000001
 40
0.0
 40
0.0
 40
0.0
 40
0.0
 40
0.1128334025
 40
0.2331400119
 40
0.4878086367
 40
0.7490131708
 40
1.0
 40
1.0
 40
1.0
 40
1.0
 10
17.6531230541
 20
12.2145193472
 30
0.0
 10
17.6523884137
 20
12.2152461485
 30
0.0
 10
17.6507693209
 20
12.2166475708
 30
0.0
 10
17.6470905688
 20
12.2191937402
 30
0.0
 10
17.6418242849
 20
12.2217754973
 30
0.0
 10
17.6350469088
 20
12.2237300309
 30
0.0
 10
17.6303487563
 20
12.2242332978
 30
0.0
 10
17.6280500368
 20
12.2242332978
 30
0.0
  0
ENDSEC
  0
SECTION
  2
OBJECTS
  0
DICTIONARY
  5
C
100
AcDbDictionary
280
0
281
1
  3
ACAD_GROUP
350
D
  3
ACAD_MLINESTYLE
350
17
  3
ACAD_LAYOUT
350
1A
  3
ACAD_PLOTSETTINGS
350
19
  3
ACAD_PLOTSTYLENAME
350
E
  0
DICTIONARY
  5
D
102
{ACAD_REACTORS
330
C
102
}
100
AcDbDictionary
280
0
281
1
  0
ACDBDICTIONARYWDFLT
  5
E
102
{ACAD_REACTORS
330
C
102
}
100
AcDbDictionary
281
1
  3
Normal
350
F
100
AcDbDictionaryWithDefault
340
F
  0
DICTIONARY
  5
17
102
{ACAD_REACTORS
330
C
102
}
100
AcDbDictionary
280
0
281
1
  3
Standard
350
18
  0
DICTIONARY
  5
19
102
{ACAD_REACTORS
330
C
102
}
100
AcDbDictionary
281
1
  0
DICTIONARY
  5
1A
102
{ACAD_REACTORS
330
C
102
}
100
AcDbDictionary
281
1
  3
Model
350
640
  3
Layout1
350
641
  0
ACDBPLACEHOLDER
  5
F
102
{ACAD_REACTORS
330
E
102
}
  0
MLINESTYLE
  5
18
102
{ACAD_REACTORS
330
17
102
}
100
AcDbMlineStyle
  2
STANDARD
 70
0
  3

 62
256
 51
90.0
 52
90.0
 71
2
 49
0.5
 62
256
  6
BYLAYER
 49
-0.5
 62
256
  6
BYLAYER
  0
LAYOUT
  5
640
102
{ACAD_REACTORS
330
1A
102
}
100
AcDbPlotSettings
  1

  2
none_device
  4
ANSI_C_(22.00_x_17.00_Inches)
  6

 40
0.0
 41
0.0
 42
0.0
 43
0.0
 44
558.8
 45
431.8
 46
0.0
 47
0.0
 48
0.0
 49
0.0
140
0.0
141
0.0
142
1.0
143
1.0
 70
1024
 72
0
 73
0
 74
0
  7

 75
0
147
1.0
148
0.0
149
0.0
100
AcDbLayout
  1
Model
 70
0
 71
0
 10
0.0
 20
0.0
 11
22.0
 21
17.0
 12
0.0
 22
0.0
 32
0.0
 14
0.0
 24
0.0
 34
0.0
 15
0.0
 25
0.0
 35
0.0
146
0.0
 13
0.0
 23
0.0
 33
0.0
 16
1.0
 26
0.0
 36
0.0
 17
0.0
 27
1.0
 37
0.0
 76
0
330
217
345
0
346
0
  0
LAYOUT
  5
641
102
{ACAD_REACTORS
330
1A
102
}
100
AcDbPlotSettings
  1

  2
none_device
  4
ANSI_C_(22.00_x_17.00_Inches)
  6

 40
0.0
 41
0.0
 42
0.0
 43
0.0
 44
558.8
 45
431.8
 46
0.0
 47
0.0
 48
0.0
 49
0.0
140
0.0
141
0.0
142
1.0
143
1.0
 70
0
 72
0
 73
0
 74
0
  7

 75
0
147
1.0
148
0.0
149
0.0
100
AcDbLayout
  1
Layout1
 70
0
 71
1
 10
0.0
 20
0.0
 11
22.0
 21
17.0
 12
0.0
 22
0.0
 32
0.0
 14
0.0
 24
0.0
 34
0.0
 15
0.0
 25
0.0
 35
0.0
146
0.0
 13
0.0
 23
0.0
 33
0.0
 16
1.0
 26
0.0
 36
0.0
 17
0.0
 27
1.0
 37
0.0
 76
0
330
218
345
0
346
0
  0
ENDSEC
  0
EOF