999
DXF file: _cgs_temp_output.dxf
999
Pro/ENGINEER 2015110 by Parametric Technology Corporation
  0
SECTION
  2
HEADER
  9
$ACADVER
  1
AC1021
  9
$DWGCODEPAGE
  3
ANSI_1252
  9
$EXTMAX
 10
22.0
 20
17.0
 30
0.0
  9
$EXTMIN
 10
0.0
 20
0.0
 30
0.0
  9
$LIMMIN
 10
0.0
 20
0.0
  9
$LIMMAX
 10
22.0
 20
17.0
  9
$VIEWCTR
 10
11.0
 20
8.5
  9
$VIEWSIZE
 40
17.0
  9
$CLAYER
  8
0
  9
$LTSCALE
 40
1.21
  9
$CELTYPE
  6
BYLAYER
  9
$DIMSCALE
 40
1.0
  9
$DIMASZ
 40
0.1875
  9
$DIMEXO
 40
0.0625
  9
$DIMDLI
 40
0.836
  9
$DIMEXE
 40
0.125
  9
$DIMCEN
 40
0.198
  9
$DIMLFAC
 40
1.0
  9
$DIMBLK
  1
_CLOSED
  9
$DIMALT
 70
0
  9
$DIMALTF
 40
25.4
  9
$DIMTXT
 40
0.15625
  9
$DIMTOL
 70
0
  9
$DIMLIM
 70
0
  9
$DIMTFAC
 40
1.0
  9
$DIMGAP
 40
0.09
  9
$DIMDSEP
 70
46
  9
$AUNITS
 70
0
  9
$PDMODE
 70
3
  9
$PDSIZE
 40
0.3125
  9
$HANDSEED
  5
354
  9
$TILEMODE
 70
1
  9
$MEASUREMENT
 70
0
  9
$INSUNITS
 70
1
  0
ENDSEC
  0
SECTION
  2
CLASSES
  0
CLASS
  1
ACDBDICTIONARYWDFLT
  2
AcDbDictionaryWithDefault
  3
AutoCAD 2000
 90
0
 91
1
280
0
281
0
  0
CLASS
  1
ACDBPLACEHOLDER
  2
AcDbPlaceHolder
  3
AutoCAD 2000
 90
0
 91
1
280
0
281
0
  0
CLASS
  1
LAYOUT
  2
AcDbLayout
  3
AutoCAD 2000
 90
0
 91
0
280
0
281
0
  0
ENDSEC
  0
SECTION
  2
TABLES
  0
TABLE
  2
VPORT
  5
8
100
AcDbSymbolTable
 70
2
  0
VPORT
  5
1F4
100
AcDbSymbolTableRecord
100
AcDbViewportTableRecord
  2
*ACTIVE
 70
0
 10
0.0
 20
0.0
 11
1.0
 21
1.0
 12
11.0
 22
8.5
 13
0.0
 23
0.0
 14
1.0
 24
1.0
 15
0.0
 25
0.0
 16
0.0
 26
0.0
 36
1.0
 17
0.0
 27
0.0
 37
0.0
 40
17.0
 41
1.2941176471
 42
50.0
 43
0.0
 44
0.0
 50
0.0
 51
0.0
 71
0
 72
100
 73
1
 74
1
 75
0
 76
0
 77
0
 78
0
  0
ENDTAB
  0
TABLE
  2
LTYPE
  5
5
100
AcDbSymbolTable
 70
6
  0
LTYPE
  5
14
100
AcDbSymbolTableRecord
100
AcDbLinetypeTableRecord
  2
BYBLOCK
 70
0
  3

 72
65
 73
0
 40
0.0
  0
LTYPE
  5
15
100
AcDbSymbolTableRecord
100
AcDbLinetypeTableRecord
  2
BYLAYER
 70
0
  3

 72
65
 73
0
 40
0.0
  0
LTYPE
  5
16
100
AcDbSymbolTableRecord
100
AcDbLinetypeTableRecord
  2
CONTINUOUS
 70
64
  3
Solid line
 72
65
 73
0
 40
0.0
  0
LTYPE
  5
1F5
100
AcDbSymbolTableRecord
100
AcDbLinetypeTableRecord
  2
CENTER
 70
64
  3
____ _ ____ _ ____ _ ____ _ ____ _ ____ _ ____
 72
65
 73
4
 40
0.6
 49
0.375
 74
0
 49
-0.075
 74
0
 49
0.075
 74
0
 49
-0.075
 74
0
  0
LTYPE
  5
1F6
100
AcDbSymbolTableRecord
100
AcDbLinetypeTableRecord
  2
HIDDEN
 70
64
  3
- - - - - - - - - - - - - - - - - - - -
 72
65
 73
2
 40
0.2
 49
0.1
 74
0
 49
-0.1
 74
0
  0
LTYPE
  5
1F7
100
AcDbSymbolTableRecord
100
AcDbLinetypeTableRecord
  2
PHANTOM
 70
64
  3
_____ _ _ _____ _ _ _____ _ _ _____
 72
65
 73
6
 40
0.8
 49
0.45
 74
0
 49
-0.05
 74
0
 49
0.1
 74
0
 49
-0.05
 74
0
 49
0.1
 74
0
 49
-0.05
 74
0
  0
LTYPE
  5
1F8
100
AcDbSymbolTableRecord
100
AcDbLinetypeTableRecord
  2
DOT
 70
64
  3
. . . . . . . . . . . . . . . . . . . .
 72
65
 73
2
 40
0.2
 49
0.1
 74
0
 49
-0.1
 74
0
  0
LTYPE
  5
1F9
100
AcDbSymbolTableRecord
100
AcDbLinetypeTableRecord
  2
DASHED
 70
64
  3
- - - - - - - - - - - - - - - - - - - -
 72
65
 73
2
 40
0.2
 49
0.1
 74
0
 49
-0.1
 74
0
  0
ENDTAB
  0
TABLE
  2
LAYER
  5
2
100
AcDbSymbolTable
 70
36
  0
LAYER
  5
10
100
AcDbSymbolTableRecord
100
AcDbLayerTableRecord
  2
0
 70
0
 62
7
  6
CONTINUOUS
370
-3
390
F
  0
LAYER
  5
1FA
100
AcDbSymbolTableRecord
100
AcDbLayerTableRecord
  2
DEFAULT_1
 70
0
 62
7
  6
CENTER
370
-3
390
F
  0
LAYER
  5
1FB
100
AcDbSymbolTableRecord
100
AcDbLayerTableRecord
  2
DEFAULT_2
 70
0
 62
8
  6
HIDDEN
370
-3
390
F
  0
LAYER
  5
1FC
100
AcDbSymbolTableRecord
100
AcDbLayerTableRecord
  2
DEFAULT_3
 70
0
 62
7
  6
PHANTOM
370
-3
390
F
  0
LAYER
  5
1FD
100
AcDbSymbolTableRecord
100
AcDbLayerTableRecord
  2
01_ALL_DTM_PLN
 70
0
 62
7
  6
CONTINUOUS
370
-3
390
F
  0
LAYER
  5
1FE
100
AcDbSymbolTableRecord
100
AcDbLayerTableRecord
  2
01__ASM_ALL_DTM_PLN
 70
0
 62
7
  6
CONTINUOUS
370
-3
390
F
  0
LAYER
  5
1FF
100
AcDbSymbolTableRecord
100
AcDbLayerTableRecord
  2
01__ASM_DEF_DTM_PLN
 70
0
 62
7
  6
CONTINUOUS
370
-3
390
F
  0
LAYER
  5
200
100
AcDbSymbolTableRecord
100
AcDbLayerTableRecord
  2
01___PRT_ALL_DTM_PLN
 70
0
 62
7
  6
CONTINUOUS
370
-3
390
F
  0
LAYER
  5
201
100
AcDbSymbolTableRecord
100
AcDbLayerTableRecord
  2
01___PRT_DEF_DTM_PLN
 70
0
 62
7
  6
CONTINUOUS
370
-3
390
F
  0
LAYER
  5
202
100
AcDbSymbolTableRecord
100
AcDbLayerTableRecord
  2
02_ALL_AXES
 70
0
 62
7
  6
CONTINUOUS
370
-3
390
F
  0
LAYER
  5
203
100
AcDbSymbolTableRecord
100
AcDbLayerTableRecord
  2
02__ASM_ALL_AXES
 70
0
 62
7
  6
CONTINUOUS
370
-3
390
F
  0
LAYER
  5
204
100
AcDbSymbolTableRecord
100
AcDbLayerTableRecord
  2
02___PRT_ALL_AXES
 70
0
 62
7
  6
CONTINUOUS
370
-3
390
F
  0
LAYER
  5
205
100
AcDbSymbolTableRecord
100
AcDbLayerTableRecord
  2
03_ALL_CURVES
 70
0
 62
7
  6
CONTINUOUS
370
-3
390
F
  0
LAYER
  5
206
100
AcDbSymbolTableRecord
100
AcDbLayerTableRecord
  2
03__ASM_ALL_CURVES
 70
0
 62
7
  6
CONTINUOUS
370
-3
390
F
  0
LAYER
  5
207
100
AcDbSymbolTableRecord
100
AcDbLayerTableRecord
  2
03___PRT_ALL_CURVES
 70
0
 62
7
  6
CONTINUOUS
370
-3
390
F
  0
LAYER
  5
208
100
AcDbSymbolTableRecord
100
AcDbLayerTableRecord
  2
04_ALL_DTM_PNT
 70
0
 62
7
  6
CONTINUOUS
370
-3
390
F
  0
LAYER
  5
209
100
AcDbSymbolTableRecord
100
AcDbLayerTableRecord
  2
04__ASM_ALL_DTM_PNT
 70
0
 62
7
  6
CONTINUOUS
370
-3
390
F
  0
LAYER
  5
20A
100
AcDbSymbolTableRecord
100
AcDbLayerTableRecord
  2
04___PRT_ALL_DTM_PNT
 70
0
 62
7
  6
CONTINUOUS
370
-3
390
F
  0
LAYER
  5
20B
100
AcDbSymbolTableRecord
100
AcDbLayerTableRecord
  2
05_ALL_DTM_CSYS
 70
0
 62
7
  6
CONTINUOUS
370
-3
390
F
  0
LAYER
  5
20C
100
AcDbSymbolTableRecord
100
AcDbLayerTableRecord
  2
05__ASM_ALL_DTM_CSYS
 70
0
 62
7
  6
CONTINUOUS
370
-3
390
F
  0
LAYER
  5
20D
100
AcDbSymbolTableRecord
100
AcDbLayerTableRecord
  2
05__ASM_DEF_DTM_CSYS
 70
0
 62
7
  6
CONTINUOUS
370
-3
390
F
  0
LAYER
  5
20E
100
AcDbSymbolTableRecord
100
AcDbLayerTableRecord
  2
05___PRT_ALL_DTM_CSYS
 70
0
 62
7
  6
CONTINUOUS
370
-3
390
F
  0
LAYER
  5
20F
100
AcDbSymbolTableRecord
100
AcDbLayerTableRecord
  2
05___PRT_DEF_DTM_CSYS
 70
0
 62
7
  6
CONTINUOUS
370
-3
390
F
  0
LAYER
  5
210
100
AcDbSymbolTableRecord
100
AcDbLayerTableRecord
  2
06_ALL_SURFS
 70
0
 62
7
  6
CONTINUOUS
370
-3
390
F
  0
LAYER
  5
211
100
AcDbSymbolTableRecord
100
AcDbLayerTableRecord
  2
06__ASM_ALL_SURFS
 70
0
 62
7
  6
CONTINUOUS
370
-3
390
F
  0
LAYER
  5
212
100
AcDbSymbolTableRecord
100
AcDbLayerTableRecord
  2
06___PRT_ALL_SURFS
 70
0
 62
7
  6
CONTINUOUS
370
-3
390
F
  0
LAYER
  5
213
100
AcDbSymbolTableRecord
100
AcDbLayerTableRecord
  2
07__ASM_ALL_SKELETONS
 70
0
 62
7
  6
CONTINUOUS
370
-3
390
F
  0
ENDTAB
  0
TABLE
  2
STYLE
  5
3
100
AcDbSymbolTable
 70
1
  0
STYLE
  5
11
100
AcDbSymbolTableRecord
100
AcDbTextStyleTableRecord
  2
STANDARD
 70
0
 40
0.0
 41
0.8
 50
0.0
 71
0
 42
0.2
  3
txt
  4

  0
STYLE
  5
214
100
AcDbSymbolTableRecord
100
AcDbTextStyleTableRecord
  2
TEXTSTYLE_1
 70
0
 40
0.0
 41
0.8
 50
0.0
 71
0
 42
0.2
  3
gdt
  4

  0
ENDTAB
  0
TABLE
  2
VIEW
  5
6
100
AcDbSymbolTable
 70
0
  0
ENDTAB
  0
TABLE
  2
UCS
  5
7
100
AcDbSymbolTable
 70
0
  0
ENDTAB
  0
TABLE
  2
APPID
  5
9
100
AcDbSymbolTable
 70
1
  0
APPID
  5
215
100
AcDbSymbolTableRecord
100
AcDbRegAppTableRecord
  2
ACAD
 70
0
  0
ENDTAB
  0
TABLE
  2
BLOCK_RECORD
  5
1
100
AcDbSymbolTable
 70
0
  0
BLOCK_RECORD
  5
216
100
AcDbSymbolTableRecord
100
AcDbBlockTableRecord
  2
*Model_Space
  0
BLOCK_RECORD
  5
217
100
AcDbSymbolTableRecord
100
AcDbBlockTableRecord
  2
*Paper_Space
  0
ENDTAB
  0
TABLE
  2
DIMSTYLE
  5
A
100
AcDbSymbolTable
 70
1
100
AcDbDimStyleTable
 71
0
  0
DIMSTYLE
105
218
100
AcDbSymbolTableRecord
100
AcDbDimStyleTableRecord
  2
STANDARD
 70
0
  3

  4

 40
1.0
 41
0.1875
 42
0.0625
 43
0.38
 44
0.125
 45
0.0
 46
0.0
 47
0.0001
 48
0.0001
140
0.15625
141
0.09
142
0.0
143
25.4
144
1.0
145
0.0
146
1.0
147
0.09
 71
0.0
 72
0.0
 73
1
 74
1
 75
0
 76
0
 77
0
 78
4
170
0
171
2
172
0
173
0
174
0
175
0
176
0
177
0
178
0
270
2
271
4
272
4
273
2
274
2
275
0
280
0
281
0
282
0
283
1
284
4
285
0
286
0
287
3
288
0
340
11
278
46
  0
ENDTAB
  0
ENDSEC
  0
SECTION
  2
BLOCKS
  0
BLOCK
  5
20
100
AcDbEntity
  8
0
100
AcDbBlockBegin
  2
*Model_Space
 70
0
 10
0.0
 20
0.0
 30
0.0
  3
*Model_Space
  1

  0
ENDBLK
  5
21
100
AcDbEntity
  8
0
100
AcDbBlockEnd
  0
BLOCK
  5
1C
100
AcDbEntity
  8
0
100
AcDbBlockBegin
  2
*Paper_Space
 70
0
 10
0.0
 20
0.0
 30
0.0
  3
*Paper_Space
  1

  0
ENDBLK
  5
1D
100
AcDbEntity
  8
0
100
AcDbBlockEnd
  0
ENDSEC
  0
SECTION
  2
ENTITIES
  0
MTEXT
  5
219
100
AcDbEntity
  8
0
100
AcDbMText
 62
7
  6
CONTINUOUS
  7
STANDARD
 71
1
 72
1
 10
15.9560215477
 20
0.9479130325
 30
0.0
 11
1.0
 21
0.0
 31
0.0
 44
0.9
  1
SCALE: 1:1.000
 40
0.3
 41
3.36
  0
LINE
  5
21A
100
AcDbEntity
  8
0
100
AcDbLine
 62
7
  6
CONTINUOUS
 10
0.0
 20
0.0
 11
0.0
 21
17.0
  0
LINE
  5
21B
100
AcDbEntity
  8
0
100
AcDbLine
 62
7
  6
CONTINUOUS
 10
0.0
 20
0.0
 11
22.0
 21
0.0
  0
LINE
  5
21C
100
AcDbEntity
  8
0
100
AcDbLine
 62
7
  6
CONTINUOUS
 10
0.0
 20
17.0
 11
22.0
 21
17.0
  0
LINE
  5
21D
100
AcDbEntity
  8
0
100
AcDbLine
 62
7
  6
CONTINUOUS
 10
22.0
 20
0.0
 11
22.0
 21
17.0
  0
LINE
  5
21E
100
AcDbEntity
  8
0
100
AcDbLine
 62
7
  6
CONTINUOUS
 10
5.8022422762
 20
5.708156529
 11
5.8022422762
 21
5.6941700138
  0
LINE
  5
21F
100
AcDbEntity
  8
0
100
AcDbLine
 62
7
  6
CONTINUOUS
 10
5.9246259258
 20
5.3172554444
 11
6.3361086266
 21
5.3172554444
  0
LINE
  5
220
100
AcDbEntity
  8
0
100
AcDbLine
 62
7
  6
CONTINUOUS
 10
5.8840266869
 20
5.4526721111
 11
6.3767078654
 21
5.4526721111
  0
LINE
  5
221
100
AcDbEntity
  8
0
100
AcDbLine
 62
7
  6
CONTINUOUS
 10
6.4584922762
 20
5.6941700138
 11
6.4584922762
 21
5.708156529
  0
LINE
  5
222
100
AcDbEntity
  8
0
100
AcDbLine
 62
7
  6
CONTINUOUS
 10
6.3989970839
 20
10.6000477814
 11
5.7427470839
 21
10.6000477814
  0
LINE
  5
223
100
AcDbEntity
  8
0
100
AcDbLine
 62
7
  6
CONTINUOUS
 10
5.7427470839
 20
10.6000477814
 11
5.7427470839
 21
14.6000477814
  0
LINE
  5
224
100
AcDbEntity
  8
0
100
AcDbLine
 62
7
  6
CONTINUOUS
 10
6.3989970839
 20
10.6000477814
 11
6.3989970839
 21
14.6000477814
  0
LINE
  5
225
100
AcDbEntity
  8
0
100
AcDbLine
 62
7
  6
CONTINUOUS
 10
5.7427470839
 20
14.6000477814
 11
6.3989970839
 21
14.6000477814
  0
LINE
  5
226
100
AcDbEntity
  8
0
100
AcDbLine
 62
7
  6
CONTINUOUS
 10
13.5603552569
 20
5.3931769188
 11
13.5603552569
 21
5.6640102069
  0
LINE
  5
227
100
AcDbEntity
  8
0
100
AcDbLine
 62
7
  6
CONTINUOUS
 10
13.6544158229
 20
5.3511951009
 11
13.666294691
 21
5.29974207
  0
LINE
  5
228
100
AcDbEntity
  8
0
100
AcDbLine
 62
7
  6
CONTINUOUS
 10
13.8544158229
 20
5.29974207
 11
13.866294691
 21
5.3511951009
  0
LINE
  5
229
100
AcDbEntity
  8
0
100
AcDbLine
 62
7
  6
CONTINUOUS
 10
14.0544158229
 20
5.3511951009
 11
14.066294691
 21
5.29974207
  0
LINE
  5
22A
100
AcDbEntity
  8
0
100
AcDbLine
 62
7
  6
CONTINUOUS
 10
14.2544158229
 20
5.29974207
 11
14.266294691
 21
5.3511951009
  0
LINE
  5
22B
100
AcDbEntity
  8
0
100
AcDbLine
 62
7
  6
CONTINUOUS
 10
14.4544158229
 20
5.3511951009
 11
14.466294691
 21
5.29974207
  0
LINE
  5
22C
100
AcDbEntity
  8
0
100
AcDbLine
 62
7
  6
CONTINUOUS
 10
14.6544158229
 20
5.29974207
 11
14.666294691
 21
5.3511951009
  0
LINE
  5
22D
100
AcDbEntity
  8
0
100
AcDbLine
 62
7
  6
CONTINUOUS
 10
14.8544158229
 20
5.3511951009
 11
14.866294691
 21
5.29974207
  0
LINE
  5
22E
100
AcDbEntity
  8
0
100
AcDbLine
 62
7
  6
CONTINUOUS
 10
15.0544158229
 20
5.29974207
 11
15.066294691
 21
5.3511951009
  0
LINE
  5
22F
100
AcDbEntity
  8
0
100
AcDbLine
 62
7
  6
CONTINUOUS
 10
15.2544158229
 20
5.3511951009
 11
15.266294691
 21
5.29974207
  0
LINE
  5
230
100
AcDbEntity
  8
0
100
AcDbLine
 62
7
  6
CONTINUOUS
 10
13.7190730695
 20
5.2577602521
 11
13.8016374443
 21
5.2577602521
  0
LINE
  5
231
100
AcDbEntity
  8
0
100
AcDbLine
 62
7
  6
CONTINUOUS
 10
14.1190730695
 20
5.2577602521
 11
14.2016374443
 21
5.2577602521
  0
LINE
  5
232
100
AcDbEntity
  8
0
100
AcDbLine
 62
7
  6
CONTINUOUS
 10
14.5190730695
 20
5.2577602521
 11
14.6016374443
 21
5.2577602521
  0
LINE
  5
233
100
AcDbEntity
  8
0
100
AcDbLine
 62
7
  6
CONTINUOUS
 10
14.9190730695
 20
5.2577602521
 11
15.0016374443
 21
5.2577602521
  0
LINE
  5
234
100
AcDbEntity
  8
0
100
AcDbLine
 62
7
  6
CONTINUOUS
 10
15.3190730695
 20
5.2577602521
 11
15.4016374443
 21
5.2577602521
  0
LINE
  5
235
100
AcDbEntity
  8
0
100
AcDbLine
 62
7
  6
CONTINUOUS
 10
15.7190730695
 20
5.2577602521
 11
15.8016374443
 21
5.2577602521
  0
LINE
  5
236
100
AcDbEntity
  8
0
100
AcDbLine
 62
7
  6
CONTINUOUS
 10
16.1190730695
 20
5.2577602521
 11
16.2016374443
 21
5.2577602521
  0
LINE
  5
237
100
AcDbEntity
  8
0
100
AcDbLine
 62
7
  6
CONTINUOUS
 10
16.5190730695
 20
5.2577602521
 11
16.6016374443
 21
5.2577602521
  0
LINE
  5
238
100
AcDbEntity
  8
0
100
AcDbLine
 62
7
  6
CONTINUOUS
 10
16.9190730695
 20
5.2577602521
 11
17.0016374443
 21
5.2577602521
  0
LINE
  5
239
100
AcDbEntity
  8
0
100
AcDbLine
 62
7
  6
CONTINUOUS
 10
17.3190730695
 20
5.2577602521
 11
17.4016374443
 21
5.2577602521
  0
LINE
  5
23A
100
AcDbEntity
  8
0
100
AcDbLine
 62
7
  6
CONTINUOUS
 10
15.4544158229
 20
5.29974207
 11
15.466294691
 21
5.3511951009
  0
LINE
  5
23B
100
AcDbEntity
  8
0
100
AcDbLine
 62
7
  6
CONTINUOUS
 10
13.5603552569
 20
5.3931769188
 11
13.6016374443
 21
5.3931769188
  0
LINE
  5
23C
100
AcDbEntity
  8
0
100
AcDbLine
 62
7
  6
CONTINUOUS
 10
13.9190730695
 20
5.3931769188
 11
14.0016374443
 21
5.3931769188
  0
LINE
  5
23D
100
AcDbEntity
  8
0
100
AcDbLine
 62
7
  6
CONTINUOUS
 10
14.3190730695
 20
5.3931769188
 11
14.4016374443
 21
5.3931769188
  0
LINE
  5
23E
100
AcDbEntity
  8
0
100
AcDbLine
 62
7
  6
CONTINUOUS
 10
14.7190730695
 20
5.3931769188
 11
14.8016374443
 21
5.3931769188
  0
LINE
  5
23F
100
AcDbEntity
  8
0
100
AcDbLine
 62
7
  6
CONTINUOUS
 10
15.1190730695
 20
5.3931769188
 11
15.2016374443
 21
5.3931769188
  0
LINE
  5
240
100
AcDbEntity
  8
0
100
AcDbLine
 62
7
  6
CONTINUOUS
 10
15.5190730695
 20
5.3931769188
 11
15.6016374443
 21
5.3931769188
  0
LINE
  5
241
100
AcDbEntity
  8
0
100
AcDbLine
 62
7
  6
CONTINUOUS
 10
15.9190730695
 20
5.3931769188
 11
16.0016374443
 21
5.3931769188
  0
LINE
  5
242
100
AcDbEntity
  8
0
100
AcDbLine
 62
7
  6
CONTINUOUS
 10
16.3190730695
 20
5.3931769188
 11
16.4016374443
 21
5.3931769188
  0
LINE
  5
243
100
AcDbEntity
  8
0
100
AcDbLine
 62
7
  6
CONTINUOUS
 10
16.7190730695
 20
5.3931769188
 11
16.8016374443
 21
5.3931769188
  0
LINE
  5
244
100
AcDbEntity
  8
0
100
AcDbLine
 62
7
  6
CONTINUOUS
 10
17.1190730695
 20
5.3931769188
 11
17.2016374443
 21
5.3931769188
  0
LINE
  5
245
100
AcDbEntity
  8
0
100
AcDbLine
 62
7
  6
CONTINUOUS
 10
17.5190730695
 20
5.3931769188
 11
17.5603552569
 21
5.3931769188
  0
LINE
  5
246
100
AcDbEntity
  8
0
100
AcDbLine
 62
7
  6
CONTINUOUS
 10
15.6544158229
 20
5.3511951009
 11
15.666294691
 21
5.29974207
  0
LINE
  5
247
100
AcDbEntity
  8
0
100
AcDbLine
 62
7
  6
CONTINUOUS
 10
17.5603552569
 20
5.6640102521
 11
13.5603552569
 21
5.6640102521
  0
LINE
  5
248
100
AcDbEntity
  8
0
100
AcDbLine
 62
7
  6
CONTINUOUS
 10
15.8544158229
 20
5.29974207
 11
15.866294691
 21
5.3511951009
  0
LINE
  5
249
100
AcDbEntity
  8
0
100
AcDbLine
 62
7
  6
CONTINUOUS
 10
16.0544158229
 20
5.3511951009
 11
16.066294691
 21
5.29974207
  0
LINE
  5
24A
100
AcDbEntity
  8
0
100
AcDbLine
 62
7
  6
CONTINUOUS
 10
16.2544158229
 20
5.29974207
 11
16.266294691
 21
5.3511951009
  0
LINE
  5
24B
100
AcDbEntity
  8
0
100
AcDbLine
 62
7
  6
CONTINUOUS
 10
16.4544158229
 20
5.3511951009
 11
16.466294691
 21
5.29974207
  0
LINE
  5
24C
100
AcDbEntity
  8
0
100
AcDbLine
 62
7
  6
CONTINUOUS
 10
16.6544158229
 20
5.29974207
 11
16.666294691
 21
5.3511951009
  0
LINE
  5
24D
100
AcDbEntity
  8
0
100
AcDbLine
 62
7
  6
CONTINUOUS
 10
16.8544158229
 20
5.3511951009
 11
16.866294691
 21
5.29974207
  0
LINE
  5
24E
100
AcDbEntity
  8
0
100
AcDbLine
 62
7
  6
CONTINUOUS
 10
17.0544158229
 20
5.29974207
 11
17.066294691
 21
5.3511951009
  0
LINE
  5
24F
100
AcDbEntity
  8
0
100
AcDbLine
 62
7
  6
CONTINUOUS
 10
17.2544158229
 20
5.3511951009
 11
17.266294691
 21
5.29974207
  0
LINE
  5
250
100
AcDbEntity
  8
0
100
AcDbLine
 62
7
  6
CONTINUOUS
 10
17.5603552569
 20
5.3931769188
 11
17.5603552569
 21
5.6640102069
  0
LINE
  5
251
100
AcDbEntity
  8
0
100
AcDbLine
 62
7
  6
CONTINUOUS
 10
17.4544158229
 20
5.29974207
 11
17.466294691
 21
5.3511951009
  0
LWPOLYLINE
  5
252
100
AcDbEntity
  8
0
100
AcDbPolyline
 62
7
  6
CONTINUOUS
 90
5
 70
0
 10
15.3175630388
 20
10.8797926575
 10
15.3212252779
 20
10.8803884554
 10
15.3261756966
 20
10.8834172762
 10
15.3294617335
 20
10.8875369793
 10
15.3321804225
 20
10.8927300709
  0
LINE
  5
253
100
AcDbEntity
  8
0
100
AcDbLine
 62
7
  6
CONTINUOUS
 10
14.8335235859
 20
10.8601367828
 11
15.287313002
 21
10.8601367828
  0
LINE
  5
254
100
AcDbEntity
  8
0
100
AcDbLine
 62
7
  6
CONTINUOUS
 10
15.2988822507
 20
10.8797922399
 11
15.3175637122
 21
10.8797922399
  0
LINE
  5
255
100
AcDbEntity
  8
0
100
AcDbLine
 62
7
  6
CONTINUOUS
 10
14.6802617116
 20
11.0189484437
 11
14.6845281843
 21
11.0102542864
  0
LWPOLYLINE
  5
256
100
AcDbEntity
  8
0
100
AcDbPolyline
 62
7
  6
CONTINUOUS
 90
5
 70
0
 10
15.4143895682
 20
11.1931234213
 10
15.4180518073
 20
11.1937192192
 10
15.423002226
 20
11.19674804
 10
15.4262882628
 20
11.2008677432
 10
15.4290069519
 20
11.2060608348
  0
LINE
  5
257
100
AcDbEntity
  8
0
100
AcDbLine
 62
7
  6
CONTINUOUS
 10
15.39570878
 20
11.1931230037
 11
15.4143902415
 21
11.1931230037
  0
LWPOLYLINE
  5
258
100
AcDbEntity
  8
0
100
AcDbPolyline
 62
7
  6
CONTINUOUS
 90
5
 70
0
 10
15.5112160975
 20
11.5064541852
 10
15.5148783366
 20
11.5070499831
 10
15.5198287554
 20
11.5100788039
 10
15.5231147922
 20
11.514198507
 10
15.5258334812
 20
11.5193915986
  0
LINE
  5
259
100
AcDbEntity
  8
0
100
AcDbLine
 62
7
  6
CONTINUOUS
 10
15.4925353094
 20
11.5064537676
 11
15.5112167709
 21
11.5064537676
  0
LINE
  5
25A
100
AcDbEntity
  8
0
100
AcDbLine
 62
7
  6
CONTINUOUS
 10
15.2889744616
 20
11.0102542864
 11
15.2847079889
 21
11.0189484437
  0
LWPOLYLINE
  5
25B
100
AcDbEntity
  8
0
100
AcDbPolyline
 62
7
  6
CONTINUOUS
 90
5
 70
0
 10
15.6080426269
 20
11.819784949
 10
15.611704866
 20
11.8203807469
 10
15.6166552847
 20
11.8234095677
 10
15.6199413216
 20
11.8275292709
 10
15.6226600106
 20
11.8327223625
  0
LINE
  5
25C
100
AcDbEntity
  8
0
100
AcDbLine
 62
7
  6
CONTINUOUS
 10
15.5893618388
 20
11.8197845314
 11
15.6080433003
 21
11.8197845314
  0
LWPOLYLINE
  5
25D
100
AcDbEntity
  8
0
100
AcDbPolyline
 62
7
  6
CONTINUOUS
 90
5
 70
0
 10
15.7048691563
 20
12.1331157129
 10
15.7085313953
 20
12.1337115108
 10
15.7134818141
 20
12.1367403316
 10
15.7167678509
 20
12.1408600347
 10
15.71948654
 20
12.1460531264
  0
LINE
  5
25E
100
AcDbEntity
  8
0
100
AcDbLine
 62
7
  6
CONTINUOUS
 10
15.6861883681
 20
12.1331152953
 11
15.7048698296
 21
12.1331152953
  0
LINE
  5
25F
100
AcDbEntity
  8
0
100
AcDbLine
 62
7
  6
CONTINUOUS
 10
14.679895296
 20
11.0220969802
 11
15.6481605896
 21
14.1554046187
  0
LWPOLYLINE
  5
260
100
AcDbEntity
  8
0
100
AcDbPolyline
 62
7
  6
CONTINUOUS
 90
5
 70
0
 10
15.8016956856
 20
12.4464464768
 10
15.8053579247
 20
12.4470422746
 10
15.8103083434
 20
12.4500710954
 10
15.8135943803
 20
12.4541907986
 10
15.8163130693
 20
12.4593838902
  0
LINE
  5
261
100
AcDbEntity
  8
0
100
AcDbLine
 62
7
  6
CONTINUOUS
 10
15.3657005672
 20
11.0259058795
 11
15.3660339849
 21
11.0378669403
  0
LINE
  5
262
100
AcDbEntity
  8
0
100
AcDbLine
 62
7
  6
CONTINUOUS
 10
15.3660339849
 20
11.0378669403
 11
15.3670139548
 21
11.0670813677
  0
LINE
  5
263
100
AcDbEntity
  8
0
100
AcDbLine
 62
7
  6
CONTINUOUS
 10
15.3670140406
 20
11.0670813675
 11
15.3670144358
 21
11.0670921701
  0
LINE
  5
264
100
AcDbEntity
  8
0
100
AcDbLine
 62
7
  6
CONTINUOUS
 10
15.3652288076
 20
11.0172515969
 11
15.3657007717
 21
11.0259196084
  0
LINE
  5
265
100
AcDbEntity
  8
0
100
AcDbLine
 62
7
  6
CONTINUOUS
 10
15.3670144358
 20
11.0670921701
 11
15.3674735375
 21
11.0748767794
  0
LINE
  5
266
100
AcDbEntity
  8
0
100
AcDbLine
 62
7
  6
CONTINUOUS
 10
15.7830148975
 20
12.4464460591
 11
15.801696359
 21
12.4464460591
  0
LINE
  5
267
100
AcDbEntity
  8
0
100
AcDbLine
 62
7
  6
CONTINUOUS
 10
15.4625270966
 20
11.3392366433
 11
15.4628605143
 21
11.3511977041
  0
LINE
  5
268
100
AcDbEntity
  8
0
100
AcDbLine
 62
7
  6
CONTINUOUS
 10
15.5593536259
 20
11.6525674072
 11
15.5596870436
 21
11.664528468
  0
LINE
  5
269
100
AcDbEntity
  8
0
100
AcDbLine
 62
7
  6
CONTINUOUS
 10
15.4628605143
 20
11.3511977041
 11
15.4638404841
 21
11.3804121315
  0
LINE
  5
26A
100
AcDbEntity
  8
0
100
AcDbLine
 62
7
  6
CONTINUOUS
 10
15.5596870436
 20
11.664528468
 11
15.5606670135
 21
11.6937428954
  0
LINE
  5
26B
100
AcDbEntity
  8
0
100
AcDbLine
 62
7
  6
CONTINUOUS
 10
15.4638405699
 20
11.3804121314
 11
15.4638409651
 21
11.380422934
  0
LINE
  5
26C
100
AcDbEntity
  8
0
100
AcDbLine
 62
7
  6
CONTINUOUS
 10
15.5606670993
 20
11.6937428952
 11
15.5606674945
 21
11.6937536979
  0
LINE
  5
26D
100
AcDbEntity
  8
0
100
AcDbLine
 62
7
  6
CONTINUOUS
 10
15.462055337
 20
11.3305823607
 11
15.462527301
 21
11.3392503722
  0
LINE
  5
26E
100
AcDbEntity
  8
0
100
AcDbLine
 62
7
  6
CONTINUOUS
 10
15.5588818664
 20
11.6439131246
 11
15.5593538304
 21
11.6525811361
  0
LINE
  5
26F
100
AcDbEntity
  8
0
100
AcDbLine
 62
7
  6
CONTINUOUS
 10
15.4638409651
 20
11.380422934
 11
15.4643000669
 21
11.3882075433
  0
LINE
  5
270
100
AcDbEntity
  8
0
100
AcDbLine
 62
7
  6
CONTINUOUS
 10
15.5606674945
 20
11.6937536979
 11
15.5611265963
 21
11.7015383071
  0
LWPOLYLINE
  5
271
100
AcDbEntity
  8
0
100
AcDbPolyline
 62
7
  6
CONTINUOUS
 90
5
 70
0
 10
15.3674735375
 20
11.0748767794
 10
15.3690795136
 20
11.0899012193
 10
15.3716144837
 20
11.1061374819
 10
15.3748456923
 20
11.1222256808
 10
15.3784658342
 20
11.1368695903
  0
LWPOLYLINE
  5
272
100
AcDbEntity
  8
0
100
AcDbPolyline
 62
7
  6
CONTINUOUS
 90
5
 70
0
 10
15.4643000669
 20
11.3882075433
 10
15.4659060429
 20
11.4032319832
 10
15.4684410131
 20
11.4194682458
 10
15.4716722216
 20
11.4355564446
 10
15.4752923636
 20
11.4502003542
  0
LINE
  5
273
100
AcDbEntity
  8
0
100
AcDbLine
 62
7
  6
CONTINUOUS
 10
15.2938166834
 20
10.8634004422
 11
15.2939638458
 21
10.8644967261
  0
LINE
  5
274
100
AcDbEntity
  8
0
100
AcDbLine
 62
7
  6
CONTINUOUS
 10
15.6561801553
 20
11.965898171
 11
15.656513573
 21
11.9778592318
  0
LINE
  5
275
100
AcDbEntity
  8
0
100
AcDbLine
 62
7
  6
CONTINUOUS
 10
15.656513573
 20
11.9778592318
 11
15.6574935428
 21
12.0070736592
  0
LINE
  5
276
100
AcDbEntity
  8
0
100
AcDbLine
 62
7
  6
CONTINUOUS
 10
15.6574936287
 20
12.0070736591
 11
15.6574940239
 21
12.0070844617
  0
LINE
  5
277
100
AcDbEntity
  8
0
100
AcDbLine
 62
7
  6
CONTINUOUS
 10
15.6557083957
 20
11.9572438884
 11
15.6561803597
 21
11.9659118999
  0
LINE
  5
278
100
AcDbEntity
  8
0
100
AcDbLine
 62
7
  6
CONTINUOUS
 10
15.6574940239
 20
12.0070844617
 11
15.6579531256
 21
12.014869071
  0
LWPOLYLINE
  5
279
100
AcDbEntity
  8
0
100
AcDbPolyline
 62
7
  6
CONTINUOUS
 90
5
 70
0
 10
15.5611265963
 20
11.7015383071
 10
15.5627325723
 20
11.716562747
 10
15.5652675424
 20
11.7327990096
 10
15.568498751
 20
11.7488872085
 10
15.572118893
 20
11.763531118
  0
LWPOLYLINE
  5
27A
100
AcDbEntity
  8
0
100
AcDbPolyline
 62
7
  6
CONTINUOUS
 90
5
 70
0
 10
15.6579531256
 20
12.014869071
 10
15.6595591017
 20
12.0298935109
 10
15.6620940718
 20
12.0461297735
 10
15.6653252803
 20
12.0622179723
 10
15.6689454223
 20
12.0768618819
  0
LWPOLYLINE
  5
27B
100
AcDbEntity
  8
0
100
AcDbPolyline
 62
7
  6
CONTINUOUS
 90
4
 70
0
 10
15.358213276
 20
10.9755603404
 10
15.3612752468
 20
10.9890633388
 10
15.3636709582
 20
11.003272953
 10
15.3652288076
 20
11.0172515969
  0
LWPOLYLINE
  5
27C
100
AcDbEntity
  8
0
100
AcDbPolyline
 62
7
  6
CONTINUOUS
 90
4
 70
0
 10
15.4550398053
 20
11.2888911043
 10
15.4581017762
 20
11.3023941026
 10
15.4604974876
 20
11.3166037168
 10
15.462055337
 20
11.3305823607
  0
LINE
  5
27D
100
AcDbEntity
  8
0
100
AcDbLine
 62
7
  6
CONTINUOUS
 10
16.2036191868
 20
13.7127069456
 11
16.2062853981
 21
13.719535136
  0
LWPOLYLINE
  5
27E
100
AcDbEntity
  8
0
100
AcDbPolyline
 62
7
  6
CONTINUOUS
 90
4
 70
0
 10
16.1781010994
 20
13.7241749318
 10
16.1801683868
 20
13.729294606
 10
16.1819009138
 20
13.7328127825
 10
16.1824949444
 20
13.7338105503
  0
LWPOLYLINE
  5
27F
100
AcDbEntity
  8
0
100
AcDbPolyline
 62
7
  6
CONTINUOUS
 90
4
 70
0
 10
16.08127457
 20
13.4108441679
 10
16.0833418574
 20
13.4159638422
 10
16.0850743844
 20
13.4194820186
 10
16.085668415
 20
13.4204797864
  0
LWPOLYLINE
  5
280
100
AcDbEntity
  8
0
100
AcDbPolyline
 62
7
  6
CONTINUOUS
 90
4
 70
0
 10
15.9844480407
 20
13.0975134041
 10
15.9865153281
 20
13.1026330783
 10
15.9882478551
 20
13.1061512548
 10
15.9888418857
 20
13.1071490226
  0
LWPOLYLINE
  5
281
100
AcDbEntity
  8
0
100
AcDbPolyline
 62
7
  6
CONTINUOUS
 90
5
 70
0
 10
15.898522215
 20
12.7597772406
 10
15.9021844541
 20
12.7603730385
 10
15.9071348728
 20
12.7634018593
 10
15.9104209097
 20
12.7675215624
 10
15.9131395987
 20
12.7727146541
  0
LINE
  5
282
100
AcDbEntity
  8
0
100
AcDbLine
 62
7
  6
CONTINUOUS
 10
15.8798414268
 20
12.759776823
 11
15.8985228884
 21
12.759776823
  0
LINE
  5
283
100
AcDbEntity
  8
0
100
AcDbLine
 62
7
  6
CONTINUOUS
 10
15.7530066846
 20
12.2792289349
 11
15.7533401023
 21
12.2911899957
  0
LINE
  5
284
100
AcDbEntity
  8
0
100
AcDbLine
 62
7
  6
CONTINUOUS
 10
15.849833214
 20
12.5925596987
 11
15.8501666317
 21
12.6045207595
  0
LINE
  5
285
100
AcDbEntity
  8
0
100
AcDbLine
 62
7
  6
CONTINUOUS
 10
15.7533401023
 20
12.2911899957
 11
15.7543200722
 21
12.3204044231
  0
LINE
  5
286
100
AcDbEntity
  8
0
100
AcDbLine
 62
7
  6
CONTINUOUS
 10
15.8501666317
 20
12.6045207595
 11
15.8511466016
 21
12.6337351869
  0
LINE
  5
287
100
AcDbEntity
  8
0
100
AcDbLine
 62
7
  6
CONTINUOUS
 10
15.754320158
 20
12.3204044229
 11
15.7543205532
 21
12.3204152256
  0
LINE
  5
288
100
AcDbEntity
  8
0
100
AcDbLine
 62
7
  6
CONTINUOUS
 10
15.8511466874
 20
12.6337351868
 11
15.8511470826
 21
12.6337459894
  0
LINE
  5
289
100
AcDbEntity
  8
0
100
AcDbLine
 62
7
  6
CONTINUOUS
 10
15.7525349251
 20
12.2705746523
 11
15.7530068891
 21
12.2792426638
  0
LINE
  5
28A
100
AcDbEntity
  8
0
100
AcDbLine
 62
7
  6
CONTINUOUS
 10
15.8493614544
 20
12.5839054161
 11
15.8498334185
 21
12.5925734276
  0
LINE
  5
28B
100
AcDbEntity
  8
0
100
AcDbLine
 62
7
  6
CONTINUOUS
 10
15.7543205532
 20
12.3204152256
 11
15.754779655
 21
12.3281998348
  0
LINE
  5
28C
100
AcDbEntity
  8
0
100
AcDbLine
 62
7
  6
CONTINUOUS
 10
15.8511470826
 20
12.6337459894
 11
15.8516061843
 21
12.6415305987
  0
LWPOLYLINE
  5
28D
100
AcDbEntity
  8
0
100
AcDbPolyline
 62
7
  6
CONTINUOUS
 90
5
 70
0
 10
15.754779655
 20
12.3281998348
 10
15.756385631
 20
12.3432242747
 10
15.7589206012
 20
12.3594605373
 10
15.7621518097
 20
12.3755487362
 10
15.7657719517
 20
12.3901926457
  0
LWPOLYLINE
  5
28E
100
AcDbEntity
  8
0
100
AcDbPolyline
 62
7
  6
CONTINUOUS
 90
5
 70
0
 10
15.8516061843
 20
12.6415305987
 10
15.8532121604
 20
12.6565550386
 10
15.8557471305
 20
12.6727913012
 10
15.8589783391
 20
12.6888795
 10
15.8625984811
 20
12.7035234096
  0
LWPOLYLINE
  5
28F
100
AcDbEntity
  8
0
100
AcDbPolyline
 62
7
  6
CONTINUOUS
 90
4
 70
0
 10
15.5518663347
 20
11.6022218681
 10
15.5549283055
 20
11.6157248665
 10
15.557324017
 20
11.6299344807
 10
15.5588818664
 20
11.6439131246
  0
LWPOLYLINE
  5
290
100
AcDbEntity
  8
0
100
AcDbPolyline
 62
7
  6
CONTINUOUS
 90
4
 70
0
 10
15.6486928641
 20
11.915552632
 10
15.6517548349
 20
11.9290556303
 10
15.6541505463
 20
11.9432652445
 10
15.6557083957
 20
11.9572438884
  0
LWPOLYLINE
  5
291
100
AcDbEntity
  8
0
100
AcDbPolyline
 62
7
  6
CONTINUOUS
 90
4
 70
0
 10
15.7455193934
 20
12.2288833958
 10
15.7485813642
 20
12.2423863942
 10
15.7509770757
 20
12.2565960084
 10
15.7525349251
 20
12.2705746523
  0
LWPOLYLINE
  5
292
100
AcDbEntity
  8
0
100
AcDbPolyline
 62
7
  6
CONTINUOUS
 90
4
 70
0
 10
15.8423459228
 20
12.5422141597
 10
15.8454078936
 20
12.555717158
 10
15.847803605
 20
12.5699267722
 10
15.8493614544
 20
12.5839054161
  0
LWPOLYLINE
  5
293
100
AcDbEntity
  8
0
100
AcDbPolyline
 62
7
  6
CONTINUOUS
 90
4
 70
0
 10
15.9391724521
 20
12.8555449235
 10
15.942234423
 20
12.8690479219
 10
15.9446301344
 20
12.8832575361
 10
15.9461879838
 20
12.89723618
  0
LINE
  5
294
100
AcDbEntity
  8
0
100
AcDbLine
 62
7
  6
CONTINUOUS
 10
15.3561337398
 20
10.9682194851
 11
15.358213276
 21
10.9755603404
  0
LINE
  5
295
100
AcDbEntity
  8
0
100
AcDbLine
 62
7
  6
CONTINUOUS
 10
15.4529602692
 20
11.2815502489
 11
15.4550398053
 21
11.2888911043
  0
LINE
  5
296
100
AcDbEntity
  8
0
100
AcDbLine
 62
7
  6
CONTINUOUS
 10
15.5497867985
 20
11.5948810128
 11
15.5518663347
 21
11.6022218681
  0
LINE
  5
297
100
AcDbEntity
  8
0
100
AcDbLine
 62
7
  6
CONTINUOUS
 10
15.6466133279
 20
11.9082117766
 11
15.6486928641
 21
11.915552632
  0
LINE
  5
298
100
AcDbEntity
  8
0
100
AcDbLine
 62
7
  6
CONTINUOUS
 10
15.7434398573
 20
12.2215425405
 11
15.7455193934
 21
12.2288833958
  0
LINE
  5
299
100
AcDbEntity
  8
0
100
AcDbLine
 62
7
  6
CONTINUOUS
 10
15.8402663866
 20
12.5348733043
 11
15.8423459228
 21
12.5422141597
  0
LINE
  5
29A
100
AcDbEntity
  8
0
100
AcDbLine
 62
7
  6
CONTINUOUS
 10
15.937092916
 20
12.8482040682
 11
15.9391724521
 21
12.8555449235
  0
LINE
  5
29B
100
AcDbEntity
  8
0
100
AcDbLine
 62
7
  6
CONTINUOUS
 10
16.0339194453
 20
13.161534832
 11
16.0359989815
 21
13.1688756874
  0
LINE
  5
29C
100
AcDbEntity
  8
0
100
AcDbLine
 62
7
  6
CONTINUOUS
 10
16.1307459747
 20
13.4748655959
 11
16.1328255109
 21
13.4822064512
  0
LINE
  5
29D
100
AcDbEntity
  8
0
100
AcDbLine
 62
7
  6
CONTINUOUS
 10
16.2275725041
 20
13.7881963597
 11
16.2296520402
 21
13.7955372151
  0
LINE
  5
29E
100
AcDbEntity
  8
0
100
AcDbLine
 62
7
  6
CONTINUOUS
 10
15.3784658342
 20
11.1368695903
 11
15.3806484182
 21
11.1443885614
  0
LINE
  5
29F
100
AcDbEntity
  8
0
100
AcDbLine
 62
7
  6
CONTINUOUS
 10
15.4752923636
 20
11.4502003542
 11
15.4774749475
 21
11.4577193252
  0
LINE
  5
2A0
100
AcDbEntity
  8
0
100
AcDbLine
 62
7
  6
CONTINUOUS
 10
15.572118893
 20
11.763531118
 11
15.5743014769
 21
11.7710500891
  0
LINE
  5
2A1
100
AcDbEntity
  8
0
100
AcDbLine
 62
7
  6
CONTINUOUS
 10
15.6689454223
 20
12.0768618819
 11
15.6711280063
 21
12.0843808529
  0
LINE
  5
2A2
100
AcDbEntity
  8
0
100
AcDbLine
 62
7
  6
CONTINUOUS
 10
15.7657719517
 20
12.3901926457
 11
15.7679545356
 21
12.3977116168
  0
LINE
  5
2A3
100
AcDbEntity
  8
0
100
AcDbLine
 62
7
  6
CONTINUOUS
 10
15.8625984811
 20
12.7035234096
 11
15.864781065
 21
12.7110423806
  0
LINE
  5
2A4
100
AcDbEntity
  8
0
100
AcDbLine
 62
7
  6
CONTINUOUS
 10
15.9594250104
 20
13.0168541734
 11
15.9616075943
 21
13.0243731445
  0
LINE
  5
2A5
100
AcDbEntity
  8
0
100
AcDbLine
 62
7
  6
CONTINUOUS
 10
16.0562515398
 20
13.3301849373
 11
16.0584341237
 21
13.3377039083
  0
LINE
  5
2A6
100
AcDbEntity
  8
0
100
AcDbLine
 62
7
  6
CONTINUOUS
 10
16.1530780691
 20
13.6435157011
 11
16.1552606531
 21
13.6510346722
  0
LINE
  5
2A7
100
AcDbEntity
  8
0
100
AcDbLine
 62
7
  6
CONTINUOUS
 10
16.2499045985
 20
13.956846465
 11
16.2520871824
 21
13.964365436
  0
LINE
  5
2A8
100
AcDbEntity
  8
0
100
AcDbLine
 62
7
  6
CONTINUOUS
 10
15.2938167917
 20
10.8634004088
 11
15.3038098195
 21
10.8957378584
  0
LINE
  5
2A9
100
AcDbEntity
  8
0
100
AcDbLine
 62
7
  6
CONTINUOUS
 10
15.3806502938
 20
11.1443937244
 11
15.4006363489
 21
11.2090686223
  0
LINE
  5
2AA
100
AcDbEntity
  8
0
100
AcDbLine
 62
7
  6
CONTINUOUS
 10
15.4774768231
 20
11.4577244882
 11
15.4974628782
 21
11.5223993861
  0
LINE
  5
2AB
100
AcDbEntity
  8
0
100
AcDbLine
 62
7
  6
CONTINUOUS
 10
15.5743033525
 20
11.7710552521
 11
15.5942894076
 21
11.83573015
  0
LINE
  5
2AC
100
AcDbEntity
  8
0
100
AcDbLine
 62
7
  6
CONTINUOUS
 10
15.6711298819
 20
12.0843860159
 11
15.691115937
 21
12.1490609138
  0
LINE
  5
2AD
100
AcDbEntity
  8
0
100
AcDbLine
 62
7
  6
CONTINUOUS
 10
15.7679564112
 20
12.3977167798
 11
15.7879424663
 21
12.4623916777
  0
LINE
  5
2AE
100
AcDbEntity
  8
0
100
AcDbLine
 62
7
  6
CONTINUOUS
 10
15.8647829406
 20
12.7110475436
 11
15.8847689957
 21
12.7757224416
  0
LINE
  5
2AF
100
AcDbEntity
  8
0
100
AcDbLine
 62
7
  6
CONTINUOUS
 10
15.96160947
 20
13.0243783075
 11
15.981595525
 21
13.0890532054
  0
LINE
  5
2B0
100
AcDbEntity
  8
0
100
AcDbLine
 62
7
  6
CONTINUOUS
 10
16.0584359993
 20
13.3377090713
 11
16.0784220544
 21
13.4023839693
  0
LINE
  5
2B1
100
AcDbEntity
  8
0
100
AcDbLine
 62
7
  6
CONTINUOUS
 10
16.1552625287
 20
13.6510398352
 11
16.1752485838
 21
13.7157147331
  0
LINE
  5
2B2
100
AcDbEntity
  8
0
100
AcDbLine
 62
7
  6
CONTINUOUS
 10
16.252089058
 20
13.964370599
 11
16.2620820854
 21
13.9967080473
  0
LINE
  5
2B3
100
AcDbEntity
  8
0
100
AcDbLine
 62
7
  6
CONTINUOUS
 10
15.3361504066
 20
10.9035519926
 11
15.3561364615
 21
10.9682268899
  0
LINE
  5
2B4
100
AcDbEntity
  8
0
100
AcDbLine
 62
7
  6
CONTINUOUS
 10
15.4329769359
 20
11.2168827564
 11
15.4529629908
 21
11.2815576538
  0
LINE
  5
2B5
100
AcDbEntity
  8
0
100
AcDbLine
 62
7
  6
CONTINUOUS
 10
15.5298034653
 20
11.5302135203
 11
15.5497895202
 21
11.5948884176
  0
LINE
  5
2B6
100
AcDbEntity
  8
0
100
AcDbLine
 62
7
  6
CONTINUOUS
 10
15.6266299946
 20
11.8435442841
 11
15.6466160495
 21
11.9082191815
  0
LINE
  5
2B7
100
AcDbEntity
  8
0
100
AcDbLine
 62
7
  6
CONTINUOUS
 10
15.723456524
 20
12.156875048
 11
15.7434425789
 21
12.2215499453
  0
LINE
  5
2B8
100
AcDbEntity
  8
0
100
AcDbLine
 62
7
  6
CONTINUOUS
 10
15.8202830534
 20
12.4702058118
 11
15.8402691083
 21
12.5348807092
  0
LINE
  5
2B9
100
AcDbEntity
  8
0
100
AcDbLine
 62
7
  6
CONTINUOUS
 10
15.9171095827
 20
12.7835365757
 11
15.9370956376
 21
12.848211473
  0
LINE
  5
2BA
100
AcDbEntity
  8
0
100
AcDbLine
 62
7
  6
CONTINUOUS
 10
16.0139361121
 20
13.0968673395
 11
16.033922167
 21
13.1615422369
  0
LINE
  5
2BB
100
AcDbEntity
  8
0
100
AcDbLine
 62
7
  6
CONTINUOUS
 10
16.1107626415
 20
13.4101981034
 11
16.1307486964
 21
13.4748730007
  0
LINE
  5
2BC
100
AcDbEntity
  8
0
100
AcDbLine
 62
7
  6
CONTINUOUS
 10
16.2075891708
 20
13.7235288672
 11
16.2275752257
 21
13.7882037646
  0
LINE
  5
2BD
100
AcDbEntity
  8
0
100
AcDbLine
 62
7
  6
CONTINUOUS
 10
16.1752482063
 20
13.7157143828
 11
16.1758645421
 21
13.7176726978
  0
LINE
  5
2BE
100
AcDbEntity
  8
0
100
AcDbLine
 62
7
  6
CONTINUOUS
 10
16.078421677
 20
13.4023836189
 11
16.0790380127
 21
13.404341934
  0
LINE
  5
2BF
100
AcDbEntity
  8
0
100
AcDbLine
 62
7
  6
CONTINUOUS
 10
15.9815951476
 20
13.0890528551
 11
15.9822114834
 21
13.0910111701
  0
LINE
  5
2C0
100
AcDbEntity
  8
0
100
AcDbLine
 62
7
  6
CONTINUOUS
 10
15.8847686182
 20
12.7757220912
 11
15.885384954
 21
12.7776804063
  0
LINE
  5
2C1
100
AcDbEntity
  8
0
100
AcDbLine
 62
7
  6
CONTINUOUS
 10
15.7879420889
 20
12.4623913274
 11
15.7885584246
 21
12.4643496424
  0
LINE
  5
2C2
100
AcDbEntity
  8
0
100
AcDbLine
 62
7
  6
CONTINUOUS
 10
15.6911155595
 20
12.1490605635
 11
15.6917318953
 21
12.1510188786
  0
LINE
  5
2C3
100
AcDbEntity
  8
0
100
AcDbLine
 62
7
  6
CONTINUOUS
 10
15.5942890301
 20
11.8357297997
 11
15.5949053659
 21
11.8376881147
  0
LINE
  5
2C4
100
AcDbEntity
  8
0
100
AcDbLine
 62
7
  6
CONTINUOUS
 10
15.4974625008
 20
11.5223990358
 11
15.4980788365
 21
11.5243573509
  0
LINE
  5
2C5
100
AcDbEntity
  8
0
100
AcDbLine
 62
7
  6
CONTINUOUS
 10
15.4006359714
 20
11.209068272
 11
15.4012523072
 21
11.211026587
  0
LINE
  5
2C6
100
AcDbEntity
  8
0
100
AcDbLine
 62
7
  6
CONTINUOUS
 10
15.3038094421
 20
10.8957375081
 11
15.3044257778
 21
10.8976958232
  0
LINE
  5
2C7
100
AcDbEntity
  8
0
100
AcDbLine
 62
7
  6
CONTINUOUS
 10
16.2062853981
 20
13.719535136
 11
16.2075907433
 21
13.7235353854
  0
LINE
  5
2C8
100
AcDbEntity
  8
0
100
AcDbLine
 62
7
  6
CONTINUOUS
 10
16.1094588687
 20
13.4062043722
 11
16.1107642139
 21
13.4102046215
  0
LINE
  5
2C9
100
AcDbEntity
  8
0
100
AcDbLine
 62
7
  6
CONTINUOUS
 10
16.0126323394
 20
13.0928736083
 11
16.0139376846
 21
13.0968738576
  0
LINE
  5
2CA
100
AcDbEntity
  8
0
100
AcDbLine
 62
7
  6
CONTINUOUS
 10
15.91580581
 20
12.7795428445
 11
15.9171111552
 21
12.7835430938
  0
LINE
  5
2CB
100
AcDbEntity
  8
0
100
AcDbLine
 62
7
  6
CONTINUOUS
 10
15.8189792806
 20
12.4662120806
 11
15.8202846258
 21
12.4702123299
  0
LINE
  5
2CC
100
AcDbEntity
  8
0
100
AcDbLine
 62
7
  6
CONTINUOUS
 10
15.7221527513
 20
12.1528813168
 11
15.7234580965
 21
12.1568815661
  0
LINE
  5
2CD
100
AcDbEntity
  8
0
100
AcDbLine
 62
7
  6
CONTINUOUS
 10
15.6253262219
 20
11.8395505529
 11
15.6266315671
 21
11.8435508022
  0
LINE
  5
2CE
100
AcDbEntity
  8
0
100
AcDbLine
 62
7
  6
CONTINUOUS
 10
15.5284996926
 20
11.5262197891
 11
15.5298050377
 21
11.5302200384
  0
LINE
  5
2CF
100
AcDbEntity
  8
0
100
AcDbLine
 62
7
  6
CONTINUOUS
 10
15.4316731632
 20
11.2128890252
 11
15.4329785084
 21
11.2168892745
  0
LINE
  5
2D0
100
AcDbEntity
  8
0
100
AcDbLine
 62
7
  6
CONTINUOUS
 10
15.3348466338
 20
10.8995582614
 11
15.336151979
 21
10.9035585107
  0
LINE
  5
2D1
100
AcDbEntity
  8
0
100
AcDbLine
 62
7
  6
CONTINUOUS
 10
16.1758645421
 20
13.7176726978
 11
16.1781010994
 21
13.7241749318
  0
LINE
  5
2D2
100
AcDbEntity
  8
0
100
AcDbLine
 62
7
  6
CONTINUOUS
 10
16.0790380127
 20
13.404341934
 11
16.08127457
 21
13.4108441679
  0
LINE
  5
2D3
100
AcDbEntity
  8
0
100
AcDbLine
 62
7
  6
CONTINUOUS
 10
15.9822114834
 20
13.0910111701
 11
15.9844480407
 21
13.0975134041
  0
LINE
  5
2D4
100
AcDbEntity
  8
0
100
AcDbLine
 62
7
  6
CONTINUOUS
 10
15.885384954
 20
12.7776804063
 11
15.8876215113
 21
12.7841826402
  0
LINE
  5
2D5
100
AcDbEntity
  8
0
100
AcDbLine
 62
7
  6
CONTINUOUS
 10
15.7885584246
 20
12.4643496424
 11
15.790794982
 21
12.4708518764
  0
LINE
  5
2D6
100
AcDbEntity
  8
0
100
AcDbLine
 62
7
  6
CONTINUOUS
 10
15.6917318953
 20
12.1510188786
 11
15.6939684526
 21
12.1575211125
  0
LINE
  5
2D7
100
AcDbEntity
  8
0
100
AcDbLine
 62
7
  6
CONTINUOUS
 10
15.5949053659
 20
11.8376881147
 11
15.5971419232
 21
11.8441903487
  0
LINE
  5
2D8
100
AcDbEntity
  8
0
100
AcDbLine
 62
7
  6
CONTINUOUS
 10
15.4980788365
 20
11.5243573509
 11
15.5003153939
 21
11.5308595848
  0
LINE
  5
2D9
100
AcDbEntity
  8
0
100
AcDbLine
 62
7
  6
CONTINUOUS
 10
15.4012523072
 20
11.211026587
 11
15.4034888645
 21
11.217528821
  0
LINE
  5
2DA
100
AcDbEntity
  8
0
100
AcDbLine
 62
7
  6
CONTINUOUS
 10
15.3044257778
 20
10.8976958232
 11
15.3066623351
 21
10.9041980571
  0
LINE
  5
2DB
100
AcDbEntity
  8
0
100
AcDbLine
 62
7
  6
CONTINUOUS
 10
16.1067926574
 20
13.3993761818
 11
16.1094588687
 21
13.4062043722
  0
LINE
  5
2DC
100
AcDbEntity
  8
0
100
AcDbLine
 62
7
  6
CONTINUOUS
 10
16.009966128
 20
13.0860454179
 11
16.0126323394
 21
13.0928736083
  0
LINE
  5
2DD
100
AcDbEntity
  8
0
100
AcDbLine
 62
7
  6
CONTINUOUS
 10
15.9131395987
 20
12.7727146541
 11
15.91580581
 21
12.7795428445
  0
LINE
  5
2DE
100
AcDbEntity
  8
0
100
AcDbLine
 62
7
  6
CONTINUOUS
 10
15.8163130693
 20
12.4593838902
 11
15.8189792806
 21
12.4662120806
  0
LINE
  5
2DF
100
AcDbEntity
  8
0
100
AcDbLine
 62
7
  6
CONTINUOUS
 10
15.71948654
 20
12.1460531264
 11
15.7221527513
 21
12.1528813168
  0
LWPOLYLINE
  5
2E0
100
AcDbEntity
  8
0
100
AcDbPolyline
 62
7
  6
CONTINUOUS
 90
4
 70
0
 10
15.8876215113
 20
12.7841826402
 10
15.8896887987
 20
12.7893023145
 10
15.8914213257
 20
12.7928204909
 10
15.8920153563
 20
12.7938182587
  0
LWPOLYLINE
  5
2E1
100
AcDbEntity
  8
0
100
AcDbPolyline
 62
7
  6
CONTINUOUS
 90
4
 70
0
 10
15.790794982
 20
12.4708518764
 10
15.7928622694
 20
12.4759715506
 10
15.7945947963
 20
12.4794897271
 10
15.7951888269
 20
12.4804874949
  0
LWPOLYLINE
  5
2E2
100
AcDbEntity
  8
0
100
AcDbPolyline
 62
7
  6
CONTINUOUS
 90
4
 70
0
 10
15.6939684526
 20
12.1575211125
 10
15.69603574
 20
12.1626407868
 10
15.697768267
 20
12.1661589632
 10
15.6983622976
 20
12.167156731
  0
LWPOLYLINE
  5
2E3
100
AcDbEntity
  8
0
100
AcDbPolyline
 62
7
  6
CONTINUOUS
 90
4
 70
0
 10
15.5971419232
 20
11.8441903487
 10
15.5992092106
 20
11.8493100229
 10
15.6009417376
 20
11.8528281993
 10
15.6015357682
 20
11.8538259672
  0
LINE
  5
2E4
100
AcDbEntity
  8
0
100
AcDbLine
 62
7
  6
CONTINUOUS
 10
15.9466597434
 20
12.9058904626
 11
15.9469931611
 21
12.9178515234
  0
LINE
  5
2E5
100
AcDbEntity
  8
0
100
AcDbLine
 62
7
  6
CONTINUOUS
 10
15.9469931611
 20
12.9178515234
 11
15.9479731309
 21
12.9470659508
  0
LINE
  5
2E6
100
AcDbEntity
  8
0
100
AcDbLine
 62
7
  6
CONTINUOUS
 10
15.9479732167
 20
12.9470659506
 11
15.947973612
 21
12.9470767533
  0
LINE
  5
2E7
100
AcDbEntity
  8
0
100
AcDbLine
 62
7
  6
CONTINUOUS
 10
15.9461879838
 20
12.89723618
 11
15.9466599478
 21
12.9059041915
  0
LINE
  5
2E8
100
AcDbEntity
  8
0
100
AcDbLine
 62
7
  6
CONTINUOUS
 10
15.947973612
 20
12.9470767533
 11
15.9484327137
 21
12.9548613625
  0
LWPOLYLINE
  5
2E9
100
AcDbEntity
  8
0
100
AcDbPolyline
 62
7
  6
CONTINUOUS
 90
5
 70
0
 10
15.9484327137
 20
12.9548613625
 10
15.9500386897
 20
12.9698858024
 10
15.9525736599
 20
12.986122065
 10
15.9558048684
 20
13.0022102639
 10
15.9594250104
 20
13.0168541734
  0
LWPOLYLINE
  5
2EA
100
AcDbEntity
  8
0
100
AcDbPolyline
 62
7
  6
CONTINUOUS
 90
5
 70
0
 10
16.0452592431
 20
13.2681921264
 10
16.0468652191
 20
13.2832165663
 10
16.0494001892
 20
13.2994528289
 10
16.0526313978
 20
13.3155410277
 10
16.0562515398
 20
13.3301849373
  0
LWPOLYLINE
  5
2EB
100
AcDbEntity
  8
0
100
AcDbPolyline
 62
7
  6
CONTINUOUS
 90
4
 70
0
 10
16.0359989815
 20
13.1688756874
 10
16.0390609523
 20
13.1823786857
 10
16.0414566638
 20
13.1965882999
 10
16.0430145132
 20
13.2105669438
  0
LWPOLYLINE
  5
2EC
100
AcDbEntity
  8
0
100
AcDbPolyline
 62
7
  6
CONTINUOUS
 90
4
 70
0
 10
16.1328255109
 20
13.4822064512
 10
16.1358874817
 20
13.4957094496
 10
16.1382831931
 20
13.5099190638
 10
16.1398410425
 20
13.5238977077
  0
LWPOLYLINE
  5
2ED
100
AcDbEntity
  8
0
100
AcDbPolyline
 62
7
  6
CONTINUOUS
 90
4
 70
0
 10
16.2296520402
 20
13.7955372151
 10
16.2327140111
 20
13.8090402134
 10
16.2351097225
 20
13.8232498276
 10
16.2366675719
 20
13.8372284715
  0
LINE
  5
2EE
100
AcDbEntity
  8
0
100
AcDbLine
 62
7
  6
CONTINUOUS
 10
15.6226600106
 20
11.8327223625
 11
15.6253262219
 21
11.8395505529
  0
LINE
  5
2EF
100
AcDbEntity
  8
0
100
AcDbLine
 62
7
  6
CONTINUOUS
 10
15.5258334812
 20
11.5193915986
 11
15.5284996926
 21
11.5262197891
  0
LINE
  5
2F0
100
AcDbEntity
  8
0
100
AcDbLine
 62
7
  6
CONTINUOUS
 10
15.4290069519
 20
11.2060608348
 11
15.4316731632
 21
11.2128890252
  0
LINE
  5
2F1
100
AcDbEntity
  8
0
100
AcDbLine
 62
7
  6
CONTINUOUS
 10
15.3321804225
 20
10.8927300709
 11
15.3348466338
 21
10.8995582614
  0
LWPOLYLINE
  5
2F2
100
AcDbEntity
  8
0
100
AcDbPolyline
 62
7
  6
CONTINUOUS
 90
4
 70
0
 10
15.5003153939
 20
11.5308595848
 10
15.5023826813
 20
11.5359792591
 10
15.5041152083
 20
11.5394974355
 10
15.5047092388
 20
11.5404952033
  0
LWPOLYLINE
  5
2F3
100
AcDbEntity
  8
0
100
AcDbPolyline
 62
7
  6
CONTINUOUS
 90
4
 70
0
 10
15.4034888645
 20
11.217528821
 10
15.4055561519
 20
11.2226484952
 10
15.4072886789
 20
11.2261666716
 10
15.4078827095
 20
11.2271644395
  0
LWPOLYLINE
  5
2F4
100
AcDbEntity
  8
0
100
AcDbPolyline
 62
7
  6
CONTINUOUS
 90
4
 70
0
 10
15.3066623351
 20
10.9041980571
 10
15.3087296225
 20
10.9093177314
 10
15.3104621495
 20
10.9128359078
 10
15.3110561801
 20
10.9138336756
  0
LWPOLYLINE
  5
2F5
100
AcDbEntity
  8
0
100
AcDbPolyline
 62
7
  6
CONTINUOUS
 90
5
 70
0
 10
15.9953487444
 20
13.0731080045
 10
15.9990109834
 20
13.0737038023
 10
16.0039614022
 20
13.0767326231
 10
16.007247439
 20
13.0808523263
 10
16.009966128
 20
13.0860454179
  0
LINE
  5
2F6
100
AcDbEntity
  8
0
100
AcDbLine
 62
7
  6
CONTINUOUS
 10
16.0434862727
 20
13.2192212264
 11
16.0438196904
 21
13.2311822872
  0
LINE
  5
2F7
100
AcDbEntity
  8
0
100
AcDbLine
 62
7
  6
CONTINUOUS
 10
16.0438196904
 20
13.2311822872
 11
16.0447996603
 21
13.2603967146
  0
LINE
  5
2F8
100
AcDbEntity
  8
0
100
AcDbLine
 62
7
  6
CONTINUOUS
 10
16.0447997461
 20
13.2603967145
 11
16.0448001413
 21
13.2604075171
  0
LINE
  5
2F9
100
AcDbEntity
  8
0
100
AcDbLine
 62
7
  6
CONTINUOUS
 10
16.0430145132
 20
13.2105669438
 11
16.0434864772
 21
13.2192349553
  0
LINE
  5
2FA
100
AcDbEntity
  8
0
100
AcDbLine
 62
7
  6
CONTINUOUS
 10
16.1398410425
 20
13.5238977077
 11
16.1403130066
 21
13.5325657192
  0
LINE
  5
2FB
100
AcDbEntity
  8
0
100
AcDbLine
 62
7
  6
CONTINUOUS
 10
16.0448001413
 20
13.2604075171
 11
16.0452592431
 21
13.2681921264
  0
LINE
  5
2FC
100
AcDbEntity
  8
0
100
AcDbLine
 62
7
  6
CONTINUOUS
 10
16.1416266707
 20
13.573738281
 11
16.1420857724
 21
13.5815228902
  0
LWPOLYLINE
  5
2FD
100
AcDbEntity
  8
0
100
AcDbPolyline
 62
7
  6
CONTINUOUS
 90
5
 70
0
 10
16.1420857724
 20
13.5815228902
 10
16.1436917485
 20
13.5965473301
 10
16.1462267186
 20
13.6127835927
 10
16.1494579272
 20
13.6288717916
 10
16.1530780691
 20
13.6435157011
  0
LWPOLYLINE
  5
2FE
100
AcDbEntity
  8
0
100
AcDbPolyline
 62
7
  6
CONTINUOUS
 90
5
 70
0
 10
16.2389123018
 20
13.8948536541
 10
16.2405182778
 20
13.909878094
 10
16.243053248
 20
13.9261143566
 10
16.2462844565
 20
13.9422025554
 10
16.2499045985
 20
13.956846465
  0
LINE
  5
2FF
100
AcDbEntity
  8
0
100
AcDbLine
 62
7
  6
CONTINUOUS
 10
16.2622291395
 20
13.9978043646
 11
16.2620819771
 21
13.9967080807
  0
LINE
  5
300
100
AcDbEntity
  8
0
100
AcDbLine
 62
7
  6
CONTINUOUS
 10
15.9766679562
 20
13.0731075868
 11
15.9953494177
 21
13.0731075868
  0
LINE
  5
301
100
AcDbEntity
  8
0
100
AcDbLine
 62
7
  6
CONTINUOUS
 10
16.1403128021
 20
13.5325519903
 11
16.1406462198
 21
13.5445130511
  0
LINE
  5
302
100
AcDbEntity
  8
0
100
AcDbLine
 62
7
  6
CONTINUOUS
 10
16.2371393315
 20
13.8458827541
 11
16.2374727492
 21
13.8578438149
  0
LINE
  5
303
100
AcDbEntity
  8
0
100
AcDbLine
 62
7
  6
CONTINUOUS
 10
16.1406462198
 20
13.5445130511
 11
16.1416261897
 21
13.5737274785
  0
LINE
  5
304
100
AcDbEntity
  8
0
100
AcDbLine
 62
7
  6
CONTINUOUS
 10
16.2374727492
 20
13.8578438149
 11
16.238452719
 21
13.8870582423
  0
LINE
  5
305
100
AcDbEntity
  8
0
100
AcDbLine
 62
7
  6
CONTINUOUS
 10
16.1416262755
 20
13.5737274783
 11
16.1416266707
 21
13.573738281
  0
LINE
  5
306
100
AcDbEntity
  8
0
100
AcDbLine
 62
7
  6
CONTINUOUS
 10
16.2384528048
 20
13.8870582422
 11
16.2384532
 21
13.8870690448
  0
LINE
  5
307
100
AcDbEntity
  8
0
100
AcDbLine
 62
7
  6
CONTINUOUS
 10
16.2366675719
 20
13.8372284715
 11
16.2371395359
 21
13.845896483
  0
LINE
  5
308
100
AcDbEntity
  8
0
100
AcDbLine
 62
7
  6
CONTINUOUS
 10
16.2384532
 20
13.8870690448
 11
16.2389123018
 21
13.8948536541
  0
LWPOLYLINE
  5
309
100
AcDbEntity
  8
0
100
AcDbPolyline
 62
7
  6
CONTINUOUS
 90
5
 70
0
 10
16.0921752737
 20
13.3864387683
 10
16.0958375128
 20
13.3870345662
 10
16.1007879315
 20
13.390063387
 10
16.1040739684
 20
13.3941830901
 10
16.1067926574
 20
13.3993761818
  0
LINE
  5
30A
100
AcDbEntity
  8
0
100
AcDbLine
 62
7
  6
CONTINUOUS
 10
16.0734944856
 20
13.3864383507
 11
16.0921759471
 21
13.3864383507
  0
LWPOLYLINE
  5
30B
100
AcDbEntity
  8
0
100
AcDbPolyline
 62
7
  6
CONTINUOUS
 90
5
 70
0
 10
16.1890018031
 20
13.6997695322
 10
16.1926640422
 20
13.70036533
 10
16.1976144609
 20
13.7033941508
 10
16.2009004977
 20
13.707513854
 10
16.2036191868
 20
13.7127069456
  0
LINE
  5
30C
100
AcDbEntity
  8
0
100
AcDbLine
 62
7
  6
CONTINUOUS
 10
16.1703210149
 20
13.6997691145
 11
16.1890024764
 21
13.6997691145
  0
LINE
  5
30D
100
AcDbEntity
  8
0
100
AcDbLine
 62
7
  6
CONTINUOUS
 10
16.2572397552
 20
14.143561925
 11
16.2529732825
 21
14.1522560822
  0
ARC
  5
30E
100
AcDbEntity
  8
0
100
AcDbCircle
 62
7
  6
CONTINUOUS
 10
0.2376944105
 20
3.6960522064
 40
5.90625
100
AcDbArc
 50
17.3738158975
 51
19.408781774
  0
ARC
  5
30F
100
AcDbEntity
  8
0
100
AcDbCircle
 62
7
  6
CONTINUOUS
 10
0.2376944105
 20
3.6960522064
 40
5.90625
100
AcDbArc
 50
16.0046720373
 51
17.3515791356
  0
ARC
  5
310
100
AcDbEntity
  8
0
100
AcDbCircle
 62
7
  6
CONTINUOUS
 10
5.8129063387
 20
5.708156529
 40
0.0106640625
100
AcDbArc
 50
91.6909344455
 51
180.0
  0
ARC
  5
311
100
AcDbEntity
  8
0
100
AcDbCircle
 62
7
  6
CONTINUOUS
 10
5.8840266869
 20
5.4626721111
 40
0.01
100
AcDbArc
 50
197.3738158975
 51
270.0
  0
ARC
  5
312
100
AcDbEntity
  8
0
100
AcDbCircle
 62
7
  6
CONTINUOUS
 10
5.9246259258
 20
5.3272554444
 40
0.01
100
AcDbArc
 50
196.0046720373
 51
270.0
  0
ARC
  5
313
100
AcDbEntity
  8
0
100
AcDbCircle
 62
7
  6
CONTINUOUS
 10
5.9088829012
 20
5.6941700138
 40
0.106640625
100
AcDbArc
 50
180.0
 51
199.408781774
  0
ARC
  5
314
100
AcDbEntity
  8
0
100
AcDbCircle
 62
7
  6
CONTINUOUS
 10
6.1303672762
 20
-5.0455961181
 40
10.7691015625
100
AcDbArc
 50
88.3090655545
 51
91.6909344455
  0
ARC
  5
315
100
AcDbEntity
  8
0
100
AcDbCircle
 62
7
  6
CONTINUOUS
 10
6.3361086266
 20
5.3272554444
 40
0.01
100
AcDbArc
 50
270.0
 51
343.9953279627
  0
ARC
  5
316
100
AcDbEntity
  8
0
100
AcDbCircle
 62
7
  6
CONTINUOUS
 10
6.3767078654
 20
5.4626721111
 40
0.01
100
AcDbArc
 50
270.0
 51
342.6261841025
  0
ARC
  5
317
100
AcDbEntity
  8
0
100
AcDbCircle
 62
7
  6
CONTINUOUS
 10
6.3518516512
 20
5.6941700138
 40
0.106640625
100
AcDbArc
 50
340.591218226
 51
360.0
  0
ARC
  5
318
100
AcDbEntity
  8
0
100
AcDbCircle
 62
7
  6
CONTINUOUS
 10
6.4478282137
 20
5.708156529
 40
0.0106640625
100
AcDbArc
 50
0.0
 51
88.3090655545
  0
ARC
  5
319
100
AcDbEntity
  8
0
100
AcDbCircle
 62
7
  6
CONTINUOUS
 10
12.0230401418
 20
3.6960522064
 40
5.90625
100
AcDbArc
 50
160.591218226
 51
162.6261841025
  0
ARC
  5
31A
100
AcDbEntity
  8
0
100
AcDbCircle
 62
7
  6
CONTINUOUS
 10
12.0230401418
 20
3.6960522064
 40
5.90625
100
AcDbArc
 50
162.64842088
 51
163.9953279627
  0
ARC
  5
31B
100
AcDbEntity
  8
0
100
AcDbCircle
 62
7
  6
CONTINUOUS
 10
17.4016374443
 20
5.3119269188
 40
0.0541666667
100
AcDbArc
 50
270.0
 51
347.0
  0
ARC
  5
31C
100
AcDbEntity
  8
0
100
AcDbCircle
 62
7
  6
CONTINUOUS
 10
17.5190730695
 20
5.3390102521
 40
0.0541666667
100
AcDbArc
 50
90.0
 51
167.0
  0
ARC
  5
31D
100
AcDbEntity
  8
0
100
AcDbCircle
 62
7
  6
CONTINUOUS
 10
17.0016374443
 20
5.3119269188
 40
0.0541666667
100
AcDbArc
 50
270.0
 51
347.0
  0
ARC
  5
31E
100
AcDbEntity
  8
0
100
AcDbCircle
 62
7
  6
CONTINUOUS
 10
17.1190730695
 20
5.3390102521
 40
0.0541666667
100
AcDbArc
 50
90.0
 51
167.0
  0
ARC
  5
31F
100
AcDbEntity
  8
0
100
AcDbCircle
 62
7
  6
CONTINUOUS
 10
17.2016374443
 20
5.3390102521
 40
0.0541666667
100
AcDbArc
 50
13.0
 51
90.0
  0
ARC
  5
320
100
AcDbEntity
  8
0
100
AcDbCircle
 62
7
  6
CONTINUOUS
 10
17.3190730695
 20
5.3119269188
 40
0.0541666667
100
AcDbArc
 50
193.0
 51
270.0
  0
ARC
  5
321
100
AcDbEntity
  8
0
100
AcDbCircle
 62
7
  6
CONTINUOUS
 10
16.6016374443
 20
5.3119269188
 40
0.0541666667
100
AcDbArc
 50
270.0
 51
347.0
  0
ARC
  5
322
100
AcDbEntity
  8
0
100
AcDbCircle
 62
7
  6
CONTINUOUS
 10
16.7190730695
 20
5.3390102521
 40
0.0541666667
100
AcDbArc
 50
90.0
 51
167.0
  0
ARC
  5
323
100
AcDbEntity
  8
0
100
AcDbCircle
 62
7
  6
CONTINUOUS
 10
16.8016374443
 20
5.3390102521
 40
0.0541666667
100
AcDbArc
 50
13.0
 51
90.0
  0
ARC
  5
324
100
AcDbEntity
  8
0
100
AcDbCircle
 62
7
  6
CONTINUOUS
 10
16.9190730695
 20
5.3119269188
 40
0.0541666667
100
AcDbArc
 50
193.0
 51
270.0
  0
ARC
  5
325
100
AcDbEntity
  8
0
100
AcDbCircle
 62
7
  6
CONTINUOUS
 10
13.7190730695
 20
5.3119269188
 40
0.0541666667
100
AcDbArc
 50
193.0
 51
270.0
  0
ARC
  5
326
100
AcDbEntity
  8
0
100
AcDbCircle
 62
7
  6
CONTINUOUS
 10
13.6016374443
 20
5.3390102521
 40
0.0541666667
100
AcDbArc
 50
13.0
 51
90.0
  0
ARC
  5
327
100
AcDbEntity
  8
0
100
AcDbCircle
 62
7
  6
CONTINUOUS
 10
16.2016374443
 20
5.3119269188
 40
0.0541666667
100
AcDbArc
 50
270.0
 51
347.0
  0
ARC
  5
328
100
AcDbEntity
  8
0
100
AcDbCircle
 62
7
  6
CONTINUOUS
 10
14.1190730695
 20
5.3119269188
 40
0.0541666667
100
AcDbArc
 50
193.0
 51
270.0
  0
ARC
  5
329
100
AcDbEntity
  8
0
100
AcDbCircle
 62
7
  6
CONTINUOUS
 10
14.0016374443
 20
5.3390102521
 40
0.0541666667
100
AcDbArc
 50
13.0
 51
90.0
  0
ARC
  5
32A
100
AcDbEntity
  8
0
100
AcDbCircle
 62
7
  6
CONTINUOUS
 10
16.3190730695
 20
5.3390102521
 40
0.0541666667
100
AcDbArc
 50
90.0
 51
167.0
  0
ARC
  5
32B
100
AcDbEntity
  8
0
100
AcDbCircle
 62
7
  6
CONTINUOUS
 10
13.9190730695
 20
5.3390102521
 40
0.0541666667
100
AcDbArc
 50
90.0
 51
167.0
  0
ARC
  5
32C
100
AcDbEntity
  8
0
100
AcDbCircle
 62
7
  6
CONTINUOUS
 10
13.8016374443
 20
5.3119269188
 40
0.0541666667
100
AcDbArc
 50
270.0
 51
347.0
  0
ARC
  5
32D
100
AcDbEntity
  8
0
100
AcDbCircle
 62
7
  6
CONTINUOUS
 10
14.5190730695
 20
5.3119269188
 40
0.0541666667
100
AcDbArc
 50
193.0
 51
270.0
  0
ARC
  5
32E
100
AcDbEntity
  8
0
100
AcDbCircle
 62
7
  6
CONTINUOUS
 10
16.4016374443
 20
5.3390102521
 40
0.0541666667
100
AcDbArc
 50
13.0
 51
90.0
  0
ARC
  5
32F
100
AcDbEntity
  8
0
100
AcDbCircle
 62
7
  6
CONTINUOUS
 10
14.4016374443
 20
5.3390102521
 40
0.0541666667
100
AcDbArc
 50
13.0
 51
90.0
  0
ARC
  5
330
100
AcDbEntity
  8
0
100
AcDbCircle
 62
7
  6
CONTINUOUS
 10
14.3190730695
 20
5.3390102521
 40
0.0541666667
100
AcDbArc
 50
90.0
 51
167.0
  0
ARC
  5
331
100
AcDbEntity
  8
0
100
AcDbCircle
 62
7
  6
CONTINUOUS
 10
16.5190730695
 20
5.3119269188
 40
0.0541666667
100
AcDbArc
 50
193.0
 51
270.0
  0
ARC
  5
332
100
AcDbEntity
  8
0
100
AcDbCircle
 62
7
  6
CONTINUOUS
 10
14.2016374443
 20
5.3119269188
 40
0.0541666667
100
AcDbArc
 50
270.0
 51
347.0
  0
ARC
  5
333
100
AcDbEntity
  8
0
100
AcDbCircle
 62
7
  6
CONTINUOUS
 10
14.9190730695
 20
5.3119269188
 40
0.0541666667
100
AcDbArc
 50
193.0
 51
270.0
  0
ARC
  5
334
100
AcDbEntity
  8
0
100
AcDbCircle
 62
7
  6
CONTINUOUS
 10
15.8016374443
 20
5.3119269188
 40
0.0541666667
100
AcDbArc
 50
270.0
 51
347.0
  0
ARC
  5
335
100
AcDbEntity
  8
0
100
AcDbCircle
 62
7
  6
CONTINUOUS
 10
14.8016374443
 20
5.3390102521
 40
0.0541666667
100
AcDbArc
 50
13.0
 51
90.0
  0
ARC
  5
336
100
AcDbEntity
  8
0
100
AcDbCircle
 62
7
  6
CONTINUOUS
 10
14.7190730695
 20
5.3390102521
 40
0.0541666667
100
AcDbArc
 50
90.0
 51
167.0
  0
ARC
  5
337
100
AcDbEntity
  8
0
100
AcDbCircle
 62
7
  6
CONTINUOUS
 10
15.9190730695
 20
5.3390102521
 40
0.0541666667
100
AcDbArc
 50
90.0
 51
167.0
  0
ARC
  5
338
100
AcDbEntity
  8
0
100
AcDbCircle
 62
7
  6
CONTINUOUS
 10
14.6016374443
 20
5.3119269188
 40
0.0541666667
100
AcDbArc
 50
270.0
 51
347.0
  0
ARC
  5
339
100
AcDbEntity
  8
0
100
AcDbCircle
 62
7
  6
CONTINUOUS
 10
15.3190730695
 20
5.3119269188
 40
0.0541666667
100
AcDbArc
 50
193.0
 51
270.0
  0
ARC
  5
33A
100
AcDbEntity
  8
0
100
AcDbCircle
 62
7
  6
CONTINUOUS
 10
15.2016374443
 20
5.3390102521
 40
0.0541666667
100
AcDbArc
 50
13.0
 51
90.0
  0
ARC
  5
33B
100
AcDbEntity
  8
0
100
AcDbCircle
 62
7
  6
CONTINUOUS
 10
16.0016374443
 20
5.3390102521
 40
0.0541666667
100
AcDbArc
 50
13.0
 51
90.0
  0
ARC
  5
33C
100
AcDbEntity
  8
0
100
AcDbCircle
 62
7
  6
CONTINUOUS
 10
15.1190730695
 20
5.3390102521
 40
0.0541666667
100
AcDbArc
 50
90.0
 51
167.0
  0
ARC
  5
33D
100
AcDbEntity
  8
0
100
AcDbCircle
 62
7
  6
CONTINUOUS
 10
15.0016374443
 20
5.3119269188
 40
0.0541666667
100
AcDbArc
 50
270.0
 51
347.0
  0
ARC
  5
33E
100
AcDbEntity
  8
0
100
AcDbCircle
 62
7
  6
CONTINUOUS
 10
15.7190730695
 20
5.3119269188
 40
0.0541666667
100
AcDbArc
 50
193.0
 51
270.0
  0
ARC
  5
33F
100
AcDbEntity
  8
0
100
AcDbCircle
 62
7
  6
CONTINUOUS
 10
16.1190730695
 20
5.3119269188
 40
0.0541666667
100
AcDbArc
 50
193.0
 51
270.0
  0
ARC
  5
340
100
AcDbEntity
  8
0
100
AcDbCircle
 62
7
  6
CONTINUOUS
 10
15.6016374443
 20
5.3390102521
 40
0.0541666667
100
AcDbArc
 50
13.0
 51
90.0
  0
ARC
  5
341
100
AcDbEntity
  8
0
100
AcDbCircle
 62
7
  6
CONTINUOUS
 10
15.4016374443
 20
5.3119269188
 40
0.0541666667
100
AcDbArc
 50
270.0
 51
347.0
  0
ARC
  5
342
100
AcDbEntity
  8
0
100
AcDbCircle
 62
7
  6
CONTINUOUS
 10
15.5190730695
 20
5.3390102521
 40
0.0541666667
100
AcDbArc
 50
90.0
 51
167.0
  0
ARC
  5
343
100
AcDbEntity
  8
0
100
AcDbCircle
 62
7
  6
CONTINUOUS
 10
15.9474985749
 20
-0.6049433882
 40
14.7667264622
100
AcDbArc
 50
88.8642681632
 51
91.1357318368
  0
ARC
  5
344
100
AcDbEntity
  8
0
100
AcDbCircle
 62
7
  6
CONTINUOUS
 10
14.9792332812
 20
-3.7382510267
 40
14.7667264622
100
AcDbArc
 50
88.8642681632
 51
91.1357318368
  0
ARC
  5
345
100
AcDbEntity
  8
0
100
AcDbCircle
 62
7
  6
CONTINUOUS
 10
10.5797040403
 20
6.8137880455
 40
5.8660338388
100
AcDbArc
 50
43.6725682629
 51
45.3675863002
  0
ARC
  5
346
100
AcDbEntity
  8
0
100
AcDbCircle
 62
7
  6
CONTINUOUS
 10
18.3851522614
 20
14.0555744677
 40
2.1237090117
100
AcDbArc
 50
178.2201909216
 51
181.5587782612
  0
ARC
  5
347
100
AcDbEntity
  8
0
100
AcDbCircle
 62
7
  6
CONTINUOUS
 10
17.4168869678
 20
10.9222668292
 40
2.1237090117
100
AcDbArc
 50
178.2201909216
 51
181.5587782612
  0
SPLINE
  5
348
100
AcDbEntity
  8
0
100
AcDbSpline
 62
7
  6
CONTINUOUS
 70
0
 71
3
 72
11
 73
7
 74
0
 42
0.0000001
 43
0.0000001
 44
0.0000000001
 40
0.0
 40
0.0
 40
0.0
 40
0.0
 40
0.2668705046
 40
0.5213209556
 40
0.7649675553
 40
1.0
 40
1.0
 40
1.0
 40
1.0
 10
16.2572397552
 20
14.143561925
 30
0.0
 10
16.258135318
 20
14.1417369599
 30
0.0
 10
16.2597105978
 20
14.1380822424
 30
0.0
 10
16.2614116776
 20
14.1324953748
 30
0.0
 10
16.2623762822
 20
14.1269801313
 30
0.0
 10
16.2625238558
 20
14.1233232151
 30
0.0
 10
16.2624677962
 20
14.121533754
 30
0.0
  0
SPLINE
  5
349
100
AcDbEntity
  8
0
100
AcDbSpline
 62
7
  6
CONTINUOUS
 70
0
 71
3
 72
15
 73
11
 74
0
 42
0.0000001
 43
0.0000001
 44
0.0000000001
 40
0.0
 40
0.0
 40
0.0
 40
0.0
 40
0.1303852255
 40
0.2659310834
 40
0.4027350395
 40
0.5374377047
 40
0.6669234741
 40
0.7884973762
 40
0.8999921339
 40
1.0
 40
1.0
 40
1.0
 40
1.0
 10
16.2401892974
 20
14.1588820832
 30
0.0
 10
16.2408411245
 20
14.1588692224
 30
0.0
 10
16.2421697631
 20
14.1587552817
 30
0.0
 10
16.2441478908
 20
14.1583579359
 30
0.0
 10
16.2460906014
 20
14.1577370306
 30
0.0
 10
16.2479263534
 20
14.1569202108
 30
0.0
 10
16.2495893074
 20
14.1559337711
 30
0.0
 10
16.2510229406
 20
14.1548143337
 30
0.0
 10
16.2521705717
 20
14.1535983864
 30
0.0
 10
16.2527529844
 20
14.1527050025
 30
0.0
 10
16.2529732825
 20
14.1522560822
 30
0.0
  0
SPLINE
  5
34A
100
AcDbEntity
  8
0
100
AcDbSpline
 62
7
  6
CONTINUOUS
 70
0
 71
3
 72
9
 73
5
 74
0
 42
0.0000001
 43
0.0000001
 44
0.0000000001
 40
0.0
 40
0.0
 40
0.0
 40
0.0
 40
0.4764202262
 40
1.0
 40
1.0
 40
1.0
 40
1.0
 10
14.6845281843
 20
11.0102542864
 30
0.0
 10
14.6864558314
 20
11.0063261546
 30
0.0
 10
14.6913765835
 20
10.9984998645
 30
0.0
 10
14.6974980266
 20
10.9916047484
 30
0.0
 10
14.7009198558
 20
10.9882261155
 30
0.0
  0
SPLINE
  5
34B
100
AcDbEntity
  8
0
100
AcDbSpline
 62
7
  6
CONTINUOUS
 70
0
 71
3
 72
13
 73
9
 74
0
 42
0.0000001
 43
0.0000001
 44
0.0000000001
 40
0.0
 40
0.0
 40
0.0
 40
0.0
 40
0.3030074994
 40
0.5686382328
 40
0.6869938366
 40
0.7967838842
 40
0.9001293399
 40
1.0
 40
1.0
 40
1.0
 40
1.0
 10
15.287313002
 20
10.8601367828
 30
0.0
 10
15.2880955111
 20
10.8601367828
 30
0.0
 10
15.2895684028
 20
10.860260649
 30
0.0
 10
15.291282577
 20
10.860799252
 30
0.0
 10
15.2923828304
 20
10.8614548401
 30
0.0
 10
15.293032452
 20
10.8620205204
 30
0.0
 10
15.2935250572
 20
10.8626691801
 30
0.0
 10
15.2937402301
 20
10.8631541205
 30
0.0
 10
15.2938162892
 20
10.8634005639
 30
0.0
  0
SPLINE
  5
34C
100
AcDbEntity
  8
0
100
AcDbSpline
 62
7
  6
CONTINUOUS
 70
0
 71
3
 72
11
 73
7
 74
0
 42
0.0000001
 43
0.0000001
 44
0.0000000001
 40
0.0
 40
0.0
 40
0.0
 40
0.0
 40
0.2310301923
 40
0.4855097598
 40
0.74764582
 40
1.0
 40
1.0
 40
1.0
 40
1.0
 10
14.8225936433
 20
10.8644967261
 30
0.0
 10
14.8232336526
 20
10.8638260907
 30
0.0
 10
14.8247786404
 20
10.8626047602
 30
0.0
 10
14.8274710109
 20
10.8612464745
 30
0.0
 10
14.8304433249
 20
10.8603626272
 30
0.0
 10
14.8325110037
 20
10.8601367828
 30
0.0
 10
14.8335235859
 20
10.8601367828
 30
0.0
  0
SPLINE
  5
34D
100
AcDbEntity
  8
0
100
AcDbSpline
 62
7
  6
CONTINUOUS
 70
0
 71
3
 72
13
 73
9
 74
0
 42
0.0000001
 43
0.0000001
 44
0.0000000001
 40
0.0
 40
0.0
 40
0.0
 40
0.0
 40
0.1005157378
 40
0.2043567664
 40
0.3144595839
 40
0.4328756889
 40
0.6981494319
 40
1.0
 40
1.0
 40
1.0
 40
1.0
 10
15.6481606684
 20
14.1554045842
 30
0.0
 10
15.648239698
 20
14.1556598074
 30
0.0
 10
15.6484613891
 20
14.1561617412
 30
0.0
 10
15.6489630578
 20
14.1568378711
 30
0.0
 10
15.6496257972
 20
14.1574301255
 30
0.0
 10
15.650746392
 20
14.1581241614
 30
0.0
 10
15.6524968122
 20
14.1587083033
 30
0.0
 10
15.6540056717
 20
14.1588659434
 30
0.0
 10
15.6548078523
 20
14.1588820832
 30
0.0
  0
SPLINE
  5
34E
100
AcDbEntity
  8
0
100
AcDbSpline
 62
7
  6
CONTINUOUS
 70
0
 71
3
 72
10
 73
6
 74
0
 42
0.0000001
 43
0.0000001
 44
0.0000000001
 40
0.0
 40
0.0
 40
0.0
 40
0.0
 40
0.2343350416
 40
0.4760974119
 40
1.0
 40
1.0
 40
1.0
 40
1.0
 10
14.6798953748
 20
11.0220969457
 30
0.0
 10
14.679820589
 20
11.0218554279
 30
0.0
 10
14.6797223959
 20
11.0213461644
 30
0.0
 10
14.6797484766
 20
11.0202614397
 30
0.0
 10
14.6800126925
 20
11.0194558912
 30
0.0
 10
14.6802617116
 20
11.0189484437
 30
0.0
  0
SPLINE
  5
34F
100
AcDbEntity
  8
0
100
AcDbSpline
 62
7
  6
CONTINUOUS
 70
0
 71
3
 72
13
 73
9
 74
0
 42
0.0000001
 43
0.0000001
 44
0.0000000001
 40
0.0
 40
0.0
 40
0.0
 40
0.0
 40
0.3018505681
 40
0.5671243111
 40
0.6855404161
 40
0.7956432336
 40
0.8994842622
 40
1.0
 40
1.0
 40
1.0
 40
1.0
 10
14.6865425587
 20
11.0255744447
 30
0.0
 10
14.685740378
 20
11.0255583049
 30
0.0
 10
14.6842315186
 20
11.0254006648
 30
0.0
 10
14.6824810984
 20
11.0248165229
 30
0.0
 10
14.6813605036
 20
11.0241224869
 30
0.0
 10
14.6806977642
 20
11.0235302326
 30
0.0
 10
14.6801960955
 20
11.0228541027
 30
0.0
 10
14.6799744044
 20
11.0223521689
 30
0.0
 10
14.6798953748
 20
11.0220969457
 30
0.0
  0
SPLINE
  5
350
100
AcDbEntity
  8
0
100
AcDbSpline
 62
7
  6
CONTINUOUS
 70
0
 71
3
 72
15
 73
11
 74
0
 42
0.0000001
 43
0.0000001
 44
0.0000000001
 40
0.0
 40
0.0
 40
0.0
 40
0.0
 40
0.1000078661
 40
0.2115026238
 40
0.3330765259
 40
0.4625622953
 40
0.5972649605
 40
0.7340689166
 40
0.8696147745
 40
1.0
 40
1.0
 40
1.0
 40
1.0
 10
15.2847079889
 20
11.0189484437
 30
0.0
 10
15.2844876908
 20
11.019397364
 30
0.0
 10
15.283905278
 20
11.0202907479
 30
0.0
 10
15.282757647
 20
11.0215066952
 30
0.0
 10
15.2813240138
 20
11.0226261326
 30
0.0
 10
15.2796610597
 20
11.0236125723
 30
0.0
 10
15.2778253078
 20
11.024429392
 30
0.0
 10
15.2758825972
 20
11.0250502974
 30
0.0
 10
15.2739044694
 20
11.0254476432
 30
0.0
 10
15.2725758309
 20
11.0255615839
 30
0.0
 10
15.2719240038
 20
11.0255744447
 30
0.0
  0
SPLINE
  5
351
100
AcDbEntity
  8
0
100
AcDbSpline
 62
7
  6
CONTINUOUS
 70
0
 71
3
 72
11
 73
7
 74
0
 42
0.0000001
 43
0.0000001
 44
0.0000000001
 40
0.0
 40
0.0
 40
0.0
 40
0.0
 40
0.2350324447
 40
0.4786790444
 40
0.7331294954
 40
1.0
 40
1.0
 40
1.0
 40
1.0
 10
15.2942025025
 20
10.9882261155
 30
0.0
 10
15.2942585622
 20
10.9900155766
 30
0.0
 10
15.2941109886
 20
10.9936724928
 30
0.0
 10
15.2931463839
 20
10.9991877363
 30
0.0
 10
15.2914453041
 20
11.0047746039
 30
0.0
 10
15.2898700244
 20
11.0084293214
 30
0.0
 10
15.2889744616
 20
11.0102542864
 30
0.0
  0
ENDSEC
  0
SECTION
  2
OBJECTS
  0
DICTIONARY
  5
C
100
AcDbDictionary
280
0
281
1
  3
ACAD_GROUP
350
D
  3
ACAD_MLINESTYLE
350
17
  3
ACAD_LAYOUT
350
1A
  3
ACAD_PLOTSETTINGS
350
19
  3
ACAD_PLOTSTYLENAME
350
E
  0
DICTIONARY
  5
D
102
{ACAD_REACTORS
330
C
102
}
100
AcDbDictionary
280
0
281
1
  0
ACDBDICTIONARYWDFLT
  5
E
102
{ACAD_REACTORS
330
C
102
}
100
AcDbDictionary
281
1
  3
Normal
350
F
100
AcDbDictionaryWithDefault
340
F
  0
DICTIONARY
  5
17
102
{ACAD_REACTORS
330
C
102
}
100
AcDbDictionary
280
0
281
1
  3
Standard
350
18
  0
DICTIONARY
  5
19
102
{ACAD_REACTORS
330
C
102
}
100
AcDbDictionary
281
1
  0
DICTIONARY
  5
1A
102
{ACAD_REACTORS
330
C
102
}
100
AcDbDictionary
281
1
  3
Model
350
352
  3
Layout1
350
353
  0
ACDBPLACEHOLDER
  5
F
102
{ACAD_REACTORS
330
E
102
}
  0
MLINESTYLE
  5
18
102
{ACAD_REACTORS
330
17
102
}
100
AcDbMlineStyle
  2
STANDARD
 70
0
  3

 62
256
 51
90.0
 52
90.0
 71
2
 49
0.5
 62
256
  6
BYLAYER
 49
-0.5
 62
256
  6
BYLAYER
  0
LAYOUT
  5
352
102
{ACAD_REACTORS
330
1A
102
}
100
AcDbPlotSettings
  1

  2
none_device
  4
ANSI_C_(22.00_x_17.00_Inches)
  6

 40
0.0
 41
0.0
 42
0.0
 43
0.0
 44
558.8
 45
431.8
 46
0.0
 47
0.0
 48
0.0
 49
0.0
140
0.0
141
0.0
142
1.0
143
1.0
 70
1024
 72
0
 73
0
 74
0
  7

 75
0
147
1.0
148
0.0
149
0.0
100
AcDbLayout
  1
Model
 70
0
 71
0
 10
0.0
 20
0.0
 11
22.0
 21
17.0
 12
0.0
 22
0.0
 32
0.0
 14
0.0
 24
0.0
 34
0.0
 15
0.0
 25
0.0
 35
0.0
146
0.0
 13
0.0
 23
0.0
 33
0.0
 16
1.0
 26
0.0
 36
0.0
 17
0.0
 27
1.0
 37
0.0
 76
0
330
216
345
0
346
0
  0
LAYOUT
  5
353
102
{ACAD_REACTORS
330
1A
102
}
100
AcDbPlotSettings
  1

  2
none_device
  4
ANSI_C_(22.00_x_17.00_Inches)
  6

 40
0.0
 41
0.0
 42
0.0
 43
0.0
 44
558.8
 45
431.8
 46
0.0
 47
0.0
 48
0.0
 49
0.0
140
0.0
141
0.0
142
1.0
143
1.0
 70
0
 72
0
 73
0
 74
0
  7

 75
0
147
1.0
148
0.0
149
0.0
100
AcDbLayout
  1
Layout1
 70
0
 71
1
 10
0.0
 20
0.0
 11
22.0
 21
17.0
 12
0.0
 22
0.0
 32
0.0
 14
0.0
 24
0.0
 34
0.0
 15
0.0
 25
0.0
 35
0.0
146
0.0
 13
0.0
 23
0.0
 33
0.0
 16
1.0
 26
0.0
 36
0.0
 17
0.0
 27
1.0
 37
0.0
 76
0
330
217
345
0
346
0
  0
ENDSEC
  0
EOF