999
DXF file: _cgs_temp_output.dxf
999
Pro/ENGINEER 2016360 by Parametric Technology Corporation
  0
SECTION
  2
HEADER
  9
$ACADVER
  1
AC1021
  9
$DWGCODEPAGE
  3
ANSI_1252
  9
$EXTMAX
 10
22.0
 20
17.0
 30
0.0
  9
$EXTMIN
 10
0.0
 20
0.0
 30
0.0
  9
$LIMMIN
 10
0.0
 20
0.0
  9
$LIMMAX
 10
22.0
 20
17.0
  9
$VIEWCTR
 10
11.0
 20
8.5
  9
$VIEWSIZE
 40
17.0
  9
$CLAYER
  8
0
  9
$LTSCALE
 40
1.21
  9
$CELTYPE
  6
BYLAYER
  9
$DIMSCALE
 40
1.0
  9
$DIMASZ
 40
0.1875
  9
$DIMEXO
 40
0.0625
  9
$DIMDLI
 40
0.836
  9
$DIMEXE
 40
0.125
  9
$DIMCEN
 40
0.198
  9
$DIMLFAC
 40
1.0
  9
$DIMBLK
  1
_CLOSED
  9
$DIMALT
 70
0
  9
$DIMALTF
 40
25.4
  9
$DIMTXT
 40
0.15625
  9
$DIMTOL
 70
0
  9
$DIMLIM
 70
0
  9
$DIMTFAC
 40
1.0
  9
$DIMGAP
 40
0.09
  9
$DIMDSEP
 70
46
  9
$AUNITS
 70
0
  9
$PDMODE
 70
3
  9
$PDSIZE
 40
0.3125
  9
$HANDSEED
  5
2D1
  9
$TILEMODE
 70
1
  9
$MEASUREMENT
 70
0
  9
$INSUNITS
 70
1
  0
ENDSEC
  0
SECTION
  2
CLASSES
  0
CLASS
  1
ACDBDICTIONARYWDFLT
  2
AcDbDictionaryWithDefault
  3
AutoCAD 2000
 90
0
 91
1
280
0
281
0
  0
CLASS
  1
ACDBPLACEHOLDER
  2
AcDbPlaceHolder
  3
AutoCAD 2000
 90
0
 91
1
280
0
281
0
  0
CLASS
  1
LAYOUT
  2
AcDbLayout
  3
AutoCAD 2000
 90
0
 91
0
280
0
281
0
  0
ENDSEC
  0
SECTION
  2
TABLES
  0
TABLE
  2
VPORT
  5
8
100
AcDbSymbolTable
 70
2
  0
VPORT
  5
1F4
100
AcDbSymbolTableRecord
100
AcDbViewportTableRecord
  2
*ACTIVE
 70
0
 10
0.0
 20
0.0
 11
1.0
 21
1.0
 12
11.0
 22
8.5
 13
0.0
 23
0.0
 14
1.0
 24
1.0
 15
0.0
 25
0.0
 16
0.0
 26
0.0
 36
1.0
 17
0.0
 27
0.0
 37
0.0
 40
17.0
 41
1.2941176471
 42
50.0
 43
0.0
 44
0.0
 50
0.0
 51
0.0
 71
0
 72
100
 73
1
 74
1
 75
0
 76
0
 77
0
 78
0
  0
ENDTAB
  0
TABLE
  2
LTYPE
  5
5
100
AcDbSymbolTable
 70
6
  0
LTYPE
  5
14
100
AcDbSymbolTableRecord
100
AcDbLinetypeTableRecord
  2
BYBLOCK
 70
0
  3

 72
65
 73
0
 40
0.0
  0
LTYPE
  5
15
100
AcDbSymbolTableRecord
100
AcDbLinetypeTableRecord
  2
BYLAYER
 70
0
  3

 72
65
 73
0
 40
0.0
  0
LTYPE
  5
16
100
AcDbSymbolTableRecord
100
AcDbLinetypeTableRecord
  2
CONTINUOUS
 70
64
  3
Solid line
 72
65
 73
0
 40
0.0
  0
LTYPE
  5
1F5
100
AcDbSymbolTableRecord
100
AcDbLinetypeTableRecord
  2
CENTER
 70
64
  3
____ _ ____ _ ____ _ ____ _ ____ _ ____ _ ____
 72
65
 73
4
 40
0.6
 49
0.375
 74
0
 49
-0.075
 74
0
 49
0.075
 74
0
 49
-0.075
 74
0
  0
LTYPE
  5
1F6
100
AcDbSymbolTableRecord
100
AcDbLinetypeTableRecord
  2
HIDDEN
 70
64
  3
- - - - - - - - - - - - - - - - - - - -
 72
65
 73
2
 40
0.2
 49
0.1
 74
0
 49
-0.1
 74
0
  0
LTYPE
  5
1F7
100
AcDbSymbolTableRecord
100
AcDbLinetypeTableRecord
  2
PHANTOM
 70
64
  3
_____ _ _ _____ _ _ _____ _ _ _____
 72
65
 73
6
 40
0.8
 49
0.45
 74
0
 49
-0.05
 74
0
 49
0.1
 74
0
 49
-0.05
 74
0
 49
0.1
 74
0
 49
-0.05
 74
0
  0
LTYPE
  5
1F8
100
AcDbSymbolTableRecord
100
AcDbLinetypeTableRecord
  2
DOT
 70
64
  3
. . . . . . . . . . . . . . . . . . . .
 72
65
 73
2
 40
0.2
 49
0.1
 74
0
 49
-0.1
 74
0
  0
LTYPE
  5
1F9
100
AcDbSymbolTableRecord
100
AcDbLinetypeTableRecord
  2
DASHED
 70
64
  3
- - - - - - - - - - - - - - - - - - - -
 72
65
 73
2
 40
0.2
 49
0.1
 74
0
 49
-0.1
 74
0
  0
ENDTAB
  0
TABLE
  2
LAYER
  5
2
100
AcDbSymbolTable
 70
36
  0
LAYER
  5
10
100
AcDbSymbolTableRecord
100
AcDbLayerTableRecord
  2
0
 70
0
 62
7
  6
CONTINUOUS
370
-3
390
F
  0
LAYER
  5
1FA
100
AcDbSymbolTableRecord
100
AcDbLayerTableRecord
  2
DEFAULT_1
 70
0
 62
7
  6
CENTER
370
-3
390
F
  0
LAYER
  5
1FB
100
AcDbSymbolTableRecord
100
AcDbLayerTableRecord
  2
DEFAULT_2
 70
0
 62
8
  6
HIDDEN
370
-3
390
F
  0
LAYER
  5
1FC
100
AcDbSymbolTableRecord
100
AcDbLayerTableRecord
  2
DEFAULT_3
 70
0
 62
7
  6
PHANTOM
370
-3
390
F
  0
LAYER
  5
1FD
100
AcDbSymbolTableRecord
100
AcDbLayerTableRecord
  2
01_ALL_DTM_PLN
 70
0
 62
7
  6
CONTINUOUS
370
-3
390
F
  0
LAYER
  5
1FE
100
AcDbSymbolTableRecord
100
AcDbLayerTableRecord
  2
01__ASM_ALL_DTM_PLN
 70
0
 62
7
  6
CONTINUOUS
370
-3
390
F
  0
LAYER
  5
1FF
100
AcDbSymbolTableRecord
100
AcDbLayerTableRecord
  2
01__ASM_DEF_DTM_PLN
 70
0
 62
7
  6
CONTINUOUS
370
-3
390
F
  0
LAYER
  5
200
100
AcDbSymbolTableRecord
100
AcDbLayerTableRecord
  2
01___PRT_ALL_DTM_PLN
 70
0
 62
7
  6
CONTINUOUS
370
-3
390
F
  0
LAYER
  5
201
100
AcDbSymbolTableRecord
100
AcDbLayerTableRecord
  2
01___PRT_DEF_DTM_PLN
 70
0
 62
7
  6
CONTINUOUS
370
-3
390
F
  0
LAYER
  5
202
100
AcDbSymbolTableRecord
100
AcDbLayerTableRecord
  2
02_ALL_AXES
 70
0
 62
7
  6
CONTINUOUS
370
-3
390
F
  0
LAYER
  5
203
100
AcDbSymbolTableRecord
100
AcDbLayerTableRecord
  2
02__ASM_ALL_AXES
 70
0
 62
7
  6
CONTINUOUS
370
-3
390
F
  0
LAYER
  5
204
100
AcDbSymbolTableRecord
100
AcDbLayerTableRecord
  2
02___PRT_ALL_AXES
 70
0
 62
7
  6
CONTINUOUS
370
-3
390
F
  0
LAYER
  5
205
100
AcDbSymbolTableRecord
100
AcDbLayerTableRecord
  2
03_ALL_CURVES
 70
0
 62
7
  6
CONTINUOUS
370
-3
390
F
  0
LAYER
  5
206
100
AcDbSymbolTableRecord
100
AcDbLayerTableRecord
  2
03__ASM_ALL_CURVES
 70
0
 62
7
  6
CONTINUOUS
370
-3
390
F
  0
LAYER
  5
207
100
AcDbSymbolTableRecord
100
AcDbLayerTableRecord
  2
03___PRT_ALL_CURVES
 70
0
 62
7
  6
CONTINUOUS
370
-3
390
F
  0
LAYER
  5
208
100
AcDbSymbolTableRecord
100
AcDbLayerTableRecord
  2
04_ALL_DTM_PNT
 70
0
 62
7
  6
CONTINUOUS
370
-3
390
F
  0
LAYER
  5
209
100
AcDbSymbolTableRecord
100
AcDbLayerTableRecord
  2
04__ASM_ALL_DTM_PNT
 70
0
 62
7
  6
CONTINUOUS
370
-3
390
F
  0
LAYER
  5
20A
100
AcDbSymbolTableRecord
100
AcDbLayerTableRecord
  2
04___PRT_ALL_DTM_PNT
 70
0
 62
7
  6
CONTINUOUS
370
-3
390
F
  0
LAYER
  5
20B
100
AcDbSymbolTableRecord
100
AcDbLayerTableRecord
  2
05_ALL_DTM_CSYS
 70
0
 62
7
  6
CONTINUOUS
370
-3
390
F
  0
LAYER
  5
20C
100
AcDbSymbolTableRecord
100
AcDbLayerTableRecord
  2
05__ASM_ALL_DTM_CSYS
 70
0
 62
7
  6
CONTINUOUS
370
-3
390
F
  0
LAYER
  5
20D
100
AcDbSymbolTableRecord
100
AcDbLayerTableRecord
  2
05__ASM_DEF_DTM_CSYS
 70
0
 62
7
  6
CONTINUOUS
370
-3
390
F
  0
LAYER
  5
20E
100
AcDbSymbolTableRecord
100
AcDbLayerTableRecord
  2
05___PRT_ALL_DTM_CSYS
 70
0
 62
7
  6
CONTINUOUS
370
-3
390
F
  0
LAYER
  5
20F
100
AcDbSymbolTableRecord
100
AcDbLayerTableRecord
  2
05___PRT_DEF_DTM_CSYS
 70
0
 62
7
  6
CONTINUOUS
370
-3
390
F
  0
LAYER
  5
210
100
AcDbSymbolTableRecord
100
AcDbLayerTableRecord
  2
06_ALL_SURFS
 70
0
 62
7
  6
CONTINUOUS
370
-3
390
F
  0
LAYER
  5
211
100
AcDbSymbolTableRecord
100
AcDbLayerTableRecord
  2
06__ASM_ALL_SURFS
 70
0
 62
7
  6
CONTINUOUS
370
-3
390
F
  0
LAYER
  5
212
100
AcDbSymbolTableRecord
100
AcDbLayerTableRecord
  2
06___PRT_ALL_SURFS
 70
0
 62
7
  6
CONTINUOUS
370
-3
390
F
  0
LAYER
  5
213
100
AcDbSymbolTableRecord
100
AcDbLayerTableRecord
  2
07__ASM_ALL_SKELETONS
 70
0
 62
7
  6
CONTINUOUS
370
-3
390
F
  0
ENDTAB
  0
TABLE
  2
STYLE
  5
3
100
AcDbSymbolTable
 70
1
  0
STYLE
  5
11
100
AcDbSymbolTableRecord
100
AcDbTextStyleTableRecord
  2
STANDARD
 70
0
 40
0.0
 41
0.8
 50
0.0
 71
0
 42
0.2
  3
txt
  4

  0
STYLE
  5
214
100
AcDbSymbolTableRecord
100
AcDbTextStyleTableRecord
  2
TEXTSTYLE_1
 70
0
 40
0.0
 41
0.8
 50
0.0
 71
0
 42
0.2
  3
gdt
  4

  0
ENDTAB
  0
TABLE
  2
VIEW
  5
6
100
AcDbSymbolTable
 70
0
  0
ENDTAB
  0
TABLE
  2
UCS
  5
7
100
AcDbSymbolTable
 70
0
  0
ENDTAB
  0
TABLE
  2
APPID
  5
9
100
AcDbSymbolTable
 70
1
  0
APPID
  5
215
100
AcDbSymbolTableRecord
100
AcDbRegAppTableRecord
  2
ACAD
 70
0
  0
ENDTAB
  0
TABLE
  2
BLOCK_RECORD
  5
1
100
AcDbSymbolTable
 70
0
  0
BLOCK_RECORD
  5
216
100
AcDbSymbolTableRecord
100
AcDbBlockTableRecord
  2
*Model_Space
  0
BLOCK_RECORD
  5
217
100
AcDbSymbolTableRecord
100
AcDbBlockTableRecord
  2
*Paper_Space
  0
ENDTAB
  0
TABLE
  2
DIMSTYLE
  5
A
100
AcDbSymbolTable
 70
1
100
AcDbDimStyleTable
 71
0
  0
DIMSTYLE
105
218
100
AcDbSymbolTableRecord
100
AcDbDimStyleTableRecord
  2
STANDARD
 70
0
  3

  4

 40
1.0
 41
0.1875
 42
0.0625
 43
0.38
 44
0.125
 45
0.0
 46
0.0
 47
0.0001
 48
0.0001
140
0.15625
141
0.09
142
0.0
143
25.4
144
1.0
145
0.0
146
1.0
147
0.09
 71
0.0
 72
0.0
 73
1
 74
1
 75
0
 76
0
 77
0
 78
4
 79
1
170
0
171
3
172
0
173
0
174
0
175
0
176
0
177
0
178
0
270
2
179
4
271
4
272
4
273
2
274
2
275
0
280
0
281
0
282
0
283
1
284
4
285
0
286
0
287
3
288
0
340
11
278
46
  0
ENDTAB
  0
ENDSEC
  0
SECTION
  2
BLOCKS
  0
BLOCK
  5
20
100
AcDbEntity
  8
0
100
AcDbBlockBegin
  2
*Model_Space
 70
0
 10
0.0
 20
0.0
 30
0.0
  3
*Model_Space
  1

  0
ENDBLK
  5
21
100
AcDbEntity
  8
0
100
AcDbBlockEnd
  0
BLOCK
  5
1C
100
AcDbEntity
  8
0
100
AcDbBlockBegin
  2
*Paper_Space
 70
0
 10
0.0
 20
0.0
 30
0.0
  3
*Paper_Space
  1

  0
ENDBLK
  5
1D
100
AcDbEntity
  8
0
100
AcDbBlockEnd
  0
ENDSEC
  0
SECTION
  2
ENTITIES
  0
MTEXT
  5
219
100
AcDbEntity
  8
0
100
AcDbMText
 62
7
  6
CONTINUOUS
  7
STANDARD
 71
1
 72
1
 10
15.9560215477
 20
0.9479130325
 30
0.0
 11
1.0
 21
0.0
 31
0.0
 44
0.9
  1
SCALE: 1:2.000
 40
0.3
 41
3.36
  0
LINE
  5
21A
100
AcDbEntity
  8
0
100
AcDbLine
 62
7
  6
CONTINUOUS
 10
0.0
 20
0.0
 11
0.0
 21
17.0
  0
LINE
  5
21B
100
AcDbEntity
  8
0
100
AcDbLine
 62
7
  6
CONTINUOUS
 10
0.0
 20
0.0
 11
22.0
 21
0.0
  0
LINE
  5
21C
100
AcDbEntity
  8
0
100
AcDbLine
 62
7
  6
CONTINUOUS
 10
0.0
 20
17.0
 11
22.0
 21
17.0
  0
LINE
  5
21D
100
AcDbEntity
  8
0
100
AcDbLine
 62
7
  6
CONTINUOUS
 10
22.0
 20
0.0
 11
22.0
 21
17.0
  0
LINE
  5
21E
100
AcDbEntity
  8
0
100
AcDbLine
 62
7
  6
CONTINUOUS
 10
4.949264914
 20
5.6264191094
 11
4.949264914
 21
5.5240569046
  0
LINE
  5
21F
100
AcDbEntity
  8
0
100
AcDbLine
 62
7
  6
CONTINUOUS
 10
5.0200039333
 20
5.4748097254
 11
5.0404936634
 21
5.4308693575
  0
LINE
  5
220
100
AcDbEntity
  8
0
100
AcDbLine
 62
7
  6
CONTINUOUS
 10
4.949264914
 20
5.5240569046
 11
4.9650129455
 21
5.5083088731
  0
LINE
  5
221
100
AcDbEntity
  8
0
100
AcDbLine
 62
7
  6
CONTINUOUS
 10
5.251736952
 20
5.4308693575
 11
5.272226682
 21
5.4748097254
  0
LINE
  5
222
100
AcDbEntity
  8
0
100
AcDbLine
 62
7
  6
CONTINUOUS
 10
5.4137047207
 20
5.4748097254
 11
5.4341944508
 21
5.4308693575
  0
LINE
  5
223
100
AcDbEntity
  8
0
100
AcDbLine
 62
7
  6
CONTINUOUS
 10
5.3272176699
 20
5.5083088731
 11
5.3429657014
 21
5.5240569046
  0
LINE
  5
224
100
AcDbEntity
  8
0
100
AcDbLine
 62
7
  6
CONTINUOUS
 10
5.3429657014
 20
5.5240569046
 11
5.3587137329
 21
5.5083088731
  0
LINE
  5
225
100
AcDbEntity
  8
0
100
AcDbLine
 62
7
  6
CONTINUOUS
 10
5.6454377394
 20
5.4308693575
 11
5.6659274694
 21
5.4748097254
  0
LINE
  5
226
100
AcDbEntity
  8
0
100
AcDbLine
 62
7
  6
CONTINUOUS
 10
5.8074055081
 20
5.4748097254
 11
5.8278952382
 21
5.4308693575
  0
LINE
  5
227
100
AcDbEntity
  8
0
100
AcDbLine
 62
7
  6
CONTINUOUS
 10
5.7209184573
 20
5.5083088731
 11
5.7366664888
 21
5.5240569046
  0
LINE
  5
228
100
AcDbEntity
  8
0
100
AcDbLine
 62
7
  6
CONTINUOUS
 10
5.7366664888
 20
5.5240569046
 11
5.7524145203
 21
5.5083088731
  0
LINE
  5
229
100
AcDbEntity
  8
0
100
AcDbLine
 62
7
  6
CONTINUOUS
 10
5.0672547201
 20
5.4138206842
 11
5.2249758953
 21
5.4138206842
  0
LINE
  5
22A
100
AcDbEntity
  8
0
100
AcDbLine
 62
7
  6
CONTINUOUS
 10
5.4609555075
 20
5.4138206842
 11
5.6186766827
 21
5.4138206842
  0
LINE
  5
22B
100
AcDbEntity
  8
0
100
AcDbLine
 62
7
  6
CONTINUOUS
 10
5.8546562949
 20
5.4138206842
 11
6.0123774701
 21
5.4138206842
  0
LINE
  5
22C
100
AcDbEntity
  8
0
100
AcDbLine
 62
7
  6
CONTINUOUS
 10
6.2483570823
 20
5.4138206842
 11
6.4060782575
 21
5.4138206842
  0
LINE
  5
22D
100
AcDbEntity
  8
0
100
AcDbLine
 62
7
  6
CONTINUOUS
 10
6.6420578697
 20
5.4138206842
 11
6.7997790449
 21
5.4138206842
  0
LINE
  5
22E
100
AcDbEntity
  8
0
100
AcDbLine
 62
7
  6
CONTINUOUS
 10
7.0357586571
 20
5.4138206842
 11
7.1934798323
 21
5.4138206842
  0
LINE
  5
22F
100
AcDbEntity
  8
0
100
AcDbLine
 62
7
  6
CONTINUOUS
 10
6.0391385268
 20
5.4308693575
 11
6.0596282568
 21
5.4748097254
  0
LINE
  5
230
100
AcDbEntity
  8
0
100
AcDbLine
 62
7
  6
CONTINUOUS
 10
6.1146192447
 20
5.5083088731
 11
6.1303672762
 21
5.5240569046
  0
LINE
  5
231
100
AcDbEntity
  8
0
100
AcDbLine
 62
7
  6
CONTINUOUS
 10
4.9650129455
 20
5.5083088731
 11
4.9674208043
 21
5.5083088731
  0
LINE
  5
232
100
AcDbEntity
  8
0
100
AcDbLine
 62
7
  6
CONTINUOUS
 10
5.324809811
 20
5.5083088731
 11
5.3272176699
 21
5.5083088731
  0
LINE
  5
233
100
AcDbEntity
  8
0
100
AcDbLine
 62
7
  6
CONTINUOUS
 10
5.3587137329
 20
5.5083088731
 11
5.3611215917
 21
5.5083088731
  0
LINE
  5
234
100
AcDbEntity
  8
0
100
AcDbLine
 62
7
  6
CONTINUOUS
 10
5.7185105984
 20
5.5083088731
 11
5.7209184573
 21
5.5083088731
  0
LINE
  5
235
100
AcDbEntity
  8
0
100
AcDbLine
 62
7
  6
CONTINUOUS
 10
5.7524145203
 20
5.5083088731
 11
5.7548223791
 21
5.5083088731
  0
LINE
  5
236
100
AcDbEntity
  8
0
100
AcDbLine
 62
7
  6
CONTINUOUS
 10
6.1122113858
 20
5.5083088731
 11
6.1146192447
 21
5.5083088731
  0
LINE
  5
237
100
AcDbEntity
  8
0
100
AcDbLine
 62
7
  6
CONTINUOUS
 10
6.1461153077
 20
5.5083088731
 11
6.1485231665
 21
5.5083088731
  0
LINE
  5
238
100
AcDbEntity
  8
0
100
AcDbLine
 62
7
  6
CONTINUOUS
 10
6.5059121732
 20
5.5083088731
 11
6.5083200321
 21
5.5083088731
  0
LINE
  5
239
100
AcDbEntity
  8
0
100
AcDbLine
 62
7
  6
CONTINUOUS
 10
6.5398160951
 20
5.5083088731
 11
6.5422239539
 21
5.5083088731
  0
LINE
  5
23A
100
AcDbEntity
  8
0
100
AcDbLine
 62
7
  6
CONTINUOUS
 10
6.8996129606
 20
5.5083088731
 11
6.9020208195
 21
5.5083088731
  0
LINE
  5
23B
100
AcDbEntity
  8
0
100
AcDbLine
 62
7
  6
CONTINUOUS
 10
6.9335168825
 20
5.5083088731
 11
6.9359247413
 21
5.5083088731
  0
LINE
  5
23C
100
AcDbEntity
  8
0
100
AcDbLine
 62
7
  6
CONTINUOUS
 10
7.293313748
 20
5.5083088731
 11
7.2957216069
 21
5.5083088731
  0
LINE
  5
23D
100
AcDbEntity
  8
0
100
AcDbLine
 62
7
  6
CONTINUOUS
 10
6.1303672762
 20
5.5240569046
 11
6.1461153077
 21
5.5083088731
  0
LINE
  5
23E
100
AcDbEntity
  8
0
100
AcDbLine
 62
7
  6
CONTINUOUS
 10
6.2011062955
 20
5.4748097254
 11
6.2215960256
 21
5.4308693575
  0
LINE
  5
23F
100
AcDbEntity
  8
0
100
AcDbLine
 62
7
  6
CONTINUOUS
 10
7.3114696384
 20
5.6264191094
 11
4.949264914
 21
5.6264191094
  0
LINE
  5
240
100
AcDbEntity
  8
0
100
AcDbLine
 62
7
  6
CONTINUOUS
 10
6.4328393142
 20
5.4308693575
 11
6.4533290442
 21
5.4748097254
  0
LINE
  5
241
100
AcDbEntity
  8
0
100
AcDbLine
 62
7
  6
CONTINUOUS
 10
6.5083200321
 20
5.5083088731
 11
6.5240680636
 21
5.5240569046
  0
LINE
  5
242
100
AcDbEntity
  8
0
100
AcDbLine
 62
7
  6
CONTINUOUS
 10
6.5240680636
 20
5.5240569046
 11
6.5398160951
 21
5.5083088731
  0
LINE
  5
243
100
AcDbEntity
  8
0
100
AcDbLine
 62
7
  6
CONTINUOUS
 10
6.5948070829
 20
5.4748097254
 11
6.615296813
 21
5.4308693575
  0
LINE
  5
244
100
AcDbEntity
  8
0
100
AcDbLine
 62
7
  6
CONTINUOUS
 10
6.9020208195
 20
5.5083088731
 11
6.917768851
 21
5.5240569046
  0
LINE
  5
245
100
AcDbEntity
  8
0
100
AcDbLine
 62
7
  6
CONTINUOUS
 10
6.917768851
 20
5.5240569046
 11
6.9335168825
 21
5.5083088731
  0
LINE
  5
246
100
AcDbEntity
  8
0
100
AcDbLine
 62
7
  6
CONTINUOUS
 10
6.8265401016
 20
5.4308693575
 11
6.8470298316
 21
5.4748097254
  0
LINE
  5
247
100
AcDbEntity
  8
0
100
AcDbLine
 62
7
  6
CONTINUOUS
 10
6.9885078703
 20
5.4748097254
 11
7.0089976004
 21
5.4308693575
  0
LINE
  5
248
100
AcDbEntity
  8
0
100
AcDbLine
 62
7
  6
CONTINUOUS
 10
7.2957216069
 20
5.5083088731
 11
7.3114696384
 21
5.5240569046
  0
LINE
  5
249
100
AcDbEntity
  8
0
100
AcDbLine
 62
7
  6
CONTINUOUS
 10
7.220240889
 20
5.4308693575
 11
7.240730619
 21
5.4748097254
  0
LINE
  5
24A
100
AcDbEntity
  8
0
100
AcDbLine
 62
7
  6
CONTINUOUS
 10
7.3114696384
 20
5.5240569046
 11
7.3114696384
 21
5.6264191094
  0
LINE
  5
24B
100
AcDbEntity
  8
0
100
AcDbLine
 62
7
  6
CONTINUOUS
 10
7.2519744461
 20
10.6315438444
 11
4.8897697217
 21
10.6315438444
  0
LINE
  5
24C
100
AcDbEntity
  8
0
100
AcDbLine
 62
7
  6
CONTINUOUS
 10
4.8897697217
 20
14.5685517184
 11
4.8897697217
 21
10.6315438444
  0
LINE
  5
24D
100
AcDbEntity
  8
0
100
AcDbLine
 62
7
  6
CONTINUOUS
 10
7.2519744461
 20
14.5685517184
 11
7.2519744461
 21
10.6315438444
  0
LINE
  5
24E
100
AcDbEntity
  8
0
100
AcDbLine
 62
7
  6
CONTINUOUS
 10
4.8897697217
 20
14.5685517184
 11
7.2519744461
 21
14.5685517184
  0
LINE
  5
24F
100
AcDbEntity
  8
0
100
AcDbLine
 62
7
  6
CONTINUOUS
 10
13.5918513199
 20
5.3543254918
 11
13.5918513199
 21
5.566923917
  0
LINE
  5
250
100
AcDbEntity
  8
0
100
AcDbLine
 62
7
  6
CONTINUOUS
 10
13.5918513199
 20
5.3543254918
 11
17.5288591939
 21
5.3543254918
  0
LINE
  5
251
100
AcDbEntity
  8
0
100
AcDbLine
 62
7
  6
CONTINUOUS
 10
17.5288591939
 20
5.4488136808
 11
13.5918513199
 21
5.4488136808
  0
LINE
  5
252
100
AcDbEntity
  8
0
100
AcDbLine
 62
7
  6
CONTINUOUS
 10
17.5288591939
 20
5.4645617123
 11
13.5918513199
 21
5.4645617123
  0
LINE
  5
253
100
AcDbEntity
  8
0
100
AcDbLine
 62
7
  6
CONTINUOUS
 10
17.5288591939
 20
5.566923917
 11
13.5918513199
 21
5.566923917
  0
LINE
  5
254
100
AcDbEntity
  8
0
100
AcDbLine
 62
7
  6
CONTINUOUS
 10
17.5288591939
 20
5.3543254918
 11
17.5288591939
 21
5.566923917
  0
LINE
  5
255
100
AcDbEntity
  8
0
100
AcDbLine
 62
7
  6
CONTINUOUS
 10
14.002526424
 20
10.9406576332
 11
14.034802367
 21
10.9133438625
  0
LINE
  5
256
100
AcDbEntity
  8
0
100
AcDbLine
 62
7
  6
CONTINUOUS
 10
13.9223490211
 20
10.9712701707
 11
13.9416577275
 21
10.9614810373
  0
LINE
  5
257
100
AcDbEntity
  8
0
100
AcDbLine
 62
7
  6
CONTINUOUS
 10
13.8911242631
 20
11.0348995375
 11
13.9223490211
 21
10.9712701707
  0
LINE
  5
258
100
AcDbEntity
  8
0
100
AcDbLine
 62
7
  6
CONTINUOUS
 10
14.2849714597
 20
10.9712701707
 11
14.3042801661
 21
10.9614810373
  0
LINE
  5
259
100
AcDbEntity
  8
0
100
AcDbLine
 62
7
  6
CONTINUOUS
 10
14.3651488626
 20
10.9406576332
 11
14.3974248056
 21
10.9133438625
  0
LINE
  5
25A
100
AcDbEntity
  8
0
100
AcDbLine
 62
7
  6
CONTINUOUS
 10
14.6475938982
 20
10.9712701707
 11
14.6669026047
 21
10.9614810373
  0
LINE
  5
25B
100
AcDbEntity
  8
0
100
AcDbLine
 62
7
  6
CONTINUOUS
 10
14.7277713012
 20
10.9406576332
 11
14.7600472442
 21
10.9133438625
  0
LINE
  5
25C
100
AcDbEntity
  8
0
100
AcDbLine
 62
7
  6
CONTINUOUS
 10
14.0646514916
 20
10.9027462372
 11
14.209922314
 21
10.9027462372
  0
LINE
  5
25D
100
AcDbEntity
  8
0
100
AcDbLine
 62
7
  6
CONTINUOUS
 10
14.4272739302
 20
10.9027462372
 11
14.5725447526
 21
10.9027462372
  0
LINE
  5
25E
100
AcDbEntity
  8
0
100
AcDbLine
 62
7
  6
CONTINUOUS
 10
14.7898963688
 20
10.9027462372
 11
14.9351671912
 21
10.9027462372
  0
LINE
  5
25F
100
AcDbEntity
  8
0
100
AcDbLine
 62
7
  6
CONTINUOUS
 10
15.1525188074
 20
10.9027462372
 11
15.2977896298
 21
10.9027462372
  0
LINE
  5
260
100
AcDbEntity
  8
0
100
AcDbLine
 62
7
  6
CONTINUOUS
 10
15.515141246
 20
10.9027462372
 11
15.6604120684
 21
10.9027462372
  0
LINE
  5
261
100
AcDbEntity
  8
0
100
AcDbLine
 62
7
  6
CONTINUOUS
 10
15.8777636846
 20
10.9027462372
 11
16.0230345069
 21
10.9027462372
  0
LINE
  5
262
100
AcDbEntity
  8
0
100
AcDbLine
 62
7
  6
CONTINUOUS
 10
13.9416577275
 20
10.9614810373
 11
13.9438755124
 21
10.9614810373
  0
LINE
  5
263
100
AcDbEntity
  8
0
100
AcDbLine
 62
7
  6
CONTINUOUS
 10
14.2730525861
 20
10.9614810373
 11
14.275270371
 21
10.9614810373
  0
LINE
  5
264
100
AcDbEntity
  8
0
100
AcDbLine
 62
7
  6
CONTINUOUS
 10
14.3042801661
 20
10.9614810373
 11
14.306497951
 21
10.9614810373
  0
LINE
  5
265
100
AcDbEntity
  8
0
100
AcDbLine
 62
7
  6
CONTINUOUS
 10
14.6356750247
 20
10.9614810373
 11
14.6378928096
 21
10.9614810373
  0
LINE
  5
266
100
AcDbEntity
  8
0
100
AcDbLine
 62
7
  6
CONTINUOUS
 10
14.6669026047
 20
10.9614810373
 11
14.6691203896
 21
10.9614810373
  0
LINE
  5
267
100
AcDbEntity
  8
0
100
AcDbLine
 62
7
  6
CONTINUOUS
 10
14.9982974633
 20
10.9614810373
 11
15.0005152482
 21
10.9614810373
  0
LINE
  5
268
100
AcDbEntity
  8
0
100
AcDbLine
 62
7
  6
CONTINUOUS
 10
15.0295250433
 20
10.9614810373
 11
15.0317428282
 21
10.9614810373
  0
LINE
  5
269
100
AcDbEntity
  8
0
100
AcDbLine
 62
7
  6
CONTINUOUS
 10
15.3609199019
 20
10.9614810373
 11
15.3631376868
 21
10.9614810373
  0
LINE
  5
26A
100
AcDbEntity
  8
0
100
AcDbLine
 62
7
  6
CONTINUOUS
 10
15.3921474819
 20
10.9614810373
 11
15.3943652668
 21
10.9614810373
  0
LINE
  5
26B
100
AcDbEntity
  8
0
100
AcDbLine
 62
7
  6
CONTINUOUS
 10
15.7235423405
 20
10.9614810373
 11
15.7257601254
 21
10.9614810373
  0
LINE
  5
26C
100
AcDbEntity
  8
0
100
AcDbLine
 62
7
  6
CONTINUOUS
 10
15.7547699205
 20
10.9614810373
 11
15.7569877054
 21
10.9614810373
  0
LINE
  5
26D
100
AcDbEntity
  8
0
100
AcDbLine
 62
7
  6
CONTINUOUS
 10
16.0861647791
 20
10.9614810373
 11
16.088382564
 21
10.9614810373
  0
LINE
  5
26E
100
AcDbEntity
  8
0
100
AcDbLine
 62
7
  6
CONTINUOUS
 10
15.0102163368
 20
10.9712701707
 11
15.0295250433
 21
10.9614810373
  0
LINE
  5
26F
100
AcDbEntity
  8
0
100
AcDbLine
 62
7
  6
CONTINUOUS
 10
16.0668588946
 20
11.0348995375
 11
13.8911242631
 21
11.0348995375
  0
LINE
  5
270
100
AcDbEntity
  8
0
100
AcDbLine
 62
7
  6
CONTINUOUS
 10
15.3728387754
 20
10.9712701707
 11
15.3921474819
 21
10.9614810373
  0
LINE
  5
271
100
AcDbEntity
  8
0
100
AcDbLine
 62
7
  6
CONTINUOUS
 10
15.0903937398
 20
10.9406576332
 11
15.1226696828
 21
10.9133438625
  0
LINE
  5
272
100
AcDbEntity
  8
0
100
AcDbLine
 62
7
  6
CONTINUOUS
 10
15.735461214
 20
10.9712701707
 11
15.7547699205
 21
10.9614810373
  0
LINE
  5
273
100
AcDbEntity
  8
0
100
AcDbLine
 62
7
  6
CONTINUOUS
 10
15.4530161783
 20
10.9406576332
 11
15.4852921213
 21
10.9133438625
  0
LINE
  5
274
100
AcDbEntity
  8
0
100
AcDbLine
 62
7
  6
CONTINUOUS
 10
14.8441412844
 20
14.1188637486
 11
13.8911242631
 21
11.0348995375
  0
LINE
  5
275
100
AcDbEntity
  8
0
100
AcDbLine
 62
7
  6
CONTINUOUS
 10
14.2293703204
 20
10.9133438625
 11
14.2348389597
 21
10.9406576332
  0
LINE
  5
276
100
AcDbEntity
  8
0
100
AcDbLine
 62
7
  6
CONTINUOUS
 10
15.8156386169
 20
10.9406576332
 11
15.8479145599
 21
10.9133438625
  0
LINE
  5
277
100
AcDbEntity
  8
0
100
AcDbLine
 62
7
  6
CONTINUOUS
 10
14.2348389597
 20
10.9406576332
 11
14.2353150003
 21
10.9425467741
  0
LINE
  5
278
100
AcDbEntity
  8
0
100
AcDbLine
 62
7
  6
CONTINUOUS
 10
14.2291215639
 20
10.9123844312
 11
14.2293703204
 21
10.9133438625
  0
LINE
  5
279
100
AcDbEntity
  8
0
100
AcDbLine
 62
7
  6
CONTINUOUS
 10
14.2291264177
 20
10.912382928
 11
14.2410811957
 21
10.9510686038
  0
LINE
  5
27A
100
AcDbEntity
  8
0
100
AcDbLine
 62
7
  6
CONTINUOUS
 10
14.591992759
 20
10.9133438625
 11
14.5974613982
 21
10.9406576332
  0
LINE
  5
27B
100
AcDbEntity
  8
0
100
AcDbLine
 62
7
  6
CONTINUOUS
 10
14.5974613982
 20
10.9406576332
 11
14.5979373139
 21
10.9425468126
  0
LINE
  5
27C
100
AcDbEntity
  8
0
100
AcDbLine
 62
7
  6
CONTINUOUS
 10
14.5917432649
 20
10.9123846606
 11
14.591992759
 21
10.9133438625
  0
LINE
  5
27D
100
AcDbEntity
  8
0
100
AcDbLine
 62
7
  6
CONTINUOUS
 10
14.5917488563
 20
10.912382928
 11
14.6037036589
 21
10.9510686835
  0
LINE
  5
27E
100
AcDbEntity
  8
0
100
AcDbLine
 62
7
  6
CONTINUOUS
 10
14.9546151975
 20
10.9133438625
 11
14.9600838368
 21
10.9406576332
  0
LINE
  5
27F
100
AcDbEntity
  8
0
100
AcDbLine
 62
7
  6
CONTINUOUS
 10
14.9600838368
 20
10.9406576332
 11
14.9605597525
 21
10.9425468126
  0
LINE
  5
280
100
AcDbEntity
  8
0
100
AcDbLine
 62
7
  6
CONTINUOUS
 10
14.9543657035
 20
10.9123846606
 11
14.9546151975
 21
10.9133438625
  0
LINE
  5
281
100
AcDbEntity
  8
0
100
AcDbLine
 62
7
  6
CONTINUOUS
 10
14.9543712949
 20
10.912382928
 11
14.9663260975
 21
10.9510686835
  0
LINE
  5
282
100
AcDbEntity
  8
0
100
AcDbLine
 62
7
  6
CONTINUOUS
 10
16.0980836526
 20
10.9712701707
 11
16.0668588946
 21
11.0348995375
  0
LINE
  5
283
100
AcDbEntity
  8
0
100
AcDbLine
 62
7
  6
CONTINUOUS
 10
15.3172376361
 20
10.9133438625
 11
15.3227062754
 21
10.9406576332
  0
LINE
  5
284
100
AcDbEntity
  8
0
100
AcDbLine
 62
7
  6
CONTINUOUS
 10
15.3227062754
 20
10.9406576332
 11
15.3231821911
 21
10.9425468126
  0
LINE
  5
285
100
AcDbEntity
  8
0
100
AcDbLine
 62
7
  6
CONTINUOUS
 10
15.316988142
 20
10.9123846606
 11
15.3172376361
 21
10.9133438625
  0
LINE
  5
286
100
AcDbEntity
  8
0
100
AcDbLine
 62
7
  6
CONTINUOUS
 10
14.275270371
 20
10.9614810373
 11
14.2849714597
 21
10.9712701707
  0
LINE
  5
287
100
AcDbEntity
  8
0
100
AcDbLine
 62
7
  6
CONTINUOUS
 10
15.3169937335
 20
10.912382928
 11
15.3289485361
 21
10.9510686835
  0
LINE
  5
288
100
AcDbEntity
  8
0
100
AcDbLine
 62
7
  6
CONTINUOUS
 10
15.6798600747
 20
10.9133438625
 11
15.685328714
 21
10.9406576332
  0
LINE
  5
289
100
AcDbEntity
  8
0
100
AcDbLine
 62
7
  6
CONTINUOUS
 10
15.685328714
 20
10.9406576332
 11
15.6858046297
 21
10.9425468126
  0
LINE
  5
28A
100
AcDbEntity
  8
0
100
AcDbLine
 62
7
  6
CONTINUOUS
 10
15.6796105806
 20
10.9123846606
 11
15.6798600747
 21
10.9133438625
  0
LINE
  5
28B
100
AcDbEntity
  8
0
100
AcDbLine
 62
7
  6
CONTINUOUS
 10
14.6378928096
 20
10.9614810373
 11
14.6475938982
 21
10.9712701707
  0
LINE
  5
28C
100
AcDbEntity
  8
0
100
AcDbLine
 62
7
  6
CONTINUOUS
 10
15.679616172
 20
10.912382928
 11
15.6915709747
 21
10.9510686835
  0
LINE
  5
28D
100
AcDbEntity
  8
0
100
AcDbLine
 62
7
  6
CONTINUOUS
 10
15.0005152482
 20
10.9614810373
 11
15.0102163368
 21
10.9712701707
  0
LINE
  5
28E
100
AcDbEntity
  8
0
100
AcDbLine
 62
7
  6
CONTINUOUS
 10
16.0424825133
 20
10.9133438625
 11
16.0479511526
 21
10.9406576332
  0
LINE
  5
28F
100
AcDbEntity
  8
0
100
AcDbLine
 62
7
  6
CONTINUOUS
 10
16.0479511526
 20
10.9406576332
 11
16.0484270683
 21
10.9425468126
  0
LINE
  5
290
100
AcDbEntity
  8
0
100
AcDbLine
 62
7
  6
CONTINUOUS
 10
16.0422330192
 20
10.9123846606
 11
16.0424825133
 21
10.9133438625
  0
LINE
  5
291
100
AcDbEntity
  8
0
100
AcDbLine
 62
7
  6
CONTINUOUS
 10
17.0198759159
 20
14.1188637486
 11
16.0668588946
 21
11.0348995375
  0
LINE
  5
292
100
AcDbEntity
  8
0
100
AcDbLine
 62
7
  6
CONTINUOUS
 10
16.0422386106
 20
10.912382928
 11
16.0541934132
 21
10.9510686835
  0
LINE
  5
293
100
AcDbEntity
  8
0
100
AcDbLine
 62
7
  6
CONTINUOUS
 10
17.0511006739
 20
14.0552343818
 11
16.0980836526
 21
10.9712701707
  0
LINE
  5
294
100
AcDbEntity
  8
0
100
AcDbLine
 62
7
  6
CONTINUOUS
 10
15.3631376868
 20
10.9614810373
 11
15.3728387754
 21
10.9712701707
  0
LINE
  5
295
100
AcDbEntity
  8
0
100
AcDbLine
 62
7
  6
CONTINUOUS
 10
15.7257601254
 20
10.9614810373
 11
15.735461214
 21
10.9712701707
  0
LINE
  5
296
100
AcDbEntity
  8
0
100
AcDbLine
 62
7
  6
CONTINUOUS
 10
16.088382564
 20
10.9614810373
 11
16.0980836526
 21
10.9712701707
  0
LINE
  5
297
100
AcDbEntity
  8
0
100
AcDbLine
 62
7
  6
CONTINUOUS
 10
14.8441412844
 20
14.1188637486
 11
17.0198759159
 21
14.1188637486
  0
LINE
  5
298
100
AcDbEntity
  8
0
100
AcDbLine
 62
7
  6
CONTINUOUS
 10
17.0511006739
 20
14.0552343818
 11
17.0198759159
 21
14.1188637486
  0
ARC
  5
299
100
AcDbEntity
  8
0
100
AcDbCircle
 62
7
  6
CONTINUOUS
 10
7.293313748
 20
5.4502898097
 40
0.0580190634
100
AcDbArc
 50
90.0
 51
155.0
  0
ARC
  5
29A
100
AcDbEntity
  8
0
100
AcDbCircle
 62
7
  6
CONTINUOUS
 10
6.9359247413
 20
5.4502898097
 40
0.0580190634
100
AcDbArc
 50
25.0
 51
90.0
  0
ARC
  5
29B
100
AcDbEntity
  8
0
100
AcDbCircle
 62
7
  6
CONTINUOUS
 10
6.8996129606
 20
5.4502898097
 40
0.0580190634
100
AcDbArc
 50
90.0
 51
155.0
  0
ARC
  5
29C
100
AcDbEntity
  8
0
100
AcDbCircle
 62
7
  6
CONTINUOUS
 10
6.5422239539
 20
5.4502898097
 40
0.0580190634
100
AcDbArc
 50
25.0
 51
90.0
  0
ARC
  5
29D
100
AcDbEntity
  8
0
100
AcDbCircle
 62
7
  6
CONTINUOUS
 10
6.5059121732
 20
5.4502898097
 40
0.0580190634
100
AcDbArc
 50
90.0
 51
155.0
  0
ARC
  5
29E
100
AcDbEntity
  8
0
100
AcDbCircle
 62
7
  6
CONTINUOUS
 10
6.1485231665
 20
5.4502898097
 40
0.0580190634
100
AcDbArc
 50
25.0
 51
90.0
  0
ARC
  5
29F
100
AcDbEntity
  8
0
100
AcDbCircle
 62
7
  6
CONTINUOUS
 10
6.1122113858
 20
5.4502898097
 40
0.0580190634
100
AcDbArc
 50
90.0
 51
155.0
  0
ARC
  5
2A0
100
AcDbEntity
  8
0
100
AcDbCircle
 62
7
  6
CONTINUOUS
 10
5.7548223791
 20
5.4502898097
 40
0.0580190634
100
AcDbArc
 50
25.0
 51
90.0
  0
ARC
  5
2A1
100
AcDbEntity
  8
0
100
AcDbCircle
 62
7
  6
CONTINUOUS
 10
5.7185105984
 20
5.4502898097
 40
0.0580190634
100
AcDbArc
 50
90.0
 51
155.0
  0
ARC
  5
2A2
100
AcDbEntity
  8
0
100
AcDbCircle
 62
7
  6
CONTINUOUS
 10
5.3611215917
 20
5.4502898097
 40
0.0580190634
100
AcDbArc
 50
25.0
 51
90.0
  0
ARC
  5
2A3
100
AcDbEntity
  8
0
100
AcDbCircle
 62
7
  6
CONTINUOUS
 10
4.9674208043
 20
5.4502898097
 40
0.0580190634
100
AcDbArc
 50
25.0
 51
90.0
  0
ARC
  5
2A4
100
AcDbEntity
  8
0
100
AcDbCircle
 62
7
  6
CONTINUOUS
 10
5.324809811
 20
5.4502898097
 40
0.0580190634
100
AcDbArc
 50
90.0
 51
155.0
  0
ARC
  5
2A5
100
AcDbEntity
  8
0
100
AcDbCircle
 62
7
  6
CONTINUOUS
 10
5.0672547201
 20
5.4433482432
 40
0.0295275591
100
AcDbArc
 50
205.0
 51
270.0
  0
ARC
  5
2A6
100
AcDbEntity
  8
0
100
AcDbCircle
 62
7
  6
CONTINUOUS
 10
5.2249758953
 20
5.4433482432
 40
0.0295275591
100
AcDbArc
 50
270.0
 51
335.0
  0
ARC
  5
2A7
100
AcDbEntity
  8
0
100
AcDbCircle
 62
7
  6
CONTINUOUS
 10
5.4609555075
 20
5.4433482432
 40
0.0295275591
100
AcDbArc
 50
205.0
 51
270.0
  0
ARC
  5
2A8
100
AcDbEntity
  8
0
100
AcDbCircle
 62
7
  6
CONTINUOUS
 10
5.6186766827
 20
5.4433482432
 40
0.0295275591
100
AcDbArc
 50
270.0
 51
335.0
  0
ARC
  5
2A9
100
AcDbEntity
  8
0
100
AcDbCircle
 62
7
  6
CONTINUOUS
 10
5.8546562949
 20
5.4433482432
 40
0.0295275591
100
AcDbArc
 50
205.0
 51
270.0
  0
ARC
  5
2AA
100
AcDbEntity
  8
0
100
AcDbCircle
 62
7
  6
CONTINUOUS
 10
6.0123774701
 20
5.4433482432
 40
0.0295275591
100
AcDbArc
 50
270.0
 51
335.0
  0
ARC
  5
2AB
100
AcDbEntity
  8
0
100
AcDbCircle
 62
7
  6
CONTINUOUS
 10
6.2483570823
 20
5.4433482432
 40
0.0295275591
100
AcDbArc
 50
205.0
 51
270.0
  0
ARC
  5
2AC
100
AcDbEntity
  8
0
100
AcDbCircle
 62
7
  6
CONTINUOUS
 10
6.4060782575
 20
5.4433482432
 40
0.0295275591
100
AcDbArc
 50
270.0
 51
335.0
  0
ARC
  5
2AD
100
AcDbEntity
  8
0
100
AcDbCircle
 62
7
  6
CONTINUOUS
 10
6.6420578697
 20
5.4433482432
 40
0.0295275591
100
AcDbArc
 50
205.0
 51
270.0
  0
ARC
  5
2AE
100
AcDbEntity
  8
0
100
AcDbCircle
 62
7
  6
CONTINUOUS
 10
7.1934798323
 20
5.4433482432
 40
0.0295275591
100
AcDbArc
 50
270.0
 51
335.0
  0
ARC
  5
2AF
100
AcDbEntity
  8
0
100
AcDbCircle
 62
7
  6
CONTINUOUS
 10
7.0357586571
 20
5.4433482432
 40
0.0295275591
100
AcDbArc
 50
205.0
 51
270.0
  0
ARC
  5
2B0
100
AcDbEntity
  8
0
100
AcDbCircle
 62
7
  6
CONTINUOUS
 10
6.7997790449
 20
5.4433482432
 40
0.0295275591
100
AcDbArc
 50
270.0
 51
335.0
  0
SPLINE
  5
2B1
100
AcDbEntity
  8
0
100
AcDbSpline
 62
7
  6
CONTINUOUS
 70
0
 71
3
 72
9
 73
5
 74
0
 42
0.0000001
 43
0.0000001
 44
0.0000000001
 40
0.0
 40
0.0
 40
0.0
 40
0.0
 40
0.7466005165
 40
1.0
 40
1.0
 40
1.0
 40
1.0
 10
16.0484308551
 20
10.9425456419
 30
0.0
 10
16.0488410312
 20
10.9438714129
 30
0.0
 10
16.0495902482
 20
10.9455939818
 30
0.0
 10
16.0505635743
 20
10.9471781057
 30
0.0
 10
16.0508237223
 20
10.9475707623
 30
0.0
  0
SPLINE
  5
2B2
100
AcDbEntity
  8
0
100
AcDbSpline
 62
7
  6
CONTINUOUS
 70
0
 71
3
 72
11
 73
7
 74
0
 42
0.0000001
 43
0.0000001
 44
0.0000000001
 40
0.0
 40
0.0
 40
0.0
 40
0.0
 40
0.2059330567
 40
0.439195966
 40
0.7046223685
 40
1.0
 40
1.0
 40
1.0
 40
1.0
 10
16.0508237223
 20
10.9475707623
 30
0.0
 10
16.0523158459
 20
10.9498229125
 30
0.0
 10
16.0564790574
 20
10.9540006103
 30
0.0
 10
16.0647604945
 20
10.9583235316
 30
0.0
 10
16.0749138787
 20
10.9609480904
 30
0.0
 10
16.082289779
 20
10.9614810373
 30
0.0
 10
16.0861647791
 20
10.9614810373
 30
0.0
  0
SPLINE
  5
2B3
100
AcDbEntity
  8
0
100
AcDbSpline
 62
7
  6
CONTINUOUS
 70
0
 71
3
 72
9
 73
5
 74
0
 42
0.0000001
 43
0.0000001
 44
0.0000000001
 40
0.0
 40
0.0
 40
0.0
 40
0.0
 40
0.7466005165
 40
1.0
 40
1.0
 40
1.0
 40
1.0
 10
15.6858084165
 20
10.9425456419
 30
0.0
 10
15.6862185926
 20
10.9438714129
 30
0.0
 10
15.6869678096
 20
10.9455939818
 30
0.0
 10
15.6879411357
 20
10.9471781057
 30
0.0
 10
15.6882012837
 20
10.9475707623
 30
0.0
  0
SPLINE
  5
2B4
100
AcDbEntity
  8
0
100
AcDbSpline
 62
7
  6
CONTINUOUS
 70
0
 71
3
 72
11
 73
7
 74
0
 42
0.0000001
 43
0.0000001
 44
0.0000000001
 40
0.0
 40
0.0
 40
0.0
 40
0.0
 40
0.2059330567
 40
0.439195966
 40
0.7046223685
 40
1.0
 40
1.0
 40
1.0
 40
1.0
 10
15.6882012837
 20
10.9475707623
 30
0.0
 10
15.6896934074
 20
10.9498229125
 30
0.0
 10
15.6938566188
 20
10.9540006103
 30
0.0
 10
15.7021380559
 20
10.9583235316
 30
0.0
 10
15.7122914401
 20
10.9609480904
 30
0.0
 10
15.7196673404
 20
10.9614810373
 30
0.0
 10
15.7235423405
 20
10.9614810373
 30
0.0
  0
SPLINE
  5
2B5
100
AcDbEntity
  8
0
100
AcDbSpline
 62
7
  6
CONTINUOUS
 70
0
 71
3
 72
9
 73
5
 74
0
 42
0.0000001
 43
0.0000001
 44
0.0000000001
 40
0.0
 40
0.0
 40
0.0
 40
0.0
 40
0.7466005165
 40
1.0
 40
1.0
 40
1.0
 40
1.0
 10
15.3231859779
 20
10.9425456419
 30
0.0
 10
15.323596154
 20
10.9438714129
 30
0.0
 10
15.324345371
 20
10.9455939818
 30
0.0
 10
15.3253186971
 20
10.9471781057
 30
0.0
 10
15.3255788451
 20
10.9475707623
 30
0.0
  0
SPLINE
  5
2B6
100
AcDbEntity
  8
0
100
AcDbSpline
 62
7
  6
CONTINUOUS
 70
0
 71
3
 72
11
 73
7
 74
0
 42
0.0000001
 43
0.0000001
 44
0.0000000001
 40
0.0
 40
0.0
 40
0.0
 40
0.0
 40
0.2059330567
 40
0.439195966
 40
0.7046223685
 40
1.0
 40
1.0
 40
1.0
 40
1.0
 10
15.3255788451
 20
10.9475707623
 30
0.0
 10
15.3270709688
 20
10.9498229125
 30
0.0
 10
15.3312341802
 20
10.9540006103
 30
0.0
 10
15.3395156173
 20
10.9583235316
 30
0.0
 10
15.3496690015
 20
10.9609480904
 30
0.0
 10
15.3570449018
 20
10.9614810373
 30
0.0
 10
15.3609199019
 20
10.9614810373
 30
0.0
  0
SPLINE
  5
2B7
100
AcDbEntity
  8
0
100
AcDbSpline
 62
7
  6
CONTINUOUS
 70
0
 71
3
 72
9
 73
5
 74
0
 42
0.0000001
 43
0.0000001
 44
0.0000000001
 40
0.0
 40
0.0
 40
0.0
 40
0.0
 40
0.7466005165
 40
1.0
 40
1.0
 40
1.0
 40
1.0
 10
14.9605635393
 20
10.9425456419
 30
0.0
 10
14.9609737154
 20
10.9438714129
 30
0.0
 10
14.9617229324
 20
10.9455939818
 30
0.0
 10
14.9626962586
 20
10.9471781057
 30
0.0
 10
14.9629564065
 20
10.9475707623
 30
0.0
  0
SPLINE
  5
2B8
100
AcDbEntity
  8
0
100
AcDbSpline
 62
7
  6
CONTINUOUS
 70
0
 71
3
 72
11
 73
7
 74
0
 42
0.0000001
 43
0.0000001
 44
0.0000000001
 40
0.0
 40
0.0
 40
0.0
 40
0.0
 40
0.2059330567
 40
0.439195966
 40
0.7046223685
 40
1.0
 40
1.0
 40
1.0
 40
1.0
 10
14.9629564065
 20
10.9475707623
 30
0.0
 10
14.9644485302
 20
10.9498229125
 30
0.0
 10
14.9686117416
 20
10.9540006103
 30
0.0
 10
14.9768931787
 20
10.9583235316
 30
0.0
 10
14.9870465629
 20
10.9609480904
 30
0.0
 10
14.9944224632
 20
10.9614810373
 30
0.0
 10
14.9982974633
 20
10.9614810373
 30
0.0
  0
SPLINE
  5
2B9
100
AcDbEntity
  8
0
100
AcDbSpline
 62
7
  6
CONTINUOUS
 70
0
 71
3
 72
9
 73
5
 74
0
 42
0.0000001
 43
0.0000001
 44
0.0000000001
 40
0.0
 40
0.0
 40
0.0
 40
0.0
 40
0.7466005165
 40
1.0
 40
1.0
 40
1.0
 40
1.0
 10
14.5979411007
 20
10.9425456419
 30
0.0
 10
14.5983512769
 20
10.9438714129
 30
0.0
 10
14.5991004938
 20
10.9455939818
 30
0.0
 10
14.60007382
 20
10.9471781057
 30
0.0
 10
14.6003339679
 20
10.9475707623
 30
0.0
  0
SPLINE
  5
2BA
100
AcDbEntity
  8
0
100
AcDbSpline
 62
7
  6
CONTINUOUS
 70
0
 71
3
 72
11
 73
7
 74
0
 42
0.0000001
 43
0.0000001
 44
0.0000000001
 40
0.0
 40
0.0
 40
0.0
 40
0.0
 40
0.2059330567
 40
0.439195966
 40
0.7046223685
 40
1.0
 40
1.0
 40
1.0
 40
1.0
 10
14.6003339679
 20
10.9475707623
 30
0.0
 10
14.6018260916
 20
10.9498229125
 30
0.0
 10
14.605989303
 20
10.9540006103
 30
0.0
 10
14.6142707401
 20
10.9583235316
 30
0.0
 10
14.6244241244
 20
10.9609480904
 30
0.0
 10
14.6318000246
 20
10.9614810373
 30
0.0
 10
14.6356750247
 20
10.9614810373
 30
0.0
  0
SPLINE
  5
2BB
100
AcDbEntity
  8
0
100
AcDbSpline
 62
7
  6
CONTINUOUS
 70
0
 71
3
 72
9
 73
5
 74
0
 42
0.0000001
 43
0.0000001
 44
0.0000000001
 40
0.0
 40
0.0
 40
0.0
 40
0.0
 40
0.7465984597
 40
1.0
 40
1.0
 40
1.0
 40
1.0
 10
14.2353186625
 20
10.942545642
 30
0.0
 10
14.2357289696
 20
10.9438718351
 30
0.0
 10
14.236478494
 20
10.9455949418
 30
0.0
 10
14.237452256
 20
10.9471794993
 30
0.0
 10
14.2377125238
 20
10.9475722626
 30
0.0
  0
SPLINE
  5
2BC
100
AcDbEntity
  8
0
100
AcDbSpline
 62
7
  6
CONTINUOUS
 70
0
 71
3
 72
11
 73
7
 74
0
 42
0.0000001
 43
0.0000001
 44
0.0000000001
 40
0.0
 40
0.0
 40
0.0
 40
0.0
 40
0.2059349742
 40
0.4391990057
 40
0.7046252157
 40
1.0
 40
1.0
 40
1.0
 40
1.0
 10
14.2377125238
 20
10.9475722626
 30
0.0
 10
14.2392047903
 20
10.9498242019
 30
0.0
 10
14.2433681098
 20
10.9540014347
 30
0.0
 10
14.2516493402
 20
10.9583238769
 30
0.0
 10
14.2618022742
 20
10.9609481453
 30
0.0
 10
14.2691777984
 20
10.9614810373
 30
0.0
 10
14.2730525861
 20
10.9614810373
 30
0.0
  0
SPLINE
  5
2BD
100
AcDbEntity
  8
0
100
AcDbSpline
 62
7
  6
CONTINUOUS
 70
0
 71
3
 72
11
 73
7
 74
0
 42
0.0000001
 43
0.0000001
 44
0.0000000001
 40
0.0
 40
0.0
 40
0.0
 40
0.0
 40
0.2483014693
 40
0.5067865539
 40
0.761732939
 40
1.0
 40
1.0
 40
1.0
 40
1.0
 10
15.7569877054
 20
10.9614810373
 30
0.0
 10
15.7622302675
 20
10.9614810373
 30
0.0
 10
15.7729451569
 20
10.9604333245
 30
0.0
 10
15.7885456788
 20
10.9562649014
 30
0.0
 10
15.803096974
 20
10.9497657603
 30
0.0
 10
15.8117984475
 20
10.9439074068
 30
0.0
 10
15.8156386169
 20
10.9406576332
 30
0.0
  0
SPLINE
  5
2BE
100
AcDbEntity
  8
0
100
AcDbSpline
 62
7
  6
CONTINUOUS
 70
0
 71
3
 72
11
 73
7
 74
0
 42
0.0000001
 43
0.0000001
 44
0.0000000001
 40
0.0
 40
0.0
 40
0.0
 40
0.0
 40
0.2483014693
 40
0.5067865539
 40
0.761732939
 40
1.0
 40
1.0
 40
1.0
 40
1.0
 10
15.3943652668
 20
10.9614810373
 30
0.0
 10
15.399607829
 20
10.9614810373
 30
0.0
 10
15.4103227183
 20
10.9604333245
 30
0.0
 10
15.4259232402
 20
10.9562649014
 30
0.0
 10
15.4404745355
 20
10.9497657603
 30
0.0
 10
15.4491760089
 20
10.9439074068
 30
0.0
 10
15.4530161783
 20
10.9406576332
 30
0.0
  0
SPLINE
  5
2BF
100
AcDbEntity
  8
0
100
AcDbSpline
 62
7
  6
CONTINUOUS
 70
0
 71
3
 72
11
 73
7
 74
0
 42
0.0000001
 43
0.0000001
 44
0.0000000001
 40
0.0
 40
0.0
 40
0.0
 40
0.0
 40
0.2483014693
 40
0.5067865539
 40
0.761732939
 40
1.0
 40
1.0
 40
1.0
 40
1.0
 10
15.0317428282
 20
10.9614810373
 30
0.0
 10
15.0369853904
 20
10.9614810373
 30
0.0
 10
15.0477002798
 20
10.9604333245
 30
0.0
 10
15.0633008016
 20
10.9562649014
 30
0.0
 10
15.0778520969
 20
10.9497657603
 30
0.0
 10
15.0865535703
 20
10.9439074068
 30
0.0
 10
15.0903937398
 20
10.9406576332
 30
0.0
  0
SPLINE
  5
2C0
100
AcDbEntity
  8
0
100
AcDbSpline
 62
7
  6
CONTINUOUS
 70
0
 71
3
 72
11
 73
7
 74
0
 42
0.0000001
 43
0.0000001
 44
0.0000000001
 40
0.0
 40
0.0
 40
0.0
 40
0.0
 40
0.2483014693
 40
0.5067865539
 40
0.761732939
 40
1.0
 40
1.0
 40
1.0
 40
1.0
 10
14.6691203896
 20
10.9614810373
 30
0.0
 10
14.6743629518
 20
10.9614810373
 30
0.0
 10
14.6850778412
 20
10.9604333245
 30
0.0
 10
14.700678363
 20
10.9562649014
 30
0.0
 10
14.7152296583
 20
10.9497657603
 30
0.0
 10
14.7239311318
 20
10.9439074068
 30
0.0
 10
14.7277713012
 20
10.9406576332
 30
0.0
  0
SPLINE
  5
2C1
100
AcDbEntity
  8
0
100
AcDbSpline
 62
7
  6
CONTINUOUS
 70
0
 71
3
 72
11
 73
7
 74
0
 42
0.0000001
 43
0.0000001
 44
0.0000000001
 40
0.0
 40
0.0
 40
0.0
 40
0.0
 40
0.2483014693
 40
0.5067865539
 40
0.761732939
 40
1.0
 40
1.0
 40
1.0
 40
1.0
 10
14.306497951
 20
10.9614810373
 30
0.0
 10
14.3117405132
 20
10.9614810373
 30
0.0
 10
14.3224554026
 20
10.9604333245
 30
0.0
 10
14.3380559245
 20
10.9562649014
 30
0.0
 10
14.3526072197
 20
10.9497657603
 30
0.0
 10
14.3613086932
 20
10.9439074068
 30
0.0
 10
14.3651488626
 20
10.9406576332
 30
0.0
  0
SPLINE
  5
2C2
100
AcDbEntity
  8
0
100
AcDbSpline
 62
7
  6
CONTINUOUS
 70
0
 71
3
 72
11
 73
7
 74
0
 42
0.0000001
 43
0.0000001
 44
0.0000000001
 40
0.0
 40
0.0
 40
0.0
 40
0.0
 40
0.3037535378
 40
0.5698851966
 40
0.7976734004
 40
1.0
 40
1.0
 40
1.0
 40
1.0
 10
16.0230345069
 20
10.9027462372
 30
0.0
 10
16.0253456829
 20
10.9027462372
 30
0.0
 10
16.0296988702
 20
10.9031126848
 30
0.0
 10
16.0355473069
 20
10.9049514839
 30
0.0
 10
16.0400087097
 20
10.9080039418
 30
0.0
 10
16.0417827122
 20
10.9109125392
 30
0.0
 10
16.0422381992
 20
10.9123830587
 30
0.0
  0
SPLINE
  5
2C3
100
AcDbEntity
  8
0
100
AcDbSpline
 62
7
  6
CONTINUOUS
 70
0
 71
3
 72
9
 73
5
 74
0
 42
0.0000001
 43
0.0000001
 44
0.0000000001
 40
0.0
 40
0.0
 40
0.0
 40
0.0
 40
0.493110917
 40
1.0
 40
1.0
 40
1.0
 40
1.0
 10
15.8479145599
 20
10.9133438625
 30
0.0
 10
15.8519441773
 20
10.9099337671
 30
0.0
 10
15.8616208202
 20
10.9048021189
 30
0.0
 10
15.8723373064
 20
10.9027462372
 30
0.0
 10
15.8777636846
 20
10.9027462372
 30
0.0
  0
SPLINE
  5
2C4
100
AcDbEntity
  8
0
100
AcDbSpline
 62
7
  6
CONTINUOUS
 70
0
 71
3
 72
11
 73
7
 74
0
 42
0.0000001
 43
0.0000001
 44
0.0000000001
 40
0.0
 40
0.0
 40
0.0
 40
0.0
 40
0.3037535378
 40
0.5698851966
 40
0.7976734004
 40
1.0
 40
1.0
 40
1.0
 40
1.0
 10
15.6604120684
 20
10.9027462372
 30
0.0
 10
15.6627232443
 20
10.9027462372
 30
0.0
 10
15.6670764316
 20
10.9031126848
 30
0.0
 10
15.6729248683
 20
10.9049514839
 30
0.0
 10
15.6773862711
 20
10.9080039418
 30
0.0
 10
15.6791602737
 20
10.9109125392
 30
0.0
 10
15.6796157606
 20
10.9123830587
 30
0.0
  0
SPLINE
  5
2C5
100
AcDbEntity
  8
0
100
AcDbSpline
 62
7
  6
CONTINUOUS
 70
0
 71
3
 72
9
 73
5
 74
0
 42
0.0000001
 43
0.0000001
 44
0.0000000001
 40
0.0
 40
0.0
 40
0.0
 40
0.0
 40
0.493110917
 40
1.0
 40
1.0
 40
1.0
 40
1.0
 10
15.4852921213
 20
10.9133438625
 30
0.0
 10
15.4893217387
 20
10.9099337671
 30
0.0
 10
15.4989983816
 20
10.9048021189
 30
0.0
 10
15.5097148678
 20
10.9027462372
 30
0.0
 10
15.515141246
 20
10.9027462372
 30
0.0
  0
SPLINE
  5
2C6
100
AcDbEntity
  8
0
100
AcDbSpline
 62
7
  6
CONTINUOUS
 70
0
 71
3
 72
11
 73
7
 74
0
 42
0.0000001
 43
0.0000001
 44
0.0000000001
 40
0.0
 40
0.0
 40
0.0
 40
0.0
 40
0.3037535378
 40
0.5698851966
 40
0.7976734004
 40
1.0
 40
1.0
 40
1.0
 40
1.0
 10
15.2977896298
 20
10.9027462372
 30
0.0
 10
15.3001008057
 20
10.9027462372
 30
0.0
 10
15.3044539931
 20
10.9031126848
 30
0.0
 10
15.3103024297
 20
10.9049514839
 30
0.0
 10
15.3147638325
 20
10.9080039418
 30
0.0
 10
15.3165378351
 20
10.9109125392
 30
0.0
 10
15.316993322
 20
10.9123830587
 30
0.0
  0
SPLINE
  5
2C7
100
AcDbEntity
  8
0
100
AcDbSpline
 62
7
  6
CONTINUOUS
 70
0
 71
3
 72
9
 73
5
 74
0
 42
0.0000001
 43
0.0000001
 44
0.0000000001
 40
0.0
 40
0.0
 40
0.0
 40
0.0
 40
0.493110917
 40
1.0
 40
1.0
 40
1.0
 40
1.0
 10
15.1226696828
 20
10.9133438625
 30
0.0
 10
15.1266993002
 20
10.9099337671
 30
0.0
 10
15.136375943
 20
10.9048021189
 30
0.0
 10
15.1470924292
 20
10.9027462372
 30
0.0
 10
15.1525188074
 20
10.9027462372
 30
0.0
  0
SPLINE
  5
2C8
100
AcDbEntity
  8
0
100
AcDbSpline
 62
7
  6
CONTINUOUS
 70
0
 71
3
 72
11
 73
7
 74
0
 42
0.0000001
 43
0.0000001
 44
0.0000000001
 40
0.0
 40
0.0
 40
0.0
 40
0.0
 40
0.3037535378
 40
0.5698851966
 40
0.7976734004
 40
1.0
 40
1.0
 40
1.0
 40
1.0
 10
14.9351671912
 20
10.9027462372
 30
0.0
 10
14.9374783671
 20
10.9027462372
 30
0.0
 10
14.9418315545
 20
10.9031126848
 30
0.0
 10
14.9476799911
 20
10.9049514839
 30
0.0
 10
14.9521413939
 20
10.9080039418
 30
0.0
 10
14.9539153965
 20
10.9109125392
 30
0.0
 10
14.9543708834
 20
10.9123830587
 30
0.0
  0
SPLINE
  5
2C9
100
AcDbEntity
  8
0
100
AcDbSpline
 62
7
  6
CONTINUOUS
 70
0
 71
3
 72
9
 73
5
 74
0
 42
0.0000001
 43
0.0000001
 44
0.0000000001
 40
0.0
 40
0.0
 40
0.0
 40
0.0
 40
0.493110917
 40
1.0
 40
1.0
 40
1.0
 40
1.0
 10
14.7600472442
 20
10.9133438625
 30
0.0
 10
14.7640768616
 20
10.9099337671
 30
0.0
 10
14.7737535044
 20
10.9048021189
 30
0.0
 10
14.7844699906
 20
10.9027462372
 30
0.0
 10
14.7898963688
 20
10.9027462372
 30
0.0
  0
SPLINE
  5
2CA
100
AcDbEntity
  8
0
100
AcDbSpline
 62
7
  6
CONTINUOUS
 70
0
 71
3
 72
11
 73
7
 74
0
 42
0.0000001
 43
0.0000001
 44
0.0000000001
 40
0.0
 40
0.0
 40
0.0
 40
0.0
 40
0.3037535378
 40
0.5698851966
 40
0.7976734004
 40
1.0
 40
1.0
 40
1.0
 40
1.0
 10
14.5725447526
 20
10.9027462372
 30
0.0
 10
14.5748559285
 20
10.9027462372
 30
0.0
 10
14.5792091159
 20
10.9031126848
 30
0.0
 10
14.5850575526
 20
10.9049514839
 30
0.0
 10
14.5895189553
 20
10.9080039418
 30
0.0
 10
14.5912929579
 20
10.9109125392
 30
0.0
 10
14.5917484449
 20
10.9123830587
 30
0.0
  0
SPLINE
  5
2CB
100
AcDbEntity
  8
0
100
AcDbSpline
 62
7
  6
CONTINUOUS
 70
0
 71
3
 72
9
 73
5
 74
0
 42
0.0000001
 43
0.0000001
 44
0.0000000001
 40
0.0
 40
0.0
 40
0.0
 40
0.0
 40
0.493110917
 40
1.0
 40
1.0
 40
1.0
 40
1.0
 10
14.3974248056
 20
10.9133438625
 30
0.0
 10
14.401454423
 20
10.9099337671
 30
0.0
 10
14.4111310658
 20
10.9048021189
 30
0.0
 10
14.4218475521
 20
10.9027462372
 30
0.0
 10
14.4272739302
 20
10.9027462372
 30
0.0
  0
SPLINE
  5
2CC
100
AcDbEntity
  8
0
100
AcDbSpline
 62
7
  6
CONTINUOUS
 70
0
 71
3
 72
11
 73
7
 74
0
 42
0.0000001
 43
0.0000001
 44
0.0000000001
 40
0.0
 40
0.0
 40
0.0
 40
0.0
 40
0.3037519131
 40
0.5698849234
 40
0.7976748489
 40
1.0
 40
1.0
 40
1.0
 40
1.0
 10
14.209922314
 20
10.9027462372
 30
0.0
 10
14.2122334774
 20
10.9027462372
 30
0.0
 10
14.2165866618
 20
10.9031126791
 30
0.0
 10
14.2224351129
 20
10.9049514777
 30
0.0
 10
14.2268965162
 20
10.908003953
 30
0.0
 10
14.2286705298
 20
10.9109125462
 30
0.0
 10
14.229126008
 20
10.9123830568
 30
0.0
  0
SPLINE
  5
2CD
100
AcDbEntity
  8
0
100
AcDbSpline
 62
7
  6
CONTINUOUS
 70
0
 71
3
 72
9
 73
5
 74
0
 42
0.0000001
 43
0.0000001
 44
0.0000000001
 40
0.0
 40
0.0
 40
0.0
 40
0.0
 40
0.493110985
 40
1.0
 40
1.0
 40
1.0
 40
1.0
 10
14.034802367
 20
10.9133438625
 30
0.0
 10
14.038831985
 20
10.9099337666
 30
0.0
 10
14.048508628
 20
10.9048021186
 30
0.0
 10
14.0592251142
 20
10.9027462372
 30
0.0
 10
14.0646514916
 20
10.9027462372
 30
0.0
  0
SPLINE
  5
2CE
100
AcDbEntity
  8
0
100
AcDbSpline
 62
7
  6
CONTINUOUS
 70
0
 71
3
 72
11
 73
7
 74
0
 42
0.0000001
 43
0.0000001
 44
0.0000000001
 40
0.0
 40
0.0
 40
0.0
 40
0.0
 40
0.2483016987
 40
0.5067864915
 40
0.7617328529
 40
1.0
 40
1.0
 40
1.0
 40
1.0
 10
13.9438755124
 20
10.9614810373
 30
0.0
 10
13.9491180795
 20
10.9614810373
 30
0.0
 10
13.9598329673
 20
10.9604333227
 30
0.0
 10
13.9754334884
 20
10.9562649035
 30
0.0
 10
13.9899847773
 20
10.94976576
 30
0.0
 10
13.9986862532
 20
10.943907408
 30
0.0
 10
14.002526424
 20
10.9406576332
 30
0.0
  0
ENDSEC
  0
SECTION
  2
OBJECTS
  0
DICTIONARY
  5
C
100
AcDbDictionary
280
0
281
1
  3
ACAD_GROUP
350
D
  3
ACAD_MLINESTYLE
350
17
  3
ACAD_LAYOUT
350
1A
  3
ACAD_PLOTSETTINGS
350
19
  3
ACAD_PLOTSTYLENAME
350
E
  0
DICTIONARY
  5
D
102
{ACAD_REACTORS
330
C
102
}
100
AcDbDictionary
280
0
281
1
  0
ACDBDICTIONARYWDFLT
  5
E
102
{ACAD_REACTORS
330
C
102
}
100
AcDbDictionary
281
1
  3
Normal
350
F
100
AcDbDictionaryWithDefault
340
F
  0
DICTIONARY
  5
17
102
{ACAD_REACTORS
330
C
102
}
100
AcDbDictionary
280
0
281
1
  3
Standard
350
18
  0
DICTIONARY
  5
19
102
{ACAD_REACTORS
330
C
102
}
100
AcDbDictionary
281
1
  0
DICTIONARY
  5
1A
102
{ACAD_REACTORS
330
C
102
}
100
AcDbDictionary
281
1
  3
Model
350
2CF
  3
Layout1
350
2D0
  0
ACDBPLACEHOLDER
  5
F
102
{ACAD_REACTORS
330
E
102
}
  0
MLINESTYLE
  5
18
102
{ACAD_REACTORS
330
17
102
}
100
AcDbMlineStyle
  2
STANDARD
 70
0
  3

 62
256
 51
90.0
 52
90.0
 71
2
 49
0.5
 62
256
  6
BYLAYER
 49
-0.5
 62
256
  6
BYLAYER
  0
LAYOUT
  5
2CF
102
{ACAD_REACTORS
330
1A
102
}
100
AcDbPlotSettings
  1

  2
none_device
  4
ANSI_C_(22.00_x_17.00_Inches)
  6

 40
0.0
 41
0.0
 42
0.0
 43
0.0
 44
558.8
 45
431.8
 46
0.0
 47
0.0
 48
0.0
 49
0.0
140
0.0
141
0.0
142
1.0
143
1.0
 70
1024
 72
0
 73
0
 74
0
  7

 75
0
147
1.0
148
0.0
149
0.0
100
AcDbLayout
  1
Model
 70
0
 71
0
 10
0.0
 20
0.0
 11
22.0
 21
17.0
 12
0.0
 22
0.0
 32
0.0
 14
0.0
 24
0.0
 34
0.0
 15
0.0
 25
0.0
 35
0.0
146
0.0
 13
0.0
 23
0.0
 33
0.0
 16
1.0
 26
0.0
 36
0.0
 17
0.0
 27
1.0
 37
0.0
 76
0
330
216
345
0
346
0
  0
LAYOUT
  5
2D0
102
{ACAD_REACTORS
330
1A
102
}
100
AcDbPlotSettings
  1

  2
none_device
  4
ANSI_C_(22.00_x_17.00_Inches)
  6

 40
0.0
 41
0.0
 42
0.0
 43
0.0
 44
558.8
 45
431.8
 46
0.0
 47
0.0
 48
0.0
 49
0.0
140
0.0
141
0.0
142
1.0
143
1.0
 70
0
 72
0
 73
0
 74
0
  7

 75
0
147
1.0
148
0.0
149
0.0
100
AcDbLayout
  1
Layout1
 70
0
 71
1
 10
0.0
 20
0.0
 11
22.0
 21
17.0
 12
0.0
 22
0.0
 32
0.0
 14
0.0
 24
0.0
 34
0.0
 15
0.0
 25
0.0
 35
0.0
146
0.0
 13
0.0
 23
0.0
 33
0.0
 16
1.0
 26
0.0
 36
0.0
 17
0.0
 27
1.0
 37
0.0
 76
0
330
217
345
0
346
0
  0
ENDSEC
  0
EOF