999
DXF file: _cgs_temp_output.dxf
999
Pro/ENGINEER 2016360 by Parametric Technology Corporation
  0
SECTION
  2
HEADER
  9
$ACADVER
  1
AC1021
  9
$DWGCODEPAGE
  3
ANSI_1252
  9
$EXTMAX
 10
22.0
 20
17.0
 30
0.0
  9
$EXTMIN
 10
0.0
 20
0.0
 30
0.0
  9
$LIMMIN
 10
0.0
 20
0.0
  9
$LIMMAX
 10
22.0
 20
17.0
  9
$VIEWCTR
 10
11.0
 20
8.5
  9
$VIEWSIZE
 40
17.0
  9
$CLAYER
  8
0
  9
$LTSCALE
 40
1.21
  9
$CELTYPE
  6
BYLAYER
  9
$DIMSCALE
 40
1.0
  9
$DIMASZ
 40
0.1875
  9
$DIMEXO
 40
0.0625
  9
$DIMDLI
 40
0.836
  9
$DIMEXE
 40
0.125
  9
$DIMCEN
 40
0.198
  9
$DIMLFAC
 40
1.0
  9
$DIMBLK
  1
_CLOSED
  9
$DIMALT
 70
0
  9
$DIMALTF
 40
25.4
  9
$DIMTXT
 40
0.15625
  9
$DIMTOL
 70
0
  9
$DIMLIM
 70
0
  9
$DIMTFAC
 40
1.0
  9
$DIMGAP
 40
0.09
  9
$DIMDSEP
 70
46
  9
$AUNITS
 70
0
  9
$PDMODE
 70
3
  9
$PDSIZE
 40
0.3125
  9
$HANDSEED
  5
2D1
  9
$TILEMODE
 70
1
  9
$MEASUREMENT
 70
0
  9
$INSUNITS
 70
1
  0
ENDSEC
  0
SECTION
  2
CLASSES
  0
CLASS
  1
ACDBDICTIONARYWDFLT
  2
AcDbDictionaryWithDefault
  3
AutoCAD 2000
 90
0
 91
1
280
0
281
0
  0
CLASS
  1
ACDBPLACEHOLDER
  2
AcDbPlaceHolder
  3
AutoCAD 2000
 90
0
 91
1
280
0
281
0
  0
CLASS
  1
LAYOUT
  2
AcDbLayout
  3
AutoCAD 2000
 90
0
 91
0
280
0
281
0
  0
ENDSEC
  0
SECTION
  2
TABLES
  0
TABLE
  2
VPORT
  5
8
100
AcDbSymbolTable
 70
2
  0
VPORT
  5
1F4
100
AcDbSymbolTableRecord
100
AcDbViewportTableRecord
  2
*ACTIVE
 70
0
 10
0.0
 20
0.0
 11
1.0
 21
1.0
 12
11.0
 22
8.5
 13
0.0
 23
0.0
 14
1.0
 24
1.0
 15
0.0
 25
0.0
 16
0.0
 26
0.0
 36
1.0
 17
0.0
 27
0.0
 37
0.0
 40
17.0
 41
1.2941176471
 42
50.0
 43
0.0
 44
0.0
 50
0.0
 51
0.0
 71
0
 72
100
 73
1
 74
1
 75
0
 76
0
 77
0
 78
0
  0
ENDTAB
  0
TABLE
  2
LTYPE
  5
5
100
AcDbSymbolTable
 70
6
  0
LTYPE
  5
14
100
AcDbSymbolTableRecord
100
AcDbLinetypeTableRecord
  2
BYBLOCK
 70
0
  3

 72
65
 73
0
 40
0.0
  0
LTYPE
  5
15
100
AcDbSymbolTableRecord
100
AcDbLinetypeTableRecord
  2
BYLAYER
 70
0
  3

 72
65
 73
0
 40
0.0
  0
LTYPE
  5
16
100
AcDbSymbolTableRecord
100
AcDbLinetypeTableRecord
  2
CONTINUOUS
 70
64
  3
Solid line
 72
65
 73
0
 40
0.0
  0
LTYPE
  5
1F5
100
AcDbSymbolTableRecord
100
AcDbLinetypeTableRecord
  2
CENTER
 70
64
  3
____ _ ____ _ ____ _ ____ _ ____ _ ____ _ ____
 72
65
 73
4
 40
0.6
 49
0.375
 74
0
 49
-0.075
 74
0
 49
0.075
 74
0
 49
-0.075
 74
0
  0
LTYPE
  5
1F6
100
AcDbSymbolTableRecord
100
AcDbLinetypeTableRecord
  2
HIDDEN
 70
64
  3
- - - - - - - - - - - - - - - - - - - -
 72
65
 73
2
 40
0.2
 49
0.1
 74
0
 49
-0.1
 74
0
  0
LTYPE
  5
1F7
100
AcDbSymbolTableRecord
100
AcDbLinetypeTableRecord
  2
PHANTOM
 70
64
  3
_____ _ _ _____ _ _ _____ _ _ _____
 72
65
 73
6
 40
0.8
 49
0.45
 74
0
 49
-0.05
 74
0
 49
0.1
 74
0
 49
-0.05
 74
0
 49
0.1
 74
0
 49
-0.05
 74
0
  0
LTYPE
  5
1F8
100
AcDbSymbolTableRecord
100
AcDbLinetypeTableRecord
  2
DOT
 70
64
  3
. . . . . . . . . . . . . . . . . . . .
 72
65
 73
2
 40
0.2
 49
0.1
 74
0
 49
-0.1
 74
0
  0
LTYPE
  5
1F9
100
AcDbSymbolTableRecord
100
AcDbLinetypeTableRecord
  2
DASHED
 70
64
  3
- - - - - - - - - - - - - - - - - - - -
 72
65
 73
2
 40
0.2
 49
0.1
 74
0
 49
-0.1
 74
0
  0
ENDTAB
  0
TABLE
  2
LAYER
  5
2
100
AcDbSymbolTable
 70
36
  0
LAYER
  5
10
100
AcDbSymbolTableRecord
100
AcDbLayerTableRecord
  2
0
 70
0
 62
7
  6
CONTINUOUS
370
-3
390
F
  0
LAYER
  5
1FA
100
AcDbSymbolTableRecord
100
AcDbLayerTableRecord
  2
DEFAULT_1
 70
0
 62
7
  6
CENTER
370
-3
390
F
  0
LAYER
  5
1FB
100
AcDbSymbolTableRecord
100
AcDbLayerTableRecord
  2
DEFAULT_2
 70
0
 62
8
  6
HIDDEN
370
-3
390
F
  0
LAYER
  5
1FC
100
AcDbSymbolTableRecord
100
AcDbLayerTableRecord
  2
DEFAULT_3
 70
0
 62
7
  6
PHANTOM
370
-3
390
F
  0
LAYER
  5
1FD
100
AcDbSymbolTableRecord
100
AcDbLayerTableRecord
  2
01_ALL_DTM_PLN
 70
0
 62
7
  6
CONTINUOUS
370
-3
390
F
  0
LAYER
  5
1FE
100
AcDbSymbolTableRecord
100
AcDbLayerTableRecord
  2
01__ASM_ALL_DTM_PLN
 70
0
 62
7
  6
CONTINUOUS
370
-3
390
F
  0
LAYER
  5
1FF
100
AcDbSymbolTableRecord
100
AcDbLayerTableRecord
  2
01__ASM_DEF_DTM_PLN
 70
0
 62
7
  6
CONTINUOUS
370
-3
390
F
  0
LAYER
  5
200
100
AcDbSymbolTableRecord
100
AcDbLayerTableRecord
  2
01___PRT_ALL_DTM_PLN
 70
0
 62
7
  6
CONTINUOUS
370
-3
390
F
  0
LAYER
  5
201
100
AcDbSymbolTableRecord
100
AcDbLayerTableRecord
  2
01___PRT_DEF_DTM_PLN
 70
0
 62
7
  6
CONTINUOUS
370
-3
390
F
  0
LAYER
  5
202
100
AcDbSymbolTableRecord
100
AcDbLayerTableRecord
  2
02_ALL_AXES
 70
0
 62
7
  6
CONTINUOUS
370
-3
390
F
  0
LAYER
  5
203
100
AcDbSymbolTableRecord
100
AcDbLayerTableRecord
  2
02__ASM_ALL_AXES
 70
0
 62
7
  6
CONTINUOUS
370
-3
390
F
  0
LAYER
  5
204
100
AcDbSymbolTableRecord
100
AcDbLayerTableRecord
  2
02___PRT_ALL_AXES
 70
0
 62
7
  6
CONTINUOUS
370
-3
390
F
  0
LAYER
  5
205
100
AcDbSymbolTableRecord
100
AcDbLayerTableRecord
  2
03_ALL_CURVES
 70
0
 62
7
  6
CONTINUOUS
370
-3
390
F
  0
LAYER
  5
206
100
AcDbSymbolTableRecord
100
AcDbLayerTableRecord
  2
03__ASM_ALL_CURVES
 70
0
 62
7
  6
CONTINUOUS
370
-3
390
F
  0
LAYER
  5
207
100
AcDbSymbolTableRecord
100
AcDbLayerTableRecord
  2
03___PRT_ALL_CURVES
 70
0
 62
7
  6
CONTINUOUS
370
-3
390
F
  0
LAYER
  5
208
100
AcDbSymbolTableRecord
100
AcDbLayerTableRecord
  2
04_ALL_DTM_PNT
 70
0
 62
7
  6
CONTINUOUS
370
-3
390
F
  0
LAYER
  5
209
100
AcDbSymbolTableRecord
100
AcDbLayerTableRecord
  2
04__ASM_ALL_DTM_PNT
 70
0
 62
7
  6
CONTINUOUS
370
-3
390
F
  0
LAYER
  5
20A
100
AcDbSymbolTableRecord
100
AcDbLayerTableRecord
  2
04___PRT_ALL_DTM_PNT
 70
0
 62
7
  6
CONTINUOUS
370
-3
390
F
  0
LAYER
  5
20B
100
AcDbSymbolTableRecord
100
AcDbLayerTableRecord
  2
05_ALL_DTM_CSYS
 70
0
 62
7
  6
CONTINUOUS
370
-3
390
F
  0
LAYER
  5
20C
100
AcDbSymbolTableRecord
100
AcDbLayerTableRecord
  2
05__ASM_ALL_DTM_CSYS
 70
0
 62
7
  6
CONTINUOUS
370
-3
390
F
  0
LAYER
  5
20D
100
AcDbSymbolTableRecord
100
AcDbLayerTableRecord
  2
05__ASM_DEF_DTM_CSYS
 70
0
 62
7
  6
CONTINUOUS
370
-3
390
F
  0
LAYER
  5
20E
100
AcDbSymbolTableRecord
100
AcDbLayerTableRecord
  2
05___PRT_ALL_DTM_CSYS
 70
0
 62
7
  6
CONTINUOUS
370
-3
390
F
  0
LAYER
  5
20F
100
AcDbSymbolTableRecord
100
AcDbLayerTableRecord
  2
05___PRT_DEF_DTM_CSYS
 70
0
 62
7
  6
CONTINUOUS
370
-3
390
F
  0
LAYER
  5
210
100
AcDbSymbolTableRecord
100
AcDbLayerTableRecord
  2
06_ALL_SURFS
 70
0
 62
7
  6
CONTINUOUS
370
-3
390
F
  0
LAYER
  5
211
100
AcDbSymbolTableRecord
100
AcDbLayerTableRecord
  2
06__ASM_ALL_SURFS
 70
0
 62
7
  6
CONTINUOUS
370
-3
390
F
  0
LAYER
  5
212
100
AcDbSymbolTableRecord
100
AcDbLayerTableRecord
  2
06___PRT_ALL_SURFS
 70
0
 62
7
  6
CONTINUOUS
370
-3
390
F
  0
LAYER
  5
213
100
AcDbSymbolTableRecord
100
AcDbLayerTableRecord
  2
07__ASM_ALL_SKELETONS
 70
0
 62
7
  6
CONTINUOUS
370
-3
390
F
  0
ENDTAB
  0
TABLE
  2
STYLE
  5
3
100
AcDbSymbolTable
 70
1
  0
STYLE
  5
11
100
AcDbSymbolTableRecord
100
AcDbTextStyleTableRecord
  2
STANDARD
 70
0
 40
0.0
 41
0.8
 50
0.0
 71
0
 42
0.2
  3
txt
  4

  0
STYLE
  5
214
100
AcDbSymbolTableRecord
100
AcDbTextStyleTableRecord
  2
TEXTSTYLE_1
 70
0
 40
0.0
 41
0.8
 50
0.0
 71
0
 42
0.2
  3
gdt
  4

  0
ENDTAB
  0
TABLE
  2
VIEW
  5
6
100
AcDbSymbolTable
 70
0
  0
ENDTAB
  0
TABLE
  2
UCS
  5
7
100
AcDbSymbolTable
 70
0
  0
ENDTAB
  0
TABLE
  2
APPID
  5
9
100
AcDbSymbolTable
 70
1
  0
APPID
  5
215
100
AcDbSymbolTableRecord
100
AcDbRegAppTableRecord
  2
ACAD
 70
0
  0
ENDTAB
  0
TABLE
  2
BLOCK_RECORD
  5
1
100
AcDbSymbolTable
 70
0
  0
BLOCK_RECORD
  5
216
100
AcDbSymbolTableRecord
100
AcDbBlockTableRecord
  2
*Model_Space
  0
BLOCK_RECORD
  5
217
100
AcDbSymbolTableRecord
100
AcDbBlockTableRecord
  2
*Paper_Space
  0
ENDTAB
  0
TABLE
  2
DIMSTYLE
  5
A
100
AcDbSymbolTable
 70
1
100
AcDbDimStyleTable
 71
0
  0
DIMSTYLE
105
218
100
AcDbSymbolTableRecord
100
AcDbDimStyleTableRecord
  2
STANDARD
 70
0
  3

  4

 40
1.0
 41
0.1875
 42
0.0625
 43
0.38
 44
0.125
 45
0.0
 46
0.0
 47
0.0001
 48
0.0001
140
0.15625
141
0.09
142
0.0
143
25.4
144
1.0
145
0.0
146
1.0
147
0.09
 71
0.0
 72
0.0
 73
1
 74
1
 75
0
 76
0
 77
0
 78
4
 79
1
170
0
171
3
172
0
173
0
174
0
175
0
176
0
177
0
178
0
270
2
179
4
271
4
272
4
273
2
274
2
275
0
280
0
281
0
282
0
283
1
284
4
285
0
286
0
287
3
288
0
340
11
278
46
  0
ENDTAB
  0
ENDSEC
  0
SECTION
  2
BLOCKS
  0
BLOCK
  5
20
100
AcDbEntity
  8
0
100
AcDbBlockBegin
  2
*Model_Space
 70
0
 10
0.0
 20
0.0
 30
0.0
  3
*Model_Space
  1

  0
ENDBLK
  5
21
100
AcDbEntity
  8
0
100
AcDbBlockEnd
  0
BLOCK
  5
1C
100
AcDbEntity
  8
0
100
AcDbBlockBegin
  2
*Paper_Space
 70
0
 10
0.0
 20
0.0
 30
0.0
  3
*Paper_Space
  1

  0
ENDBLK
  5
1D
100
AcDbEntity
  8
0
100
AcDbBlockEnd
  0
ENDSEC
  0
SECTION
  2
ENTITIES
  0
MTEXT
  5
219
100
AcDbEntity
  8
0
100
AcDbMText
 62
7
  6
CONTINUOUS
  7
STANDARD
 71
1
 72
1
 10
15.9560215477
 20
0.9479130325
 30
0.0
 11
1.0
 21
0.0
 31
0.0
 44
0.9
  1
SCALE: 1:3.000
 40
0.3
 41
3.36
  0
LINE
  5
21A
100
AcDbEntity
  8
0
100
AcDbLine
 62
7
  6
CONTINUOUS
 10
0.0
 20
0.0
 11
0.0
 21
17.0
  0
LINE
  5
21B
100
AcDbEntity
  8
0
100
AcDbLine
 62
7
  6
CONTINUOUS
 10
0.0
 20
0.0
 11
22.0
 21
0.0
  0
LINE
  5
21C
100
AcDbEntity
  8
0
100
AcDbLine
 62
7
  6
CONTINUOUS
 10
0.0
 20
17.0
 11
22.0
 21
17.0
  0
LINE
  5
21D
100
AcDbEntity
  8
0
100
AcDbLine
 62
7
  6
CONTINUOUS
 10
22.0
 20
0.0
 11
22.0
 21
17.0
  0
LINE
  5
21E
100
AcDbEntity
  8
0
100
AcDbLine
 62
7
  6
CONTINUOUS
 10
4.3587137329
 20
5.6795687157
 11
4.3587137329
 21
5.5260254086
  0
LINE
  5
21F
100
AcDbEntity
  8
0
100
AcDbLine
 62
7
  6
CONTINUOUS
 10
4.4648222619
 20
5.4521546398
 11
4.495556857
 21
5.3862440879
  0
LINE
  5
220
100
AcDbEntity
  8
0
100
AcDbLine
 62
7
  6
CONTINUOUS
 10
4.3587137329
 20
5.5260254086
 11
4.3823357801
 21
5.5024033613
  0
LINE
  5
221
100
AcDbEntity
  8
0
100
AcDbLine
 62
7
  6
CONTINUOUS
 10
4.8124217899
 20
5.3862440879
 11
4.8431563849
 21
5.4521546398
  0
LINE
  5
222
100
AcDbEntity
  8
0
100
AcDbLine
 62
7
  6
CONTINUOUS
 10
5.055373443
 20
5.4521546398
 11
5.0861080381
 21
5.3862440879
  0
LINE
  5
223
100
AcDbEntity
  8
0
100
AcDbLine
 62
7
  6
CONTINUOUS
 10
4.9256428667
 20
5.5024033613
 11
4.949264914
 21
5.5260254086
  0
LINE
  5
224
100
AcDbEntity
  8
0
100
AcDbLine
 62
7
  6
CONTINUOUS
 10
4.949264914
 20
5.5260254086
 11
4.9728869612
 21
5.5024033613
  0
LINE
  5
225
100
AcDbEntity
  8
0
100
AcDbLine
 62
7
  6
CONTINUOUS
 10
5.402972971
 20
5.3862440879
 11
5.4337075661
 21
5.4521546398
  0
LINE
  5
226
100
AcDbEntity
  8
0
100
AcDbLine
 62
7
  6
CONTINUOUS
 10
5.6459246241
 20
5.4521546398
 11
5.6766592192
 21
5.3862440879
  0
LINE
  5
227
100
AcDbEntity
  8
0
100
AcDbLine
 62
7
  6
CONTINUOUS
 10
5.5161940478
 20
5.5024033613
 11
5.5398160951
 21
5.5260254086
  0
LINE
  5
228
100
AcDbEntity
  8
0
100
AcDbLine
 62
7
  6
CONTINUOUS
 10
5.5398160951
 20
5.5260254086
 11
5.5634381423
 21
5.5024033613
  0
LINE
  5
229
100
AcDbEntity
  8
0
100
AcDbLine
 62
7
  6
CONTINUOUS
 10
4.535698442
 20
5.3606710779
 11
4.7722802048
 21
5.3606710779
  0
LINE
  5
22A
100
AcDbEntity
  8
0
100
AcDbLine
 62
7
  6
CONTINUOUS
 10
5.1262496231
 20
5.3606710779
 11
5.3628313859
 21
5.3606710779
  0
LINE
  5
22B
100
AcDbEntity
  8
0
100
AcDbLine
 62
7
  6
CONTINUOUS
 10
5.7168008042
 20
5.3606710779
 11
5.953382567
 21
5.3606710779
  0
LINE
  5
22C
100
AcDbEntity
  8
0
100
AcDbLine
 62
7
  6
CONTINUOUS
 10
6.3073519853
 20
5.3606710779
 11
6.5439337481
 21
5.3606710779
  0
LINE
  5
22D
100
AcDbEntity
  8
0
100
AcDbLine
 62
7
  6
CONTINUOUS
 10
6.8979031664
 20
5.3606710779
 11
7.1344849292
 21
5.3606710779
  0
LINE
  5
22E
100
AcDbEntity
  8
0
100
AcDbLine
 62
7
  6
CONTINUOUS
 10
7.4884543475
 20
5.3606710779
 11
7.7250361103
 21
5.3606710779
  0
LINE
  5
22F
100
AcDbEntity
  8
0
100
AcDbLine
 62
7
  6
CONTINUOUS
 10
5.9935241521
 20
5.3862440879
 11
6.0242587472
 21
5.4521546398
  0
LINE
  5
230
100
AcDbEntity
  8
0
100
AcDbLine
 62
7
  6
CONTINUOUS
 10
6.1067452289
 20
5.5024033613
 11
6.1303672762
 21
5.5260254086
  0
LINE
  5
231
100
AcDbEntity
  8
0
100
AcDbLine
 62
7
  6
CONTINUOUS
 10
4.3823357801
 20
5.5024033613
 11
4.3859475684
 21
5.5024033613
  0
LINE
  5
232
100
AcDbEntity
  8
0
100
AcDbLine
 62
7
  6
CONTINUOUS
 10
4.9220310784
 20
5.5024033613
 11
4.9256428667
 21
5.5024033613
  0
LINE
  5
233
100
AcDbEntity
  8
0
100
AcDbLine
 62
7
  6
CONTINUOUS
 10
4.9728869612
 20
5.5024033613
 11
4.9764987495
 21
5.5024033613
  0
LINE
  5
234
100
AcDbEntity
  8
0
100
AcDbLine
 62
7
  6
CONTINUOUS
 10
5.5125822595
 20
5.5024033613
 11
5.5161940478
 21
5.5024033613
  0
LINE
  5
235
100
AcDbEntity
  8
0
100
AcDbLine
 62
7
  6
CONTINUOUS
 10
5.5634381423
 20
5.5024033613
 11
5.5670499306
 21
5.5024033613
  0
LINE
  5
236
100
AcDbEntity
  8
0
100
AcDbLine
 62
7
  6
CONTINUOUS
 10
6.1031334406
 20
5.5024033613
 11
6.1067452289
 21
5.5024033613
  0
LINE
  5
237
100
AcDbEntity
  8
0
100
AcDbLine
 62
7
  6
CONTINUOUS
 10
6.1539893234
 20
5.5024033613
 11
6.1576011117
 21
5.5024033613
  0
LINE
  5
238
100
AcDbEntity
  8
0
100
AcDbLine
 62
7
  6
CONTINUOUS
 10
6.6936846217
 20
5.5024033613
 11
6.69729641
 21
5.5024033613
  0
LINE
  5
239
100
AcDbEntity
  8
0
100
AcDbLine
 62
7
  6
CONTINUOUS
 10
6.7445405045
 20
5.5024033613
 11
6.7481522928
 21
5.5024033613
  0
LINE
  5
23A
100
AcDbEntity
  8
0
100
AcDbLine
 62
7
  6
CONTINUOUS
 10
7.2842358028
 20
5.5024033613
 11
7.2878475911
 21
5.5024033613
  0
LINE
  5
23B
100
AcDbEntity
  8
0
100
AcDbLine
 62
7
  6
CONTINUOUS
 10
7.3350916856
 20
5.5024033613
 11
7.3387034739
 21
5.5024033613
  0
LINE
  5
23C
100
AcDbEntity
  8
0
100
AcDbLine
 62
7
  6
CONTINUOUS
 10
7.8747869839
 20
5.5024033613
 11
7.8783987722
 21
5.5024033613
  0
LINE
  5
23D
100
AcDbEntity
  8
0
100
AcDbLine
 62
7
  6
CONTINUOUS
 10
6.1303672762
 20
5.5260254086
 11
6.1539893234
 21
5.5024033613
  0
LINE
  5
23E
100
AcDbEntity
  8
0
100
AcDbLine
 62
7
  6
CONTINUOUS
 10
6.2364758052
 20
5.4521546398
 11
6.2672104003
 21
5.3862440879
  0
LINE
  5
23F
100
AcDbEntity
  8
0
100
AcDbLine
 62
7
  6
CONTINUOUS
 10
7.9020208195
 20
5.6795687157
 11
4.3587137329
 21
5.6795687157
  0
LINE
  5
240
100
AcDbEntity
  8
0
100
AcDbLine
 62
7
  6
CONTINUOUS
 10
6.5840753332
 20
5.3862440879
 11
6.6148099283
 21
5.4521546398
  0
LINE
  5
241
100
AcDbEntity
  8
0
100
AcDbLine
 62
7
  6
CONTINUOUS
 10
6.69729641
 20
5.5024033613
 11
6.7209184573
 21
5.5260254086
  0
LINE
  5
242
100
AcDbEntity
  8
0
100
AcDbLine
 62
7
  6
CONTINUOUS
 10
6.7209184573
 20
5.5260254086
 11
6.7445405045
 21
5.5024033613
  0
LINE
  5
243
100
AcDbEntity
  8
0
100
AcDbLine
 62
7
  6
CONTINUOUS
 10
6.8270269863
 20
5.4521546398
 11
6.8577615814
 21
5.3862440879
  0
LINE
  5
244
100
AcDbEntity
  8
0
100
AcDbLine
 62
7
  6
CONTINUOUS
 10
7.2878475911
 20
5.5024033613
 11
7.3114696384
 21
5.5260254086
  0
LINE
  5
245
100
AcDbEntity
  8
0
100
AcDbLine
 62
7
  6
CONTINUOUS
 10
7.3114696384
 20
5.5260254086
 11
7.3350916856
 21
5.5024033613
  0
LINE
  5
246
100
AcDbEntity
  8
0
100
AcDbLine
 62
7
  6
CONTINUOUS
 10
7.1746265143
 20
5.3862440879
 11
7.2053611094
 21
5.4521546398
  0
LINE
  5
247
100
AcDbEntity
  8
0
100
AcDbLine
 62
7
  6
CONTINUOUS
 10
7.4175781674
 20
5.4521546398
 11
7.4483127625
 21
5.3862440879
  0
LINE
  5
248
100
AcDbEntity
  8
0
100
AcDbLine
 62
7
  6
CONTINUOUS
 10
7.8783987722
 20
5.5024033613
 11
7.9020208195
 21
5.5260254086
  0
LINE
  5
249
100
AcDbEntity
  8
0
100
AcDbLine
 62
7
  6
CONTINUOUS
 10
7.7651776954
 20
5.3862440879
 11
7.7959122905
 21
5.4521546398
  0
LINE
  5
24A
100
AcDbEntity
  8
0
100
AcDbLine
 62
7
  6
CONTINUOUS
 10
7.9020208195
 20
5.5260254086
 11
7.9020208195
 21
5.6795687157
  0
LINE
  5
24B
100
AcDbEntity
  8
0
100
AcDbLine
 62
7
  6
CONTINUOUS
 10
7.8425256272
 20
10.7102840018
 11
4.2992185406
 21
10.7102840018
  0
LINE
  5
24C
100
AcDbEntity
  8
0
100
AcDbLine
 62
7
  6
CONTINUOUS
 10
4.2992185406
 20
14.4898115609
 11
4.2992185406
 21
10.7102840018
  0
LINE
  5
24D
100
AcDbEntity
  8
0
100
AcDbLine
 62
7
  6
CONTINUOUS
 10
7.8425256272
 20
14.4898115609
 11
7.8425256272
 21
10.7102840018
  0
LINE
  5
24E
100
AcDbEntity
  8
0
100
AcDbLine
 62
7
  6
CONTINUOUS
 10
4.2992185406
 20
14.4898115609
 11
7.8425256272
 21
14.4898115609
  0
LINE
  5
24F
100
AcDbEntity
  8
0
100
AcDbLine
 62
7
  6
CONTINUOUS
 10
13.6705914774
 20
5.3011758855
 11
13.6705914774
 21
5.6200735233
  0
LINE
  5
250
100
AcDbEntity
  8
0
100
AcDbLine
 62
7
  6
CONTINUOUS
 10
13.6705914774
 20
5.3011758855
 11
17.4501190365
 21
5.3011758855
  0
LINE
  5
251
100
AcDbEntity
  8
0
100
AcDbLine
 62
7
  6
CONTINUOUS
 10
17.4501190365
 20
5.442908169
 11
13.6705914774
 21
5.442908169
  0
LINE
  5
252
100
AcDbEntity
  8
0
100
AcDbLine
 62
7
  6
CONTINUOUS
 10
17.4501190365
 20
5.4665302163
 11
13.6705914774
 21
5.4665302163
  0
LINE
  5
253
100
AcDbEntity
  8
0
100
AcDbLine
 62
7
  6
CONTINUOUS
 10
17.4501190365
 20
5.6200735233
 11
13.6705914774
 21
5.6200735233
  0
LINE
  5
254
100
AcDbEntity
  8
0
100
AcDbLine
 62
7
  6
CONTINUOUS
 10
17.4501190365
 20
5.3011758855
 11
17.4501190365
 21
5.6200735233
  0
LINE
  5
255
100
AcDbEntity
  8
0
100
AcDbLine
 62
7
  6
CONTINUOUS
 10
13.3584447561
 20
11.1296171468
 11
13.4052818931
 21
11.0341730966
  0
LINE
  5
256
100
AcDbEntity
  8
0
100
AcDbLine
 62
7
  6
CONTINUOUS
 10
13.5255479975
 20
10.9882542903
 11
13.573961912
 21
10.9472836343
  0
LINE
  5
257
100
AcDbEntity
  8
0
100
AcDbLine
 62
7
  6
CONTINUOUS
 10
13.4052818931
 20
11.0341730966
 11
13.4342449528
 21
11.0194893965
  0
LINE
  5
258
100
AcDbEntity
  8
0
100
AcDbLine
 62
7
  6
CONTINUOUS
 10
13.949215551
 20
11.0341730966
 11
13.9781786107
 21
11.0194893965
  0
LINE
  5
259
100
AcDbEntity
  8
0
100
AcDbLine
 62
7
  6
CONTINUOUS
 10
14.0694816554
 20
10.9882542903
 11
14.1178955699
 21
10.9472836343
  0
LINE
  5
25A
100
AcDbEntity
  8
0
100
AcDbLine
 62
7
  6
CONTINUOUS
 10
14.4931492089
 20
11.0341730966
 11
14.5221122686
 21
11.0194893965
  0
LINE
  5
25B
100
AcDbEntity
  8
0
100
AcDbLine
 62
7
  6
CONTINUOUS
 10
14.2733410966
 20
14.0902227895
 11
13.3584447561
 21
11.1296171468
  0
LINE
  5
25C
100
AcDbEntity
  8
0
100
AcDbLine
 62
7
  6
CONTINUOUS
 10
13.618735599
 20
10.9313871963
 11
13.8366418326
 21
10.9313871963
  0
LINE
  5
25D
100
AcDbEntity
  8
0
100
AcDbLine
 62
7
  6
CONTINUOUS
 10
14.1626692568
 20
10.9313871963
 11
14.3805754904
 21
10.9313871963
  0
LINE
  5
25E
100
AcDbEntity
  8
0
100
AcDbLine
 62
7
  6
CONTINUOUS
 10
14.7066029147
 20
10.9313871963
 11
14.9245091483
 21
10.9313871963
  0
LINE
  5
25F
100
AcDbEntity
  8
0
100
AcDbLine
 62
7
  6
CONTINUOUS
 10
15.2505365726
 20
10.9313871963
 11
15.4684428062
 21
10.9313871963
  0
LINE
  5
260
100
AcDbEntity
  8
0
100
AcDbLine
 62
7
  6
CONTINUOUS
 10
15.7944702305
 20
10.9313871963
 11
16.0123764641
 21
10.9313871963
  0
LINE
  5
261
100
AcDbEntity
  8
0
100
AcDbLine
 62
7
  6
CONTINUOUS
 10
16.3384038884
 20
10.9313871963
 11
16.5563101219
 21
10.9313871963
  0
LINE
  5
262
100
AcDbEntity
  8
0
100
AcDbLine
 62
7
  6
CONTINUOUS
 10
14.6134153133
 20
10.9882542903
 11
14.6618292278
 21
10.9472836343
  0
LINE
  5
263
100
AcDbEntity
  8
0
100
AcDbLine
 62
7
  6
CONTINUOUS
 10
13.4342449528
 20
11.0194893965
 11
13.4375716302
 21
11.0194893965
  0
LINE
  5
264
100
AcDbEntity
  8
0
100
AcDbLine
 62
7
  6
CONTINUOUS
 10
13.9313372407
 20
11.0194893965
 11
13.9346639181
 21
11.0194893965
  0
LINE
  5
265
100
AcDbEntity
  8
0
100
AcDbLine
 62
7
  6
CONTINUOUS
 10
13.9781786107
 20
11.0194893965
 11
13.9815052881
 21
11.0194893965
  0
LINE
  5
266
100
AcDbEntity
  8
0
100
AcDbLine
 62
7
  6
CONTINUOUS
 10
14.4752708986
 20
11.0194893965
 11
14.478597576
 21
11.0194893965
  0
LINE
  5
267
100
AcDbEntity
  8
0
100
AcDbLine
 62
7
  6
CONTINUOUS
 10
14.5221122686
 20
11.0194893965
 11
14.5254389459
 21
11.0194893965
  0
LINE
  5
268
100
AcDbEntity
  8
0
100
AcDbLine
 62
7
  6
CONTINUOUS
 10
15.0192045565
 20
11.0194893965
 11
15.0225312338
 21
11.0194893965
  0
LINE
  5
269
100
AcDbEntity
  8
0
100
AcDbLine
 62
7
  6
CONTINUOUS
 10
15.0660459265
 20
11.0194893965
 11
15.0693726038
 21
11.0194893965
  0
LINE
  5
26A
100
AcDbEntity
  8
0
100
AcDbLine
 62
7
  6
CONTINUOUS
 10
15.5631382144
 20
11.0194893965
 11
15.5664648917
 21
11.0194893965
  0
LINE
  5
26B
100
AcDbEntity
  8
0
100
AcDbLine
 62
7
  6
CONTINUOUS
 10
15.6099795843
 20
11.0194893965
 11
15.6133062617
 21
11.0194893965
  0
LINE
  5
26C
100
AcDbEntity
  8
0
100
AcDbLine
 62
7
  6
CONTINUOUS
 10
16.1070718722
 20
11.0194893965
 11
16.1103985496
 21
11.0194893965
  0
LINE
  5
26D
100
AcDbEntity
  8
0
100
AcDbLine
 62
7
  6
CONTINUOUS
 10
16.1539132422
 20
11.0194893965
 11
16.1572399196
 21
11.0194893965
  0
LINE
  5
26E
100
AcDbEntity
  8
0
100
AcDbLine
 62
7
  6
CONTINUOUS
 10
16.6510055301
 20
11.0194893965
 11
16.6543322075
 21
11.0194893965
  0
LINE
  5
26F
100
AcDbEntity
  8
0
100
AcDbLine
 62
7
  6
CONTINUOUS
 10
15.0370828668
 20
11.0341730966
 11
15.0660459265
 21
11.0194893965
  0
LINE
  5
270
100
AcDbEntity
  8
0
100
AcDbLine
 62
7
  6
CONTINUOUS
 10
13.8658138421
 20
10.9472836343
 11
13.874016801
 21
10.9882542903
  0
LINE
  5
271
100
AcDbEntity
  8
0
100
AcDbLine
 62
7
  6
CONTINUOUS
 10
16.6220467034
 20
11.1296171468
 11
13.3584447561
 21
11.1296171468
  0
LINE
  5
272
100
AcDbEntity
  8
0
100
AcDbLine
 62
7
  6
CONTINUOUS
 10
15.5810165246
 20
11.0341730966
 11
15.6099795843
 21
11.0194893965
  0
LINE
  5
273
100
AcDbEntity
  8
0
100
AcDbLine
 62
7
  6
CONTINUOUS
 10
15.1573489712
 20
10.9882542903
 11
15.2057628856
 21
10.9472836343
  0
LINE
  5
274
100
AcDbEntity
  8
0
100
AcDbLine
 62
7
  6
CONTINUOUS
 10
13.874016801
 20
10.9882542903
 11
13.8747321166
 21
10.991087615
  0
LINE
  5
275
100
AcDbEntity
  8
0
100
AcDbLine
 62
7
  6
CONTINUOUS
 10
13.8654498053
 20
10.945841672
 11
13.8658138421
 21
10.9472836343
  0
LINE
  5
276
100
AcDbEntity
  8
0
100
AcDbLine
 62
7
  6
CONTINUOUS
 10
13.8654479881
 20
10.9458422326
 11
13.8833803778
 21
11.003871467
  0
LINE
  5
277
100
AcDbEntity
  8
0
100
AcDbLine
 62
7
  6
CONTINUOUS
 10
16.1249501825
 20
11.0341730966
 11
16.1539132422
 21
11.0194893965
  0
LINE
  5
278
100
AcDbEntity
  8
0
100
AcDbLine
 62
7
  6
CONTINUOUS
 10
15.701282629
 20
10.9882542903
 11
15.7496965435
 21
10.9472836343
  0
LINE
  5
279
100
AcDbEntity
  8
0
100
AcDbLine
 62
7
  6
CONTINUOUS
 10
14.4097474999
 20
10.9472836343
 11
14.4179504589
 21
10.9882542903
  0
LINE
  5
27A
100
AcDbEntity
  8
0
100
AcDbLine
 62
7
  6
CONTINUOUS
 10
14.4179504589
 20
10.9882542903
 11
14.4186648306
 21
10.9910879059
  0
LINE
  5
27B
100
AcDbEntity
  8
0
100
AcDbLine
 62
7
  6
CONTINUOUS
 10
14.4093751749
 20
10.9458442357
 11
14.4097474999
 21
10.9472836343
  0
LINE
  5
27C
100
AcDbEntity
  8
0
100
AcDbLine
 62
7
  6
CONTINUOUS
 10
14.4093816459
 20
10.9458422326
 11
14.4273138425
 21
11.0038708421
  0
LINE
  5
27D
100
AcDbEntity
  8
0
100
AcDbLine
 62
7
  6
CONTINUOUS
 10
16.2452162869
 20
10.9882542903
 11
16.2936302014
 21
10.9472836343
  0
LINE
  5
27E
100
AcDbEntity
  8
0
100
AcDbLine
 62
7
  6
CONTINUOUS
 10
14.9536811578
 20
10.9472836343
 11
14.9618841167
 21
10.9882542903
  0
LINE
  5
27F
100
AcDbEntity
  8
0
100
AcDbLine
 62
7
  6
CONTINUOUS
 10
14.9618841167
 20
10.9882542903
 11
14.9625984885
 21
10.9910879059
  0
LINE
  5
280
100
AcDbEntity
  8
0
100
AcDbLine
 62
7
  6
CONTINUOUS
 10
14.9533088328
 20
10.9458442357
 11
14.9536811578
 21
10.9472836343
  0
LINE
  5
281
100
AcDbEntity
  8
0
100
AcDbLine
 62
7
  6
CONTINUOUS
 10
14.9533153038
 20
10.9458422326
 11
14.9712475004
 21
11.0038708421
  0
LINE
  5
282
100
AcDbEntity
  8
0
100
AcDbLine
 62
7
  6
CONTINUOUS
 10
13.9346639181
 20
11.0194893965
 11
13.949215551
 21
11.0341730966
  0
LINE
  5
283
100
AcDbEntity
  8
0
100
AcDbLine
 62
7
  6
CONTINUOUS
 10
15.4976148157
 20
10.9472836343
 11
15.5058177746
 21
10.9882542903
  0
LINE
  5
284
100
AcDbEntity
  8
0
100
AcDbLine
 62
7
  6
CONTINUOUS
 10
14.478597576
 20
11.0194893965
 11
14.4931492089
 21
11.0341730966
  0
LINE
  5
285
100
AcDbEntity
  8
0
100
AcDbLine
 62
7
  6
CONTINUOUS
 10
15.5058177746
 20
10.9882542903
 11
15.5065321464
 21
10.9910879059
  0
LINE
  5
286
100
AcDbEntity
  8
0
100
AcDbLine
 62
7
  6
CONTINUOUS
 10
15.4972424907
 20
10.9458442357
 11
15.4976148157
 21
10.9472836343
  0
LINE
  5
287
100
AcDbEntity
  8
0
100
AcDbLine
 62
7
  6
CONTINUOUS
 10
15.4972489617
 20
10.9458422326
 11
15.5151811583
 21
11.0038708421
  0
LINE
  5
288
100
AcDbEntity
  8
0
100
AcDbLine
 62
7
  6
CONTINUOUS
 10
16.6688838404
 20
11.0341730966
 11
16.6220467034
 21
11.1296171468
  0
LINE
  5
289
100
AcDbEntity
  8
0
100
AcDbLine
 62
7
  6
CONTINUOUS
 10
16.0415484736
 20
10.9472836343
 11
16.0497514325
 21
10.9882542903
  0
LINE
  5
28A
100
AcDbEntity
  8
0
100
AcDbLine
 62
7
  6
CONTINUOUS
 10
15.0225312338
 20
11.0194893965
 11
15.0370828668
 21
11.0341730966
  0
LINE
  5
28B
100
AcDbEntity
  8
0
100
AcDbLine
 62
7
  6
CONTINUOUS
 10
16.0497514325
 20
10.9882542903
 11
16.0504658042
 21
10.9910879059
  0
LINE
  5
28C
100
AcDbEntity
  8
0
100
AcDbLine
 62
7
  6
CONTINUOUS
 10
16.0411761486
 20
10.9458442357
 11
16.0415484736
 21
10.9472836343
  0
LINE
  5
28D
100
AcDbEntity
  8
0
100
AcDbLine
 62
7
  6
CONTINUOUS
 10
16.0411826196
 20
10.9458422326
 11
16.0591148162
 21
11.0038708421
  0
LINE
  5
28E
100
AcDbEntity
  8
0
100
AcDbLine
 62
7
  6
CONTINUOUS
 10
15.5664648917
 20
11.0194893965
 11
15.5810165246
 21
11.0341730966
  0
LINE
  5
28F
100
AcDbEntity
  8
0
100
AcDbLine
 62
7
  6
CONTINUOUS
 10
16.5854821314
 20
10.9472836343
 11
16.5936850904
 21
10.9882542903
  0
LINE
  5
290
100
AcDbEntity
  8
0
100
AcDbLine
 62
7
  6
CONTINUOUS
 10
16.5936850904
 20
10.9882542903
 11
16.5943994621
 21
10.9910879059
  0
LINE
  5
291
100
AcDbEntity
  8
0
100
AcDbLine
 62
7
  6
CONTINUOUS
 10
16.5851098064
 20
10.9458442357
 11
16.5854821314
 21
10.9472836343
  0
LINE
  5
292
100
AcDbEntity
  8
0
100
AcDbLine
 62
7
  6
CONTINUOUS
 10
17.5369430438
 20
14.0902227895
 11
16.6220467034
 21
11.1296171468
  0
LINE
  5
293
100
AcDbEntity
  8
0
100
AcDbLine
 62
7
  6
CONTINUOUS
 10
16.5851162774
 20
10.9458422326
 11
16.603048474
 21
11.0038708421
  0
LINE
  5
294
100
AcDbEntity
  8
0
100
AcDbLine
 62
7
  6
CONTINUOUS
 10
17.5837801808
 20
13.9947787393
 11
16.6688838404
 21
11.0341730966
  0
LINE
  5
295
100
AcDbEntity
  8
0
100
AcDbLine
 62
7
  6
CONTINUOUS
 10
16.1103985496
 20
11.0194893965
 11
16.1249501825
 21
11.0341730966
  0
LINE
  5
296
100
AcDbEntity
  8
0
100
AcDbLine
 62
7
  6
CONTINUOUS
 10
14.2733410966
 20
14.0902227895
 11
17.5369430438
 21
14.0902227895
  0
LINE
  5
297
100
AcDbEntity
  8
0
100
AcDbLine
 62
7
  6
CONTINUOUS
 10
16.6543322075
 20
11.0194893965
 11
16.6688838404
 21
11.0341730966
  0
LINE
  5
298
100
AcDbEntity
  8
0
100
AcDbLine
 62
7
  6
CONTINUOUS
 10
17.5837801808
 20
13.9947787393
 11
17.5369430438
 21
14.0902227895
  0
ARC
  5
299
100
AcDbEntity
  8
0
100
AcDbCircle
 62
7
  6
CONTINUOUS
 10
7.8747869839
 20
5.4153747662
 40
0.0870285951
100
AcDbArc
 50
90.0
 51
155.0
  0
ARC
  5
29A
100
AcDbEntity
  8
0
100
AcDbCircle
 62
7
  6
CONTINUOUS
 10
7.3387034739
 20
5.4153747662
 40
0.0870285951
100
AcDbArc
 50
25.0
 51
90.0
  0
ARC
  5
29B
100
AcDbEntity
  8
0
100
AcDbCircle
 62
7
  6
CONTINUOUS
 10
7.2842358028
 20
5.4153747662
 40
0.0870285951
100
AcDbArc
 50
90.0
 51
155.0
  0
ARC
  5
29C
100
AcDbEntity
  8
0
100
AcDbCircle
 62
7
  6
CONTINUOUS
 10
6.7481522928
 20
5.4153747662
 40
0.0870285951
100
AcDbArc
 50
25.0
 51
90.0
  0
ARC
  5
29D
100
AcDbEntity
  8
0
100
AcDbCircle
 62
7
  6
CONTINUOUS
 10
6.6936846217
 20
5.4153747662
 40
0.0870285951
100
AcDbArc
 50
90.0
 51
155.0
  0
ARC
  5
29E
100
AcDbEntity
  8
0
100
AcDbCircle
 62
7
  6
CONTINUOUS
 10
6.1576011117
 20
5.4153747662
 40
0.0870285951
100
AcDbArc
 50
25.0
 51
90.0
  0
ARC
  5
29F
100
AcDbEntity
  8
0
100
AcDbCircle
 62
7
  6
CONTINUOUS
 10
6.1031334406
 20
5.4153747662
 40
0.0870285951
100
AcDbArc
 50
90.0
 51
155.0
  0
ARC
  5
2A0
100
AcDbEntity
  8
0
100
AcDbCircle
 62
7
  6
CONTINUOUS
 10
5.5670499306
 20
5.4153747662
 40
0.0870285951
100
AcDbArc
 50
25.0
 51
90.0
  0
ARC
  5
2A1
100
AcDbEntity
  8
0
100
AcDbCircle
 62
7
  6
CONTINUOUS
 10
5.5125822595
 20
5.4153747662
 40
0.0870285951
100
AcDbArc
 50
90.0
 51
155.0
  0
ARC
  5
2A2
100
AcDbEntity
  8
0
100
AcDbCircle
 62
7
  6
CONTINUOUS
 10
4.9764987495
 20
5.4153747662
 40
0.0870285951
100
AcDbArc
 50
25.0
 51
90.0
  0
ARC
  5
2A3
100
AcDbEntity
  8
0
100
AcDbCircle
 62
7
  6
CONTINUOUS
 10
4.3859475684
 20
5.4153747662
 40
0.0870285951
100
AcDbArc
 50
25.0
 51
90.0
  0
ARC
  5
2A4
100
AcDbEntity
  8
0
100
AcDbCircle
 62
7
  6
CONTINUOUS
 10
4.9220310784
 20
5.4153747662
 40
0.0870285951
100
AcDbArc
 50
90.0
 51
155.0
  0
ARC
  5
2A5
100
AcDbEntity
  8
0
100
AcDbCircle
 62
7
  6
CONTINUOUS
 10
4.535698442
 20
5.4049624164
 40
0.0442913386
100
AcDbArc
 50
205.0
 51
270.0
  0
ARC
  5
2A6
100
AcDbEntity
  8
0
100
AcDbCircle
 62
7
  6
CONTINUOUS
 10
4.7722802048
 20
5.4049624164
 40
0.0442913386
100
AcDbArc
 50
270.0
 51
335.0
  0
ARC
  5
2A7
100
AcDbEntity
  8
0
100
AcDbCircle
 62
7
  6
CONTINUOUS
 10
5.1262496231
 20
5.4049624164
 40
0.0442913386
100
AcDbArc
 50
205.0
 51
270.0
  0
ARC
  5
2A8
100
AcDbEntity
  8
0
100
AcDbCircle
 62
7
  6
CONTINUOUS
 10
5.3628313859
 20
5.4049624164
 40
0.0442913386
100
AcDbArc
 50
270.0
 51
335.0
  0
ARC
  5
2A9
100
AcDbEntity
  8
0
100
AcDbCircle
 62
7
  6
CONTINUOUS
 10
5.7168008042
 20
5.4049624164
 40
0.0442913386
100
AcDbArc
 50
205.0
 51
270.0
  0
ARC
  5
2AA
100
AcDbEntity
  8
0
100
AcDbCircle
 62
7
  6
CONTINUOUS
 10
5.953382567
 20
5.4049624164
 40
0.0442913386
100
AcDbArc
 50
270.0
 51
335.0
  0
ARC
  5
2AB
100
AcDbEntity
  8
0
100
AcDbCircle
 62
7
  6
CONTINUOUS
 10
6.3073519853
 20
5.4049624164
 40
0.0442913386
100
AcDbArc
 50
205.0
 51
270.0
  0
ARC
  5
2AC
100
AcDbEntity
  8
0
100
AcDbCircle
 62
7
  6
CONTINUOUS
 10
6.5439337481
 20
5.4049624164
 40
0.0442913386
100
AcDbArc
 50
270.0
 51
335.0
  0
ARC
  5
2AD
100
AcDbEntity
  8
0
100
AcDbCircle
 62
7
  6
CONTINUOUS
 10
6.8979031664
 20
5.4049624164
 40
0.0442913386
100
AcDbArc
 50
205.0
 51
270.0
  0
ARC
  5
2AE
100
AcDbEntity
  8
0
100
AcDbCircle
 62
7
  6
CONTINUOUS
 10
7.7250361103
 20
5.4049624164
 40
0.0442913386
100
AcDbArc
 50
270.0
 51
335.0
  0
ARC
  5
2AF
100
AcDbEntity
  8
0
100
AcDbCircle
 62
7
  6
CONTINUOUS
 10
7.4884543475
 20
5.4049624164
 40
0.0442913386
100
AcDbArc
 50
205.0
 51
270.0
  0
ARC
  5
2B0
100
AcDbEntity
  8
0
100
AcDbCircle
 62
7
  6
CONTINUOUS
 10
7.1344849292
 20
5.4049624164
 40
0.0442913386
100
AcDbArc
 50
270.0
 51
335.0
  0
SPLINE
  5
2B1
100
AcDbEntity
  8
0
100
AcDbSpline
 62
7
  6
CONTINUOUS
 70
0
 71
3
 72
9
 73
5
 74
0
 42
0.0000001
 43
0.0000001
 44
0.0000000001
 40
0.0
 40
0.0
 40
0.0
 40
0.0
 40
0.248005149
 40
1.0
 40
1.0
 40
1.0
 40
1.0
 10
16.5944046454
 20
10.9910863035
 30
0.0
 10
16.5946091796
 20
10.9917473971
 30
0.0
 10
16.5955301357
 20
10.9943825998
 30
0.0
 10
16.5968381167
 20
10.9968801828
 30
0.0
 10
16.5979973826
 20
10.9986291694
 30
0.0
  0
SPLINE
  5
2B2
100
AcDbEntity
  8
0
100
AcDbSpline
 62
7
  6
CONTINUOUS
 70
0
 71
3
 72
11
 73
7
 74
0
 42
0.0000001
 43
0.0000001
 44
0.0000000001
 40
0.0
 40
0.0
 40
0.0
 40
0.0
 40
0.2059373861
 40
0.4392031006
 40
0.7046287836
 40
1.0
 40
1.0
 40
1.0
 40
1.0
 10
16.5979973826
 20
10.9986291694
 30
0.0
 10
16.6002360595
 20
11.0020066652
 30
0.0
 10
16.606481253
 20
11.0082716059
 30
0.0
 10
16.6189026916
 20
11.0147543305
 30
0.0
 10
16.6341312129
 20
11.0186901655
 30
0.0
 10
16.6451937612
 20
11.0194893965
 30
0.0
 10
16.6510055301
 20
11.0194893965
 30
0.0
  0
SPLINE
  5
2B3
100
AcDbEntity
  8
0
100
AcDbSpline
 62
7
  6
CONTINUOUS
 70
0
 71
3
 72
9
 73
5
 74
0
 42
0.0000001
 43
0.0000001
 44
0.0000000001
 40
0.0
 40
0.0
 40
0.0
 40
0.0
 40
0.248005149
 40
1.0
 40
1.0
 40
1.0
 40
1.0
 10
16.0504709876
 20
10.9910863035
 30
0.0
 10
16.0506755217
 20
10.9917473971
 30
0.0
 10
16.0515964779
 20
10.9943825998
 30
0.0
 10
16.0529044589
 20
10.9968801828
 30
0.0
 10
16.0540637247
 20
10.9986291694
 30
0.0
  0
SPLINE
  5
2B4
100
AcDbEntity
  8
0
100
AcDbSpline
 62
7
  6
CONTINUOUS
 70
0
 71
3
 72
11
 73
7
 74
0
 42
0.0000001
 43
0.0000001
 44
0.0000000001
 40
0.0
 40
0.0
 40
0.0
 40
0.0
 40
0.2059373861
 40
0.4392031006
 40
0.7046287836
 40
1.0
 40
1.0
 40
1.0
 40
1.0
 10
16.0540637247
 20
10.9986291694
 30
0.0
 10
16.0563024016
 20
11.0020066652
 30
0.0
 10
16.0625475952
 20
11.0082716059
 30
0.0
 10
16.0749690337
 20
11.0147543305
 30
0.0
 10
16.090197555
 20
11.0186901655
 30
0.0
 10
16.1012601033
 20
11.0194893965
 30
0.0
 10
16.1070718722
 20
11.0194893965
 30
0.0
  0
SPLINE
  5
2B5
100
AcDbEntity
  8
0
100
AcDbSpline
 62
7
  6
CONTINUOUS
 70
0
 71
3
 72
9
 73
5
 74
0
 42
0.0000001
 43
0.0000001
 44
0.0000000001
 40
0.0
 40
0.0
 40
0.0
 40
0.0
 40
0.248005149
 40
1.0
 40
1.0
 40
1.0
 40
1.0
 10
15.5065373297
 20
10.9910863035
 30
0.0
 10
15.5067418638
 20
10.9917473971
 30
0.0
 10
15.50766282
 20
10.9943825998
 30
0.0
 10
15.508970801
 20
10.9968801828
 30
0.0
 10
15.5101300669
 20
10.9986291694
 30
0.0
  0
SPLINE
  5
2B6
100
AcDbEntity
  8
0
100
AcDbSpline
 62
7
  6
CONTINUOUS
 70
0
 71
3
 72
11
 73
7
 74
0
 42
0.0000001
 43
0.0000001
 44
0.0000000001
 40
0.0
 40
0.0
 40
0.0
 40
0.0
 40
0.2059373861
 40
0.4392031006
 40
0.7046287836
 40
1.0
 40
1.0
 40
1.0
 40
1.0
 10
15.5101300669
 20
10.9986291694
 30
0.0
 10
15.5123687437
 20
11.0020066652
 30
0.0
 10
15.5186139373
 20
11.0082716059
 30
0.0
 10
15.5310353758
 20
11.0147543305
 30
0.0
 10
15.5462638972
 20
11.0186901655
 30
0.0
 10
15.5573264454
 20
11.0194893965
 30
0.0
 10
15.5631382144
 20
11.0194893965
 30
0.0
  0
SPLINE
  5
2B7
100
AcDbEntity
  8
0
100
AcDbSpline
 62
7
  6
CONTINUOUS
 70
0
 71
3
 72
9
 73
5
 74
0
 42
0.0000001
 43
0.0000001
 44
0.0000000001
 40
0.0
 40
0.0
 40
0.0
 40
0.0
 40
0.248005149
 40
1.0
 40
1.0
 40
1.0
 40
1.0
 10
14.9626036718
 20
10.9910863035
 30
0.0
 10
14.962808206
 20
10.9917473971
 30
0.0
 10
14.9637291621
 20
10.9943825998
 30
0.0
 10
14.9650371431
 20
10.9968801828
 30
0.0
 10
14.966196409
 20
10.9986291694
 30
0.0
  0
SPLINE
  5
2B8
100
AcDbEntity
  8
0
100
AcDbSpline
 62
7
  6
CONTINUOUS
 70
0
 71
3
 72
11
 73
7
 74
0
 42
0.0000001
 43
0.0000001
 44
0.0000000001
 40
0.0
 40
0.0
 40
0.0
 40
0.0
 40
0.2059373861
 40
0.4392031006
 40
0.7046287836
 40
1.0
 40
1.0
 40
1.0
 40
1.0
 10
14.966196409
 20
10.9986291694
 30
0.0
 10
14.9684350858
 20
11.0020066652
 30
0.0
 10
14.9746802794
 20
11.0082716059
 30
0.0
 10
14.987101718
 20
11.0147543305
 30
0.0
 10
15.0023302393
 20
11.0186901655
 30
0.0
 10
15.0133927876
 20
11.0194893965
 30
0.0
 10
15.0192045565
 20
11.0194893965
 30
0.0
  0
SPLINE
  5
2B9
100
AcDbEntity
  8
0
100
AcDbSpline
 62
7
  6
CONTINUOUS
 70
0
 71
3
 72
9
 73
5
 74
0
 42
0.0000001
 43
0.0000001
 44
0.0000000001
 40
0.0
 40
0.0
 40
0.0
 40
0.0
 40
0.248005149
 40
1.0
 40
1.0
 40
1.0
 40
1.0
 10
14.4186700139
 20
10.9910863035
 30
0.0
 10
14.4188745481
 20
10.9917473971
 30
0.0
 10
14.4197955042
 20
10.9943825998
 30
0.0
 10
14.4211034852
 20
10.9968801828
 30
0.0
 10
14.4222627511
 20
10.9986291694
 30
0.0
  0
SPLINE
  5
2BA
100
AcDbEntity
  8
0
100
AcDbSpline
 62
7
  6
CONTINUOUS
 70
0
 71
3
 72
11
 73
7
 74
0
 42
0.0000001
 43
0.0000001
 44
0.0000000001
 40
0.0
 40
0.0
 40
0.0
 40
0.0
 40
0.2059373861
 40
0.4392031006
 40
0.7046287836
 40
1.0
 40
1.0
 40
1.0
 40
1.0
 10
14.4222627511
 20
10.9986291694
 30
0.0
 10
14.424501428
 20
11.0020066652
 30
0.0
 10
14.4307466215
 20
11.0082716059
 30
0.0
 10
14.4431680601
 20
11.0147543305
 30
0.0
 10
14.4583965814
 20
11.0186901655
 30
0.0
 10
14.4694591297
 20
11.0194893965
 30
0.0
 10
14.4752708986
 20
11.0194893965
 30
0.0
  0
SPLINE
  5
2BB
100
AcDbEntity
  8
0
100
AcDbSpline
 62
7
  6
CONTINUOUS
 70
0
 71
3
 72
9
 73
5
 74
0
 42
0.0000001
 43
0.0000001
 44
0.0000000001
 40
0.0
 40
0.0
 40
0.0
 40
0.0
 40
0.2480009725
 40
1.0
 40
1.0
 40
1.0
 40
1.0
 10
13.8747363587
 20
10.9910863036
 30
0.0
 10
13.8749411242
 20
10.9917481416
 30
0.0
 10
13.8758632452
 20
10.9943863217
 30
0.0
 10
13.8771732688
 20
10.9968865437
 30
0.0
 10
13.8783344076
 20
10.998637181
 30
0.0
  0
SPLINE
  5
2BC
100
AcDbEntity
  8
0
100
AcDbSpline
 62
7
  6
CONTINUOUS
 70
0
 71
3
 72
11
 73
7
 74
0
 42
0.0000001
 43
0.0000001
 44
0.0000000001
 40
0.0
 40
0.0
 40
0.0
 40
0.0
 40
0.205943844
 40
0.4392144594
 40
0.7046383
 40
1.0
 40
1.0
 40
1.0
 40
1.0
 10
13.8783344076
 20
10.998637181
 30
0.0
 10
13.8805738379
 20
11.0020135475
 30
0.0
 10
13.8868196195
 20
11.0082760098
 30
0.0
 10
13.8992399423
 20
11.0147561702
 30
0.0
 10
13.9144660644
 20
11.0186904567
 30
0.0
 10
13.9255265939
 20
11.0194893965
 30
0.0
 10
13.9313372407
 20
11.0194893965
 30
0.0
  0
SPLINE
  5
2BD
100
AcDbEntity
  8
0
100
AcDbSpline
 62
7
  6
CONTINUOUS
 70
0
 71
3
 72
11
 73
7
 74
0
 42
0.0000001
 43
0.0000001
 44
0.0000000001
 40
0.0
 40
0.0
 40
0.0
 40
0.0
 40
0.2483019687
 40
0.5067864365
 40
0.761732676
 40
1.0
 40
1.0
 40
1.0
 40
1.0
 10
16.1572399196
 20
11.0194893965
 30
0.0
 10
16.1651037787
 20
11.0194893965
 30
0.0
 10
16.1811761087
 20
11.0179178232
 30
0.0
 10
16.2045768849
 20
11.0116651965
 30
0.0
 10
16.2264038097
 20
11.0019164833
 30
0.0
 10
16.2394560264
 20
10.9931289561
 30
0.0
 10
16.2452162869
 20
10.9882542903
 30
0.0
  0
SPLINE
  5
2BE
100
AcDbEntity
  8
0
100
AcDbSpline
 62
7
  6
CONTINUOUS
 70
0
 71
3
 72
11
 73
7
 74
0
 42
0.0000001
 43
0.0000001
 44
0.0000000001
 40
0.0
 40
0.0
 40
0.0
 40
0.0
 40
0.2483019687
 40
0.5067864365
 40
0.761732676
 40
1.0
 40
1.0
 40
1.0
 40
1.0
 10
15.6133062617
 20
11.0194893965
 30
0.0
 10
15.6211701208
 20
11.0194893965
 30
0.0
 10
15.6372424508
 20
11.0179178232
 30
0.0
 10
15.660643227
 20
11.0116651965
 30
0.0
 10
15.6824701519
 20
11.0019164833
 30
0.0
 10
15.6955223685
 20
10.9931289561
 30
0.0
 10
15.701282629
 20
10.9882542903
 30
0.0
  0
SPLINE
  5
2BF
100
AcDbEntity
  8
0
100
AcDbSpline
 62
7
  6
CONTINUOUS
 70
0
 71
3
 72
11
 73
7
 74
0
 42
0.0000001
 43
0.0000001
 44
0.0000000001
 40
0.0
 40
0.0
 40
0.0
 40
0.0
 40
0.2483019687
 40
0.5067864365
 40
0.761732676
 40
1.0
 40
1.0
 40
1.0
 40
1.0
 10
15.0693726038
 20
11.0194893965
 30
0.0
 10
15.0772364629
 20
11.0194893965
 30
0.0
 10
15.0933087929
 20
11.0179178232
 30
0.0
 10
15.1167095692
 20
11.0116651965
 30
0.0
 10
15.138536494
 20
11.0019164833
 30
0.0
 10
15.1515887106
 20
10.9931289561
 30
0.0
 10
15.1573489712
 20
10.9882542903
 30
0.0
  0
SPLINE
  5
2C0
100
AcDbEntity
  8
0
100
AcDbSpline
 62
7
  6
CONTINUOUS
 70
0
 71
3
 72
11
 73
7
 74
0
 42
0.0000001
 43
0.0000001
 44
0.0000000001
 40
0.0
 40
0.0
 40
0.0
 40
0.0
 40
0.2483019687
 40
0.5067864365
 40
0.761732676
 40
1.0
 40
1.0
 40
1.0
 40
1.0
 10
14.5254389459
 20
11.0194893965
 30
0.0
 10
14.5333028051
 20
11.0194893965
 30
0.0
 10
14.5493751351
 20
11.0179178232
 30
0.0
 10
14.5727759113
 20
11.0116651965
 30
0.0
 10
14.5946028361
 20
11.0019164833
 30
0.0
 10
14.6076550528
 20
10.9931289561
 30
0.0
 10
14.6134153133
 20
10.9882542903
 30
0.0
  0
SPLINE
  5
2C1
100
AcDbEntity
  8
0
100
AcDbSpline
 62
7
  6
CONTINUOUS
 70
0
 71
3
 72
11
 73
7
 74
0
 42
0.0000001
 43
0.0000001
 44
0.0000000001
 40
0.0
 40
0.0
 40
0.0
 40
0.0
 40
0.2483019687
 40
0.5067864365
 40
0.761732676
 40
1.0
 40
1.0
 40
1.0
 40
1.0
 10
13.9815052881
 20
11.0194893965
 30
0.0
 10
13.9893691472
 20
11.0194893965
 30
0.0
 10
14.0054414772
 20
11.0179178232
 30
0.0
 10
14.0288422534
 20
11.0116651965
 30
0.0
 10
14.0506691782
 20
11.0019164833
 30
0.0
 10
14.0637213949
 20
10.9931289561
 30
0.0
 10
14.0694816554
 20
10.9882542903
 30
0.0
  0
SPLINE
  5
2C2
100
AcDbEntity
  8
0
100
AcDbSpline
 62
7
  6
CONTINUOUS
 70
0
 71
3
 72
11
 73
7
 74
0
 42
0.0000001
 43
0.0000001
 44
0.0000000001
 40
0.0
 40
0.0
 40
0.0
 40
0.0
 40
0.303750838
 40
0.569884741
 40
0.7976759039
 40
1.0
 40
1.0
 40
1.0
 40
1.0
 10
16.5563101219
 20
10.9313871963
 30
0.0
 10
16.5597768546
 20
10.9313871963
 30
0.0
 10
16.566306628
 20
10.931936854
 30
0.0
 10
16.5750793206
 20
10.9346950507
 30
0.0
 10
16.5817714244
 20
10.9392737829
 30
0.0
 10
16.5844324573
 20
10.9436366678
 30
0.0
 10
16.585115665
 20
10.9458424239
 30
0.0
  0
SPLINE
  5
2C3
100
AcDbEntity
  8
0
100
AcDbSpline
 62
7
  6
CONTINUOUS
 70
0
 71
3
 72
11
 73
7
 74
0
 42
0.0000001
 43
0.0000001
 44
0.0000000001
 40
0.0
 40
0.0
 40
0.0
 40
0.0
 40
0.2382531494
 40
0.4932143928
 40
0.7517120154
 40
1.0
 40
1.0
 40
1.0
 40
1.0
 10
16.2936302014
 20
10.9472836343
 30
0.0
 10
16.2965615905
 20
10.9448029232
 30
0.0
 10
16.3032043054
 20
10.9403308346
 30
0.0
 10
16.314312566
 20
10.9353685952
 30
0.0
 10
16.3262223601
 20
10.9321871716
 30
0.0
 10
16.334401968
 20
10.9313871963
 30
0.0
 10
16.3384038884
 20
10.9313871963
 30
0.0
  0
SPLINE
  5
2C4
100
AcDbEntity
  8
0
100
AcDbSpline
 62
7
  6
CONTINUOUS
 70
0
 71
3
 72
11
 73
7
 74
0
 42
0.0000001
 43
0.0000001
 44
0.0000000001
 40
0.0
 40
0.0
 40
0.0
 40
0.0
 40
0.303750838
 40
0.569884741
 40
0.7976759039
 40
1.0
 40
1.0
 40
1.0
 40
1.0
 10
16.0123764641
 20
10.9313871963
 30
0.0
 10
16.0158431967
 20
10.9313871963
 30
0.0
 10
16.0223729701
 20
10.931936854
 30
0.0
 10
16.0311456627
 20
10.9346950507
 30
0.0
 10
16.0378377665
 20
10.9392737829
 30
0.0
 10
16.0404987994
 20
10.9436366678
 30
0.0
 10
16.0411820071
 20
10.9458424239
 30
0.0
  0
SPLINE
  5
2C5
100
AcDbEntity
  8
0
100
AcDbSpline
 62
7
  6
CONTINUOUS
 70
0
 71
3
 72
11
 73
7
 74
0
 42
0.0000001
 43
0.0000001
 44
0.0000000001
 40
0.0
 40
0.0
 40
0.0
 40
0.0
 40
0.2382531494
 40
0.4932143928
 40
0.7517120154
 40
1.0
 40
1.0
 40
1.0
 40
1.0
 10
15.7496965435
 20
10.9472836343
 30
0.0
 10
15.7526279326
 20
10.9448029232
 30
0.0
 10
15.7592706476
 20
10.9403308346
 30
0.0
 10
15.7703789082
 20
10.9353685952
 30
0.0
 10
15.7822887022
 20
10.9321871716
 30
0.0
 10
15.7904683101
 20
10.9313871963
 30
0.0
 10
15.7944702305
 20
10.9313871963
 30
0.0
  0
SPLINE
  5
2C6
100
AcDbEntity
  8
0
100
AcDbSpline
 62
7
  6
CONTINUOUS
 70
0
 71
3
 72
11
 73
7
 74
0
 42
0.0000001
 43
0.0000001
 44
0.0000000001
 40
0.0
 40
0.0
 40
0.0
 40
0.0
 40
0.303750838
 40
0.569884741
 40
0.7976759039
 40
1.0
 40
1.0
 40
1.0
 40
1.0
 10
15.4684428062
 20
10.9313871963
 30
0.0
 10
15.4719095389
 20
10.9313871963
 30
0.0
 10
15.4784393123
 20
10.931936854
 30
0.0
 10
15.4872120048
 20
10.9346950507
 30
0.0
 10
15.4939041087
 20
10.9392737829
 30
0.0
 10
15.4965651415
 20
10.9436366678
 30
0.0
 10
15.4972483492
 20
10.9458424239
 30
0.0
  0
SPLINE
  5
2C7
100
AcDbEntity
  8
0
100
AcDbSpline
 62
7
  6
CONTINUOUS
 70
0
 71
3
 72
11
 73
7
 74
0
 42
0.0000001
 43
0.0000001
 44
0.0000000001
 40
0.0
 40
0.0
 40
0.0
 40
0.0
 40
0.2382531494
 40
0.4932143928
 40
0.7517120154
 40
1.0
 40
1.0
 40
1.0
 40
1.0
 10
15.2057628856
 20
10.9472836343
 30
0.0
 10
15.2086942747
 20
10.9448029232
 30
0.0
 10
15.2153369897
 20
10.9403308346
 30
0.0
 10
15.2264452503
 20
10.9353685952
 30
0.0
 10
15.2383550443
 20
10.9321871716
 30
0.0
 10
15.2465346522
 20
10.9313871963
 30
0.0
 10
15.2505365726
 20
10.9313871963
 30
0.0
  0
SPLINE
  5
2C8
100
AcDbEntity
  8
0
100
AcDbSpline
 62
7
  6
CONTINUOUS
 70
0
 71
3
 72
11
 73
7
 74
0
 42
0.0000001
 43
0.0000001
 44
0.0000000001
 40
0.0
 40
0.0
 40
0.0
 40
0.0
 40
0.303750838
 40
0.569884741
 40
0.7976759039
 40
1.0
 40
1.0
 40
1.0
 40
1.0
 10
14.9245091483
 20
10.9313871963
 30
0.0
 10
14.927975881
 20
10.9313871963
 30
0.0
 10
14.9345056544
 20
10.931936854
 30
0.0
 10
14.943278347
 20
10.9346950507
 30
0.0
 10
14.9499704508
 20
10.9392737829
 30
0.0
 10
14.9526314836
 20
10.9436366678
 30
0.0
 10
14.9533146913
 20
10.9458424239
 30
0.0
  0
SPLINE
  5
2C9
100
AcDbEntity
  8
0
100
AcDbSpline
 62
7
  6
CONTINUOUS
 70
0
 71
3
 72
11
 73
7
 74
0
 42
0.0000001
 43
0.0000001
 44
0.0000000001
 40
0.0
 40
0.0
 40
0.0
 40
0.0
 40
0.2382531494
 40
0.4932143928
 40
0.7517120154
 40
1.0
 40
1.0
 40
1.0
 40
1.0
 10
14.6618292278
 20
10.9472836343
 30
0.0
 10
14.6647606168
 20
10.9448029232
 30
0.0
 10
14.6714033318
 20
10.9403308346
 30
0.0
 10
14.6825115924
 20
10.9353685952
 30
0.0
 10
14.6944213865
 20
10.9321871716
 30
0.0
 10
14.7026009944
 20
10.9313871963
 30
0.0
 10
14.7066029147
 20
10.9313871963
 30
0.0
  0
SPLINE
  5
2CA
100
AcDbEntity
  8
0
100
AcDbSpline
 62
7
  6
CONTINUOUS
 70
0
 71
3
 72
11
 73
7
 74
0
 42
0.0000001
 43
0.0000001
 44
0.0000000001
 40
0.0
 40
0.0
 40
0.0
 40
0.0
 40
0.303750838
 40
0.569884741
 40
0.7976759039
 40
1.0
 40
1.0
 40
1.0
 40
1.0
 10
14.3805754904
 20
10.9313871963
 30
0.0
 10
14.3840422231
 20
10.9313871963
 30
0.0
 10
14.3905719965
 20
10.931936854
 30
0.0
 10
14.3993446891
 20
10.9346950507
 30
0.0
 10
14.4060367929
 20
10.9392737829
 30
0.0
 10
14.4086978258
 20
10.9436366678
 30
0.0
 10
14.4093810335
 20
10.9458424239
 30
0.0
  0
SPLINE
  5
2CB
100
AcDbEntity
  8
0
100
AcDbSpline
 62
7
  6
CONTINUOUS
 70
0
 71
3
 72
11
 73
7
 74
0
 42
0.0000001
 43
0.0000001
 44
0.0000000001
 40
0.0
 40
0.0
 40
0.0
 40
0.0
 40
0.2382531494
 40
0.4932143928
 40
0.7517120154
 40
1.0
 40
1.0
 40
1.0
 40
1.0
 10
14.1178955699
 20
10.9472836343
 30
0.0
 10
14.120826959
 20
10.9448029232
 30
0.0
 10
14.1274696739
 20
10.9403308346
 30
0.0
 10
14.1385779345
 20
10.9353685952
 30
0.0
 10
14.1504877286
 20
10.9321871716
 30
0.0
 10
14.1586673365
 20
10.9313871963
 30
0.0
 10
14.1626692568
 20
10.9313871963
 30
0.0
  0
SPLINE
  5
2CC
100
AcDbEntity
  8
0
100
AcDbSpline
 62
7
  6
CONTINUOUS
 70
0
 71
3
 72
11
 73
7
 74
0
 42
0.0000001
 43
0.0000001
 44
0.0000000001
 40
0.0
 40
0.0
 40
0.0
 40
0.0
 40
0.3037972649
 40
0.5698938067
 40
0.7977147759
 40
1.0
 40
1.0
 40
1.0
 40
1.0
 10
13.8366418326
 20
10.9313871963
 30
0.0
 10
13.8401090925
 20
10.9313871963
 30
0.0
 10
13.8466390378
 20
10.9319365087
 30
0.0
 10
13.8554119174
 20
10.9346959622
 30
0.0
 10
13.8621030725
 20
10.9392744377
 30
0.0
 10
13.8647652678
 20
10.9436367929
 30
0.0
 10
13.8654476391
 20
10.9458423417
 30
0.0
  0
SPLINE
  5
2CD
100
AcDbEntity
  8
0
100
AcDbSpline
 62
7
  6
CONTINUOUS
 70
0
 71
3
 72
11
 73
7
 74
0
 42
0.0000001
 43
0.0000001
 44
0.0000000001
 40
0.0
 40
0.0
 40
0.0
 40
0.0
 40
0.2382671219
 40
0.4932149668
 40
0.7516986544
 40
1.0
 40
1.0
 40
1.0
 40
1.0
 10
13.573961912
 20
10.9472836343
 30
0.0
 10
13.5768934707
 20
10.9448027797
 30
0.0
 10
13.5835361351
 20
10.9403305424
 30
0.0
 10
13.5946444948
 20
10.9353691499
 30
0.0
 10
13.6065538203
 20
10.9321870055
 30
0.0
 10
13.6147334664
 20
10.9313871963
 30
0.0
 10
13.618735599
 20
10.9313871963
 30
0.0
  0
SPLINE
  5
2CE
100
AcDbEntity
  8
0
100
AcDbSpline
 62
7
  6
CONTINUOUS
 70
0
 71
3
 72
11
 73
7
 74
0
 42
0.0000001
 43
0.0000001
 44
0.0000000001
 40
0.0
 40
0.0
 40
0.0
 40
0.0
 40
0.2483026645
 40
0.5067863218
 40
0.7617320879
 40
1.0
 40
1.0
 40
1.0
 40
1.0
 10
13.4375716302
 20
11.0194893965
 30
0.0
 10
13.4454355114
 20
11.0194893965
 30
0.0
 10
13.4615078385
 20
11.0179178228
 30
0.0
 10
13.4849085943
 20
11.0116651941
 30
0.0
 10
13.5067355012
 20
11.0019164959
 30
0.0
 10
13.5197877228
 20
10.9931289682
 30
0.0
 10
13.5255479975
 20
10.9882542903
 30
0.0
  0
ENDSEC
  0
SECTION
  2
OBJECTS
  0
DICTIONARY
  5
C
100
AcDbDictionary
280
0
281
1
  3
ACAD_GROUP
350
D
  3
ACAD_MLINESTYLE
350
17
  3
ACAD_LAYOUT
350
1A
  3
ACAD_PLOTSETTINGS
350
19
  3
ACAD_PLOTSTYLENAME
350
E
  0
DICTIONARY
  5
D
102
{ACAD_REACTORS
330
C
102
}
100
AcDbDictionary
280
0
281
1
  0
ACDBDICTIONARYWDFLT
  5
E
102
{ACAD_REACTORS
330
C
102
}
100
AcDbDictionary
281
1
  3
Normal
350
F
100
AcDbDictionaryWithDefault
340
F
  0
DICTIONARY
  5
17
102
{ACAD_REACTORS
330
C
102
}
100
AcDbDictionary
280
0
281
1
  3
Standard
350
18
  0
DICTIONARY
  5
19
102
{ACAD_REACTORS
330
C
102
}
100
AcDbDictionary
281
1
  0
DICTIONARY
  5
1A
102
{ACAD_REACTORS
330
C
102
}
100
AcDbDictionary
281
1
  3
Model
350
2CF
  3
Layout1
350
2D0
  0
ACDBPLACEHOLDER
  5
F
102
{ACAD_REACTORS
330
E
102
}
  0
MLINESTYLE
  5
18
102
{ACAD_REACTORS
330
17
102
}
100
AcDbMlineStyle
  2
STANDARD
 70
0
  3

 62
256
 51
90.0
 52
90.0
 71
2
 49
0.5
 62
256
  6
BYLAYER
 49
-0.5
 62
256
  6
BYLAYER
  0
LAYOUT
  5
2CF
102
{ACAD_REACTORS
330
1A
102
}
100
AcDbPlotSettings
  1

  2
none_device
  4
ANSI_C_(22.00_x_17.00_Inches)
  6

 40
0.0
 41
0.0
 42
0.0
 43
0.0
 44
558.8
 45
431.8
 46
0.0
 47
0.0
 48
0.0
 49
0.0
140
0.0
141
0.0
142
1.0
143
1.0
 70
1024
 72
0
 73
0
 74
0
  7

 75
0
147
1.0
148
0.0
149
0.0
100
AcDbLayout
  1
Model
 70
0
 71
0
 10
0.0
 20
0.0
 11
22.0
 21
17.0
 12
0.0
 22
0.0
 32
0.0
 14
0.0
 24
0.0
 34
0.0
 15
0.0
 25
0.0
 35
0.0
146
0.0
 13
0.0
 23
0.0
 33
0.0
 16
1.0
 26
0.0
 36
0.0
 17
0.0
 27
1.0
 37
0.0
 76
0
330
216
345
0
346
0
  0
LAYOUT
  5
2D0
102
{ACAD_REACTORS
330
1A
102
}
100
AcDbPlotSettings
  1

  2
none_device
  4
ANSI_C_(22.00_x_17.00_Inches)
  6

 40
0.0
 41
0.0
 42
0.0
 43
0.0
 44
558.8
 45
431.8
 46
0.0
 47
0.0
 48
0.0
 49
0.0
140
0.0
141
0.0
142
1.0
143
1.0
 70
0
 72
0
 73
0
 74
0
  7

 75
0
147
1.0
148
0.0
149
0.0
100
AcDbLayout
  1
Layout1
 70
0
 71
1
 10
0.0
 20
0.0
 11
22.0
 21
17.0
 12
0.0
 22
0.0
 32
0.0
 14
0.0
 24
0.0
 34
0.0
 15
0.0
 25
0.0
 35
0.0
146
0.0
 13
0.0
 23
0.0
 33
0.0
 16
1.0
 26
0.0
 36
0.0
 17
0.0
 27
1.0
 37
0.0
 76
0
330
217
345
0
346
0
  0
ENDSEC
  0
EOF