999
DXF file: _cgs_temp_output.dxf
999
Pro/ENGINEER 2016360 by Parametric Technology Corporation
  0
SECTION
  2
HEADER
  9
$ACADVER
  1
AC1021
  9
$DWGCODEPAGE
  3
ANSI_1252
  9
$EXTMAX
 10
22.0
 20
17.0
 30
0.0
  9
$EXTMIN
 10
0.0
 20
0.0
 30
0.0
  9
$LIMMIN
 10
0.0
 20
0.0
  9
$LIMMAX
 10
22.0
 20
17.0
  9
$VIEWCTR
 10
11.0
 20
8.5
  9
$VIEWSIZE
 40
17.0
  9
$CLAYER
  8
0
  9
$LTSCALE
 40
1.21
  9
$CELTYPE
  6
BYLAYER
  9
$DIMSCALE
 40
1.0
  9
$DIMASZ
 40
0.1875
  9
$DIMEXO
 40
0.0625
  9
$DIMDLI
 40
0.836
  9
$DIMEXE
 40
0.125
  9
$DIMCEN
 40
0.198
  9
$DIMLFAC
 40
1.0
  9
$DIMBLK
  1
_CLOSED
  9
$DIMALT
 70
0
  9
$DIMALTF
 40
25.4
  9
$DIMTXT
 40
0.15625
  9
$DIMTOL
 70
0
  9
$DIMLIM
 70
0
  9
$DIMTFAC
 40
1.0
  9
$DIMGAP
 40
0.09
  9
$DIMDSEP
 70
46
  9
$AUNITS
 70
0
  9
$PDMODE
 70
3
  9
$PDSIZE
 40
0.3125
  9
$HANDSEED
  5
2D1
  9
$TILEMODE
 70
1
  9
$MEASUREMENT
 70
0
  9
$INSUNITS
 70
1
  0
ENDSEC
  0
SECTION
  2
CLASSES
  0
CLASS
  1
ACDBDICTIONARYWDFLT
  2
AcDbDictionaryWithDefault
  3
AutoCAD 2000
 90
0
 91
1
280
0
281
0
  0
CLASS
  1
ACDBPLACEHOLDER
  2
AcDbPlaceHolder
  3
AutoCAD 2000
 90
0
 91
1
280
0
281
0
  0
CLASS
  1
LAYOUT
  2
AcDbLayout
  3
AutoCAD 2000
 90
0
 91
0
280
0
281
0
  0
ENDSEC
  0
SECTION
  2
TABLES
  0
TABLE
  2
VPORT
  5
8
100
AcDbSymbolTable
 70
2
  0
VPORT
  5
1F4
100
AcDbSymbolTableRecord
100
AcDbViewportTableRecord
  2
*ACTIVE
 70
0
 10
0.0
 20
0.0
 11
1.0
 21
1.0
 12
11.0
 22
8.5
 13
0.0
 23
0.0
 14
1.0
 24
1.0
 15
0.0
 25
0.0
 16
0.0
 26
0.0
 36
1.0
 17
0.0
 27
0.0
 37
0.0
 40
17.0
 41
1.2941176471
 42
50.0
 43
0.0
 44
0.0
 50
0.0
 51
0.0
 71
0
 72
100
 73
1
 74
1
 75
0
 76
0
 77
0
 78
0
  0
ENDTAB
  0
TABLE
  2
LTYPE
  5
5
100
AcDbSymbolTable
 70
6
  0
LTYPE
  5
14
100
AcDbSymbolTableRecord
100
AcDbLinetypeTableRecord
  2
BYBLOCK
 70
0
  3

 72
65
 73
0
 40
0.0
  0
LTYPE
  5
15
100
AcDbSymbolTableRecord
100
AcDbLinetypeTableRecord
  2
BYLAYER
 70
0
  3

 72
65
 73
0
 40
0.0
  0
LTYPE
  5
16
100
AcDbSymbolTableRecord
100
AcDbLinetypeTableRecord
  2
CONTINUOUS
 70
64
  3
Solid line
 72
65
 73
0
 40
0.0
  0
LTYPE
  5
1F5
100
AcDbSymbolTableRecord
100
AcDbLinetypeTableRecord
  2
CENTER
 70
64
  3
____ _ ____ _ ____ _ ____ _ ____ _ ____ _ ____
 72
65
 73
4
 40
0.6
 49
0.375
 74
0
 49
-0.075
 74
0
 49
0.075
 74
0
 49
-0.075
 74
0
  0
LTYPE
  5
1F6
100
AcDbSymbolTableRecord
100
AcDbLinetypeTableRecord
  2
HIDDEN
 70
64
  3
- - - - - - - - - - - - - - - - - - - -
 72
65
 73
2
 40
0.2
 49
0.1
 74
0
 49
-0.1
 74
0
  0
LTYPE
  5
1F7
100
AcDbSymbolTableRecord
100
AcDbLinetypeTableRecord
  2
PHANTOM
 70
64
  3
_____ _ _ _____ _ _ _____ _ _ _____
 72
65
 73
6
 40
0.8
 49
0.45
 74
0
 49
-0.05
 74
0
 49
0.1
 74
0
 49
-0.05
 74
0
 49
0.1
 74
0
 49
-0.05
 74
0
  0
LTYPE
  5
1F8
100
AcDbSymbolTableRecord
100
AcDbLinetypeTableRecord
  2
DOT
 70
64
  3
. . . . . . . . . . . . . . . . . . . .
 72
65
 73
2
 40
0.2
 49
0.1
 74
0
 49
-0.1
 74
0
  0
LTYPE
  5
1F9
100
AcDbSymbolTableRecord
100
AcDbLinetypeTableRecord
  2
DASHED
 70
64
  3
- - - - - - - - - - - - - - - - - - - -
 72
65
 73
2
 40
0.2
 49
0.1
 74
0
 49
-0.1
 74
0
  0
ENDTAB
  0
TABLE
  2
LAYER
  5
2
100
AcDbSymbolTable
 70
36
  0
LAYER
  5
10
100
AcDbSymbolTableRecord
100
AcDbLayerTableRecord
  2
0
 70
0
 62
7
  6
CONTINUOUS
370
-3
390
F
  0
LAYER
  5
1FA
100
AcDbSymbolTableRecord
100
AcDbLayerTableRecord
  2
DEFAULT_1
 70
0
 62
7
  6
CENTER
370
-3
390
F
  0
LAYER
  5
1FB
100
AcDbSymbolTableRecord
100
AcDbLayerTableRecord
  2
DEFAULT_2
 70
0
 62
8
  6
HIDDEN
370
-3
390
F
  0
LAYER
  5
1FC
100
AcDbSymbolTableRecord
100
AcDbLayerTableRecord
  2
DEFAULT_3
 70
0
 62
7
  6
PHANTOM
370
-3
390
F
  0
LAYER
  5
1FD
100
AcDbSymbolTableRecord
100
AcDbLayerTableRecord
  2
01_ALL_DTM_PLN
 70
0
 62
7
  6
CONTINUOUS
370
-3
390
F
  0
LAYER
  5
1FE
100
AcDbSymbolTableRecord
100
AcDbLayerTableRecord
  2
01__ASM_ALL_DTM_PLN
 70
0
 62
7
  6
CONTINUOUS
370
-3
390
F
  0
LAYER
  5
1FF
100
AcDbSymbolTableRecord
100
AcDbLayerTableRecord
  2
01__ASM_DEF_DTM_PLN
 70
0
 62
7
  6
CONTINUOUS
370
-3
390
F
  0
LAYER
  5
200
100
AcDbSymbolTableRecord
100
AcDbLayerTableRecord
  2
01___PRT_ALL_DTM_PLN
 70
0
 62
7
  6
CONTINUOUS
370
-3
390
F
  0
LAYER
  5
201
100
AcDbSymbolTableRecord
100
AcDbLayerTableRecord
  2
01___PRT_DEF_DTM_PLN
 70
0
 62
7
  6
CONTINUOUS
370
-3
390
F
  0
LAYER
  5
202
100
AcDbSymbolTableRecord
100
AcDbLayerTableRecord
  2
02_ALL_AXES
 70
0
 62
7
  6
CONTINUOUS
370
-3
390
F
  0
LAYER
  5
203
100
AcDbSymbolTableRecord
100
AcDbLayerTableRecord
  2
02__ASM_ALL_AXES
 70
0
 62
7
  6
CONTINUOUS
370
-3
390
F
  0
LAYER
  5
204
100
AcDbSymbolTableRecord
100
AcDbLayerTableRecord
  2
02___PRT_ALL_AXES
 70
0
 62
7
  6
CONTINUOUS
370
-3
390
F
  0
LAYER
  5
205
100
AcDbSymbolTableRecord
100
AcDbLayerTableRecord
  2
03_ALL_CURVES
 70
0
 62
7
  6
CONTINUOUS
370
-3
390
F
  0
LAYER
  5
206
100
AcDbSymbolTableRecord
100
AcDbLayerTableRecord
  2
03__ASM_ALL_CURVES
 70
0
 62
7
  6
CONTINUOUS
370
-3
390
F
  0
LAYER
  5
207
100
AcDbSymbolTableRecord
100
AcDbLayerTableRecord
  2
03___PRT_ALL_CURVES
 70
0
 62
7
  6
CONTINUOUS
370
-3
390
F
  0
LAYER
  5
208
100
AcDbSymbolTableRecord
100
AcDbLayerTableRecord
  2
04_ALL_DTM_PNT
 70
0
 62
7
  6
CONTINUOUS
370
-3
390
F
  0
LAYER
  5
209
100
AcDbSymbolTableRecord
100
AcDbLayerTableRecord
  2
04__ASM_ALL_DTM_PNT
 70
0
 62
7
  6
CONTINUOUS
370
-3
390
F
  0
LAYER
  5
20A
100
AcDbSymbolTableRecord
100
AcDbLayerTableRecord
  2
04___PRT_ALL_DTM_PNT
 70
0
 62
7
  6
CONTINUOUS
370
-3
390
F
  0
LAYER
  5
20B
100
AcDbSymbolTableRecord
100
AcDbLayerTableRecord
  2
05_ALL_DTM_CSYS
 70
0
 62
7
  6
CONTINUOUS
370
-3
390
F
  0
LAYER
  5
20C
100
AcDbSymbolTableRecord
100
AcDbLayerTableRecord
  2
05__ASM_ALL_DTM_CSYS
 70
0
 62
7
  6
CONTINUOUS
370
-3
390
F
  0
LAYER
  5
20D
100
AcDbSymbolTableRecord
100
AcDbLayerTableRecord
  2
05__ASM_DEF_DTM_CSYS
 70
0
 62
7
  6
CONTINUOUS
370
-3
390
F
  0
LAYER
  5
20E
100
AcDbSymbolTableRecord
100
AcDbLayerTableRecord
  2
05___PRT_ALL_DTM_CSYS
 70
0
 62
7
  6
CONTINUOUS
370
-3
390
F
  0
LAYER
  5
20F
100
AcDbSymbolTableRecord
100
AcDbLayerTableRecord
  2
05___PRT_DEF_DTM_CSYS
 70
0
 62
7
  6
CONTINUOUS
370
-3
390
F
  0
LAYER
  5
210
100
AcDbSymbolTableRecord
100
AcDbLayerTableRecord
  2
06_ALL_SURFS
 70
0
 62
7
  6
CONTINUOUS
370
-3
390
F
  0
LAYER
  5
211
100
AcDbSymbolTableRecord
100
AcDbLayerTableRecord
  2
06__ASM_ALL_SURFS
 70
0
 62
7
  6
CONTINUOUS
370
-3
390
F
  0
LAYER
  5
212
100
AcDbSymbolTableRecord
100
AcDbLayerTableRecord
  2
06___PRT_ALL_SURFS
 70
0
 62
7
  6
CONTINUOUS
370
-3
390
F
  0
LAYER
  5
213
100
AcDbSymbolTableRecord
100
AcDbLayerTableRecord
  2
07__ASM_ALL_SKELETONS
 70
0
 62
7
  6
CONTINUOUS
370
-3
390
F
  0
ENDTAB
  0
TABLE
  2
STYLE
  5
3
100
AcDbSymbolTable
 70
1
  0
STYLE
  5
11
100
AcDbSymbolTableRecord
100
AcDbTextStyleTableRecord
  2
STANDARD
 70
0
 40
0.0
 41
0.8
 50
0.0
 71
0
 42
0.2
  3
txt
  4

  0
STYLE
  5
214
100
AcDbSymbolTableRecord
100
AcDbTextStyleTableRecord
  2
TEXTSTYLE_1
 70
0
 40
0.0
 41
0.8
 50
0.0
 71
0
 42
0.2
  3
gdt
  4

  0
ENDTAB
  0
TABLE
  2
VIEW
  5
6
100
AcDbSymbolTable
 70
0
  0
ENDTAB
  0
TABLE
  2
UCS
  5
7
100
AcDbSymbolTable
 70
0
  0
ENDTAB
  0
TABLE
  2
APPID
  5
9
100
AcDbSymbolTable
 70
1
  0
APPID
  5
215
100
AcDbSymbolTableRecord
100
AcDbRegAppTableRecord
  2
ACAD
 70
0
  0
ENDTAB
  0
TABLE
  2
BLOCK_RECORD
  5
1
100
AcDbSymbolTable
 70
0
  0
BLOCK_RECORD
  5
216
100
AcDbSymbolTableRecord
100
AcDbBlockTableRecord
  2
*Model_Space
  0
BLOCK_RECORD
  5
217
100
AcDbSymbolTableRecord
100
AcDbBlockTableRecord
  2
*Paper_Space
  0
ENDTAB
  0
TABLE
  2
DIMSTYLE
  5
A
100
AcDbSymbolTable
 70
1
100
AcDbDimStyleTable
 71
0
  0
DIMSTYLE
105
218
100
AcDbSymbolTableRecord
100
AcDbDimStyleTableRecord
  2
STANDARD
 70
0
  3

  4

 40
1.0
 41
0.1875
 42
0.0625
 43
0.38
 44
0.125
 45
0.0
 46
0.0
 47
0.0001
 48
0.0001
140
0.15625
141
0.09
142
0.0
143
25.4
144
1.0
145
0.0
146
1.0
147
0.09
 71
0.0
 72
0.0
 73
1
 74
1
 75
0
 76
0
 77
0
 78
4
 79
1
170
0
171
3
172
0
173
0
174
0
175
0
176
0
177
0
178
0
270
2
179
4
271
4
272
4
273
2
274
2
275
0
280
0
281
0
282
0
283
1
284
4
285
0
286
0
287
3
288
0
340
11
278
46
  0
ENDTAB
  0
ENDSEC
  0
SECTION
  2
BLOCKS
  0
BLOCK
  5
20
100
AcDbEntity
  8
0
100
AcDbBlockBegin
  2
*Model_Space
 70
0
 10
0.0
 20
0.0
 30
0.0
  3
*Model_Space
  1

  0
ENDBLK
  5
21
100
AcDbEntity
  8
0
100
AcDbBlockEnd
  0
BLOCK
  5
1C
100
AcDbEntity
  8
0
100
AcDbBlockBegin
  2
*Paper_Space
 70
0
 10
0.0
 20
0.0
 30
0.0
  3
*Paper_Space
  1

  0
ENDBLK
  5
1D
100
AcDbEntity
  8
0
100
AcDbBlockEnd
  0
ENDSEC
  0
SECTION
  2
ENTITIES
  0
MTEXT
  5
219
100
AcDbEntity
  8
0
100
AcDbMText
 62
7
  6
CONTINUOUS
  7
STANDARD
 71
1
 72
1
 10
15.9560215477
 20
0.9479130325
 30
0.0
 11
1.0
 21
0.0
 31
0.0
 44
0.9
  1
SCALE: 1:3.000
 40
0.3
 41
3.36
  0
LINE
  5
21A
100
AcDbEntity
  8
0
100
AcDbLine
 62
7
  6
CONTINUOUS
 10
0.0
 20
0.0
 11
0.0
 21
17.0
  0
LINE
  5
21B
100
AcDbEntity
  8
0
100
AcDbLine
 62
7
  6
CONTINUOUS
 10
0.0
 20
0.0
 11
22.0
 21
0.0
  0
LINE
  5
21C
100
AcDbEntity
  8
0
100
AcDbLine
 62
7
  6
CONTINUOUS
 10
0.0
 20
17.0
 11
22.0
 21
17.0
  0
LINE
  5
21D
100
AcDbEntity
  8
0
100
AcDbLine
 62
7
  6
CONTINUOUS
 10
22.0
 20
0.0
 11
22.0
 21
17.0
  0
LINE
  5
21E
100
AcDbEntity
  8
0
100
AcDbLine
 62
7
  6
CONTINUOUS
 10
4.3587137329
 20
5.6795687157
 11
4.3587137329
 21
5.5260254086
  0
LINE
  5
21F
100
AcDbEntity
  8
0
100
AcDbLine
 62
7
  6
CONTINUOUS
 10
4.4648222619
 20
5.4521546398
 11
4.495556857
 21
5.3862440879
  0
LINE
  5
220
100
AcDbEntity
  8
0
100
AcDbLine
 62
7
  6
CONTINUOUS
 10
4.3587137329
 20
5.5260254086
 11
4.3823357801
 21
5.5024033613
  0
LINE
  5
221
100
AcDbEntity
  8
0
100
AcDbLine
 62
7
  6
CONTINUOUS
 10
4.8124217899
 20
5.3862440879
 11
4.8431563849
 21
5.4521546398
  0
LINE
  5
222
100
AcDbEntity
  8
0
100
AcDbLine
 62
7
  6
CONTINUOUS
 10
5.055373443
 20
5.4521546398
 11
5.0861080381
 21
5.3862440879
  0
LINE
  5
223
100
AcDbEntity
  8
0
100
AcDbLine
 62
7
  6
CONTINUOUS
 10
4.9256428667
 20
5.5024033613
 11
4.949264914
 21
5.5260254086
  0
LINE
  5
224
100
AcDbEntity
  8
0
100
AcDbLine
 62
7
  6
CONTINUOUS
 10
4.949264914
 20
5.5260254086
 11
4.9728869612
 21
5.5024033613
  0
LINE
  5
225
100
AcDbEntity
  8
0
100
AcDbLine
 62
7
  6
CONTINUOUS
 10
5.402972971
 20
5.3862440879
 11
5.4337075661
 21
5.4521546398
  0
LINE
  5
226
100
AcDbEntity
  8
0
100
AcDbLine
 62
7
  6
CONTINUOUS
 10
5.6459246241
 20
5.4521546398
 11
5.6766592192
 21
5.3862440879
  0
LINE
  5
227
100
AcDbEntity
  8
0
100
AcDbLine
 62
7
  6
CONTINUOUS
 10
5.5161940478
 20
5.5024033613
 11
5.5398160951
 21
5.5260254086
  0
LINE
  5
228
100
AcDbEntity
  8
0
100
AcDbLine
 62
7
  6
CONTINUOUS
 10
5.5398160951
 20
5.5260254086
 11
5.5634381423
 21
5.5024033613
  0
LINE
  5
229
100
AcDbEntity
  8
0
100
AcDbLine
 62
7
  6
CONTINUOUS
 10
4.535698442
 20
5.3606710779
 11
4.7722802048
 21
5.3606710779
  0
LINE
  5
22A
100
AcDbEntity
  8
0
100
AcDbLine
 62
7
  6
CONTINUOUS
 10
5.1262496231
 20
5.3606710779
 11
5.3628313859
 21
5.3606710779
  0
LINE
  5
22B
100
AcDbEntity
  8
0
100
AcDbLine
 62
7
  6
CONTINUOUS
 10
5.7168008042
 20
5.3606710779
 11
5.953382567
 21
5.3606710779
  0
LINE
  5
22C
100
AcDbEntity
  8
0
100
AcDbLine
 62
7
  6
CONTINUOUS
 10
6.3073519853
 20
5.3606710779
 11
6.5439337481
 21
5.3606710779
  0
LINE
  5
22D
100
AcDbEntity
  8
0
100
AcDbLine
 62
7
  6
CONTINUOUS
 10
6.8979031664
 20
5.3606710779
 11
7.1344849292
 21
5.3606710779
  0
LINE
  5
22E
100
AcDbEntity
  8
0
100
AcDbLine
 62
7
  6
CONTINUOUS
 10
7.4884543475
 20
5.3606710779
 11
7.7250361103
 21
5.3606710779
  0
LINE
  5
22F
100
AcDbEntity
  8
0
100
AcDbLine
 62
7
  6
CONTINUOUS
 10
5.9935241521
 20
5.3862440879
 11
6.0242587472
 21
5.4521546398
  0
LINE
  5
230
100
AcDbEntity
  8
0
100
AcDbLine
 62
7
  6
CONTINUOUS
 10
6.1067452289
 20
5.5024033613
 11
6.1303672762
 21
5.5260254086
  0
LINE
  5
231
100
AcDbEntity
  8
0
100
AcDbLine
 62
7
  6
CONTINUOUS
 10
4.3823357801
 20
5.5024033613
 11
4.3859475684
 21
5.5024033613
  0
LINE
  5
232
100
AcDbEntity
  8
0
100
AcDbLine
 62
7
  6
CONTINUOUS
 10
4.9220310784
 20
5.5024033613
 11
4.9256428667
 21
5.5024033613
  0
LINE
  5
233
100
AcDbEntity
  8
0
100
AcDbLine
 62
7
  6
CONTINUOUS
 10
4.9728869612
 20
5.5024033613
 11
4.9764987495
 21
5.5024033613
  0
LINE
  5
234
100
AcDbEntity
  8
0
100
AcDbLine
 62
7
  6
CONTINUOUS
 10
5.5125822595
 20
5.5024033613
 11
5.5161940478
 21
5.5024033613
  0
LINE
  5
235
100
AcDbEntity
  8
0
100
AcDbLine
 62
7
  6
CONTINUOUS
 10
5.5634381423
 20
5.5024033613
 11
5.5670499306
 21
5.5024033613
  0
LINE
  5
236
100
AcDbEntity
  8
0
100
AcDbLine
 62
7
  6
CONTINUOUS
 10
6.1031334406
 20
5.5024033613
 11
6.1067452289
 21
5.5024033613
  0
LINE
  5
237
100
AcDbEntity
  8
0
100
AcDbLine
 62
7
  6
CONTINUOUS
 10
6.1539893234
 20
5.5024033613
 11
6.1576011117
 21
5.5024033613
  0
LINE
  5
238
100
AcDbEntity
  8
0
100
AcDbLine
 62
7
  6
CONTINUOUS
 10
6.6936846217
 20
5.5024033613
 11
6.69729641
 21
5.5024033613
  0
LINE
  5
239
100
AcDbEntity
  8
0
100
AcDbLine
 62
7
  6
CONTINUOUS
 10
6.7445405045
 20
5.5024033613
 11
6.7481522928
 21
5.5024033613
  0
LINE
  5
23A
100
AcDbEntity
  8
0
100
AcDbLine
 62
7
  6
CONTINUOUS
 10
7.2842358028
 20
5.5024033613
 11
7.2878475911
 21
5.5024033613
  0
LINE
  5
23B
100
AcDbEntity
  8
0
100
AcDbLine
 62
7
  6
CONTINUOUS
 10
7.3350916856
 20
5.5024033613
 11
7.3387034739
 21
5.5024033613
  0
LINE
  5
23C
100
AcDbEntity
  8
0
100
AcDbLine
 62
7
  6
CONTINUOUS
 10
7.8747869839
 20
5.5024033613
 11
7.8783987722
 21
5.5024033613
  0
LINE
  5
23D
100
AcDbEntity
  8
0
100
AcDbLine
 62
7
  6
CONTINUOUS
 10
6.1303672762
 20
5.5260254086
 11
6.1539893234
 21
5.5024033613
  0
LINE
  5
23E
100
AcDbEntity
  8
0
100
AcDbLine
 62
7
  6
CONTINUOUS
 10
6.2364758052
 20
5.4521546398
 11
6.2672104003
 21
5.3862440879
  0
LINE
  5
23F
100
AcDbEntity
  8
0
100
AcDbLine
 62
7
  6
CONTINUOUS
 10
7.9020208195
 20
5.6795687157
 11
4.3587137329
 21
5.6795687157
  0
LINE
  5
240
100
AcDbEntity
  8
0
100
AcDbLine
 62
7
  6
CONTINUOUS
 10
6.5840753332
 20
5.3862440879
 11
6.6148099283
 21
5.4521546398
  0
LINE
  5
241
100
AcDbEntity
  8
0
100
AcDbLine
 62
7
  6
CONTINUOUS
 10
6.69729641
 20
5.5024033613
 11
6.7209184573
 21
5.5260254086
  0
LINE
  5
242
100
AcDbEntity
  8
0
100
AcDbLine
 62
7
  6
CONTINUOUS
 10
6.7209184573
 20
5.5260254086
 11
6.7445405045
 21
5.5024033613
  0
LINE
  5
243
100
AcDbEntity
  8
0
100
AcDbLine
 62
7
  6
CONTINUOUS
 10
6.8270269863
 20
5.4521546398
 11
6.8577615814
 21
5.3862440879
  0
LINE
  5
244
100
AcDbEntity
  8
0
100
AcDbLine
 62
7
  6
CONTINUOUS
 10
7.2878475911
 20
5.5024033613
 11
7.3114696384
 21
5.5260254086
  0
LINE
  5
245
100
AcDbEntity
  8
0
100
AcDbLine
 62
7
  6
CONTINUOUS
 10
7.3114696384
 20
5.5260254086
 11
7.3350916856
 21
5.5024033613
  0
LINE
  5
246
100
AcDbEntity
  8
0
100
AcDbLine
 62
7
  6
CONTINUOUS
 10
7.1746265143
 20
5.3862440879
 11
7.2053611094
 21
5.4521546398
  0
LINE
  5
247
100
AcDbEntity
  8
0
100
AcDbLine
 62
7
  6
CONTINUOUS
 10
7.4175781674
 20
5.4521546398
 11
7.4483127625
 21
5.3862440879
  0
LINE
  5
248
100
AcDbEntity
  8
0
100
AcDbLine
 62
7
  6
CONTINUOUS
 10
7.8783987722
 20
5.5024033613
 11
7.9020208195
 21
5.5260254086
  0
LINE
  5
249
100
AcDbEntity
  8
0
100
AcDbLine
 62
7
  6
CONTINUOUS
 10
7.7651776954
 20
5.3862440879
 11
7.7959122905
 21
5.4521546398
  0
LINE
  5
24A
100
AcDbEntity
  8
0
100
AcDbLine
 62
7
  6
CONTINUOUS
 10
7.9020208195
 20
5.5260254086
 11
7.9020208195
 21
5.6795687157
  0
LINE
  5
24B
100
AcDbEntity
  8
0
100
AcDbLine
 62
7
  6
CONTINUOUS
 10
4.2992185406
 20
14.0764257341
 11
4.2992185406
 21
11.1236698286
  0
LINE
  5
24C
100
AcDbEntity
  8
0
100
AcDbLine
 62
7
  6
CONTINUOUS
 10
7.8425256272
 20
11.1236698286
 11
4.2992185406
 21
11.1236698286
  0
LINE
  5
24D
100
AcDbEntity
  8
0
100
AcDbLine
 62
7
  6
CONTINUOUS
 10
4.2992185406
 20
14.0764257341
 11
7.8425256272
 21
14.0764257341
  0
LINE
  5
24E
100
AcDbEntity
  8
0
100
AcDbLine
 62
7
  6
CONTINUOUS
 10
7.8425256272
 20
14.0764257341
 11
7.8425256272
 21
11.1236698286
  0
LINE
  5
24F
100
AcDbEntity
  8
0
100
AcDbLine
 62
7
  6
CONTINUOUS
 10
14.0839773042
 20
5.3011758855
 11
14.0839773042
 21
5.6200735233
  0
LINE
  5
250
100
AcDbEntity
  8
0
100
AcDbLine
 62
7
  6
CONTINUOUS
 10
14.0839773042
 20
5.3011758855
 11
17.0367332097
 21
5.3011758855
  0
LINE
  5
251
100
AcDbEntity
  8
0
100
AcDbLine
 62
7
  6
CONTINUOUS
 10
17.0367332097
 20
5.442908169
 11
14.0839773042
 21
5.442908169
  0
LINE
  5
252
100
AcDbEntity
  8
0
100
AcDbLine
 62
7
  6
CONTINUOUS
 10
17.0367332097
 20
5.4665302163
 11
14.0839773042
 21
5.4665302163
  0
LINE
  5
253
100
AcDbEntity
  8
0
100
AcDbLine
 62
7
  6
CONTINUOUS
 10
17.0367332097
 20
5.6200735233
 11
14.0839773042
 21
5.6200735233
  0
LINE
  5
254
100
AcDbEntity
  8
0
100
AcDbLine
 62
7
  6
CONTINUOUS
 10
17.0367332097
 20
5.3011758855
 11
17.0367332097
 21
5.6200735233
  0
LINE
  5
255
100
AcDbEntity
  8
0
100
AcDbLine
 62
7
  6
CONTINUOUS
 10
13.4585115434
 20
11.453433389
 11
13.5053486804
 21
11.3579893387
  0
LINE
  5
256
100
AcDbEntity
  8
0
100
AcDbLine
 62
7
  6
CONTINUOUS
 10
13.6256147848
 20
11.3120705325
 11
13.6740286993
 21
11.2710998764
  0
LINE
  5
257
100
AcDbEntity
  8
0
100
AcDbLine
 62
7
  6
CONTINUOUS
 10
13.5053486804
 20
11.3579893387
 11
13.5343117401
 21
11.3433056387
  0
LINE
  5
258
100
AcDbEntity
  8
0
100
AcDbLine
 62
7
  6
CONTINUOUS
 10
14.1695484426
 20
11.3120705325
 11
14.2179623571
 21
11.2710998764
  0
LINE
  5
259
100
AcDbEntity
  8
0
100
AcDbLine
 62
7
  6
CONTINUOUS
 10
14.1732743093
 20
13.7664065473
 11
13.4585115434
 21
11.453433389
  0
LINE
  5
25A
100
AcDbEntity
  8
0
100
AcDbLine
 62
7
  6
CONTINUOUS
 10
14.0492823382
 20
11.3579893387
 11
14.0782453979
 21
11.3433056387
  0
LINE
  5
25B
100
AcDbEntity
  8
0
100
AcDbLine
 62
7
  6
CONTINUOUS
 10
14.5932159961
 20
11.3579893387
 11
14.6221790558
 21
11.3433056387
  0
LINE
  5
25C
100
AcDbEntity
  8
0
100
AcDbLine
 62
7
  6
CONTINUOUS
 10
14.7134821005
 20
11.3120705325
 11
14.761896015
 21
11.2710998764
  0
LINE
  5
25D
100
AcDbEntity
  8
0
100
AcDbLine
 62
7
  6
CONTINUOUS
 10
13.7188023862
 20
11.2552034385
 11
13.9367086198
 21
11.2552034385
  0
LINE
  5
25E
100
AcDbEntity
  8
0
100
AcDbLine
 62
7
  6
CONTINUOUS
 10
14.2627360441
 20
11.2552034385
 11
14.4806422777
 21
11.2552034385
  0
LINE
  5
25F
100
AcDbEntity
  8
0
100
AcDbLine
 62
7
  6
CONTINUOUS
 10
14.806669702
 20
11.2552034385
 11
15.0245759355
 21
11.2552034385
  0
LINE
  5
260
100
AcDbEntity
  8
0
100
AcDbLine
 62
7
  6
CONTINUOUS
 10
15.3506033598
 20
11.2552034385
 11
15.5685095934
 21
11.2552034385
  0
LINE
  5
261
100
AcDbEntity
  8
0
100
AcDbLine
 62
7
  6
CONTINUOUS
 10
15.8945370177
 20
11.2552034385
 11
16.1124432513
 21
11.2552034385
  0
LINE
  5
262
100
AcDbEntity
  8
0
100
AcDbLine
 62
7
  6
CONTINUOUS
 10
16.4384706756
 20
11.2552034385
 11
16.6563769092
 21
11.2552034385
  0
LINE
  5
263
100
AcDbEntity
  8
0
100
AcDbLine
 62
7
  6
CONTINUOUS
 10
13.9658806293
 20
11.2710998764
 11
13.9740835882
 21
11.3120705325
  0
LINE
  5
264
100
AcDbEntity
  8
0
100
AcDbLine
 62
7
  6
CONTINUOUS
 10
13.9655168098
 20
11.2696578472
 11
13.9658806293
 21
11.2710998764
  0
LINE
  5
265
100
AcDbEntity
  8
0
100
AcDbLine
 62
7
  6
CONTINUOUS
 10
13.9740835882
 20
11.3120705325
 11
13.974799722
 21
11.3149036049
  0
LINE
  5
266
100
AcDbEntity
  8
0
100
AcDbLine
 62
7
  6
CONTINUOUS
 10
13.5343117401
 20
11.3433056387
 11
13.5376384174
 21
11.3433056387
  0
LINE
  5
267
100
AcDbEntity
  8
0
100
AcDbLine
 62
7
  6
CONTINUOUS
 10
14.031404028
 20
11.3433056387
 11
14.0347307053
 21
11.3433056387
  0
LINE
  5
268
100
AcDbEntity
  8
0
100
AcDbLine
 62
7
  6
CONTINUOUS
 10
14.0782453979
 20
11.3433056387
 11
14.0815720753
 21
11.3433056387
  0
LINE
  5
269
100
AcDbEntity
  8
0
100
AcDbLine
 62
7
  6
CONTINUOUS
 10
14.5753376858
 20
11.3433056387
 11
14.5786643632
 21
11.3433056387
  0
LINE
  5
26A
100
AcDbEntity
  8
0
100
AcDbLine
 62
7
  6
CONTINUOUS
 10
14.6221790558
 20
11.3433056387
 11
14.6255057332
 21
11.3433056387
  0
LINE
  5
26B
100
AcDbEntity
  8
0
100
AcDbLine
 62
7
  6
CONTINUOUS
 10
15.1192713437
 20
11.3433056387
 11
15.1225980211
 21
11.3433056387
  0
LINE
  5
26C
100
AcDbEntity
  8
0
100
AcDbLine
 62
7
  6
CONTINUOUS
 10
15.1661127137
 20
11.3433056387
 11
15.169439391
 21
11.3433056387
  0
LINE
  5
26D
100
AcDbEntity
  8
0
100
AcDbLine
 62
7
  6
CONTINUOUS
 10
15.6632050016
 20
11.3433056387
 11
15.6665316789
 21
11.3433056387
  0
LINE
  5
26E
100
AcDbEntity
  8
0
100
AcDbLine
 62
7
  6
CONTINUOUS
 10
15.7100463716
 20
11.3433056387
 11
15.7133730489
 21
11.3433056387
  0
LINE
  5
26F
100
AcDbEntity
  8
0
100
AcDbLine
 62
7
  6
CONTINUOUS
 10
16.2071386595
 20
11.3433056387
 11
16.2104653368
 21
11.3433056387
  0
LINE
  5
270
100
AcDbEntity
  8
0
100
AcDbLine
 62
7
  6
CONTINUOUS
 10
16.2539800294
 20
11.3433056387
 11
16.2573067068
 21
11.3433056387
  0
LINE
  5
271
100
AcDbEntity
  8
0
100
AcDbLine
 62
7
  6
CONTINUOUS
 10
16.7510723173
 20
11.3433056387
 11
16.7543989947
 21
11.3433056387
  0
LINE
  5
272
100
AcDbEntity
  8
0
100
AcDbLine
 62
7
  6
CONTINUOUS
 10
15.137149654
 20
11.3579893387
 11
15.1661127137
 21
11.3433056387
  0
LINE
  5
273
100
AcDbEntity
  8
0
100
AcDbLine
 62
7
  6
CONTINUOUS
 10
13.9655147753
 20
11.2696584748
 11
13.9834473724
 21
11.3276883802
  0
LINE
  5
274
100
AcDbEntity
  8
0
100
AcDbLine
 62
7
  6
CONTINUOUS
 10
16.7221134906
 20
11.453433389
 11
13.4585115434
 21
11.453433389
  0
LINE
  5
275
100
AcDbEntity
  8
0
100
AcDbLine
 62
7
  6
CONTINUOUS
 10
15.6810833119
 20
11.3579893387
 11
15.7100463716
 21
11.3433056387
  0
LINE
  5
276
100
AcDbEntity
  8
0
100
AcDbLine
 62
7
  6
CONTINUOUS
 10
15.2574157584
 20
11.3120705325
 11
15.3058296729
 21
11.2710998764
  0
LINE
  5
277
100
AcDbEntity
  8
0
100
AcDbLine
 62
7
  6
CONTINUOUS
 10
14.5098142872
 20
11.2710998764
 11
14.5180172461
 21
11.3120705325
  0
LINE
  5
278
100
AcDbEntity
  8
0
100
AcDbLine
 62
7
  6
CONTINUOUS
 10
14.5180172461
 20
11.3120705325
 11
14.5187319518
 21
11.3149040452
  0
LINE
  5
279
100
AcDbEntity
  8
0
100
AcDbLine
 62
7
  6
CONTINUOUS
 10
14.5094425046
 20
11.2696603094
 11
14.5098142872
 21
11.2710998764
  0
LINE
  5
27A
100
AcDbEntity
  8
0
100
AcDbLine
 62
7
  6
CONTINUOUS
 10
16.2250169697
 20
11.3579893387
 11
16.2539800294
 21
11.3433056387
  0
LINE
  5
27B
100
AcDbEntity
  8
0
100
AcDbLine
 62
7
  6
CONTINUOUS
 10
15.8013494163
 20
11.3120705325
 11
15.8497633308
 21
11.2710998764
  0
LINE
  5
27C
100
AcDbEntity
  8
0
100
AcDbLine
 62
7
  6
CONTINUOUS
 10
14.5094484332
 20
11.2696584748
 11
14.5273806883
 21
11.3276872735
  0
LINE
  5
27D
100
AcDbEntity
  8
0
100
AcDbLine
 62
7
  6
CONTINUOUS
 10
16.3452830741
 20
11.3120705325
 11
16.3936969886
 21
11.2710998764
  0
LINE
  5
27E
100
AcDbEntity
  8
0
100
AcDbLine
 62
7
  6
CONTINUOUS
 10
15.0537479451
 20
11.2710998764
 11
15.061950904
 21
11.3120705325
  0
LINE
  5
27F
100
AcDbEntity
  8
0
100
AcDbLine
 62
7
  6
CONTINUOUS
 10
14.0347307053
 20
11.3433056387
 11
14.0492823382
 21
11.3579893387
  0
LINE
  5
280
100
AcDbEntity
  8
0
100
AcDbLine
 62
7
  6
CONTINUOUS
 10
15.061950904
 20
11.3120705325
 11
15.0626656096
 21
11.3149040452
  0
LINE
  5
281
100
AcDbEntity
  8
0
100
AcDbLine
 62
7
  6
CONTINUOUS
 10
15.0533761625
 20
11.2696603094
 11
15.0537479451
 21
11.2710998764
  0
LINE
  5
282
100
AcDbEntity
  8
0
100
AcDbLine
 62
7
  6
CONTINUOUS
 10
15.053382091
 20
11.2696584748
 11
15.0713143462
 21
11.3276872735
  0
LINE
  5
283
100
AcDbEntity
  8
0
100
AcDbLine
 62
7
  6
CONTINUOUS
 10
14.5786643632
 20
11.3433056387
 11
14.5932159961
 21
11.3579893387
  0
LINE
  5
284
100
AcDbEntity
  8
0
100
AcDbLine
 62
7
  6
CONTINUOUS
 10
15.5976816029
 20
11.2710998764
 11
15.6058845619
 21
11.3120705325
  0
LINE
  5
285
100
AcDbEntity
  8
0
100
AcDbLine
 62
7
  6
CONTINUOUS
 10
15.6058845619
 20
11.3120705325
 11
15.6065992675
 21
11.3149040452
  0
LINE
  5
286
100
AcDbEntity
  8
0
100
AcDbLine
 62
7
  6
CONTINUOUS
 10
15.5973098204
 20
11.2696603094
 11
15.5976816029
 21
11.2710998764
  0
LINE
  5
287
100
AcDbEntity
  8
0
100
AcDbLine
 62
7
  6
CONTINUOUS
 10
15.5973157489
 20
11.2696584748
 11
15.615248004
 21
11.3276872735
  0
LINE
  5
288
100
AcDbEntity
  8
0
100
AcDbLine
 62
7
  6
CONTINUOUS
 10
15.1225980211
 20
11.3433056387
 11
15.137149654
 21
11.3579893387
  0
LINE
  5
289
100
AcDbEntity
  8
0
100
AcDbLine
 62
7
  6
CONTINUOUS
 10
16.7689506276
 20
11.3579893387
 11
16.7221134906
 21
11.453433389
  0
LINE
  5
28A
100
AcDbEntity
  8
0
100
AcDbLine
 62
7
  6
CONTINUOUS
 10
16.1416152608
 20
11.2710998764
 11
16.1498182197
 21
11.3120705325
  0
LINE
  5
28B
100
AcDbEntity
  8
0
100
AcDbLine
 62
7
  6
CONTINUOUS
 10
16.1498182197
 20
11.3120705325
 11
16.1505329254
 21
11.3149040452
  0
LINE
  5
28C
100
AcDbEntity
  8
0
100
AcDbLine
 62
7
  6
CONTINUOUS
 10
16.1412434782
 20
11.2696603094
 11
16.1416152608
 21
11.2710998764
  0
LINE
  5
28D
100
AcDbEntity
  8
0
100
AcDbLine
 62
7
  6
CONTINUOUS
 10
15.6665316789
 20
11.3433056387
 11
15.6810833119
 21
11.3579893387
  0
LINE
  5
28E
100
AcDbEntity
  8
0
100
AcDbLine
 62
7
  6
CONTINUOUS
 10
16.1412494068
 20
11.2696584748
 11
16.1591816619
 21
11.3276872735
  0
LINE
  5
28F
100
AcDbEntity
  8
0
100
AcDbLine
 62
7
  6
CONTINUOUS
 10
14.1732743093
 20
13.7664065473
 11
17.4368762566
 21
13.7664065473
  0
LINE
  5
290
100
AcDbEntity
  8
0
100
AcDbLine
 62
7
  6
CONTINUOUS
 10
16.6855489187
 20
11.2710998764
 11
16.6937518776
 21
11.3120705325
  0
LINE
  5
291
100
AcDbEntity
  8
0
100
AcDbLine
 62
7
  6
CONTINUOUS
 10
16.2104653368
 20
11.3433056387
 11
16.2250169697
 21
11.3579893387
  0
LINE
  5
292
100
AcDbEntity
  8
0
100
AcDbLine
 62
7
  6
CONTINUOUS
 10
16.6937518776
 20
11.3120705325
 11
16.6944665833
 21
11.3149040452
  0
LINE
  5
293
100
AcDbEntity
  8
0
100
AcDbLine
 62
7
  6
CONTINUOUS
 10
16.6851771361
 20
11.2696603094
 11
16.6855489187
 21
11.2710998764
  0
LINE
  5
294
100
AcDbEntity
  8
0
100
AcDbLine
 62
7
  6
CONTINUOUS
 10
17.4368762566
 20
13.7664065473
 11
16.7221134906
 21
11.453433389
  0
LINE
  5
295
100
AcDbEntity
  8
0
100
AcDbLine
 62
7
  6
CONTINUOUS
 10
16.6851830647
 20
11.2696584748
 11
16.7031153198
 21
11.3276872735
  0
LINE
  5
296
100
AcDbEntity
  8
0
100
AcDbLine
 62
7
  6
CONTINUOUS
 10
17.4837133936
 20
13.6709624971
 11
16.7689506276
 21
11.3579893387
  0
LINE
  5
297
100
AcDbEntity
  8
0
100
AcDbLine
 62
7
  6
CONTINUOUS
 10
16.7543989947
 20
11.3433056387
 11
16.7689506276
 21
11.3579893387
  0
LINE
  5
298
100
AcDbEntity
  8
0
100
AcDbLine
 62
7
  6
CONTINUOUS
 10
17.4837133936
 20
13.6709624971
 11
17.4368762566
 21
13.7664065473
  0
ARC
  5
299
100
AcDbEntity
  8
0
100
AcDbCircle
 62
7
  6
CONTINUOUS
 10
7.8747869839
 20
5.4153747662
 40
0.0870285951
100
AcDbArc
 50
90.0
 51
155.0
  0
ARC
  5
29A
100
AcDbEntity
  8
0
100
AcDbCircle
 62
7
  6
CONTINUOUS
 10
7.3387034739
 20
5.4153747662
 40
0.0870285951
100
AcDbArc
 50
25.0
 51
90.0
  0
ARC
  5
29B
100
AcDbEntity
  8
0
100
AcDbCircle
 62
7
  6
CONTINUOUS
 10
7.2842358028
 20
5.4153747662
 40
0.0870285951
100
AcDbArc
 50
90.0
 51
155.0
  0
ARC
  5
29C
100
AcDbEntity
  8
0
100
AcDbCircle
 62
7
  6
CONTINUOUS
 10
6.7481522928
 20
5.4153747662
 40
0.0870285951
100
AcDbArc
 50
25.0
 51
90.0
  0
ARC
  5
29D
100
AcDbEntity
  8
0
100
AcDbCircle
 62
7
  6
CONTINUOUS
 10
6.6936846217
 20
5.4153747662
 40
0.0870285951
100
AcDbArc
 50
90.0
 51
155.0
  0
ARC
  5
29E
100
AcDbEntity
  8
0
100
AcDbCircle
 62
7
  6
CONTINUOUS
 10
6.1576011117
 20
5.4153747662
 40
0.0870285951
100
AcDbArc
 50
25.0
 51
90.0
  0
ARC
  5
29F
100
AcDbEntity
  8
0
100
AcDbCircle
 62
7
  6
CONTINUOUS
 10
6.1031334406
 20
5.4153747662
 40
0.0870285951
100
AcDbArc
 50
90.0
 51
155.0
  0
ARC
  5
2A0
100
AcDbEntity
  8
0
100
AcDbCircle
 62
7
  6
CONTINUOUS
 10
5.5670499306
 20
5.4153747662
 40
0.0870285951
100
AcDbArc
 50
25.0
 51
90.0
  0
ARC
  5
2A1
100
AcDbEntity
  8
0
100
AcDbCircle
 62
7
  6
CONTINUOUS
 10
5.5125822595
 20
5.4153747662
 40
0.0870285951
100
AcDbArc
 50
90.0
 51
155.0
  0
ARC
  5
2A2
100
AcDbEntity
  8
0
100
AcDbCircle
 62
7
  6
CONTINUOUS
 10
4.9764987495
 20
5.4153747662
 40
0.0870285951
100
AcDbArc
 50
25.0
 51
90.0
  0
ARC
  5
2A3
100
AcDbEntity
  8
0
100
AcDbCircle
 62
7
  6
CONTINUOUS
 10
4.3859475684
 20
5.4153747662
 40
0.0870285951
100
AcDbArc
 50
25.0
 51
90.0
  0
ARC
  5
2A4
100
AcDbEntity
  8
0
100
AcDbCircle
 62
7
  6
CONTINUOUS
 10
4.9220310784
 20
5.4153747662
 40
0.0870285951
100
AcDbArc
 50
90.0
 51
155.0
  0
ARC
  5
2A5
100
AcDbEntity
  8
0
100
AcDbCircle
 62
7
  6
CONTINUOUS
 10
4.535698442
 20
5.4049624164
 40
0.0442913386
100
AcDbArc
 50
205.0
 51
270.0
  0
ARC
  5
2A6
100
AcDbEntity
  8
0
100
AcDbCircle
 62
7
  6
CONTINUOUS
 10
4.7722802048
 20
5.4049624164
 40
0.0442913386
100
AcDbArc
 50
270.0
 51
335.0
  0
ARC
  5
2A7
100
AcDbEntity
  8
0
100
AcDbCircle
 62
7
  6
CONTINUOUS
 10
5.1262496231
 20
5.4049624164
 40
0.0442913386
100
AcDbArc
 50
205.0
 51
270.0
  0
ARC
  5
2A8
100
AcDbEntity
  8
0
100
AcDbCircle
 62
7
  6
CONTINUOUS
 10
5.3628313859
 20
5.4049624164
 40
0.0442913386
100
AcDbArc
 50
270.0
 51
335.0
  0
ARC
  5
2A9
100
AcDbEntity
  8
0
100
AcDbCircle
 62
7
  6
CONTINUOUS
 10
5.7168008042
 20
5.4049624164
 40
0.0442913386
100
AcDbArc
 50
205.0
 51
270.0
  0
ARC
  5
2AA
100
AcDbEntity
  8
0
100
AcDbCircle
 62
7
  6
CONTINUOUS
 10
5.953382567
 20
5.4049624164
 40
0.0442913386
100
AcDbArc
 50
270.0
 51
335.0
  0
ARC
  5
2AB
100
AcDbEntity
  8
0
100
AcDbCircle
 62
7
  6
CONTINUOUS
 10
6.3073519853
 20
5.4049624164
 40
0.0442913386
100
AcDbArc
 50
205.0
 51
270.0
  0
ARC
  5
2AC
100
AcDbEntity
  8
0
100
AcDbCircle
 62
7
  6
CONTINUOUS
 10
6.5439337481
 20
5.4049624164
 40
0.0442913386
100
AcDbArc
 50
270.0
 51
335.0
  0
ARC
  5
2AD
100
AcDbEntity
  8
0
100
AcDbCircle
 62
7
  6
CONTINUOUS
 10
6.8979031664
 20
5.4049624164
 40
0.0442913386
100
AcDbArc
 50
205.0
 51
270.0
  0
ARC
  5
2AE
100
AcDbEntity
  8
0
100
AcDbCircle
 62
7
  6
CONTINUOUS
 10
7.7250361103
 20
5.4049624164
 40
0.0442913386
100
AcDbArc
 50
270.0
 51
335.0
  0
ARC
  5
2AF
100
AcDbEntity
  8
0
100
AcDbCircle
 62
7
  6
CONTINUOUS
 10
7.4884543475
 20
5.4049624164
 40
0.0442913386
100
AcDbArc
 50
205.0
 51
270.0
  0
ARC
  5
2B0
100
AcDbEntity
  8
0
100
AcDbCircle
 62
7
  6
CONTINUOUS
 10
7.1344849292
 20
5.4049624164
 40
0.0442913386
100
AcDbArc
 50
270.0
 51
335.0
  0
SPLINE
  5
2B1
100
AcDbEntity
  8
0
100
AcDbSpline
 62
7
  6
CONTINUOUS
 70
0
 71
3
 72
9
 73
5
 74
0
 42
0.0000001
 43
0.0000001
 44
0.0000000001
 40
0.0
 40
0.0
 40
0.0
 40
0.0
 40
0.2480036214
 40
1.0
 40
1.0
 40
1.0
 40
1.0
 10
16.6944714336
 20
11.3149025457
 30
0.0
 10
16.6946760521
 20
11.3155639106
 30
0.0
 10
16.6955974326
 20
11.3182001984
 30
0.0
 10
16.6969061579
 20
11.3206987432
 30
0.0
 10
16.6980661063
 20
11.3224483314
 30
0.0
  0
SPLINE
  5
2B2
100
AcDbEntity
  8
0
100
AcDbSpline
 62
7
  6
CONTINUOUS
 70
0
 71
3
 72
11
 73
7
 74
0
 42
0.0000001
 43
0.0000001
 44
0.0000000001
 40
0.0
 40
0.0
 40
0.0
 40
0.0
 40
0.2059397527
 40
0.4392072217
 40
0.7046322763
 40
1.0
 40
1.0
 40
1.0
 40
1.0
 10
16.6980661063
 20
11.3224483314
 30
0.0
 10
16.7003050581
 20
11.3258254158
 30
0.0
 10
16.7065504657
 20
11.3320894531
 30
0.0
 10
16.7189714981
 20
11.3385712433
 30
0.0
 10
16.7341991449
 20
11.3425065139
 30
0.0
 10
16.7452609579
 20
11.3433056387
 30
0.0
 10
16.7510723173
 20
11.3433056387
 30
0.0
  0
SPLINE
  5
2B3
100
AcDbEntity
  8
0
100
AcDbSpline
 62
7
  6
CONTINUOUS
 70
0
 71
3
 72
9
 73
5
 74
0
 42
0.0000001
 43
0.0000001
 44
0.0000000001
 40
0.0
 40
0.0
 40
0.0
 40
0.0
 40
0.2480036214
 40
1.0
 40
1.0
 40
1.0
 40
1.0
 10
16.1505377757
 20
11.3149025457
 30
0.0
 10
16.1507423942
 20
11.3155639106
 30
0.0
 10
16.1516637747
 20
11.3182001984
 30
0.0
 10
16.1529725
 20
11.3206987432
 30
0.0
 10
16.1541324484
 20
11.3224483314
 30
0.0
  0
SPLINE
  5
2B4
100
AcDbEntity
  8
0
100
AcDbSpline
 62
7
  6
CONTINUOUS
 70
0
 71
3
 72
11
 73
7
 74
0
 42
0.0000001
 43
0.0000001
 44
0.0000000001
 40
0.0
 40
0.0
 40
0.0
 40
0.0
 40
0.2059397527
 40
0.4392072217
 40
0.7046322763
 40
1.0
 40
1.0
 40
1.0
 40
1.0
 10
16.1541324484
 20
11.3224483314
 30
0.0
 10
16.1563714002
 20
11.3258254158
 30
0.0
 10
16.1626168078
 20
11.3320894531
 30
0.0
 10
16.1750378402
 20
11.3385712433
 30
0.0
 10
16.190265487
 20
11.3425065139
 30
0.0
 10
16.2013273
 20
11.3433056387
 30
0.0
 10
16.2071386595
 20
11.3433056387
 30
0.0
  0
SPLINE
  5
2B5
100
AcDbEntity
  8
0
100
AcDbSpline
 62
7
  6
CONTINUOUS
 70
0
 71
3
 72
9
 73
5
 74
0
 42
0.0000001
 43
0.0000001
 44
0.0000000001
 40
0.0
 40
0.0
 40
0.0
 40
0.0
 40
0.2480036214
 40
1.0
 40
1.0
 40
1.0
 40
1.0
 10
15.6066041179
 20
11.3149025457
 30
0.0
 10
15.6068087363
 20
11.3155639106
 30
0.0
 10
15.6077301168
 20
11.3182001984
 30
0.0
 10
15.6090388421
 20
11.3206987432
 30
0.0
 10
15.6101987905
 20
11.3224483314
 30
0.0
  0
SPLINE
  5
2B6
100
AcDbEntity
  8
0
100
AcDbSpline
 62
7
  6
CONTINUOUS
 70
0
 71
3
 72
11
 73
7
 74
0
 42
0.0000001
 43
0.0000001
 44
0.0000000001
 40
0.0
 40
0.0
 40
0.0
 40
0.0
 40
0.2059397527
 40
0.4392072217
 40
0.7046322763
 40
1.0
 40
1.0
 40
1.0
 40
1.0
 10
15.6101987905
 20
11.3224483314
 30
0.0
 10
15.6124377423
 20
11.3258254158
 30
0.0
 10
15.6186831499
 20
11.3320894531
 30
0.0
 10
15.6311041824
 20
11.3385712433
 30
0.0
 10
15.6463318291
 20
11.3425065139
 30
0.0
 10
15.6573936421
 20
11.3433056387
 30
0.0
 10
15.6632050016
 20
11.3433056387
 30
0.0
  0
SPLINE
  5
2B7
100
AcDbEntity
  8
0
100
AcDbSpline
 62
7
  6
CONTINUOUS
 70
0
 71
3
 72
9
 73
5
 74
0
 42
0.0000001
 43
0.0000001
 44
0.0000000001
 40
0.0
 40
0.0
 40
0.0
 40
0.0
 40
0.2480036214
 40
1.0
 40
1.0
 40
1.0
 40
1.0
 10
15.06267046
 20
11.3149025457
 30
0.0
 10
15.0628750784
 20
11.3155639106
 30
0.0
 10
15.063796459
 20
11.3182001984
 30
0.0
 10
15.0651051843
 20
11.3206987432
 30
0.0
 10
15.0662651326
 20
11.3224483314
 30
0.0
  0
SPLINE
  5
2B8
100
AcDbEntity
  8
0
100
AcDbSpline
 62
7
  6
CONTINUOUS
 70
0
 71
3
 72
11
 73
7
 74
0
 42
0.0000001
 43
0.0000001
 44
0.0000000001
 40
0.0
 40
0.0
 40
0.0
 40
0.0
 40
0.2059397527
 40
0.4392072217
 40
0.7046322763
 40
1.0
 40
1.0
 40
1.0
 40
1.0
 10
15.0662651326
 20
11.3224483314
 30
0.0
 10
15.0685040844
 20
11.3258254158
 30
0.0
 10
15.074749492
 20
11.3320894531
 30
0.0
 10
15.0871705245
 20
11.3385712433
 30
0.0
 10
15.1023981713
 20
11.3425065139
 30
0.0
 10
15.1134599842
 20
11.3433056387
 30
0.0
 10
15.1192713437
 20
11.3433056387
 30
0.0
  0
SPLINE
  5
2B9
100
AcDbEntity
  8
0
100
AcDbSpline
 62
7
  6
CONTINUOUS
 70
0
 71
3
 72
9
 73
5
 74
0
 42
0.0000001
 43
0.0000001
 44
0.0000000001
 40
0.0
 40
0.0
 40
0.0
 40
0.0
 40
0.2480036214
 40
1.0
 40
1.0
 40
1.0
 40
1.0
 10
14.5187368021
 20
11.3149025457
 30
0.0
 10
14.5189414206
 20
11.3155639106
 30
0.0
 10
14.5198628011
 20
11.3182001984
 30
0.0
 10
14.5211715264
 20
11.3206987432
 30
0.0
 10
14.5223314748
 20
11.3224483314
 30
0.0
  0
SPLINE
  5
2BA
100
AcDbEntity
  8
0
100
AcDbSpline
 62
7
  6
CONTINUOUS
 70
0
 71
3
 72
11
 73
7
 74
0
 42
0.0000001
 43
0.0000001
 44
0.0000000001
 40
0.0
 40
0.0
 40
0.0
 40
0.0
 40
0.2059397527
 40
0.4392072217
 40
0.7046322763
 40
1.0
 40
1.0
 40
1.0
 40
1.0
 10
14.5223314748
 20
11.3224483314
 30
0.0
 10
14.5245704266
 20
11.3258254158
 30
0.0
 10
14.5308158342
 20
11.3320894531
 30
0.0
 10
14.5432368666
 20
11.3385712433
 30
0.0
 10
14.5584645134
 20
11.3425065139
 30
0.0
 10
14.5695263263
 20
11.3433056387
 30
0.0
 10
14.5753376858
 20
11.3433056387
 30
0.0
  0
SPLINE
  5
2BB
100
AcDbEntity
  8
0
100
AcDbSpline
 62
7
  6
CONTINUOUS
 70
0
 71
3
 72
9
 73
5
 74
0
 42
0.0000001
 43
0.0000001
 44
0.0000000001
 40
0.0
 40
0.0
 40
0.0
 40
0.0
 40
0.247997553
 40
1.0
 40
1.0
 40
1.0
 40
1.0
 10
13.9748031483
 20
11.3149025457
 30
0.0
 10
13.9750081045
 20
11.315564997
 30
0.0
 10
13.9759311855
 20
11.31820563
 30
0.0
 10
13.977242893
 20
11.320708026
 30
0.0
 10
13.9784055753
 20
11.3224600227
 30
0.0
  0
SPLINE
  5
2BC
100
AcDbEntity
  8
0
100
AcDbSpline
 62
7
  6
CONTINUOUS
 70
0
 71
3
 72
11
 73
7
 74
0
 42
0.0000001
 43
0.0000001
 44
0.0000000001
 40
0.0
 40
0.0
 40
0.0
 40
0.0
 40
0.2059491121
 40
0.4392238894
 40
0.7046460362
 40
1.0
 40
1.0
 40
1.0
 40
1.0
 10
13.9784055753
 20
11.3224600227
 30
0.0
 10
13.9806456246
 20
11.3258354584
 30
0.0
 10
13.9868918913
 20
11.3320958796
 30
0.0
 10
13.9993112925
 20
11.3385739271
 30
0.0
 10
14.0145354386
 20
11.3425069384
 30
0.0
 10
14.0255943036
 20
11.3433056387
 30
0.0
 10
14.031404028
 20
11.3433056387
 30
0.0
  0
SPLINE
  5
2BD
100
AcDbEntity
  8
0
100
AcDbSpline
 62
7
  6
CONTINUOUS
 70
0
 71
3
 72
11
 73
7
 74
0
 42
0.0000001
 43
0.0000001
 44
0.0000000001
 40
0.0
 40
0.0
 40
0.0
 40
0.0
 40
0.2483022266
 40
0.5067863911
 40
0.7617324737
 40
1.0
 40
1.0
 40
1.0
 40
1.0
 10
16.2573067068
 20
11.3433056387
 30
0.0
 10
16.2651705741
 20
11.3433056387
 30
0.0
 10
16.2812429029
 20
11.3417340649
 30
0.0
 10
16.3046436723
 20
11.3354814383
 30
0.0
 10
16.32647059
 20
11.3257327295
 30
0.0
 10
16.3395228087
 20
11.3169452025
 30
0.0
 10
16.3452830741
 20
11.3120705325
 30
0.0
  0
SPLINE
  5
2BE
100
AcDbEntity
  8
0
100
AcDbSpline
 62
7
  6
CONTINUOUS
 70
0
 71
3
 72
11
 73
7
 74
0
 42
0.0000001
 43
0.0000001
 44
0.0000000001
 40
0.0
 40
0.0
 40
0.0
 40
0.0
 40
0.2483022266
 40
0.5067863911
 40
0.7617324737
 40
1.0
 40
1.0
 40
1.0
 40
1.0
 10
15.7133730489
 20
11.3433056387
 30
0.0
 10
15.7212369162
 20
11.3433056387
 30
0.0
 10
15.737309245
 20
11.3417340649
 30
0.0
 10
15.7607100144
 20
11.3354814383
 30
0.0
 10
15.7825369321
 20
11.3257327295
 30
0.0
 10
15.7955891508
 20
11.3169452025
 30
0.0
 10
15.8013494163
 20
11.3120705325
 30
0.0
  0
SPLINE
  5
2BF
100
AcDbEntity
  8
0
100
AcDbSpline
 62
7
  6
CONTINUOUS
 70
0
 71
3
 72
11
 73
7
 74
0
 42
0.0000001
 43
0.0000001
 44
0.0000000001
 40
0.0
 40
0.0
 40
0.0
 40
0.0
 40
0.2483022266
 40
0.5067863911
 40
0.7617324737
 40
1.0
 40
1.0
 40
1.0
 40
1.0
 10
15.169439391
 20
11.3433056387
 30
0.0
 10
15.1773032584
 20
11.3433056387
 30
0.0
 10
15.1933755871
 20
11.3417340649
 30
0.0
 10
15.2167763566
 20
11.3354814383
 30
0.0
 10
15.2386032743
 20
11.3257327295
 30
0.0
 10
15.251655493
 20
11.3169452025
 30
0.0
 10
15.2574157584
 20
11.3120705325
 30
0.0
  0
SPLINE
  5
2C0
100
AcDbEntity
  8
0
100
AcDbSpline
 62
7
  6
CONTINUOUS
 70
0
 71
3
 72
11
 73
7
 74
0
 42
0.0000001
 43
0.0000001
 44
0.0000000001
 40
0.0
 40
0.0
 40
0.0
 40
0.0
 40
0.2483022266
 40
0.5067863911
 40
0.7617324737
 40
1.0
 40
1.0
 40
1.0
 40
1.0
 10
14.6255057332
 20
11.3433056387
 30
0.0
 10
14.6333696005
 20
11.3433056387
 30
0.0
 10
14.6494419292
 20
11.3417340649
 30
0.0
 10
14.6728426987
 20
11.3354814383
 30
0.0
 10
14.6946696164
 20
11.3257327295
 30
0.0
 10
14.7077218351
 20
11.3169452025
 30
0.0
 10
14.7134821005
 20
11.3120705325
 30
0.0
  0
SPLINE
  5
2C1
100
AcDbEntity
  8
0
100
AcDbSpline
 62
7
  6
CONTINUOUS
 70
0
 71
3
 72
11
 73
7
 74
0
 42
0.0000001
 43
0.0000001
 44
0.0000000001
 40
0.0
 40
0.0
 40
0.0
 40
0.0
 40
0.2483022266
 40
0.5067863911
 40
0.7617324737
 40
1.0
 40
1.0
 40
1.0
 40
1.0
 10
14.0815720753
 20
11.3433056387
 30
0.0
 10
14.0894359426
 20
11.3433056387
 30
0.0
 10
14.1055082714
 20
11.3417340649
 30
0.0
 10
14.1289090408
 20
11.3354814383
 30
0.0
 10
14.1507359585
 20
11.3257327295
 30
0.0
 10
14.1637881772
 20
11.3169452025
 30
0.0
 10
14.1695484426
 20
11.3120705325
 30
0.0
  0
SPLINE
  5
2C2
100
AcDbEntity
  8
0
100
AcDbSpline
 62
7
  6
CONTINUOUS
 70
0
 71
3
 72
12
 73
8
 74
0
 42
0.0000001
 43
0.0000001
 44
0.0000000001
 40
0.0
 40
0.0
 40
0.0
 40
0.0
 40
0.3033581243
 40
0.569149061
 40
0.7966470256
 40
0.9001329672
 40
1.0
 40
1.0
 40
1.0
 40
1.0
 10
16.6563769092
 20
11.2552034385
 30
0.0
 10
16.6598436343
 20
11.2552034385
 30
0.0
 10
16.6663742109
 20
11.2557569195
 30
0.0
 10
16.6751438119
 20
11.2585003743
 30
0.0
 10
16.680895079
 20
11.2624674063
 30
0.0
 10
16.683888997
 20
11.2664228731
 30
0.0
 10
16.684844789
 20
11.2685684976
 30
0.0
 10
16.6851824536
 20
11.269658665
 30
0.0
  0
SPLINE
  5
2C3
100
AcDbEntity
  8
0
100
AcDbSpline
 62
7
  6
CONTINUOUS
 70
0
 71
3
 72
11
 73
7
 74
0
 42
0.0000001
 43
0.0000001
 44
0.0000000001
 40
0.0
 40
0.0
 40
0.0
 40
0.0
 40
0.2382525703
 40
0.4932144258
 40
0.7517128678
 40
1.0
 40
1.0
 40
1.0
 40
1.0
 10
16.3936969886
 20
11.2710998764
 30
0.0
 10
16.3966283706
 20
11.2686191714
 30
0.0
 10
16.4032710841
 20
11.2641470799
 30
0.0
 10
16.4143793576
 20
11.2591848346
 30
0.0
 10
16.4262891614
 20
11.2560034096
 30
0.0
 10
16.434468769
 20
11.2552034385
 30
0.0
 10
16.4384706756
 20
11.2552034385
 30
0.0
  0
SPLINE
  5
2C4
100
AcDbEntity
  8
0
100
AcDbSpline
 62
7
  6
CONTINUOUS
 70
0
 71
3
 72
12
 73
8
 74
0
 42
0.0000001
 43
0.0000001
 44
0.0000000001
 40
0.0
 40
0.0
 40
0.0
 40
0.0
 40
0.3033581243
 40
0.569149061
 40
0.7966470256
 40
0.9001329672
 40
1.0
 40
1.0
 40
1.0
 40
1.0
 10
16.1124432513
 20
11.2552034385
 30
0.0
 10
16.1159099764
 20
11.2552034385
 30
0.0
 10
16.122440553
 20
11.2557569195
 30
0.0
 10
16.131210154
 20
11.2585003743
 30
0.0
 10
16.1369614211
 20
11.2624674063
 30
0.0
 10
16.1399553391
 20
11.2664228731
 30
0.0
 10
16.1409111311
 20
11.2685684976
 30
0.0
 10
16.1412487957
 20
11.269658665
 30
0.0
  0
SPLINE
  5
2C5
100
AcDbEntity
  8
0
100
AcDbSpline
 62
7
  6
CONTINUOUS
 70
0
 71
3
 72
11
 73
7
 74
0
 42
0.0000001
 43
0.0000001
 44
0.0000000001
 40
0.0
 40
0.0
 40
0.0
 40
0.0
 40
0.2382525703
 40
0.4932144258
 40
0.7517128678
 40
1.0
 40
1.0
 40
1.0
 40
1.0
 10
15.8497633308
 20
11.2710998764
 30
0.0
 10
15.8526947127
 20
11.2686191714
 30
0.0
 10
15.8593374262
 20
11.2641470799
 30
0.0
 10
15.8704456997
 20
11.2591848346
 30
0.0
 10
15.8823555035
 20
11.2560034096
 30
0.0
 10
15.8905351111
 20
11.2552034385
 30
0.0
 10
15.8945370177
 20
11.2552034385
 30
0.0
  0
SPLINE
  5
2C6
100
AcDbEntity
  8
0
100
AcDbSpline
 62
7
  6
CONTINUOUS
 70
0
 71
3
 72
12
 73
8
 74
0
 42
0.0000001
 43
0.0000001
 44
0.0000000001
 40
0.0
 40
0.0
 40
0.0
 40
0.0
 40
0.3033581243
 40
0.569149061
 40
0.7966470256
 40
0.9001329672
 40
1.0
 40
1.0
 40
1.0
 40
1.0
 10
15.5685095934
 20
11.2552034385
 30
0.0
 10
15.5719763185
 20
11.2552034385
 30
0.0
 10
15.5785068951
 20
11.2557569195
 30
0.0
 10
15.5872764961
 20
11.2585003743
 30
0.0
 10
15.5930277633
 20
11.2624674063
 30
0.0
 10
15.5960216812
 20
11.2664228731
 30
0.0
 10
15.5969774732
 20
11.2685684976
 30
0.0
 10
15.5973151379
 20
11.269658665
 30
0.0
  0
SPLINE
  5
2C7
100
AcDbEntity
  8
0
100
AcDbSpline
 62
7
  6
CONTINUOUS
 70
0
 71
3
 72
11
 73
7
 74
0
 42
0.0000001
 43
0.0000001
 44
0.0000000001
 40
0.0
 40
0.0
 40
0.0
 40
0.0
 40
0.2382525703
 40
0.4932144258
 40
0.7517128678
 40
1.0
 40
1.0
 40
1.0
 40
1.0
 10
15.3058296729
 20
11.2710998764
 30
0.0
 10
15.3087610548
 20
11.2686191714
 30
0.0
 10
15.3154037683
 20
11.2641470799
 30
0.0
 10
15.3265120418
 20
11.2591848346
 30
0.0
 10
15.3384218457
 20
11.2560034096
 30
0.0
 10
15.3466014532
 20
11.2552034385
 30
0.0
 10
15.3506033598
 20
11.2552034385
 30
0.0
  0
SPLINE
  5
2C8
100
AcDbEntity
  8
0
100
AcDbSpline
 62
7
  6
CONTINUOUS
 70
0
 71
3
 72
12
 73
8
 74
0
 42
0.0000001
 43
0.0000001
 44
0.0000000001
 40
0.0
 40
0.0
 40
0.0
 40
0.0
 40
0.3033581243
 40
0.569149061
 40
0.7966470256
 40
0.9001329672
 40
1.0
 40
1.0
 40
1.0
 40
1.0
 10
15.0245759355
 20
11.2552034385
 30
0.0
 10
15.0280426607
 20
11.2552034385
 30
0.0
 10
15.0345732373
 20
11.2557569195
 30
0.0
 10
15.0433428382
 20
11.2585003743
 30
0.0
 10
15.0490941054
 20
11.2624674063
 30
0.0
 10
15.0520880234
 20
11.2664228731
 30
0.0
 10
15.0530438154
 20
11.2685684976
 30
0.0
 10
15.05338148
 20
11.269658665
 30
0.0
  0
SPLINE
  5
2C9
100
AcDbEntity
  8
0
100
AcDbSpline
 62
7
  6
CONTINUOUS
 70
0
 71
3
 72
11
 73
7
 74
0
 42
0.0000001
 43
0.0000001
 44
0.0000000001
 40
0.0
 40
0.0
 40
0.0
 40
0.0
 40
0.2382525703
 40
0.4932144258
 40
0.7517128678
 40
1.0
 40
1.0
 40
1.0
 40
1.0
 10
14.761896015
 20
11.2710998764
 30
0.0
 10
14.764827397
 20
11.2686191714
 30
0.0
 10
14.7714701105
 20
11.2641470799
 30
0.0
 10
14.7825783839
 20
11.2591848346
 30
0.0
 10
14.7944881878
 20
11.2560034096
 30
0.0
 10
14.8026677953
 20
11.2552034385
 30
0.0
 10
14.806669702
 20
11.2552034385
 30
0.0
  0
SPLINE
  5
2CA
100
AcDbEntity
  8
0
100
AcDbSpline
 62
7
  6
CONTINUOUS
 70
0
 71
3
 72
12
 73
8
 74
0
 42
0.0000001
 43
0.0000001
 44
0.0000000001
 40
0.0
 40
0.0
 40
0.0
 40
0.0
 40
0.3033581243
 40
0.569149061
 40
0.7966470256
 40
0.9001329672
 40
1.0
 40
1.0
 40
1.0
 40
1.0
 10
14.4806422777
 20
11.2552034385
 30
0.0
 10
14.4841090028
 20
11.2552034385
 30
0.0
 10
14.4906395794
 20
11.2557569195
 30
0.0
 10
14.4994091804
 20
11.2585003743
 30
0.0
 10
14.5051604475
 20
11.2624674063
 30
0.0
 10
14.5081543655
 20
11.2664228731
 30
0.0
 10
14.5091101575
 20
11.2685684976
 30
0.0
 10
14.5094478221
 20
11.269658665
 30
0.0
  0
SPLINE
  5
2CB
100
AcDbEntity
  8
0
100
AcDbSpline
 62
7
  6
CONTINUOUS
 70
0
 71
3
 72
11
 73
7
 74
0
 42
0.0000001
 43
0.0000001
 44
0.0000000001
 40
0.0
 40
0.0
 40
0.0
 40
0.0
 40
0.2382525703
 40
0.4932144258
 40
0.7517128678
 40
1.0
 40
1.0
 40
1.0
 40
1.0
 10
14.2179623571
 20
11.2710998764
 30
0.0
 10
14.2208937391
 20
11.2686191714
 30
0.0
 10
14.2275364526
 20
11.2641470799
 30
0.0
 10
14.238644726
 20
11.2591848346
 30
0.0
 10
14.2505545299
 20
11.2560034096
 30
0.0
 10
14.2587341375
 20
11.2552034385
 30
0.0
 10
14.2627360441
 20
11.2552034385
 30
0.0
  0
SPLINE
  5
2CC
100
AcDbEntity
  8
0
100
AcDbSpline
 62
7
  6
CONTINUOUS
 70
0
 71
3
 72
12
 73
8
 74
0
 42
0.0000001
 43
0.0000001
 44
0.0000000001
 40
0.0
 40
0.0
 40
0.0
 40
0.0
 40
0.3034037645
 40
0.5691550625
 40
0.7966804447
 40
0.9001145969
 40
1.0
 40
1.0
 40
1.0
 40
1.0
 10
13.9367086198
 20
11.2552034385
 30
0.0
 10
13.9401758836
 20
11.2552034385
 30
0.0
 10
13.9467065654
 20
11.2557566491
 30
0.0
 10
13.9554766079
 20
11.2585010924
 30
0.0
 10
13.9612261917
 20
11.262468434
 30
0.0
 10
13.964222214
 20
11.2664222955
 30
0.0
 10
13.9651770456
 20
11.2685681031
 30
0.0
 10
13.965514427
 20
11.2696585838
 30
0.0
  0
SPLINE
  5
2CD
100
AcDbEntity
  8
0
100
AcDbSpline
 62
7
  6
CONTINUOUS
 70
0
 71
3
 72
11
 73
7
 74
0
 42
0.0000001
 43
0.0000001
 44
0.0000000001
 40
0.0
 40
0.0
 40
0.0
 40
0.0
 40
0.2382674309
 40
0.4932148578
 40
0.7516985924
 40
1.0
 40
1.0
 40
1.0
 40
1.0
 10
13.6740286993
 20
11.2710998764
 30
0.0
 10
13.6769602617
 20
11.2686190186
 30
0.0
 10
13.6836029262
 20
11.2641467848
 30
0.0
 10
13.6947112826
 20
11.2591853873
 30
0.0
 10
13.7066206054
 20
11.2560032514
 30
0.0
 10
13.7148002527
 20
11.2552034385
 30
0.0
 10
13.7188023862
 20
11.2552034385
 30
0.0
  0
SPLINE
  5
2CE
100
AcDbEntity
  8
0
100
AcDbSpline
 62
7
  6
CONTINUOUS
 70
0
 71
3
 72
11
 73
7
 74
0
 42
0.0000001
 43
0.0000001
 44
0.0000000001
 40
0.0
 40
0.0
 40
0.0
 40
0.0
 40
0.2483032208
 40
0.5067862408
 40
0.7617315507
 40
1.0
 40
1.0
 40
1.0
 40
1.0
 10
13.5376384174
 20
11.3433056387
 30
0.0
 10
13.5455023163
 20
11.3433056387
 30
0.0
 10
13.5615746417
 20
11.341734066
 30
0.0
 10
13.5849753781
 20
11.3354814324
 30
0.0
 10
13.6068022725
 20
11.3257327509
 30
0.0
 10
13.619854497
 20
11.3169452214
 30
0.0
 10
13.6256147848
 20
11.3120705325
 30
0.0
  0
ENDSEC
  0
SECTION
  2
OBJECTS
  0
DICTIONARY
  5
C
100
AcDbDictionary
280
0
281
1
  3
ACAD_GROUP
350
D
  3
ACAD_MLINESTYLE
350
17
  3
ACAD_LAYOUT
350
1A
  3
ACAD_PLOTSETTINGS
350
19
  3
ACAD_PLOTSTYLENAME
350
E
  0
DICTIONARY
  5
D
102
{ACAD_REACTORS
330
C
102
}
100
AcDbDictionary
280
0
281
1
  0
ACDBDICTIONARYWDFLT
  5
E
102
{ACAD_REACTORS
330
C
102
}
100
AcDbDictionary
281
1
  3
Normal
350
F
100
AcDbDictionaryWithDefault
340
F
  0
DICTIONARY
  5
17
102
{ACAD_REACTORS
330
C
102
}
100
AcDbDictionary
280
0
281
1
  3
Standard
350
18
  0
DICTIONARY
  5
19
102
{ACAD_REACTORS
330
C
102
}
100
AcDbDictionary
281
1
  0
DICTIONARY
  5
1A
102
{ACAD_REACTORS
330
C
102
}
100
AcDbDictionary
281
1
  3
Model
350
2CF
  3
Layout1
350
2D0
  0
ACDBPLACEHOLDER
  5
F
102
{ACAD_REACTORS
330
E
102
}
  0
MLINESTYLE
  5
18
102
{ACAD_REACTORS
330
17
102
}
100
AcDbMlineStyle
  2
STANDARD
 70
0
  3

 62
256
 51
90.0
 52
90.0
 71
2
 49
0.5
 62
256
  6
BYLAYER
 49
-0.5
 62
256
  6
BYLAYER
  0
LAYOUT
  5
2CF
102
{ACAD_REACTORS
330
1A
102
}
100
AcDbPlotSettings
  1

  2
none_device
  4
ANSI_C_(22.00_x_17.00_Inches)
  6

 40
0.0
 41
0.0
 42
0.0
 43
0.0
 44
558.8
 45
431.8
 46
0.0
 47
0.0
 48
0.0
 49
0.0
140
0.0
141
0.0
142
1.0
143
1.0
 70
1024
 72
0
 73
0
 74
0
  7

 75
0
147
1.0
148
0.0
149
0.0
100
AcDbLayout
  1
Model
 70
0
 71
0
 10
0.0
 20
0.0
 11
22.0
 21
17.0
 12
0.0
 22
0.0
 32
0.0
 14
0.0
 24
0.0
 34
0.0
 15
0.0
 25
0.0
 35
0.0
146
0.0
 13
0.0
 23
0.0
 33
0.0
 16
1.0
 26
0.0
 36
0.0
 17
0.0
 27
1.0
 37
0.0
 76
0
330
216
345
0
346
0
  0
LAYOUT
  5
2D0
102
{ACAD_REACTORS
330
1A
102
}
100
AcDbPlotSettings
  1

  2
none_device
  4
ANSI_C_(22.00_x_17.00_Inches)
  6

 40
0.0
 41
0.0
 42
0.0
 43
0.0
 44
558.8
 45
431.8
 46
0.0
 47
0.0
 48
0.0
 49
0.0
140
0.0
141
0.0
142
1.0
143
1.0
 70
0
 72
0
 73
0
 74
0
  7

 75
0
147
1.0
148
0.0
149
0.0
100
AcDbLayout
  1
Layout1
 70
0
 71
1
 10
0.0
 20
0.0
 11
22.0
 21
17.0
 12
0.0
 22
0.0
 32
0.0
 14
0.0
 24
0.0
 34
0.0
 15
0.0
 25
0.0
 35
0.0
146
0.0
 13
0.0
 23
0.0
 33
0.0
 16
1.0
 26
0.0
 36
0.0
 17
0.0
 27
1.0
 37
0.0
 76
0
330
217
345
0
346
0
  0
ENDSEC
  0
EOF