999
DXF file: _cgs_temp_output.dxf
999
Pro/ENGINEER 2016360 by Parametric Technology Corporation
  0
SECTION
  2
HEADER
  9
$ACADVER
  1
AC1021
  9
$DWGCODEPAGE
  3
ANSI_1252
  9
$EXTMAX
 10
22.0
 20
17.0
 30
0.0
  9
$EXTMIN
 10
0.0
 20
0.0
 30
0.0
  9
$LIMMIN
 10
0.0
 20
0.0
  9
$LIMMAX
 10
22.0
 20
17.0
  9
$VIEWCTR
 10
11.0
 20
8.5
  9
$VIEWSIZE
 40
17.0
  9
$CLAYER
  8
0
  9
$LTSCALE
 40
1.21
  9
$CELTYPE
  6
BYLAYER
  9
$DIMSCALE
 40
1.0
  9
$DIMASZ
 40
0.1875
  9
$DIMEXO
 40
0.0625
  9
$DIMDLI
 40
0.836
  9
$DIMEXE
 40
0.125
  9
$DIMCEN
 40
0.198
  9
$DIMLFAC
 40
1.0
  9
$DIMBLK
  1
_CLOSED
  9
$DIMALT
 70
0
  9
$DIMALTF
 40
25.4
  9
$DIMTXT
 40
0.15625
  9
$DIMTOL
 70
0
  9
$DIMLIM
 70
0
  9
$DIMTFAC
 40
1.0
  9
$DIMGAP
 40
0.09
  9
$DIMDSEP
 70
46
  9
$AUNITS
 70
0
  9
$PDMODE
 70
3
  9
$PDSIZE
 40
0.3125
  9
$HANDSEED
  5
2B4
  9
$TILEMODE
 70
1
  9
$MEASUREMENT
 70
0
  9
$INSUNITS
 70
1
  0
ENDSEC
  0
SECTION
  2
CLASSES
  0
CLASS
  1
ACDBDICTIONARYWDFLT
  2
AcDbDictionaryWithDefault
  3
AutoCAD 2000
 90
0
 91
1
280
0
281
0
  0
CLASS
  1
ACDBPLACEHOLDER
  2
AcDbPlaceHolder
  3
AutoCAD 2000
 90
0
 91
1
280
0
281
0
  0
CLASS
  1
LAYOUT
  2
AcDbLayout
  3
AutoCAD 2000
 90
0
 91
0
280
0
281
0
  0
ENDSEC
  0
SECTION
  2
TABLES
  0
TABLE
  2
VPORT
  5
8
100
AcDbSymbolTable
 70
2
  0
VPORT
  5
1F4
100
AcDbSymbolTableRecord
100
AcDbViewportTableRecord
  2
*ACTIVE
 70
0
 10
0.0
 20
0.0
 11
1.0
 21
1.0
 12
11.0
 22
8.5
 13
0.0
 23
0.0
 14
1.0
 24
1.0
 15
0.0
 25
0.0
 16
0.0
 26
0.0
 36
1.0
 17
0.0
 27
0.0
 37
0.0
 40
17.0
 41
1.2941176471
 42
50.0
 43
0.0
 44
0.0
 50
0.0
 51
0.0
 71
0
 72
100
 73
1
 74
1
 75
0
 76
0
 77
0
 78
0
  0
ENDTAB
  0
TABLE
  2
LTYPE
  5
5
100
AcDbSymbolTable
 70
6
  0
LTYPE
  5
14
100
AcDbSymbolTableRecord
100
AcDbLinetypeTableRecord
  2
BYBLOCK
 70
0
  3

 72
65
 73
0
 40
0.0
  0
LTYPE
  5
15
100
AcDbSymbolTableRecord
100
AcDbLinetypeTableRecord
  2
BYLAYER
 70
0
  3

 72
65
 73
0
 40
0.0
  0
LTYPE
  5
16
100
AcDbSymbolTableRecord
100
AcDbLinetypeTableRecord
  2
CONTINUOUS
 70
64
  3
Solid line
 72
65
 73
0
 40
0.0
  0
LTYPE
  5
1F5
100
AcDbSymbolTableRecord
100
AcDbLinetypeTableRecord
  2
CENTER
 70
64
  3
____ _ ____ _ ____ _ ____ _ ____ _ ____ _ ____
 72
65
 73
4
 40
0.6
 49
0.375
 74
0
 49
-0.075
 74
0
 49
0.075
 74
0
 49
-0.075
 74
0
  0
LTYPE
  5
1F6
100
AcDbSymbolTableRecord
100
AcDbLinetypeTableRecord
  2
HIDDEN
 70
64
  3
- - - - - - - - - - - - - - - - - - - -
 72
65
 73
2
 40
0.2
 49
0.1
 74
0
 49
-0.1
 74
0
  0
LTYPE
  5
1F7
100
AcDbSymbolTableRecord
100
AcDbLinetypeTableRecord
  2
PHANTOM
 70
64
  3
_____ _ _ _____ _ _ _____ _ _ _____
 72
65
 73
6
 40
0.8
 49
0.45
 74
0
 49
-0.05
 74
0
 49
0.1
 74
0
 49
-0.05
 74
0
 49
0.1
 74
0
 49
-0.05
 74
0
  0
LTYPE
  5
1F8
100
AcDbSymbolTableRecord
100
AcDbLinetypeTableRecord
  2
DOT
 70
64
  3
. . . . . . . . . . . . . . . . . . . .
 72
65
 73
2
 40
0.2
 49
0.1
 74
0
 49
-0.1
 74
0
  0
LTYPE
  5
1F9
100
AcDbSymbolTableRecord
100
AcDbLinetypeTableRecord
  2
DASHED
 70
64
  3
- - - - - - - - - - - - - - - - - - - -
 72
65
 73
2
 40
0.2
 49
0.1
 74
0
 49
-0.1
 74
0
  0
ENDTAB
  0
TABLE
  2
LAYER
  5
2
100
AcDbSymbolTable
 70
36
  0
LAYER
  5
10
100
AcDbSymbolTableRecord
100
AcDbLayerTableRecord
  2
0
 70
0
 62
7
  6
CONTINUOUS
370
-3
390
F
  0
LAYER
  5
1FA
100
AcDbSymbolTableRecord
100
AcDbLayerTableRecord
  2
DEFAULT_1
 70
0
 62
7
  6
CENTER
370
-3
390
F
  0
LAYER
  5
1FB
100
AcDbSymbolTableRecord
100
AcDbLayerTableRecord
  2
DEFAULT_2
 70
0
 62
8
  6
HIDDEN
370
-3
390
F
  0
LAYER
  5
1FC
100
AcDbSymbolTableRecord
100
AcDbLayerTableRecord
  2
DEFAULT_3
 70
0
 62
7
  6
PHANTOM
370
-3
390
F
  0
LAYER
  5
1FD
100
AcDbSymbolTableRecord
100
AcDbLayerTableRecord
  2
01_ALL_DTM_PLN
 70
0
 62
7
  6
CONTINUOUS
370
-3
390
F
  0
LAYER
  5
1FE
100
AcDbSymbolTableRecord
100
AcDbLayerTableRecord
  2
01__ASM_ALL_DTM_PLN
 70
0
 62
7
  6
CONTINUOUS
370
-3
390
F
  0
LAYER
  5
1FF
100
AcDbSymbolTableRecord
100
AcDbLayerTableRecord
  2
01__ASM_DEF_DTM_PLN
 70
0
 62
7
  6
CONTINUOUS
370
-3
390
F
  0
LAYER
  5
200
100
AcDbSymbolTableRecord
100
AcDbLayerTableRecord
  2
01___PRT_ALL_DTM_PLN
 70
0
 62
7
  6
CONTINUOUS
370
-3
390
F
  0
LAYER
  5
201
100
AcDbSymbolTableRecord
100
AcDbLayerTableRecord
  2
01___PRT_DEF_DTM_PLN
 70
0
 62
7
  6
CONTINUOUS
370
-3
390
F
  0
LAYER
  5
202
100
AcDbSymbolTableRecord
100
AcDbLayerTableRecord
  2
02_ALL_AXES
 70
0
 62
7
  6
CONTINUOUS
370
-3
390
F
  0
LAYER
  5
203
100
AcDbSymbolTableRecord
100
AcDbLayerTableRecord
  2
02__ASM_ALL_AXES
 70
0
 62
7
  6
CONTINUOUS
370
-3
390
F
  0
LAYER
  5
204
100
AcDbSymbolTableRecord
100
AcDbLayerTableRecord
  2
02___PRT_ALL_AXES
 70
0
 62
7
  6
CONTINUOUS
370
-3
390
F
  0
LAYER
  5
205
100
AcDbSymbolTableRecord
100
AcDbLayerTableRecord
  2
03_ALL_CURVES
 70
0
 62
7
  6
CONTINUOUS
370
-3
390
F
  0
LAYER
  5
206
100
AcDbSymbolTableRecord
100
AcDbLayerTableRecord
  2
03__ASM_ALL_CURVES
 70
0
 62
7
  6
CONTINUOUS
370
-3
390
F
  0
LAYER
  5
207
100
AcDbSymbolTableRecord
100
AcDbLayerTableRecord
  2
03___PRT_ALL_CURVES
 70
0
 62
7
  6
CONTINUOUS
370
-3
390
F
  0
LAYER
  5
208
100
AcDbSymbolTableRecord
100
AcDbLayerTableRecord
  2
04_ALL_DTM_PNT
 70
0
 62
7
  6
CONTINUOUS
370
-3
390
F
  0
LAYER
  5
209
100
AcDbSymbolTableRecord
100
AcDbLayerTableRecord
  2
04__ASM_ALL_DTM_PNT
 70
0
 62
7
  6
CONTINUOUS
370
-3
390
F
  0
LAYER
  5
20A
100
AcDbSymbolTableRecord
100
AcDbLayerTableRecord
  2
04___PRT_ALL_DTM_PNT
 70
0
 62
7
  6
CONTINUOUS
370
-3
390
F
  0
LAYER
  5
20B
100
AcDbSymbolTableRecord
100
AcDbLayerTableRecord
  2
05_ALL_DTM_CSYS
 70
0
 62
7
  6
CONTINUOUS
370
-3
390
F
  0
LAYER
  5
20C
100
AcDbSymbolTableRecord
100
AcDbLayerTableRecord
  2
05__ASM_ALL_DTM_CSYS
 70
0
 62
7
  6
CONTINUOUS
370
-3
390
F
  0
LAYER
  5
20D
100
AcDbSymbolTableRecord
100
AcDbLayerTableRecord
  2
05__ASM_DEF_DTM_CSYS
 70
0
 62
7
  6
CONTINUOUS
370
-3
390
F
  0
LAYER
  5
20E
100
AcDbSymbolTableRecord
100
AcDbLayerTableRecord
  2
05___PRT_ALL_DTM_CSYS
 70
0
 62
7
  6
CONTINUOUS
370
-3
390
F
  0
LAYER
  5
20F
100
AcDbSymbolTableRecord
100
AcDbLayerTableRecord
  2
05___PRT_DEF_DTM_CSYS
 70
0
 62
7
  6
CONTINUOUS
370
-3
390
F
  0
LAYER
  5
210
100
AcDbSymbolTableRecord
100
AcDbLayerTableRecord
  2
06_ALL_SURFS
 70
0
 62
7
  6
CONTINUOUS
370
-3
390
F
  0
LAYER
  5
211
100
AcDbSymbolTableRecord
100
AcDbLayerTableRecord
  2
06__ASM_ALL_SURFS
 70
0
 62
7
  6
CONTINUOUS
370
-3
390
F
  0
LAYER
  5
212
100
AcDbSymbolTableRecord
100
AcDbLayerTableRecord
  2
06___PRT_ALL_SURFS
 70
0
 62
7
  6
CONTINUOUS
370
-3
390
F
  0
LAYER
  5
213
100
AcDbSymbolTableRecord
100
AcDbLayerTableRecord
  2
07__ASM_ALL_SKELETONS
 70
0
 62
7
  6
CONTINUOUS
370
-3
390
F
  0
ENDTAB
  0
TABLE
  2
STYLE
  5
3
100
AcDbSymbolTable
 70
1
  0
STYLE
  5
11
100
AcDbSymbolTableRecord
100
AcDbTextStyleTableRecord
  2
STANDARD
 70
0
 40
0.0
 41
0.8
 50
0.0
 71
0
 42
0.2
  3
txt
  4

  0
STYLE
  5
214
100
AcDbSymbolTableRecord
100
AcDbTextStyleTableRecord
  2
TEXTSTYLE_1
 70
0
 40
0.0
 41
0.8
 50
0.0
 71
0
 42
0.2
  3
gdt
  4

  0
ENDTAB
  0
TABLE
  2
VIEW
  5
6
100
AcDbSymbolTable
 70
0
  0
ENDTAB
  0
TABLE
  2
UCS
  5
7
100
AcDbSymbolTable
 70
0
  0
ENDTAB
  0
TABLE
  2
APPID
  5
9
100
AcDbSymbolTable
 70
1
  0
APPID
  5
215
100
AcDbSymbolTableRecord
100
AcDbRegAppTableRecord
  2
ACAD
 70
0
  0
ENDTAB
  0
TABLE
  2
BLOCK_RECORD
  5
1
100
AcDbSymbolTable
 70
0
  0
BLOCK_RECORD
  5
216
100
AcDbSymbolTableRecord
100
AcDbBlockTableRecord
  2
*Model_Space
  0
BLOCK_RECORD
  5
217
100
AcDbSymbolTableRecord
100
AcDbBlockTableRecord
  2
*Paper_Space
  0
ENDTAB
  0
TABLE
  2
DIMSTYLE
  5
A
100
AcDbSymbolTable
 70
1
100
AcDbDimStyleTable
 71
0
  0
DIMSTYLE
105
218
100
AcDbSymbolTableRecord
100
AcDbDimStyleTableRecord
  2
STANDARD
 70
0
  3

  4

 40
1.0
 41
0.1875
 42
0.0625
 43
0.38
 44
0.125
 45
0.0
 46
0.0
 47
0.0001
 48
0.0001
140
0.15625
141
0.09
142
0.0
143
25.4
144
1.0
145
0.0
146
1.0
147
0.09
 71
0.0
 72
0.0
 73
1
 74
1
 75
0
 76
0
 77
0
 78
4
 79
1
170
0
171
3
172
0
173
0
174
0
175
0
176
0
177
0
178
0
270
2
179
4
271
4
272
4
273
2
274
2
275
0
280
0
281
0
282
0
283
1
284
4
285
0
286
0
287
3
288
0
340
11
278
46
  0
ENDTAB
  0
ENDSEC
  0
SECTION
  2
BLOCKS
  0
BLOCK
  5
20
100
AcDbEntity
  8
0
100
AcDbBlockBegin
  2
*Model_Space
 70
0
 10
0.0
 20
0.0
 30
0.0
  3
*Model_Space
  1

  0
ENDBLK
  5
21
100
AcDbEntity
  8
0
100
AcDbBlockEnd
  0
BLOCK
  5
1C
100
AcDbEntity
  8
0
100
AcDbBlockBegin
  2
*Paper_Space
 70
0
 10
0.0
 20
0.0
 30
0.0
  3
*Paper_Space
  1

  0
ENDBLK
  5
1D
100
AcDbEntity
  8
0
100
AcDbBlockEnd
  0
ENDSEC
  0
SECTION
  2
ENTITIES
  0
MTEXT
  5
219
100
AcDbEntity
  8
0
100
AcDbMText
 62
7
  6
CONTINUOUS
  7
STANDARD
 71
1
 72
1
 10
15.9560215477
 20
0.9479130325
 30
0.0
 11
1.0
 21
0.0
 31
0.0
 44
0.9
  1
SCALE: 1:1.000
 40
0.3
 41
3.36
  0
LINE
  5
21A
100
AcDbEntity
  8
0
100
AcDbLine
 62
7
  6
CONTINUOUS
 10
0.0
 20
0.0
 11
0.0
 21
17.0
  0
LINE
  5
21B
100
AcDbEntity
  8
0
100
AcDbLine
 62
7
  6
CONTINUOUS
 10
0.0
 20
0.0
 11
22.0
 21
0.0
  0
LINE
  5
21C
100
AcDbEntity
  8
0
100
AcDbLine
 62
7
  6
CONTINUOUS
 10
0.0
 20
17.0
 11
22.0
 21
17.0
  0
LINE
  5
21D
100
AcDbEntity
  8
0
100
AcDbLine
 62
7
  6
CONTINUOUS
 10
22.0
 20
0.0
 11
22.0
 21
17.0
  0
LINE
  5
21E
100
AcDbEntity
  8
0
100
AcDbLine
 62
7
  6
CONTINUOUS
 10
3.7681625518
 20
5.6776002117
 11
3.7681625518
 21
5.5909860385
  0
LINE
  5
21F
100
AcDbEntity
  8
0
100
AcDbLine
 62
7
  6
CONTINUOUS
 10
3.8919558356
 20
5.500866467
 11
3.9484621638
 21
5.3796882552
  0
LINE
  5
220
100
AcDbEntity
  8
0
100
AcDbLine
 62
7
  6
CONTINUOUS
 10
3.7681625518
 20
5.5909860385
 11
3.7996297777
 21
5.5595188125
  0
LINE
  5
221
100
AcDbEntity
  8
0
100
AcDbLine
 62
7
  6
CONTINUOUS
 10
4.3752645145
 20
5.3796882552
 11
4.4317708427
 21
5.500866467
  0
LINE
  5
222
100
AcDbEntity
  8
0
100
AcDbLine
 62
7
  6
CONTINUOUS
 10
4.6793574104
 20
5.500866467
 11
4.7358637386
 21
5.3796882552
  0
LINE
  5
223
100
AcDbEntity
  8
0
100
AcDbLine
 62
7
  6
CONTINUOUS
 10
4.5240968938
 20
5.5595188057
 11
4.5555641266
 21
5.5909860385
  0
LINE
  5
224
100
AcDbEntity
  8
0
100
AcDbLine
 62
7
  6
CONTINUOUS
 10
4.5555641266
 20
5.5909860385
 11
4.5870248667
 21
5.5595252984
  0
LINE
  5
225
100
AcDbEntity
  8
0
100
AcDbLine
 62
7
  6
CONTINUOUS
 10
5.1626660893
 20
5.3796882552
 11
5.2191724175
 21
5.500866467
  0
LINE
  5
226
100
AcDbEntity
  8
0
100
AcDbLine
 62
7
  6
CONTINUOUS
 10
5.3115049477
 20
5.5595252848
 11
5.3429657014
 21
5.5909860385
  0
LINE
  5
227
100
AcDbEntity
  8
0
100
AcDbLine
 62
7
  6
CONTINUOUS
 10
5.3429657014
 20
5.5909860385
 11
5.3744264415
 21
5.5595252984
  0
LINE
  5
228
100
AcDbEntity
  8
0
100
AcDbLine
 62
7
  6
CONTINUOUS
 10
5.4667589852
 20
5.500866467
 11
5.5232653134
 21
5.3796882552
  0
LINE
  5
229
100
AcDbEntity
  8
0
100
AcDbLine
 62
7
  6
CONTINUOUS
 10
3.9752232205
 20
5.3626395818
 11
4.3485034578
 21
5.3626395818
  0
LINE
  5
22A
100
AcDbEntity
  8
0
100
AcDbLine
 62
7
  6
CONTINUOUS
 10
4.7626247953
 20
5.3626395818
 11
5.1359050326
 21
5.3626395818
  0
LINE
  5
22B
100
AcDbEntity
  8
0
100
AcDbLine
 62
7
  6
CONTINUOUS
 10
5.5500263701
 20
5.3626395818
 11
5.9233066074
 21
5.3626395818
  0
LINE
  5
22C
100
AcDbEntity
  8
0
100
AcDbLine
 62
7
  6
CONTINUOUS
 10
6.3374279449
 20
5.3626395818
 11
6.7107081822
 21
5.3626395818
  0
LINE
  5
22D
100
AcDbEntity
  8
0
100
AcDbLine
 62
7
  6
CONTINUOUS
 10
7.1248295197
 20
5.3626395818
 11
7.498109757
 21
5.3626395818
  0
LINE
  5
22E
100
AcDbEntity
  8
0
100
AcDbLine
 62
7
  6
CONTINUOUS
 10
7.9122310945
 20
5.3626395818
 11
8.2855113318
 21
5.3626395818
  0
LINE
  5
22F
100
AcDbEntity
  8
0
100
AcDbLine
 62
7
  6
CONTINUOUS
 10
5.9500676641
 20
5.3796882552
 11
6.0065739923
 21
5.500866467
  0
LINE
  5
230
100
AcDbEntity
  8
0
100
AcDbLine
 62
7
  6
CONTINUOUS
 10
6.0989065225
 20
5.5595252848
 11
6.1303672762
 21
5.5909860385
  0
LINE
  5
231
100
AcDbEntity
  8
0
100
AcDbLine
 62
7
  6
CONTINUOUS
 10
8.4925720006
 20
5.6776002117
 11
3.7681625518
 21
5.6776002117
  0
LINE
  5
232
100
AcDbEntity
  8
0
100
AcDbLine
 62
7
  6
CONTINUOUS
 10
6.1303672762
 20
5.5909860385
 11
6.1618280163
 21
5.5595252984
  0
LINE
  5
233
100
AcDbEntity
  8
0
100
AcDbLine
 62
7
  6
CONTINUOUS
 10
6.25416056
 20
5.500866467
 11
6.3106668882
 21
5.3796882552
  0
LINE
  5
234
100
AcDbEntity
  8
0
100
AcDbLine
 62
7
  6
CONTINUOUS
 10
6.7374692389
 20
5.3796882552
 11
6.7939755671
 21
5.500866467
  0
LINE
  5
235
100
AcDbEntity
  8
0
100
AcDbLine
 62
7
  6
CONTINUOUS
 10
6.8863080973
 20
5.5595252848
 11
6.917768851
 21
5.5909860385
  0
LINE
  5
236
100
AcDbEntity
  8
0
100
AcDbLine
 62
7
  6
CONTINUOUS
 10
6.917768851
 20
5.5909860385
 11
6.9492295911
 21
5.5595252984
  0
LINE
  5
237
100
AcDbEntity
  8
0
100
AcDbLine
 62
7
  6
CONTINUOUS
 10
7.0415621348
 20
5.500866467
 11
7.098068463
 21
5.3796882552
  0
LINE
  5
238
100
AcDbEntity
  8
0
100
AcDbLine
 62
7
  6
CONTINUOUS
 10
7.6737096721
 20
5.5595252848
 11
7.7051704258
 21
5.5909860385
  0
LINE
  5
239
100
AcDbEntity
  8
0
100
AcDbLine
 62
7
  6
CONTINUOUS
 10
7.7051704258
 20
5.5909860385
 11
7.7366311659
 21
5.5595252984
  0
LINE
  5
23A
100
AcDbEntity
  8
0
100
AcDbLine
 62
7
  6
CONTINUOUS
 10
7.5248708137
 20
5.3796882552
 11
7.5813771419
 21
5.500866467
  0
LINE
  5
23B
100
AcDbEntity
  8
0
100
AcDbLine
 62
7
  6
CONTINUOUS
 10
7.8289637096
 20
5.500866467
 11
7.8854700378
 21
5.3796882552
  0
LINE
  5
23C
100
AcDbEntity
  8
0
100
AcDbLine
 62
7
  6
CONTINUOUS
 10
8.4611112469
 20
5.5595252848
 11
8.4925720006
 21
5.5909860385
  0
LINE
  5
23D
100
AcDbEntity
  8
0
100
AcDbLine
 62
7
  6
CONTINUOUS
 10
8.3122723885
 20
5.3796882552
 11
8.3687787167
 21
5.500866467
  0
LINE
  5
23E
100
AcDbEntity
  8
0
100
AcDbLine
 62
7
  6
CONTINUOUS
 10
8.4925720006
 20
5.5909860385
 11
8.4925720006
 21
5.6776002117
  0
LINE
  5
23F
100
AcDbEntity
  8
0
100
AcDbLine
 62
7
  6
CONTINUOUS
 10
3.7086673594
 20
13.2299690412
 11
3.7086673594
 21
11.9701265215
  0
LINE
  5
240
100
AcDbEntity
  8
0
100
AcDbLine
 62
7
  6
CONTINUOUS
 10
8.4330768083
 20
11.9701265215
 11
3.7086673594
 21
11.9701265215
  0
LINE
  5
241
100
AcDbEntity
  8
0
100
AcDbLine
 62
7
  6
CONTINUOUS
 10
3.7086673594
 20
13.2299690412
 11
8.4330768083
 21
13.2299690412
  0
LINE
  5
242
100
AcDbEntity
  8
0
100
AcDbLine
 62
7
  6
CONTINUOUS
 10
8.4330768083
 20
13.2299690412
 11
8.4330768083
 21
11.9701265215
  0
LINE
  5
243
100
AcDbEntity
  8
0
100
AcDbLine
 62
7
  6
CONTINUOUS
 10
14.9304339971
 20
5.3031443895
 11
14.9304339971
 21
5.6181050194
  0
LINE
  5
244
100
AcDbEntity
  8
0
100
AcDbLine
 62
7
  6
CONTINUOUS
 10
14.9304339971
 20
5.3031443895
 11
16.1902765168
 21
5.3031443895
  0
LINE
  5
245
100
AcDbEntity
  8
0
100
AcDbLine
 62
7
  6
CONTINUOUS
 10
16.1902765168
 20
5.4998564106
 11
14.9304339971
 21
5.4998564106
  0
LINE
  5
246
100
AcDbEntity
  8
0
100
AcDbLine
 62
7
  6
CONTINUOUS
 10
16.1902765168
 20
5.5314908462
 11
14.9304339971
 21
5.5314908462
  0
LINE
  5
247
100
AcDbEntity
  8
0
100
AcDbLine
 62
7
  6
CONTINUOUS
 10
16.1902765168
 20
5.6181050194
 11
14.9304339971
 21
5.6181050194
  0
LINE
  5
248
100
AcDbEntity
  8
0
100
AcDbLine
 62
7
  6
CONTINUOUS
 10
16.1902765168
 20
5.3031443895
 11
16.1902765168
 21
5.6181050194
  0
LINE
  5
249
100
AcDbEntity
  8
0
100
AcDbLine
 62
7
  6
CONTINUOUS
 10
13.129684639
 20
12.1152620527
 11
13.1561055881
 21
12.0614218192
  0
LINE
  5
24A
100
AcDbEntity
  8
0
100
AcDbLine
 62
7
  6
CONTINUOUS
 10
13.4346500858
 20
13.1021306003
 11
13.129684639
 21
12.1152620527
  0
LINE
  5
24B
100
AcDbEntity
  8
0
100
AcDbLine
 62
7
  6
CONTINUOUS
 10
13.2976169955
 20
12.0054025953
 11
13.3866271982
 21
11.9300770109
  0
LINE
  5
24C
100
AcDbEntity
  8
0
100
AcDbLine
 62
7
  6
CONTINUOUS
 10
13.7797381956
 20
11.9300770109
 11
13.7948195425
 21
12.0054025953
  0
LINE
  5
24D
100
AcDbEntity
  8
0
100
AcDbLine
 62
7
  6
CONTINUOUS
 10
13.7794955525
 20
11.9291156878
 11
13.7797381956
 21
11.9300770109
  0
LINE
  5
24E
100
AcDbEntity
  8
0
100
AcDbLine
 62
7
  6
CONTINUOUS
 10
13.7948195425
 20
12.0054025953
 11
13.7956547351
 21
12.0087079386
  0
LINE
  5
24F
100
AcDbEntity
  8
0
100
AcDbLine
 62
7
  6
CONTINUOUS
 10
13.7794942929
 20
11.9291160764
 11
13.8098688429
 21
12.027408156
  0
LINE
  5
250
100
AcDbEntity
  8
0
100
AcDbLine
 62
7
  6
CONTINUOUS
 10
13.1561055881
 20
12.0614218192
 11
13.1946876439
 21
12.0418614779
  0
LINE
  5
251
100
AcDbEntity
  8
0
100
AcDbLine
 62
7
  6
CONTINUOUS
 10
14.0228618726
 20
12.0054025953
 11
14.1118720754
 21
11.9300770109
  0
LINE
  5
252
100
AcDbEntity
  8
0
100
AcDbLine
 62
7
  6
CONTINUOUS
 10
13.8813504653
 20
12.0614218192
 11
13.9199245687
 21
12.0418655096
  0
LINE
  5
253
100
AcDbEntity
  8
0
100
AcDbLine
 62
7
  6
CONTINUOUS
 10
14.5049830728
 20
11.9300770109
 11
14.5200644197
 21
12.0054025953
  0
LINE
  5
254
100
AcDbEntity
  8
0
100
AcDbLine
 62
7
  6
CONTINUOUS
 10
14.5200644197
 20
12.0054025953
 11
14.5208986017
 21
12.0087082495
  0
LINE
  5
255
100
AcDbEntity
  8
0
100
AcDbLine
 62
7
  6
CONTINUOUS
 10
14.5047332173
 20
11.9291179215
 11
14.5049830728
 21
11.9300770109
  0
LINE
  5
256
100
AcDbEntity
  8
0
100
AcDbLine
 62
7
  6
CONTINUOUS
 10
13.861966048
 20
12.0418614737
 11
13.8813504653
 21
12.0614218192
  0
LINE
  5
257
100
AcDbEntity
  8
0
100
AcDbLine
 62
7
  6
CONTINUOUS
 10
14.6065953424
 20
12.0614218192
 11
14.6451694459
 21
12.0418655096
  0
LINE
  5
258
100
AcDbEntity
  8
0
100
AcDbLine
 62
7
  6
CONTINUOUS
 10
14.7481067498
 20
12.0054025953
 11
14.8371169526
 21
11.9300770109
  0
LINE
  5
259
100
AcDbEntity
  8
0
100
AcDbLine
 62
7
  6
CONTINUOUS
 10
14.5047391701
 20
11.9291160764
 11
14.5352786915
 21
12.0279420038
  0
LINE
  5
25A
100
AcDbEntity
  8
0
100
AcDbLine
 62
7
  6
CONTINUOUS
 10
13.4164763229
 20
11.9194793855
 11
13.7602901893
 21
11.9194793855
  0
LINE
  5
25B
100
AcDbEntity
  8
0
100
AcDbLine
 62
7
  6
CONTINUOUS
 10
14.1417212
 20
11.9194793855
 11
14.4855350664
 21
11.9194793855
  0
LINE
  5
25C
100
AcDbEntity
  8
0
100
AcDbLine
 62
7
  6
CONTINUOUS
 10
14.8669660772
 20
11.9194793855
 11
15.2107799436
 21
11.9194793855
  0
LINE
  5
25D
100
AcDbEntity
  8
0
100
AcDbLine
 62
7
  6
CONTINUOUS
 10
15.5922109544
 20
11.9194793855
 11
15.9360248208
 21
11.9194793855
  0
LINE
  5
25E
100
AcDbEntity
  8
0
100
AcDbLine
 62
7
  6
CONTINUOUS
 10
16.3174558315
 20
11.9194793855
 11
16.6612696979
 21
11.9194793855
  0
LINE
  5
25F
100
AcDbEntity
  8
0
100
AcDbLine
 62
7
  6
CONTINUOUS
 10
17.0427007087
 20
11.9194793855
 11
17.3865145751
 21
11.9194793855
  0
LINE
  5
260
100
AcDbEntity
  8
0
100
AcDbLine
 62
7
  6
CONTINUOUS
 10
15.3318402196
 20
12.0614218192
 11
15.3704143231
 21
12.0418655096
  0
LINE
  5
261
100
AcDbEntity
  8
0
100
AcDbLine
 62
7
  6
CONTINUOUS
 10
17.481153902
 20
12.1152620527
 11
13.129684639
 21
12.1152620527
  0
LINE
  5
262
100
AcDbEntity
  8
0
100
AcDbLine
 62
7
  6
CONTINUOUS
 10
15.473351627
 20
12.0054025953
 11
15.5623618297
 21
11.9300770109
  0
LINE
  5
263
100
AcDbEntity
  8
0
100
AcDbLine
 62
7
  6
CONTINUOUS
 10
14.5872149164
 20
12.0418655012
 11
14.6065953424
 21
12.0614218192
  0
LINE
  5
264
100
AcDbEntity
  8
0
100
AcDbLine
 62
7
  6
CONTINUOUS
 10
15.23022795
 20
11.9300770109
 11
15.2453092968
 21
12.0054025953
  0
LINE
  5
265
100
AcDbEntity
  8
0
100
AcDbLine
 62
7
  6
CONTINUOUS
 10
15.2453092968
 20
12.0054025953
 11
15.2461434789
 21
12.0087082495
  0
LINE
  5
266
100
AcDbEntity
  8
0
100
AcDbLine
 62
7
  6
CONTINUOUS
 10
15.2299780945
 20
11.9291179215
 11
15.23022795
 21
11.9300770109
  0
LINE
  5
267
100
AcDbEntity
  8
0
100
AcDbLine
 62
7
  6
CONTINUOUS
 10
15.2299840473
 20
11.9291160764
 11
15.2605235687
 21
12.0279420038
  0
LINE
  5
268
100
AcDbEntity
  8
0
100
AcDbLine
 62
7
  6
CONTINUOUS
 10
16.0570850968
 20
12.0614218192
 11
16.0956592002
 21
12.0418655096
  0
LINE
  5
269
100
AcDbEntity
  8
0
100
AcDbLine
 62
7
  6
CONTINUOUS
 10
16.1985965041
 20
12.0054025953
 11
16.2876067069
 21
11.9300770109
  0
LINE
  5
26A
100
AcDbEntity
  8
0
100
AcDbLine
 62
7
  6
CONTINUOUS
 10
15.3124597936
 20
12.0418655012
 11
15.3318402196
 21
12.0614218192
  0
LINE
  5
26B
100
AcDbEntity
  8
0
100
AcDbLine
 62
7
  6
CONTINUOUS
 10
16.7823299739
 20
12.0614218192
 11
16.8209040774
 21
12.0418655096
  0
LINE
  5
26C
100
AcDbEntity
  8
0
100
AcDbLine
 62
7
  6
CONTINUOUS
 10
15.9554728271
 20
11.9300770109
 11
15.970554174
 21
12.0054025953
  0
LINE
  5
26D
100
AcDbEntity
  8
0
100
AcDbLine
 62
7
  6
CONTINUOUS
 10
15.970554174
 20
12.0054025953
 11
15.971388356
 21
12.0087082495
  0
LINE
  5
26E
100
AcDbEntity
  8
0
100
AcDbLine
 62
7
  6
CONTINUOUS
 10
15.9552229716
 20
11.9291179215
 11
15.9554728271
 21
11.9300770109
  0
LINE
  5
26F
100
AcDbEntity
  8
0
100
AcDbLine
 62
7
  6
CONTINUOUS
 10
15.9552289245
 20
11.9291160764
 11
15.9857684458
 21
12.0279420038
  0
LINE
  5
270
100
AcDbEntity
  8
0
100
AcDbLine
 62
7
  6
CONTINUOUS
 10
13.4346500858
 20
13.1021306003
 11
17.7861193488
 21
13.1021306003
  0
LINE
  5
271
100
AcDbEntity
  8
0
100
AcDbLine
 62
7
  6
CONTINUOUS
 10
16.9238413813
 20
12.0054025953
 11
17.0128515841
 21
11.9300770109
  0
LINE
  5
272
100
AcDbEntity
  8
0
100
AcDbLine
 62
7
  6
CONTINUOUS
 10
16.0377046708
 20
12.0418655012
 11
16.0570850968
 21
12.0614218192
  0
LINE
  5
273
100
AcDbEntity
  8
0
100
AcDbLine
 62
7
  6
CONTINUOUS
 10
16.6807177043
 20
11.9300770109
 11
16.6957990512
 21
12.0054025953
  0
LINE
  5
274
100
AcDbEntity
  8
0
100
AcDbLine
 62
7
  6
CONTINUOUS
 10
16.7629495479
 20
12.0418655012
 11
16.7823299739
 21
12.0614218192
  0
LINE
  5
275
100
AcDbEntity
  8
0
100
AcDbLine
 62
7
  6
CONTINUOUS
 10
16.6957990512
 20
12.0054025953
 11
16.6966332332
 21
12.0087082495
  0
LINE
  5
276
100
AcDbEntity
  8
0
100
AcDbLine
 62
7
  6
CONTINUOUS
 10
16.6804678488
 20
11.9291179215
 11
16.6807177043
 21
11.9300770109
  0
LINE
  5
277
100
AcDbEntity
  8
0
100
AcDbLine
 62
7
  6
CONTINUOUS
 10
16.6804738016
 20
11.9291160764
 11
16.711013323
 21
12.0279420038
  0
LINE
  5
278
100
AcDbEntity
  8
0
100
AcDbLine
 62
7
  6
CONTINUOUS
 10
17.5075748511
 20
12.0614218192
 11
17.481153902
 21
12.1152620527
  0
LINE
  5
279
100
AcDbEntity
  8
0
100
AcDbLine
 62
7
  6
CONTINUOUS
 10
17.4881944251
 20
12.0418655012
 11
17.5075748511
 21
12.0614218192
  0
LINE
  5
27A
100
AcDbEntity
  8
0
100
AcDbLine
 62
7
  6
CONTINUOUS
 10
17.4059625815
 20
11.9300770109
 11
17.4210439283
 21
12.0054025953
  0
LINE
  5
27B
100
AcDbEntity
  8
0
100
AcDbLine
 62
7
  6
CONTINUOUS
 10
17.4210439283
 20
12.0054025953
 11
17.4218781104
 21
12.0087082495
  0
LINE
  5
27C
100
AcDbEntity
  8
0
100
AcDbLine
 62
7
  6
CONTINUOUS
 10
17.405712726
 20
11.9291179215
 11
17.4059625815
 21
11.9300770109
  0
LINE
  5
27D
100
AcDbEntity
  8
0
100
AcDbLine
 62
7
  6
CONTINUOUS
 10
17.4057186788
 20
11.9291160764
 11
17.4362582002
 21
12.0279420038
  0
LINE
  5
27E
100
AcDbEntity
  8
0
100
AcDbLine
 62
7
  6
CONTINUOUS
 10
17.7861193488
 20
13.1021306003
 11
17.481153902
 21
12.1152620527
  0
LINE
  5
27F
100
AcDbEntity
  8
0
100
AcDbLine
 62
7
  6
CONTINUOUS
 10
17.8125402979
 20
13.0482903668
 11
17.5075748511
 21
12.0614218192
  0
LINE
  5
280
100
AcDbEntity
  8
0
100
AcDbLine
 62
7
  6
CONTINUOUS
 10
17.8125402979
 20
13.0482903668
 11
17.7861193488
 21
13.1021306003
  0
ARC
  5
281
100
AcDbEntity
  8
0
100
AcDbCircle
 62
7
  6
CONTINUOUS
 10
8.4607991924
 20
5.4579566145
 40
0.101533361
100
AcDbArc
 50
90.0
 51
155.0
  0
ARC
  5
282
100
AcDbEntity
  8
0
100
AcDbCircle
 62
7
  6
CONTINUOUS
 10
7.7369432339
 20
5.4579566145
 40
0.101533361
100
AcDbArc
 50
25.0
 51
90.0
  0
ARC
  5
283
100
AcDbEntity
  8
0
100
AcDbCircle
 62
7
  6
CONTINUOUS
 10
7.6733976176
 20
5.4579566145
 40
0.101533361
100
AcDbArc
 50
90.0
 51
155.0
  0
ARC
  5
284
100
AcDbEntity
  8
0
100
AcDbCircle
 62
7
  6
CONTINUOUS
 10
6.9495416591
 20
5.4579566145
 40
0.101533361
100
AcDbArc
 50
25.0
 51
90.0
  0
ARC
  5
285
100
AcDbEntity
  8
0
100
AcDbCircle
 62
7
  6
CONTINUOUS
 10
6.8859960428
 20
5.4579566145
 40
0.101533361
100
AcDbArc
 50
90.0
 51
155.0
  0
ARC
  5
286
100
AcDbEntity
  8
0
100
AcDbCircle
 62
7
  6
CONTINUOUS
 10
6.1621400843
 20
5.4579566145
 40
0.101533361
100
AcDbArc
 50
25.0
 51
90.0
  0
ARC
  5
287
100
AcDbEntity
  8
0
100
AcDbCircle
 62
7
  6
CONTINUOUS
 10
6.098594468
 20
5.4579566145
 40
0.101533361
100
AcDbArc
 50
90.0
 51
155.0
  0
ARC
  5
288
100
AcDbEntity
  8
0
100
AcDbCircle
 62
7
  6
CONTINUOUS
 10
5.3747385095
 20
5.4579566145
 40
0.101533361
100
AcDbArc
 50
25.0
 51
90.0
  0
ARC
  5
289
100
AcDbEntity
  8
0
100
AcDbCircle
 62
7
  6
CONTINUOUS
 10
5.3111928932
 20
5.4579566145
 40
0.101533361
100
AcDbArc
 50
90.0
 51
155.0
  0
ARC
  5
28A
100
AcDbEntity
  8
0
100
AcDbCircle
 62
7
  6
CONTINUOUS
 10
4.5873369347
 20
5.4579566145
 40
0.101533361
100
AcDbArc
 50
25.0
 51
90.0
  0
ARC
  5
28B
100
AcDbEntity
  8
0
100
AcDbCircle
 62
7
  6
CONTINUOUS
 10
3.7999353599
 20
5.4579566145
 40
0.101533361
100
AcDbArc
 50
25.0
 51
90.0
  0
ARC
  5
28C
100
AcDbEntity
  8
0
100
AcDbCircle
 62
7
  6
CONTINUOUS
 10
4.5237913184
 20
5.4579566145
 40
0.101533361
100
AcDbArc
 50
90.0
 51
155.0
  0
ARC
  5
28D
100
AcDbEntity
  8
0
100
AcDbCircle
 62
7
  6
CONTINUOUS
 10
3.9752232205
 20
5.3921671408
 40
0.0295275591
100
AcDbArc
 50
205.0
 51
270.0
  0
ARC
  5
28E
100
AcDbEntity
  8
0
100
AcDbCircle
 62
7
  6
CONTINUOUS
 10
4.3485034578
 20
5.3921671408
 40
0.0295275591
100
AcDbArc
 50
270.0
 51
335.0
  0
ARC
  5
28F
100
AcDbEntity
  8
0
100
AcDbCircle
 62
7
  6
CONTINUOUS
 10
4.7626247953
 20
5.3921671408
 40
0.0295275591
100
AcDbArc
 50
205.0
 51
270.0
  0
ARC
  5
290
100
AcDbEntity
  8
0
100
AcDbCircle
 62
7
  6
CONTINUOUS
 10
5.1359050326
 20
5.3921671408
 40
0.0295275591
100
AcDbArc
 50
270.0
 51
335.0
  0
ARC
  5
291
100
AcDbEntity
  8
0
100
AcDbCircle
 62
7
  6
CONTINUOUS
 10
5.5500263701
 20
5.3921671408
 40
0.0295275591
100
AcDbArc
 50
205.0
 51
270.0
  0
ARC
  5
292
100
AcDbEntity
  8
0
100
AcDbCircle
 62
7
  6
CONTINUOUS
 10
5.9233066074
 20
5.3921671408
 40
0.0295275591
100
AcDbArc
 50
270.0
 51
335.0
  0
ARC
  5
293
100
AcDbEntity
  8
0
100
AcDbCircle
 62
7
  6
CONTINUOUS
 10
8.2855113318
 20
5.3921671408
 40
0.0295275591
100
AcDbArc
 50
270.0
 51
335.0
  0
ARC
  5
294
100
AcDbEntity
  8
0
100
AcDbCircle
 62
7
  6
CONTINUOUS
 10
7.9122310945
 20
5.3921671408
 40
0.0295275591
100
AcDbArc
 50
205.0
 51
270.0
  0
ARC
  5
295
100
AcDbEntity
  8
0
100
AcDbCircle
 62
7
  6
CONTINUOUS
 10
7.498109757
 20
5.3921671408
 40
0.0295275591
100
AcDbArc
 50
270.0
 51
335.0
  0
ARC
  5
296
100
AcDbEntity
  8
0
100
AcDbCircle
 62
7
  6
CONTINUOUS
 10
7.1248295197
 20
5.3921671408
 40
0.0295275591
100
AcDbArc
 50
205.0
 51
270.0
  0
ARC
  5
297
100
AcDbEntity
  8
0
100
AcDbCircle
 62
7
  6
CONTINUOUS
 10
6.7107081822
 20
5.3921671408
 40
0.0295275591
100
AcDbArc
 50
270.0
 51
335.0
  0
ARC
  5
298
100
AcDbEntity
  8
0
100
AcDbCircle
 62
7
  6
CONTINUOUS
 10
6.3374279449
 20
5.3921671408
 40
0.0295275591
100
AcDbArc
 50
205.0
 51
270.0
  0
ARC
  5
299
100
AcDbEntity
  8
0
100
AcDbCircle
 62
7
  6
CONTINUOUS
 10
13.8281298634
 20
11.9986235213
 40
0.0340006826
100
AcDbArc
 50
149.9837104062
 51
162.7489900351
  0
SPLINE
  5
29A
100
AcDbEntity
  8
0
100
AcDbSpline
 62
7
  6
CONTINUOUS
 70
0
 71
3
 72
11
 73
7
 74
0
 42
0.0000001
 43
0.0000001
 44
0.0000000001
 40
0.0
 40
0.0
 40
0.0
 40
0.0
 40
0.2021740546
 40
0.4299942079
 40
0.6962083366
 40
1.0
 40
1.0
 40
1.0
 40
1.0
 10
17.421883406
 20
12.0087066124
 30
0.0
 10
17.4234523041
 20
12.0137776252
 30
0.0
 10
17.4295845004
 20
12.0238072768
 30
0.0
 10
17.4449954093
 20
12.0343161307
 30
0.0
 10
17.4651941648
 20
12.0406205578
 30
0.0
 10
17.4802182475
 20
12.0418655012
 30
0.0
 10
17.4881944251
 20
12.0418655012
 30
0.0
  0
SPLINE
  5
29B
100
AcDbEntity
  8
0
100
AcDbSpline
 62
7
  6
CONTINUOUS
 70
0
 71
3
 72
11
 73
7
 74
0
 42
0.0000001
 43
0.0000001
 44
0.0000000001
 40
0.0
 40
0.0
 40
0.0
 40
0.0
 40
0.2021740546
 40
0.4299942079
 40
0.6962083366
 40
1.0
 40
1.0
 40
1.0
 40
1.0
 10
16.6966385288
 20
12.0087066124
 30
0.0
 10
16.6982074269
 20
12.0137776252
 30
0.0
 10
16.7043396232
 20
12.0238072768
 30
0.0
 10
16.7197505321
 20
12.0343161307
 30
0.0
 10
16.7399492876
 20
12.0406205578
 30
0.0
 10
16.7549733704
 20
12.0418655012
 30
0.0
 10
16.7629495479
 20
12.0418655012
 30
0.0
  0
SPLINE
  5
29C
100
AcDbEntity
  8
0
100
AcDbSpline
 62
7
  6
CONTINUOUS
 70
0
 71
3
 72
11
 73
7
 74
0
 42
0.0000001
 43
0.0000001
 44
0.0000000001
 40
0.0
 40
0.0
 40
0.0
 40
0.0
 40
0.2021740546
 40
0.4299942079
 40
0.6962083366
 40
1.0
 40
1.0
 40
1.0
 40
1.0
 10
15.9713936516
 20
12.0087066124
 30
0.0
 10
15.9729625497
 20
12.0137776252
 30
0.0
 10
15.979094746
 20
12.0238072768
 30
0.0
 10
15.9945056549
 20
12.0343161307
 30
0.0
 10
16.0147044105
 20
12.0406205578
 30
0.0
 10
16.0297284932
 20
12.0418655012
 30
0.0
 10
16.0377046708
 20
12.0418655012
 30
0.0
  0
SPLINE
  5
29D
100
AcDbEntity
  8
0
100
AcDbSpline
 62
7
  6
CONTINUOUS
 70
0
 71
3
 72
11
 73
7
 74
0
 42
0.0000001
 43
0.0000001
 44
0.0000000001
 40
0.0
 40
0.0
 40
0.0
 40
0.0
 40
0.2021740546
 40
0.4299942079
 40
0.6962083366
 40
1.0
 40
1.0
 40
1.0
 40
1.0
 10
15.2461487744
 20
12.0087066124
 30
0.0
 10
15.2477176726
 20
12.0137776252
 30
0.0
 10
15.2538498689
 20
12.0238072768
 30
0.0
 10
15.2692607778
 20
12.0343161307
 30
0.0
 10
15.2894595333
 20
12.0406205578
 30
0.0
 10
15.304483616
 20
12.0418655012
 30
0.0
 10
15.3124597936
 20
12.0418655012
 30
0.0
  0
SPLINE
  5
29E
100
AcDbEntity
  8
0
100
AcDbSpline
 62
7
  6
CONTINUOUS
 70
0
 71
3
 72
11
 73
7
 74
0
 42
0.0000001
 43
0.0000001
 44
0.0000000001
 40
0.0
 40
0.0
 40
0.0
 40
0.0
 40
0.2021740546
 40
0.4299942079
 40
0.6962083366
 40
1.0
 40
1.0
 40
1.0
 40
1.0
 10
14.5209038973
 20
12.0087066124
 30
0.0
 10
14.5224727954
 20
12.0137776252
 30
0.0
 10
14.5286049917
 20
12.0238072768
 30
0.0
 10
14.5440159006
 20
12.0343161307
 30
0.0
 10
14.5642146561
 20
12.0406205578
 30
0.0
 10
14.5792387389
 20
12.0418655012
 30
0.0
 10
14.5872149164
 20
12.0418655012
 30
0.0
  0
SPLINE
  5
29F
100
AcDbEntity
  8
0
100
AcDbSpline
 62
7
  6
CONTINUOUS
 70
0
 71
3
 72
11
 73
7
 74
0
 42
0.0000001
 43
0.0000001
 44
0.0000000001
 40
0.0
 40
0.0
 40
0.0
 40
0.0
 40
0.2046009506
 40
0.4367423193
 40
0.7025907298
 40
1.0
 40
1.0
 40
1.0
 40
1.0
 10
13.798689243
 20
12.0156322335
 30
0.0
 10
13.8011201896
 20
12.0198448715
 30
0.0
 10
13.8082747146
 20
12.0277541841
 30
0.0
 10
13.8230721451
 20
12.0359335261
 30
0.0
 10
13.8414689373
 20
12.0408734712
 30
0.0
 10
13.8548961058
 20
12.0418614737
 30
0.0
 10
13.861966048
 20
12.0418614737
 30
0.0
  0
SPLINE
  5
2A0
100
AcDbEntity
  8
0
100
AcDbSpline
 62
7
  6
CONTINUOUS
 70
0
 71
3
 72
10
 73
6
 74
0
 42
0.0000001
 43
0.0000001
 44
0.0000000001
 40
0.0
 40
0.0
 40
0.0
 40
0.0
 40
0.5058216836
 40
0.7612716398
 40
1.0
 40
1.0
 40
1.0
 40
1.0
 10
16.8209040774
 20
12.0418655096
 30
0.0
 10
16.8396106335
 20
12.0418655096
 30
0.0
 10
16.8679697192
 20
12.0364747112
 30
0.0
 10
16.9018157463
 20
12.0213886528
 30
0.0
 10
16.9171019618
 20
12.0111058821
 30
0.0
 10
16.9238413813
 20
12.0054025953
 30
0.0
  0
SPLINE
  5
2A1
100
AcDbEntity
  8
0
100
AcDbSpline
 62
7
  6
CONTINUOUS
 70
0
 71
3
 72
10
 73
6
 74
0
 42
0.0000001
 43
0.0000001
 44
0.0000000001
 40
0.0
 40
0.0
 40
0.0
 40
0.0
 40
0.5058216836
 40
0.7612716398
 40
1.0
 40
1.0
 40
1.0
 40
1.0
 10
16.0956592002
 20
12.0418655096
 30
0.0
 10
16.1143657563
 20
12.0418655096
 30
0.0
 10
16.142724842
 20
12.0364747112
 30
0.0
 10
16.1765708691
 20
12.0213886528
 30
0.0
 10
16.1918570847
 20
12.0111058821
 30
0.0
 10
16.1985965041
 20
12.0054025953
 30
0.0
  0
SPLINE
  5
2A2
100
AcDbEntity
  8
0
100
AcDbSpline
 62
7
  6
CONTINUOUS
 70
0
 71
3
 72
10
 73
6
 74
0
 42
0.0000001
 43
0.0000001
 44
0.0000000001
 40
0.0
 40
0.0
 40
0.0
 40
0.0
 40
0.5058216836
 40
0.7612716398
 40
1.0
 40
1.0
 40
1.0
 40
1.0
 10
15.3704143231
 20
12.0418655096
 30
0.0
 10
15.3891208792
 20
12.0418655096
 30
0.0
 10
15.4174799648
 20
12.0364747112
 30
0.0
 10
15.451325992
 20
12.0213886528
 30
0.0
 10
15.4666122075
 20
12.0111058821
 30
0.0
 10
15.473351627
 20
12.0054025953
 30
0.0
  0
SPLINE
  5
2A3
100
AcDbEntity
  8
0
100
AcDbSpline
 62
7
  6
CONTINUOUS
 70
0
 71
3
 72
11
 73
7
 74
0
 42
0.0000001
 43
0.0000001
 44
0.0000000001
 40
0.0
 40
0.0
 40
0.0
 40
0.0
 40
0.3037543986
 40
0.5698853426
 40
0.7976726889
 40
1.0
 40
1.0
 40
1.0
 40
1.0
 10
17.3865145751
 20
11.9194793855
 30
0.0
 10
17.3888257577
 20
11.9194793855
 30
0.0
 10
17.3931789465
 20
11.9198458363
 30
0.0
 10
17.3990273763
 20
11.9216846355
 30
0.0
 10
17.403488778
 20
11.9247370849
 30
0.0
 10
17.4052627754
 20
11.9276456841
 30
0.0
 10
17.4057182665
 20
11.929116208
 30
0.0
  0
SPLINE
  5
2A4
100
AcDbEntity
  8
0
100
AcDbSpline
 62
7
  6
CONTINUOUS
 70
0
 71
3
 72
9
 73
5
 74
0
 42
0.0000001
 43
0.0000001
 44
0.0000000001
 40
0.0
 40
0.0
 40
0.0
 40
0.0
 40
0.4931108879
 40
1.0
 40
1.0
 40
1.0
 40
1.0
 10
17.0128515841
 20
11.9300770109
 30
0.0
 10
17.0168812012
 20
11.9266669156
 30
0.0
 10
17.026557844
 20
11.9215352673
 30
0.0
 10
17.0372743302
 20
11.9194793855
 30
0.0
 10
17.0427007087
 20
11.9194793855
 30
0.0
  0
SPLINE
  5
2A5
100
AcDbEntity
  8
0
100
AcDbSpline
 62
7
  6
CONTINUOUS
 70
0
 71
3
 72
11
 73
7
 74
0
 42
0.0000001
 43
0.0000001
 44
0.0000000001
 40
0.0
 40
0.0
 40
0.0
 40
0.0
 40
0.3037543986
 40
0.5698853426
 40
0.7976726889
 40
1.0
 40
1.0
 40
1.0
 40
1.0
 10
16.6612696979
 20
11.9194793855
 30
0.0
 10
16.6635808805
 20
11.9194793855
 30
0.0
 10
16.6679340694
 20
11.9198458363
 30
0.0
 10
16.6737824991
 20
11.9216846355
 30
0.0
 10
16.6782439009
 20
11.9247370849
 30
0.0
 10
16.6800178982
 20
11.9276456841
 30
0.0
 10
16.6804733894
 20
11.929116208
 30
0.0
  0
SPLINE
  5
2A6
100
AcDbEntity
  8
0
100
AcDbSpline
 62
7
  6
CONTINUOUS
 70
0
 71
3
 72
9
 73
5
 74
0
 42
0.0000001
 43
0.0000001
 44
0.0000000001
 40
0.0
 40
0.0
 40
0.0
 40
0.0
 40
0.4931108879
 40
1.0
 40
1.0
 40
1.0
 40
1.0
 10
16.2876067069
 20
11.9300770109
 30
0.0
 10
16.2916363241
 20
11.9266669156
 30
0.0
 10
16.3013129668
 20
11.9215352673
 30
0.0
 10
16.3120294531
 20
11.9194793855
 30
0.0
 10
16.3174558315
 20
11.9194793855
 30
0.0
  0
SPLINE
  5
2A7
100
AcDbEntity
  8
0
100
AcDbSpline
 62
7
  6
CONTINUOUS
 70
0
 71
3
 72
11
 73
7
 74
0
 42
0.0000001
 43
0.0000001
 44
0.0000000001
 40
0.0
 40
0.0
 40
0.0
 40
0.0
 40
0.3037543986
 40
0.5698853426
 40
0.7976726889
 40
1.0
 40
1.0
 40
1.0
 40
1.0
 10
15.9360248208
 20
11.9194793855
 30
0.0
 10
15.9383360033
 20
11.9194793855
 30
0.0
 10
15.9426891922
 20
11.9198458363
 30
0.0
 10
15.9485376219
 20
11.9216846355
 30
0.0
 10
15.9529990237
 20
11.9247370849
 30
0.0
 10
15.954773021
 20
11.9276456841
 30
0.0
 10
15.9552285122
 20
11.929116208
 30
0.0
  0
SPLINE
  5
2A8
100
AcDbEntity
  8
0
100
AcDbSpline
 62
7
  6
CONTINUOUS
 70
0
 71
3
 72
9
 73
5
 74
0
 42
0.0000001
 43
0.0000001
 44
0.0000000001
 40
0.0
 40
0.0
 40
0.0
 40
0.0
 40
0.4931108879
 40
1.0
 40
1.0
 40
1.0
 40
1.0
 10
15.5623618297
 20
11.9300770109
 30
0.0
 10
15.5663914469
 20
11.9266669156
 30
0.0
 10
15.5760680897
 20
11.9215352673
 30
0.0
 10
15.5867845759
 20
11.9194793855
 30
0.0
 10
15.5922109544
 20
11.9194793855
 30
0.0
  0
SPLINE
  5
2A9
100
AcDbEntity
  8
0
100
AcDbSpline
 62
7
  6
CONTINUOUS
 70
0
 71
3
 72
11
 73
7
 74
0
 42
0.0000001
 43
0.0000001
 44
0.0000000001
 40
0.0
 40
0.0
 40
0.0
 40
0.0
 40
0.3037543986
 40
0.5698853426
 40
0.7976726889
 40
1.0
 40
1.0
 40
1.0
 40
1.0
 10
15.2107799436
 20
11.9194793855
 30
0.0
 10
15.2130911262
 20
11.9194793855
 30
0.0
 10
15.217444315
 20
11.9198458363
 30
0.0
 10
15.2232927447
 20
11.9216846355
 30
0.0
 10
15.2277541465
 20
11.9247370849
 30
0.0
 10
15.2295281439
 20
11.9276456841
 30
0.0
 10
15.229983635
 20
11.929116208
 30
0.0
  0
SPLINE
  5
2AA
100
AcDbEntity
  8
0
100
AcDbSpline
 62
7
  6
CONTINUOUS
 70
0
 71
3
 72
9
 73
5
 74
0
 42
0.0000001
 43
0.0000001
 44
0.0000000001
 40
0.0
 40
0.0
 40
0.0
 40
0.0
 40
0.4931108879
 40
1.0
 40
1.0
 40
1.0
 40
1.0
 10
14.8371169526
 20
11.9300770109
 30
0.0
 10
14.8411465697
 20
11.9266669156
 30
0.0
 10
14.8508232125
 20
11.9215352673
 30
0.0
 10
14.8615396987
 20
11.9194793855
 30
0.0
 10
14.8669660772
 20
11.9194793855
 30
0.0
  0
SPLINE
  5
2AB
100
AcDbEntity
  8
0
100
AcDbSpline
 62
7
  6
CONTINUOUS
 70
0
 71
3
 72
11
 73
7
 74
0
 42
0.0000001
 43
0.0000001
 44
0.0000000001
 40
0.0
 40
0.0
 40
0.0
 40
0.0
 40
0.3037543986
 40
0.5698853426
 40
0.7976726889
 40
1.0
 40
1.0
 40
1.0
 40
1.0
 10
14.4855350664
 20
11.9194793855
 30
0.0
 10
14.487846249
 20
11.9194793855
 30
0.0
 10
14.4921994379
 20
11.9198458363
 30
0.0
 10
14.4980478676
 20
11.9216846355
 30
0.0
 10
14.5025092694
 20
11.9247370849
 30
0.0
 10
14.5042832667
 20
11.9276456841
 30
0.0
 10
14.5047387579
 20
11.929116208
 30
0.0
  0
SPLINE
  5
2AC
100
AcDbEntity
  8
0
100
AcDbSpline
 62
7
  6
CONTINUOUS
 70
0
 71
3
 72
9
 73
5
 74
0
 42
0.0000001
 43
0.0000001
 44
0.0000000001
 40
0.0
 40
0.0
 40
0.0
 40
0.0
 40
0.4931108879
 40
1.0
 40
1.0
 40
1.0
 40
1.0
 10
14.1118720754
 20
11.9300770109
 30
0.0
 10
14.1159016926
 20
11.9266669156
 30
0.0
 10
14.1255783353
 20
11.9215352673
 30
0.0
 10
14.1362948216
 20
11.9194793855
 30
0.0
 10
14.1417212
 20
11.9194793855
 30
0.0
  0
SPLINE
  5
2AD
100
AcDbEntity
  8
0
100
AcDbSpline
 62
7
  6
CONTINUOUS
 70
0
 71
3
 72
11
 73
7
 74
0
 42
0.0000001
 43
0.0000001
 44
0.0000000001
 40
0.0
 40
0.0
 40
0.0
 40
0.0
 40
0.3037983273
 40
0.5698938956
 40
0.7977141709
 40
1.0
 40
1.0
 40
1.0
 40
1.0
 10
13.7602901893
 20
11.9194793855
 30
0.0
 10
13.762601704
 20
11.9194793855
 30
0.0
 10
13.7669550009
 20
11.9198455966
 30
0.0
 10
13.7728035851
 20
11.9216852276
 30
0.0
 10
13.7772643416
 20
11.9247375466
 30
0.0
 10
13.779039145
 20
11.9276457788
 30
0.0
 10
13.7794940604
 20
11.9291161491
 30
0.0
  0
SPLINE
  5
2AE
100
AcDbEntity
  8
0
100
AcDbSpline
 62
7
  6
CONTINUOUS
 70
0
 71
3
 72
9
 73
5
 74
0
 42
0.0000001
 43
0.0000001
 44
0.0000000001
 40
0.0
 40
0.0
 40
0.0
 40
0.0
 40
0.4931113635
 40
1.0
 40
1.0
 40
1.0
 40
1.0
 10
13.3866271982
 20
11.9300770109
 30
0.0
 10
13.3906568111
 20
11.9266669193
 30
0.0
 10
13.4003335969
 20
11.9215356356
 30
0.0
 10
13.4110499606
 20
11.9194793855
 30
0.0
 10
13.4164763229
 20
11.9194793855
 30
0.0
  0
SPLINE
  5
2AF
100
AcDbEntity
  8
0
100
AcDbSpline
 62
7
  6
CONTINUOUS
 70
0
 71
3
 72
10
 73
6
 74
0
 42
0.0000001
 43
0.0000001
 44
0.0000000001
 40
0.0
 40
0.0
 40
0.0
 40
0.0
 40
0.5058216836
 40
0.7612716398
 40
1.0
 40
1.0
 40
1.0
 40
1.0
 10
14.6451694459
 20
12.0418655096
 30
0.0
 10
14.663876002
 20
12.0418655096
 30
0.0
 10
14.6922350876
 20
12.0364747112
 30
0.0
 10
14.7260811148
 20
12.0213886528
 30
0.0
 10
14.7413673303
 20
12.0111058821
 30
0.0
 10
14.7481067498
 20
12.0054025953
 30
0.0
  0
SPLINE
  5
2B0
100
AcDbEntity
  8
0
100
AcDbSpline
 62
7
  6
CONTINUOUS
 70
0
 71
3
 72
10
 73
6
 74
0
 42
0.0000001
 43
0.0000001
 44
0.0000000001
 40
0.0
 40
0.0
 40
0.0
 40
0.0
 40
0.5058216836
 40
0.7612716398
 40
1.0
 40
1.0
 40
1.0
 40
1.0
 10
13.9199245687
 20
12.0418655096
 30
0.0
 10
13.9386311248
 20
12.0418655096
 30
0.0
 10
13.9669902105
 20
12.0364747112
 30
0.0
 10
14.0008362376
 20
12.0213886528
 30
0.0
 10
14.0161224532
 20
12.0111058821
 30
0.0
 10
14.0228618726
 20
12.0054025953
 30
0.0
  0
SPLINE
  5
2B1
100
AcDbEntity
  8
0
100
AcDbSpline
 62
7
  6
CONTINUOUS
 70
0
 71
3
 72
10
 73
6
 74
0
 42
0.0000001
 43
0.0000001
 44
0.0000000001
 40
0.0
 40
0.0
 40
0.0
 40
0.0
 40
0.5058177456
 40
0.7612707543
 40
1.0
 40
1.0
 40
1.0
 40
1.0
 10
13.1946876439
 20
12.0418614779
 30
0.0
 10
13.2133926257
 20
12.0418614779
 30
0.0
 10
13.2417503495
 20
12.0364747333
 30
0.0
 10
13.2755928191
 20
12.021387238
 30
0.0
 10
13.2908780657
 20
12.0111054676
 30
0.0
 10
13.2976169955
 20
12.0054025953
 30
0.0
  0
ENDSEC
  0
SECTION
  2
OBJECTS
  0
DICTIONARY
  5
C
100
AcDbDictionary
280
0
281
1
  3
ACAD_GROUP
350
D
  3
ACAD_MLINESTYLE
350
17
  3
ACAD_LAYOUT
350
1A
  3
ACAD_PLOTSETTINGS
350
19
  3
ACAD_PLOTSTYLENAME
350
E
  0
DICTIONARY
  5
D
102
{ACAD_REACTORS
330
C
102
}
100
AcDbDictionary
280
0
281
1
  0
ACDBDICTIONARYWDFLT
  5
E
102
{ACAD_REACTORS
330
C
102
}
100
AcDbDictionary
281
1
  3
Normal
350
F
100
AcDbDictionaryWithDefault
340
F
  0
DICTIONARY
  5
17
102
{ACAD_REACTORS
330
C
102
}
100
AcDbDictionary
280
0
281
1
  3
Standard
350
18
  0
DICTIONARY
  5
19
102
{ACAD_REACTORS
330
C
102
}
100
AcDbDictionary
281
1
  0
DICTIONARY
  5
1A
102
{ACAD_REACTORS
330
C
102
}
100
AcDbDictionary
281
1
  3
Model
350
2B2
  3
Layout1
350
2B3
  0
ACDBPLACEHOLDER
  5
F
102
{ACAD_REACTORS
330
E
102
}
  0
MLINESTYLE
  5
18
102
{ACAD_REACTORS
330
17
102
}
100
AcDbMlineStyle
  2
STANDARD
 70
0
  3

 62
256
 51
90.0
 52
90.0
 71
2
 49
0.5
 62
256
  6
BYLAYER
 49
-0.5
 62
256
  6
BYLAYER
  0
LAYOUT
  5
2B2
102
{ACAD_REACTORS
330
1A
102
}
100
AcDbPlotSettings
  1

  2
none_device
  4
ANSI_C_(22.00_x_17.00_Inches)
  6

 40
0.0
 41
0.0
 42
0.0
 43
0.0
 44
558.8
 45
431.8
 46
0.0
 47
0.0
 48
0.0
 49
0.0
140
0.0
141
0.0
142
1.0
143
1.0
 70
1024
 72
0
 73
0
 74
0
  7

 75
0
147
1.0
148
0.0
149
0.0
100
AcDbLayout
  1
Model
 70
0
 71
0
 10
0.0
 20
0.0
 11
22.0
 21
17.0
 12
0.0
 22
0.0
 32
0.0
 14
0.0
 24
0.0
 34
0.0
 15
0.0
 25
0.0
 35
0.0
146
0.0
 13
0.0
 23
0.0
 33
0.0
 16
1.0
 26
0.0
 36
0.0
 17
0.0
 27
1.0
 37
0.0
 76
0
330
216
345
0
346
0
  0
LAYOUT
  5
2B3
102
{ACAD_REACTORS
330
1A
102
}
100
AcDbPlotSettings
  1

  2
none_device
  4
ANSI_C_(22.00_x_17.00_Inches)
  6

 40
0.0
 41
0.0
 42
0.0
 43
0.0
 44
558.8
 45
431.8
 46
0.0
 47
0.0
 48
0.0
 49
0.0
140
0.0
141
0.0
142
1.0
143
1.0
 70
0
 72
0
 73
0
 74
0
  7

 75
0
147
1.0
148
0.0
149
0.0
100
AcDbLayout
  1
Layout1
 70
0
 71
1
 10
0.0
 20
0.0
 11
22.0
 21
17.0
 12
0.0
 22
0.0
 32
0.0
 14
0.0
 24
0.0
 34
0.0
 15
0.0
 25
0.0
 35
0.0
146
0.0
 13
0.0
 23
0.0
 33
0.0
 16
1.0
 26
0.0
 36
0.0
 17
0.0
 27
1.0
 37
0.0
 76
0
330
217
345
0
346
0
  0
ENDSEC
  0
EOF