999
DXF file: _cgs_temp_output.dxf
999
Pro/ENGINEER 2016360 by Parametric Technology Corporation
  0
SECTION
  2
HEADER
  9
$ACADVER
  1
AC1021
  9
$DWGCODEPAGE
  3
ANSI_1252
  9
$EXTMAX
 10
22.0
 20
17.0
 30
0.0
  9
$EXTMIN
 10
0.0
 20
0.0
 30
0.0
  9
$LIMMIN
 10
0.0
 20
0.0
  9
$LIMMAX
 10
22.0
 20
17.0
  9
$VIEWCTR
 10
11.0
 20
8.5
  9
$VIEWSIZE
 40
17.0
  9
$CLAYER
  8
0
  9
$LTSCALE
 40
1.21
  9
$CELTYPE
  6
BYLAYER
  9
$DIMSCALE
 40
1.0
  9
$DIMASZ
 40
0.1875
  9
$DIMEXO
 40
0.0625
  9
$DIMDLI
 40
0.836
  9
$DIMEXE
 40
0.125
  9
$DIMCEN
 40
0.198
  9
$DIMLFAC
 40
1.0
  9
$DIMBLK
  1
_CLOSED
  9
$DIMALT
 70
0
  9
$DIMALTF
 40
25.4
  9
$DIMTXT
 40
0.15625
  9
$DIMTOL
 70
0
  9
$DIMLIM
 70
0
  9
$DIMTFAC
 40
1.0
  9
$DIMGAP
 40
0.09
  9
$DIMDSEP
 70
46
  9
$AUNITS
 70
0
  9
$PDMODE
 70
3
  9
$PDSIZE
 40
0.3125
  9
$HANDSEED
  5
2B4
  9
$TILEMODE
 70
1
  9
$MEASUREMENT
 70
0
  9
$INSUNITS
 70
1
  0
ENDSEC
  0
SECTION
  2
CLASSES
  0
CLASS
  1
ACDBDICTIONARYWDFLT
  2
AcDbDictionaryWithDefault
  3
AutoCAD 2000
 90
0
 91
1
280
0
281
0
  0
CLASS
  1
ACDBPLACEHOLDER
  2
AcDbPlaceHolder
  3
AutoCAD 2000
 90
0
 91
1
280
0
281
0
  0
CLASS
  1
LAYOUT
  2
AcDbLayout
  3
AutoCAD 2000
 90
0
 91
0
280
0
281
0
  0
ENDSEC
  0
SECTION
  2
TABLES
  0
TABLE
  2
VPORT
  5
8
100
AcDbSymbolTable
 70
2
  0
VPORT
  5
1F4
100
AcDbSymbolTableRecord
100
AcDbViewportTableRecord
  2
*ACTIVE
 70
0
 10
0.0
 20
0.0
 11
1.0
 21
1.0
 12
11.0
 22
8.5
 13
0.0
 23
0.0
 14
1.0
 24
1.0
 15
0.0
 25
0.0
 16
0.0
 26
0.0
 36
1.0
 17
0.0
 27
0.0
 37
0.0
 40
17.0
 41
1.2941176471
 42
50.0
 43
0.0
 44
0.0
 50
0.0
 51
0.0
 71
0
 72
100
 73
1
 74
1
 75
0
 76
0
 77
0
 78
0
  0
ENDTAB
  0
TABLE
  2
LTYPE
  5
5
100
AcDbSymbolTable
 70
6
  0
LTYPE
  5
14
100
AcDbSymbolTableRecord
100
AcDbLinetypeTableRecord
  2
BYBLOCK
 70
0
  3

 72
65
 73
0
 40
0.0
  0
LTYPE
  5
15
100
AcDbSymbolTableRecord
100
AcDbLinetypeTableRecord
  2
BYLAYER
 70
0
  3

 72
65
 73
0
 40
0.0
  0
LTYPE
  5
16
100
AcDbSymbolTableRecord
100
AcDbLinetypeTableRecord
  2
CONTINUOUS
 70
64
  3
Solid line
 72
65
 73
0
 40
0.0
  0
LTYPE
  5
1F5
100
AcDbSymbolTableRecord
100
AcDbLinetypeTableRecord
  2
CENTER
 70
64
  3
____ _ ____ _ ____ _ ____ _ ____ _ ____ _ ____
 72
65
 73
4
 40
0.6
 49
0.375
 74
0
 49
-0.075
 74
0
 49
0.075
 74
0
 49
-0.075
 74
0
  0
LTYPE
  5
1F6
100
AcDbSymbolTableRecord
100
AcDbLinetypeTableRecord
  2
HIDDEN
 70
64
  3
- - - - - - - - - - - - - - - - - - - -
 72
65
 73
2
 40
0.2
 49
0.1
 74
0
 49
-0.1
 74
0
  0
LTYPE
  5
1F7
100
AcDbSymbolTableRecord
100
AcDbLinetypeTableRecord
  2
PHANTOM
 70
64
  3
_____ _ _ _____ _ _ _____ _ _ _____
 72
65
 73
6
 40
0.8
 49
0.45
 74
0
 49
-0.05
 74
0
 49
0.1
 74
0
 49
-0.05
 74
0
 49
0.1
 74
0
 49
-0.05
 74
0
  0
LTYPE
  5
1F8
100
AcDbSymbolTableRecord
100
AcDbLinetypeTableRecord
  2
DOT
 70
64
  3
. . . . . . . . . . . . . . . . . . . .
 72
65
 73
2
 40
0.2
 49
0.1
 74
0
 49
-0.1
 74
0
  0
LTYPE
  5
1F9
100
AcDbSymbolTableRecord
100
AcDbLinetypeTableRecord
  2
DASHED
 70
64
  3
- - - - - - - - - - - - - - - - - - - -
 72
65
 73
2
 40
0.2
 49
0.1
 74
0
 49
-0.1
 74
0
  0
ENDTAB
  0
TABLE
  2
LAYER
  5
2
100
AcDbSymbolTable
 70
36
  0
LAYER
  5
10
100
AcDbSymbolTableRecord
100
AcDbLayerTableRecord
  2
0
 70
0
 62
7
  6
CONTINUOUS
370
-3
390
F
  0
LAYER
  5
1FA
100
AcDbSymbolTableRecord
100
AcDbLayerTableRecord
  2
DEFAULT_1
 70
0
 62
7
  6
CENTER
370
-3
390
F
  0
LAYER
  5
1FB
100
AcDbSymbolTableRecord
100
AcDbLayerTableRecord
  2
DEFAULT_2
 70
0
 62
8
  6
HIDDEN
370
-3
390
F
  0
LAYER
  5
1FC
100
AcDbSymbolTableRecord
100
AcDbLayerTableRecord
  2
DEFAULT_3
 70
0
 62
7
  6
PHANTOM
370
-3
390
F
  0
LAYER
  5
1FD
100
AcDbSymbolTableRecord
100
AcDbLayerTableRecord
  2
01_ALL_DTM_PLN
 70
0
 62
7
  6
CONTINUOUS
370
-3
390
F
  0
LAYER
  5
1FE
100
AcDbSymbolTableRecord
100
AcDbLayerTableRecord
  2
01__ASM_ALL_DTM_PLN
 70
0
 62
7
  6
CONTINUOUS
370
-3
390
F
  0
LAYER
  5
1FF
100
AcDbSymbolTableRecord
100
AcDbLayerTableRecord
  2
01__ASM_DEF_DTM_PLN
 70
0
 62
7
  6
CONTINUOUS
370
-3
390
F
  0
LAYER
  5
200
100
AcDbSymbolTableRecord
100
AcDbLayerTableRecord
  2
01___PRT_ALL_DTM_PLN
 70
0
 62
7
  6
CONTINUOUS
370
-3
390
F
  0
LAYER
  5
201
100
AcDbSymbolTableRecord
100
AcDbLayerTableRecord
  2
01___PRT_DEF_DTM_PLN
 70
0
 62
7
  6
CONTINUOUS
370
-3
390
F
  0
LAYER
  5
202
100
AcDbSymbolTableRecord
100
AcDbLayerTableRecord
  2
02_ALL_AXES
 70
0
 62
7
  6
CONTINUOUS
370
-3
390
F
  0
LAYER
  5
203
100
AcDbSymbolTableRecord
100
AcDbLayerTableRecord
  2
02__ASM_ALL_AXES
 70
0
 62
7
  6
CONTINUOUS
370
-3
390
F
  0
LAYER
  5
204
100
AcDbSymbolTableRecord
100
AcDbLayerTableRecord
  2
02___PRT_ALL_AXES
 70
0
 62
7
  6
CONTINUOUS
370
-3
390
F
  0
LAYER
  5
205
100
AcDbSymbolTableRecord
100
AcDbLayerTableRecord
  2
03_ALL_CURVES
 70
0
 62
7
  6
CONTINUOUS
370
-3
390
F
  0
LAYER
  5
206
100
AcDbSymbolTableRecord
100
AcDbLayerTableRecord
  2
03__ASM_ALL_CURVES
 70
0
 62
7
  6
CONTINUOUS
370
-3
390
F
  0
LAYER
  5
207
100
AcDbSymbolTableRecord
100
AcDbLayerTableRecord
  2
03___PRT_ALL_CURVES
 70
0
 62
7
  6
CONTINUOUS
370
-3
390
F
  0
LAYER
  5
208
100
AcDbSymbolTableRecord
100
AcDbLayerTableRecord
  2
04_ALL_DTM_PNT
 70
0
 62
7
  6
CONTINUOUS
370
-3
390
F
  0
LAYER
  5
209
100
AcDbSymbolTableRecord
100
AcDbLayerTableRecord
  2
04__ASM_ALL_DTM_PNT
 70
0
 62
7
  6
CONTINUOUS
370
-3
390
F
  0
LAYER
  5
20A
100
AcDbSymbolTableRecord
100
AcDbLayerTableRecord
  2
04___PRT_ALL_DTM_PNT
 70
0
 62
7
  6
CONTINUOUS
370
-3
390
F
  0
LAYER
  5
20B
100
AcDbSymbolTableRecord
100
AcDbLayerTableRecord
  2
05_ALL_DTM_CSYS
 70
0
 62
7
  6
CONTINUOUS
370
-3
390
F
  0
LAYER
  5
20C
100
AcDbSymbolTableRecord
100
AcDbLayerTableRecord
  2
05__ASM_ALL_DTM_CSYS
 70
0
 62
7
  6
CONTINUOUS
370
-3
390
F
  0
LAYER
  5
20D
100
AcDbSymbolTableRecord
100
AcDbLayerTableRecord
  2
05__ASM_DEF_DTM_CSYS
 70
0
 62
7
  6
CONTINUOUS
370
-3
390
F
  0
LAYER
  5
20E
100
AcDbSymbolTableRecord
100
AcDbLayerTableRecord
  2
05___PRT_ALL_DTM_CSYS
 70
0
 62
7
  6
CONTINUOUS
370
-3
390
F
  0
LAYER
  5
20F
100
AcDbSymbolTableRecord
100
AcDbLayerTableRecord
  2
05___PRT_DEF_DTM_CSYS
 70
0
 62
7
  6
CONTINUOUS
370
-3
390
F
  0
LAYER
  5
210
100
AcDbSymbolTableRecord
100
AcDbLayerTableRecord
  2
06_ALL_SURFS
 70
0
 62
7
  6
CONTINUOUS
370
-3
390
F
  0
LAYER
  5
211
100
AcDbSymbolTableRecord
100
AcDbLayerTableRecord
  2
06__ASM_ALL_SURFS
 70
0
 62
7
  6
CONTINUOUS
370
-3
390
F
  0
LAYER
  5
212
100
AcDbSymbolTableRecord
100
AcDbLayerTableRecord
  2
06___PRT_ALL_SURFS
 70
0
 62
7
  6
CONTINUOUS
370
-3
390
F
  0
LAYER
  5
213
100
AcDbSymbolTableRecord
100
AcDbLayerTableRecord
  2
07__ASM_ALL_SKELETONS
 70
0
 62
7
  6
CONTINUOUS
370
-3
390
F
  0
ENDTAB
  0
TABLE
  2
STYLE
  5
3
100
AcDbSymbolTable
 70
1
  0
STYLE
  5
11
100
AcDbSymbolTableRecord
100
AcDbTextStyleTableRecord
  2
STANDARD
 70
0
 40
0.0
 41
0.8
 50
0.0
 71
0
 42
0.2
  3
txt
  4

  0
STYLE
  5
214
100
AcDbSymbolTableRecord
100
AcDbTextStyleTableRecord
  2
TEXTSTYLE_1
 70
0
 40
0.0
 41
0.8
 50
0.0
 71
0
 42
0.2
  3
gdt
  4

  0
ENDTAB
  0
TABLE
  2
VIEW
  5
6
100
AcDbSymbolTable
 70
0
  0
ENDTAB
  0
TABLE
  2
UCS
  5
7
100
AcDbSymbolTable
 70
0
  0
ENDTAB
  0
TABLE
  2
APPID
  5
9
100
AcDbSymbolTable
 70
1
  0
APPID
  5
215
100
AcDbSymbolTableRecord
100
AcDbRegAppTableRecord
  2
ACAD
 70
0
  0
ENDTAB
  0
TABLE
  2
BLOCK_RECORD
  5
1
100
AcDbSymbolTable
 70
0
  0
BLOCK_RECORD
  5
216
100
AcDbSymbolTableRecord
100
AcDbBlockTableRecord
  2
*Model_Space
  0
BLOCK_RECORD
  5
217
100
AcDbSymbolTableRecord
100
AcDbBlockTableRecord
  2
*Paper_Space
  0
ENDTAB
  0
TABLE
  2
DIMSTYLE
  5
A
100
AcDbSymbolTable
 70
1
100
AcDbDimStyleTable
 71
0
  0
DIMSTYLE
105
218
100
AcDbSymbolTableRecord
100
AcDbDimStyleTableRecord
  2
STANDARD
 70
0
  3

  4

 40
1.0
 41
0.1875
 42
0.0625
 43
0.38
 44
0.125
 45
0.0
 46
0.0
 47
0.0001
 48
0.0001
140
0.15625
141
0.09
142
0.0
143
25.4
144
1.0
145
0.0
146
1.0
147
0.09
 71
0.0
 72
0.0
 73
1
 74
1
 75
0
 76
0
 77
0
 78
4
 79
1
170
0
171
3
172
0
173
0
174
0
175
0
176
0
177
0
178
0
270
2
179
4
271
4
272
4
273
2
274
2
275
0
280
0
281
0
282
0
283
1
284
4
285
0
286
0
287
3
288
0
340
11
278
46
  0
ENDTAB
  0
ENDSEC
  0
SECTION
  2
BLOCKS
  0
BLOCK
  5
20
100
AcDbEntity
  8
0
100
AcDbBlockBegin
  2
*Model_Space
 70
0
 10
0.0
 20
0.0
 30
0.0
  3
*Model_Space
  1

  0
ENDBLK
  5
21
100
AcDbEntity
  8
0
100
AcDbBlockEnd
  0
BLOCK
  5
1C
100
AcDbEntity
  8
0
100
AcDbBlockBegin
  2
*Paper_Space
 70
0
 10
0.0
 20
0.0
 30
0.0
  3
*Paper_Space
  1

  0
ENDBLK
  5
1D
100
AcDbEntity
  8
0
100
AcDbBlockEnd
  0
ENDSEC
  0
SECTION
  2
ENTITIES
  0
MTEXT
  5
219
100
AcDbEntity
  8
0
100
AcDbMText
 62
7
  6
CONTINUOUS
  7
STANDARD
 71
1
 72
1
 10
15.9560215477
 20
0.9479130325
 30
0.0
 11
1.0
 21
0.0
 31
0.0
 44
0.9
  1
SCALE: 1:1.000
 40
0.3
 41
3.36
  0
LINE
  5
21A
100
AcDbEntity
  8
0
100
AcDbLine
 62
7
  6
CONTINUOUS
 10
0.0
 20
0.0
 11
0.0
 21
17.0
  0
LINE
  5
21B
100
AcDbEntity
  8
0
100
AcDbLine
 62
7
  6
CONTINUOUS
 10
0.0
 20
0.0
 11
22.0
 21
0.0
  0
LINE
  5
21C
100
AcDbEntity
  8
0
100
AcDbLine
 62
7
  6
CONTINUOUS
 10
0.0
 20
17.0
 11
22.0
 21
17.0
  0
LINE
  5
21D
100
AcDbEntity
  8
0
100
AcDbLine
 62
7
  6
CONTINUOUS
 10
22.0
 20
0.0
 11
22.0
 21
17.0
  0
LINE
  5
21E
100
AcDbEntity
  8
0
100
AcDbLine
 62
7
  6
CONTINUOUS
 10
3.7681625518
 20
5.6776002117
 11
3.7681625518
 21
5.5909860385
  0
LINE
  5
21F
100
AcDbEntity
  8
0
100
AcDbLine
 62
7
  6
CONTINUOUS
 10
3.8919558356
 20
5.500866467
 11
3.9484621638
 21
5.3796882552
  0
LINE
  5
220
100
AcDbEntity
  8
0
100
AcDbLine
 62
7
  6
CONTINUOUS
 10
3.7681625518
 20
5.5909860385
 11
3.7996297711
 21
5.5595188191
  0
LINE
  5
221
100
AcDbEntity
  8
0
100
AcDbLine
 62
7
  6
CONTINUOUS
 10
4.3752645145
 20
5.3796882552
 11
4.4317708427
 21
5.500866467
  0
LINE
  5
222
100
AcDbEntity
  8
0
100
AcDbLine
 62
7
  6
CONTINUOUS
 10
4.6793574104
 20
5.500866467
 11
4.7358637386
 21
5.3796882552
  0
LINE
  5
223
100
AcDbEntity
  8
0
100
AcDbLine
 62
7
  6
CONTINUOUS
 10
4.524096901
 20
5.5595188129
 11
4.5555641266
 21
5.5909860385
  0
LINE
  5
224
100
AcDbEntity
  8
0
100
AcDbLine
 62
7
  6
CONTINUOUS
 10
4.5555641266
 20
5.5909860385
 11
4.5870248652
 21
5.5595252999
  0
LINE
  5
225
100
AcDbEntity
  8
0
100
AcDbLine
 62
7
  6
CONTINUOUS
 10
5.1626660893
 20
5.3796882552
 11
5.2191724175
 21
5.500866467
  0
LINE
  5
226
100
AcDbEntity
  8
0
100
AcDbLine
 62
7
  6
CONTINUOUS
 10
5.311504949
 20
5.5595252861
 11
5.3429657014
 21
5.5909860385
  0
LINE
  5
227
100
AcDbEntity
  8
0
100
AcDbLine
 62
7
  6
CONTINUOUS
 10
5.3429657014
 20
5.5909860385
 11
5.37442644
 21
5.5595252999
  0
LINE
  5
228
100
AcDbEntity
  8
0
100
AcDbLine
 62
7
  6
CONTINUOUS
 10
5.4667589852
 20
5.500866467
 11
5.5232653134
 21
5.3796882552
  0
LINE
  5
229
100
AcDbEntity
  8
0
100
AcDbLine
 62
7
  6
CONTINUOUS
 10
3.9752232205
 20
5.3626395818
 11
4.3485034578
 21
5.3626395818
  0
LINE
  5
22A
100
AcDbEntity
  8
0
100
AcDbLine
 62
7
  6
CONTINUOUS
 10
4.7626247953
 20
5.3626395818
 11
5.1359050326
 21
5.3626395818
  0
LINE
  5
22B
100
AcDbEntity
  8
0
100
AcDbLine
 62
7
  6
CONTINUOUS
 10
5.5500263701
 20
5.3626395818
 11
5.9233066074
 21
5.3626395818
  0
LINE
  5
22C
100
AcDbEntity
  8
0
100
AcDbLine
 62
7
  6
CONTINUOUS
 10
6.3374279449
 20
5.3626395818
 11
6.7107081822
 21
5.3626395818
  0
LINE
  5
22D
100
AcDbEntity
  8
0
100
AcDbLine
 62
7
  6
CONTINUOUS
 10
7.1248295197
 20
5.3626395818
 11
7.498109757
 21
5.3626395818
  0
LINE
  5
22E
100
AcDbEntity
  8
0
100
AcDbLine
 62
7
  6
CONTINUOUS
 10
7.9122310945
 20
5.3626395818
 11
8.2855113318
 21
5.3626395818
  0
LINE
  5
22F
100
AcDbEntity
  8
0
100
AcDbLine
 62
7
  6
CONTINUOUS
 10
5.9500676641
 20
5.3796882552
 11
6.0065739923
 21
5.500866467
  0
LINE
  5
230
100
AcDbEntity
  8
0
100
AcDbLine
 62
7
  6
CONTINUOUS
 10
6.0989065238
 20
5.5595252861
 11
6.1303672762
 21
5.5909860385
  0
LINE
  5
231
100
AcDbEntity
  8
0
100
AcDbLine
 62
7
  6
CONTINUOUS
 10
8.4925720006
 20
5.6776002117
 11
3.7681625518
 21
5.6776002117
  0
LINE
  5
232
100
AcDbEntity
  8
0
100
AcDbLine
 62
7
  6
CONTINUOUS
 10
6.1303672762
 20
5.5909860385
 11
6.1618280148
 21
5.5595252999
  0
LINE
  5
233
100
AcDbEntity
  8
0
100
AcDbLine
 62
7
  6
CONTINUOUS
 10
6.25416056
 20
5.500866467
 11
6.3106668882
 21
5.3796882552
  0
LINE
  5
234
100
AcDbEntity
  8
0
100
AcDbLine
 62
7
  6
CONTINUOUS
 10
6.7374692389
 20
5.3796882552
 11
6.7939755671
 21
5.500866467
  0
LINE
  5
235
100
AcDbEntity
  8
0
100
AcDbLine
 62
7
  6
CONTINUOUS
 10
6.8863080986
 20
5.5595252861
 11
6.917768851
 21
5.5909860385
  0
LINE
  5
236
100
AcDbEntity
  8
0
100
AcDbLine
 62
7
  6
CONTINUOUS
 10
6.917768851
 20
5.5909860385
 11
6.9492295896
 21
5.5595252999
  0
LINE
  5
237
100
AcDbEntity
  8
0
100
AcDbLine
 62
7
  6
CONTINUOUS
 10
7.0415621348
 20
5.500866467
 11
7.098068463
 21
5.3796882552
  0
LINE
  5
238
100
AcDbEntity
  8
0
100
AcDbLine
 62
7
  6
CONTINUOUS
 10
7.6737096734
 20
5.5595252861
 11
7.7051704258
 21
5.5909860385
  0
LINE
  5
239
100
AcDbEntity
  8
0
100
AcDbLine
 62
7
  6
CONTINUOUS
 10
7.7051704258
 20
5.5909860385
 11
7.7366311644
 21
5.5595252999
  0
LINE
  5
23A
100
AcDbEntity
  8
0
100
AcDbLine
 62
7
  6
CONTINUOUS
 10
7.5248708137
 20
5.3796882552
 11
7.5813771419
 21
5.500866467
  0
LINE
  5
23B
100
AcDbEntity
  8
0
100
AcDbLine
 62
7
  6
CONTINUOUS
 10
7.8289637096
 20
5.500866467
 11
7.8854700378
 21
5.3796882552
  0
LINE
  5
23C
100
AcDbEntity
  8
0
100
AcDbLine
 62
7
  6
CONTINUOUS
 10
8.4611112482
 20
5.5595252861
 11
8.4925720006
 21
5.5909860385
  0
LINE
  5
23D
100
AcDbEntity
  8
0
100
AcDbLine
 62
7
  6
CONTINUOUS
 10
8.3122723885
 20
5.3796882552
 11
8.3687787167
 21
5.500866467
  0
LINE
  5
23E
100
AcDbEntity
  8
0
100
AcDbLine
 62
7
  6
CONTINUOUS
 10
8.4925720006
 20
5.5909860385
 11
8.4925720006
 21
5.6776002117
  0
LINE
  5
23F
100
AcDbEntity
  8
0
100
AcDbLine
 62
7
  6
CONTINUOUS
 10
3.7086673594
 20
13.0921737656
 11
3.7086673594
 21
12.1079217971
  0
LINE
  5
240
100
AcDbEntity
  8
0
100
AcDbLine
 62
7
  6
CONTINUOUS
 10
8.4330768083
 20
12.1079217971
 11
3.7086673594
 21
12.1079217971
  0
LINE
  5
241
100
AcDbEntity
  8
0
100
AcDbLine
 62
7
  6
CONTINUOUS
 10
3.7086673594
 20
13.0921737656
 11
8.4330768083
 21
13.0921737656
  0
LINE
  5
242
100
AcDbEntity
  8
0
100
AcDbLine
 62
7
  6
CONTINUOUS
 10
8.4330768083
 20
13.0921737656
 11
8.4330768083
 21
12.1079217971
  0
LINE
  5
243
100
AcDbEntity
  8
0
100
AcDbLine
 62
7
  6
CONTINUOUS
 10
15.0682292727
 20
5.3031443895
 11
15.0682292727
 21
5.6181050194
  0
LINE
  5
244
100
AcDbEntity
  8
0
100
AcDbLine
 62
7
  6
CONTINUOUS
 10
15.0682292727
 20
5.3031443895
 11
16.0524812412
 21
5.3031443895
  0
LINE
  5
245
100
AcDbEntity
  8
0
100
AcDbLine
 62
7
  6
CONTINUOUS
 10
16.0524812412
 20
5.4998564106
 11
15.0682292727
 21
5.4998564106
  0
LINE
  5
246
100
AcDbEntity
  8
0
100
AcDbLine
 62
7
  6
CONTINUOUS
 10
16.0524812412
 20
5.5314908462
 11
15.0682292727
 21
5.5314908462
  0
LINE
  5
247
100
AcDbEntity
  8
0
100
AcDbLine
 62
7
  6
CONTINUOUS
 10
16.0524812412
 20
5.6181050194
 11
15.0682292727
 21
5.6181050194
  0
LINE
  5
248
100
AcDbEntity
  8
0
100
AcDbLine
 62
7
  6
CONTINUOUS
 10
16.0524812412
 20
5.3031443895
 11
16.0524812412
 21
5.6181050194
  0
LINE
  5
249
100
AcDbEntity
  8
0
100
AcDbLine
 62
7
  6
CONTINUOUS
 10
13.1630402348
 20
12.2232008001
 11
13.1894611838
 21
12.1693605666
  0
LINE
  5
24A
100
AcDbEntity
  8
0
100
AcDbLine
 62
7
  6
CONTINUOUS
 10
13.4012944901
 20
12.9941918529
 11
13.1630402348
 21
12.2232008001
  0
LINE
  5
24B
100
AcDbEntity
  8
0
100
AcDbLine
 62
7
  6
CONTINUOUS
 10
13.3309725912
 20
12.1133413427
 11
13.419982794
 21
12.0380157582
  0
LINE
  5
24C
100
AcDbEntity
  8
0
100
AcDbLine
 62
7
  6
CONTINUOUS
 10
13.8130937914
 20
12.0380157582
 11
13.8281751382
 21
12.1133413427
  0
LINE
  5
24D
100
AcDbEntity
  8
0
100
AcDbLine
 62
7
  6
CONTINUOUS
 10
13.8128510269
 20
12.0370544726
 11
13.8130937914
 21
12.0380157582
  0
LINE
  5
24E
100
AcDbEntity
  8
0
100
AcDbLine
 62
7
  6
CONTINUOUS
 10
13.8281751382
 20
12.1133413427
 11
13.8290105246
 21
12.1166466262
  0
LINE
  5
24F
100
AcDbEntity
  8
0
100
AcDbLine
 62
7
  6
CONTINUOUS
 10
13.8128498887
 20
12.0370548238
 11
13.8432244961
 21
12.1353470893
  0
LINE
  5
250
100
AcDbEntity
  8
0
100
AcDbLine
 62
7
  6
CONTINUOUS
 10
13.1894611838
 20
12.1693605666
 11
13.2280432315
 21
12.1498002294
  0
LINE
  5
251
100
AcDbEntity
  8
0
100
AcDbLine
 62
7
  6
CONTINUOUS
 10
14.0562174684
 20
12.1133413427
 11
14.1452276712
 21
12.0380157582
  0
LINE
  5
252
100
AcDbEntity
  8
0
100
AcDbLine
 62
7
  6
CONTINUOUS
 10
13.914706061
 20
12.1693605666
 11
13.9532801626
 21
12.1498042579
  0
LINE
  5
253
100
AcDbEntity
  8
0
100
AcDbLine
 62
7
  6
CONTINUOUS
 10
14.5383386685
 20
12.0380157582
 11
14.5534200154
 21
12.1133413427
  0
LINE
  5
254
100
AcDbEntity
  8
0
100
AcDbLine
 62
7
  6
CONTINUOUS
 10
14.5534200154
 20
12.1133413427
 11
14.5542542479
 21
12.1166469814
  0
LINE
  5
255
100
AcDbEntity
  8
0
100
AcDbLine
 62
7
  6
CONTINUOUS
 10
14.5380888888
 20
12.0370566453
 11
14.5383386685
 21
12.0380157582
  0
LINE
  5
256
100
AcDbEntity
  8
0
100
AcDbLine
 62
7
  6
CONTINUOUS
 10
13.8953216482
 20
12.1498002255
 11
13.914706061
 21
12.1693605666
  0
LINE
  5
257
100
AcDbEntity
  8
0
100
AcDbLine
 62
7
  6
CONTINUOUS
 10
14.5380947659
 20
12.0370548238
 11
14.5686342996
 21
12.1358807911
  0
LINE
  5
258
100
AcDbEntity
  8
0
100
AcDbLine
 62
7
  6
CONTINUOUS
 10
14.6399509382
 20
12.1693605666
 11
14.6785250398
 21
12.1498042579
  0
LINE
  5
259
100
AcDbEntity
  8
0
100
AcDbLine
 62
7
  6
CONTINUOUS
 10
14.7814623455
 20
12.1133413427
 11
14.8704725483
 21
12.0380157582
  0
LINE
  5
25A
100
AcDbEntity
  8
0
100
AcDbLine
 62
7
  6
CONTINUOUS
 10
13.4498319186
 20
12.0274181329
 11
13.793645785
 21
12.0274181329
  0
LINE
  5
25B
100
AcDbEntity
  8
0
100
AcDbLine
 62
7
  6
CONTINUOUS
 10
14.1750767958
 20
12.0274181329
 11
14.5188906622
 21
12.0274181329
  0
LINE
  5
25C
100
AcDbEntity
  8
0
100
AcDbLine
 62
7
  6
CONTINUOUS
 10
14.900321673
 20
12.0274181329
 11
15.2441355394
 21
12.0274181329
  0
LINE
  5
25D
100
AcDbEntity
  8
0
100
AcDbLine
 62
7
  6
CONTINUOUS
 10
15.6255665501
 20
12.0274181329
 11
15.9693804165
 21
12.0274181329
  0
LINE
  5
25E
100
AcDbEntity
  8
0
100
AcDbLine
 62
7
  6
CONTINUOUS
 10
16.3508114273
 20
12.0274181329
 11
16.6946252937
 21
12.0274181329
  0
LINE
  5
25F
100
AcDbEntity
  8
0
100
AcDbLine
 62
7
  6
CONTINUOUS
 10
17.0760563045
 20
12.0274181329
 11
17.4198701709
 21
12.0274181329
  0
LINE
  5
260
100
AcDbEntity
  8
0
100
AcDbLine
 62
7
  6
CONTINUOUS
 10
14.620570513
 20
12.1498042493
 11
14.6399509382
 21
12.1693605666
  0
LINE
  5
261
100
AcDbEntity
  8
0
100
AcDbLine
 62
7
  6
CONTINUOUS
 10
15.3651958154
 20
12.1693605666
 11
15.403769917
 21
12.1498042579
  0
LINE
  5
262
100
AcDbEntity
  8
0
100
AcDbLine
 62
7
  6
CONTINUOUS
 10
17.5145094978
 20
12.2232008001
 11
13.1630402348
 21
12.2232008001
  0
LINE
  5
263
100
AcDbEntity
  8
0
100
AcDbLine
 62
7
  6
CONTINUOUS
 10
15.5067072227
 20
12.1133413427
 11
15.5957174255
 21
12.0380157582
  0
LINE
  5
264
100
AcDbEntity
  8
0
100
AcDbLine
 62
7
  6
CONTINUOUS
 10
15.2635835457
 20
12.0380157582
 11
15.2786648926
 21
12.1133413427
  0
LINE
  5
265
100
AcDbEntity
  8
0
100
AcDbLine
 62
7
  6
CONTINUOUS
 10
15.2786648926
 20
12.1133413427
 11
15.279499125
 21
12.1166469814
  0
LINE
  5
266
100
AcDbEntity
  8
0
100
AcDbLine
 62
7
  6
CONTINUOUS
 10
15.2633337659
 20
12.0370566453
 11
15.2635835457
 21
12.0380157582
  0
LINE
  5
267
100
AcDbEntity
  8
0
100
AcDbLine
 62
7
  6
CONTINUOUS
 10
15.263339643
 20
12.0370548238
 11
15.2938791767
 21
12.1358807911
  0
LINE
  5
268
100
AcDbEntity
  8
0
100
AcDbLine
 62
7
  6
CONTINUOUS
 10
16.0904406925
 20
12.1693605666
 11
16.1290147941
 21
12.1498042579
  0
LINE
  5
269
100
AcDbEntity
  8
0
100
AcDbLine
 62
7
  6
CONTINUOUS
 10
15.3458153901
 20
12.1498042493
 11
15.3651958154
 21
12.1693605666
  0
LINE
  5
26A
100
AcDbEntity
  8
0
100
AcDbLine
 62
7
  6
CONTINUOUS
 10
16.8156855697
 20
12.1693605666
 11
16.8542596713
 21
12.1498042579
  0
LINE
  5
26B
100
AcDbEntity
  8
0
100
AcDbLine
 62
7
  6
CONTINUOUS
 10
16.2319520999
 20
12.1133413427
 11
16.3209623027
 21
12.0380157582
  0
LINE
  5
26C
100
AcDbEntity
  8
0
100
AcDbLine
 62
7
  6
CONTINUOUS
 10
13.4012944901
 20
12.9941918529
 11
17.7527637531
 21
12.9941918529
  0
LINE
  5
26D
100
AcDbEntity
  8
0
100
AcDbLine
 62
7
  6
CONTINUOUS
 10
15.9888284229
 20
12.0380157582
 11
16.0039097697
 21
12.1133413427
  0
LINE
  5
26E
100
AcDbEntity
  8
0
100
AcDbLine
 62
7
  6
CONTINUOUS
 10
16.0039097697
 20
12.1133413427
 11
16.0047440022
 21
12.1166469814
  0
LINE
  5
26F
100
AcDbEntity
  8
0
100
AcDbLine
 62
7
  6
CONTINUOUS
 10
15.9885786431
 20
12.0370566453
 11
15.9888284229
 21
12.0380157582
  0
LINE
  5
270
100
AcDbEntity
  8
0
100
AcDbLine
 62
7
  6
CONTINUOUS
 10
15.9885845202
 20
12.0370548238
 11
16.0191240539
 21
12.1358807911
  0
LINE
  5
271
100
AcDbEntity
  8
0
100
AcDbLine
 62
7
  6
CONTINUOUS
 10
16.0710602673
 20
12.1498042493
 11
16.0904406925
 21
12.1693605666
  0
LINE
  5
272
100
AcDbEntity
  8
0
100
AcDbLine
 62
7
  6
CONTINUOUS
 10
16.9571969771
 20
12.1133413427
 11
17.0462071798
 21
12.0380157582
  0
LINE
  5
273
100
AcDbEntity
  8
0
100
AcDbLine
 62
7
  6
CONTINUOUS
 10
16.7963051445
 20
12.1498042493
 11
16.8156855697
 21
12.1693605666
  0
LINE
  5
274
100
AcDbEntity
  8
0
100
AcDbLine
 62
7
  6
CONTINUOUS
 10
16.7140733
 20
12.0380157582
 11
16.7291546469
 21
12.1133413427
  0
LINE
  5
275
100
AcDbEntity
  8
0
100
AcDbLine
 62
7
  6
CONTINUOUS
 10
16.7291546469
 20
12.1133413427
 11
16.7299888794
 21
12.1166469814
  0
LINE
  5
276
100
AcDbEntity
  8
0
100
AcDbLine
 62
7
  6
CONTINUOUS
 10
16.7138235203
 20
12.0370566453
 11
16.7140733
 21
12.0380157582
  0
LINE
  5
277
100
AcDbEntity
  8
0
100
AcDbLine
 62
7
  6
CONTINUOUS
 10
16.7138293974
 20
12.0370548238
 11
16.7443689311
 21
12.1358807911
  0
LINE
  5
278
100
AcDbEntity
  8
0
100
AcDbLine
 62
7
  6
CONTINUOUS
 10
17.5215500216
 20
12.1498042493
 11
17.5409304469
 21
12.1693605666
  0
LINE
  5
279
100
AcDbEntity
  8
0
100
AcDbLine
 62
7
  6
CONTINUOUS
 10
17.5409304469
 20
12.1693605666
 11
17.5145094978
 21
12.2232008001
  0
LINE
  5
27A
100
AcDbEntity
  8
0
100
AcDbLine
 62
7
  6
CONTINUOUS
 10
17.4393181772
 20
12.0380157582
 11
17.4543995241
 21
12.1133413427
  0
LINE
  5
27B
100
AcDbEntity
  8
0
100
AcDbLine
 62
7
  6
CONTINUOUS
 10
17.4543995241
 20
12.1133413427
 11
17.4552337565
 21
12.1166469814
  0
LINE
  5
27C
100
AcDbEntity
  8
0
100
AcDbLine
 62
7
  6
CONTINUOUS
 10
17.4390683974
 20
12.0370566453
 11
17.4393181772
 21
12.0380157582
  0
LINE
  5
27D
100
AcDbEntity
  8
0
100
AcDbLine
 62
7
  6
CONTINUOUS
 10
17.4390742745
 20
12.0370548238
 11
17.4696138082
 21
12.1358807911
  0
LINE
  5
27E
100
AcDbEntity
  8
0
100
AcDbLine
 62
7
  6
CONTINUOUS
 10
17.7527637531
 20
12.9941918529
 11
17.5145094978
 21
12.2232008001
  0
LINE
  5
27F
100
AcDbEntity
  8
0
100
AcDbLine
 62
7
  6
CONTINUOUS
 10
17.7791847022
 20
12.9403516194
 11
17.5409304469
 21
12.1693605666
  0
LINE
  5
280
100
AcDbEntity
  8
0
100
AcDbLine
 62
7
  6
CONTINUOUS
 10
17.7791847022
 20
12.9403516194
 11
17.7527637531
 21
12.9941918529
  0
ARC
  5
281
100
AcDbEntity
  8
0
100
AcDbCircle
 62
7
  6
CONTINUOUS
 10
8.4607991924
 20
5.4579566145
 40
0.101533361
100
AcDbArc
 50
90.0
 51
155.0
  0
ARC
  5
282
100
AcDbEntity
  8
0
100
AcDbCircle
 62
7
  6
CONTINUOUS
 10
7.7369432339
 20
5.4579566145
 40
0.101533361
100
AcDbArc
 50
25.0
 51
90.0
  0
ARC
  5
283
100
AcDbEntity
  8
0
100
AcDbCircle
 62
7
  6
CONTINUOUS
 10
7.6733976176
 20
5.4579566145
 40
0.101533361
100
AcDbArc
 50
90.0
 51
155.0
  0
ARC
  5
284
100
AcDbEntity
  8
0
100
AcDbCircle
 62
7
  6
CONTINUOUS
 10
6.9495416591
 20
5.4579566145
 40
0.101533361
100
AcDbArc
 50
25.0
 51
90.0
  0
ARC
  5
285
100
AcDbEntity
  8
0
100
AcDbCircle
 62
7
  6
CONTINUOUS
 10
6.8859960428
 20
5.4579566145
 40
0.101533361
100
AcDbArc
 50
90.0
 51
155.0
  0
ARC
  5
286
100
AcDbEntity
  8
0
100
AcDbCircle
 62
7
  6
CONTINUOUS
 10
6.1621400843
 20
5.4579566145
 40
0.101533361
100
AcDbArc
 50
25.0
 51
90.0
  0
ARC
  5
287
100
AcDbEntity
  8
0
100
AcDbCircle
 62
7
  6
CONTINUOUS
 10
6.098594468
 20
5.4579566145
 40
0.101533361
100
AcDbArc
 50
90.0
 51
155.0
  0
ARC
  5
288
100
AcDbEntity
  8
0
100
AcDbCircle
 62
7
  6
CONTINUOUS
 10
5.3747385095
 20
5.4579566145
 40
0.101533361
100
AcDbArc
 50
25.0
 51
90.0
  0
ARC
  5
289
100
AcDbEntity
  8
0
100
AcDbCircle
 62
7
  6
CONTINUOUS
 10
5.3111928932
 20
5.4579566145
 40
0.101533361
100
AcDbArc
 50
90.0
 51
155.0
  0
ARC
  5
28A
100
AcDbEntity
  8
0
100
AcDbCircle
 62
7
  6
CONTINUOUS
 10
4.5873369347
 20
5.4579566145
 40
0.101533361
100
AcDbArc
 50
25.0
 51
90.0
  0
ARC
  5
28B
100
AcDbEntity
  8
0
100
AcDbCircle
 62
7
  6
CONTINUOUS
 10
3.7999353599
 20
5.4579566145
 40
0.101533361
100
AcDbArc
 50
25.0
 51
90.0
  0
ARC
  5
28C
100
AcDbEntity
  8
0
100
AcDbCircle
 62
7
  6
CONTINUOUS
 10
4.5237913184
 20
5.4579566145
 40
0.101533361
100
AcDbArc
 50
90.0
 51
155.0
  0
ARC
  5
28D
100
AcDbEntity
  8
0
100
AcDbCircle
 62
7
  6
CONTINUOUS
 10
3.9752232205
 20
5.3921671408
 40
0.0295275591
100
AcDbArc
 50
205.0
 51
270.0
  0
ARC
  5
28E
100
AcDbEntity
  8
0
100
AcDbCircle
 62
7
  6
CONTINUOUS
 10
4.3485034578
 20
5.3921671408
 40
0.0295275591
100
AcDbArc
 50
270.0
 51
335.0
  0
ARC
  5
28F
100
AcDbEntity
  8
0
100
AcDbCircle
 62
7
  6
CONTINUOUS
 10
4.7626247953
 20
5.3921671408
 40
0.0295275591
100
AcDbArc
 50
205.0
 51
270.0
  0
ARC
  5
290
100
AcDbEntity
  8
0
100
AcDbCircle
 62
7
  6
CONTINUOUS
 10
5.1359050326
 20
5.3921671408
 40
0.0295275591
100
AcDbArc
 50
270.0
 51
335.0
  0
ARC
  5
291
100
AcDbEntity
  8
0
100
AcDbCircle
 62
7
  6
CONTINUOUS
 10
5.5500263701
 20
5.3921671408
 40
0.0295275591
100
AcDbArc
 50
205.0
 51
270.0
  0
ARC
  5
292
100
AcDbEntity
  8
0
100
AcDbCircle
 62
7
  6
CONTINUOUS
 10
5.9233066074
 20
5.3921671408
 40
0.0295275591
100
AcDbArc
 50
270.0
 51
335.0
  0
ARC
  5
293
100
AcDbEntity
  8
0
100
AcDbCircle
 62
7
  6
CONTINUOUS
 10
8.2855113318
 20
5.3921671408
 40
0.0295275591
100
AcDbArc
 50
270.0
 51
335.0
  0
ARC
  5
294
100
AcDbEntity
  8
0
100
AcDbCircle
 62
7
  6
CONTINUOUS
 10
7.9122310945
 20
5.3921671408
 40
0.0295275591
100
AcDbArc
 50
205.0
 51
270.0
  0
ARC
  5
295
100
AcDbEntity
  8
0
100
AcDbCircle
 62
7
  6
CONTINUOUS
 10
7.498109757
 20
5.3921671408
 40
0.0295275591
100
AcDbArc
 50
270.0
 51
335.0
  0
ARC
  5
296
100
AcDbEntity
  8
0
100
AcDbCircle
 62
7
  6
CONTINUOUS
 10
7.1248295197
 20
5.3921671408
 40
0.0295275591
100
AcDbArc
 50
205.0
 51
270.0
  0
ARC
  5
297
100
AcDbEntity
  8
0
100
AcDbCircle
 62
7
  6
CONTINUOUS
 10
6.7107081822
 20
5.3921671408
 40
0.0295275591
100
AcDbArc
 50
270.0
 51
335.0
  0
ARC
  5
298
100
AcDbEntity
  8
0
100
AcDbCircle
 62
7
  6
CONTINUOUS
 10
6.3374279449
 20
5.3921671408
 40
0.0295275591
100
AcDbArc
 50
205.0
 51
270.0
  0
ARC
  5
299
100
AcDbEntity
  8
0
100
AcDbCircle
 62
7
  6
CONTINUOUS
 10
13.8614858779
 20
12.1065620921
 40
0.0340011344
100
AcDbArc
 50
149.979921341
 51
162.7489149958
  0
SPLINE
  5
29A
100
AcDbEntity
  8
0
100
AcDbSpline
 62
7
  6
CONTINUOUS
 70
0
 71
3
 72
11
 73
7
 74
0
 42
0.0000001
 43
0.0000001
 44
0.0000000001
 40
0.0
 40
0.0
 40
0.0
 40
0.0
 40
0.2021740768
 40
0.4299941987
 40
0.6962083056
 40
1.0
 40
1.0
 40
1.0
 40
1.0
 10
17.4552390018
 20
12.1166453598
 30
0.0
 10
17.4568079005
 20
12.1217163731
 30
0.0
 10
17.4629400961
 20
12.131746025
 30
0.0
 10
17.4783510052
 20
12.1422548778
 30
0.0
 10
17.49854976
 20
12.1485593052
 30
0.0
 10
17.5135738432
 20
12.1498042493
 30
0.0
 10
17.5215500216
 20
12.1498042493
 30
0.0
  0
SPLINE
  5
29B
100
AcDbEntity
  8
0
100
AcDbSpline
 62
7
  6
CONTINUOUS
 70
0
 71
3
 72
11
 73
7
 74
0
 42
0.0000001
 43
0.0000001
 44
0.0000000001
 40
0.0
 40
0.0
 40
0.0
 40
0.0
 40
0.2021740768
 40
0.4299941987
 40
0.6962083056
 40
1.0
 40
1.0
 40
1.0
 40
1.0
 10
16.7299941247
 20
12.1166453598
 30
0.0
 10
16.7315630233
 20
12.1217163731
 30
0.0
 10
16.7376952189
 20
12.131746025
 30
0.0
 10
16.753106128
 20
12.1422548778
 30
0.0
 10
16.7733048828
 20
12.1485593052
 30
0.0
 10
16.788328966
 20
12.1498042493
 30
0.0
 10
16.7963051445
 20
12.1498042493
 30
0.0
  0
SPLINE
  5
29C
100
AcDbEntity
  8
0
100
AcDbSpline
 62
7
  6
CONTINUOUS
 70
0
 71
3
 72
11
 73
7
 74
0
 42
0.0000001
 43
0.0000001
 44
0.0000000001
 40
0.0
 40
0.0
 40
0.0
 40
0.0
 40
0.2021740768
 40
0.4299941987
 40
0.6962083056
 40
1.0
 40
1.0
 40
1.0
 40
1.0
 10
16.0047492475
 20
12.1166453598
 30
0.0
 10
16.0063181462
 20
12.1217163731
 30
0.0
 10
16.0124503418
 20
12.131746025
 30
0.0
 10
16.0278612508
 20
12.1422548778
 30
0.0
 10
16.0480600056
 20
12.1485593052
 30
0.0
 10
16.0630840888
 20
12.1498042493
 30
0.0
 10
16.0710602673
 20
12.1498042493
 30
0.0
  0
SPLINE
  5
29D
100
AcDbEntity
  8
0
100
AcDbSpline
 62
7
  6
CONTINUOUS
 70
0
 71
3
 72
11
 73
7
 74
0
 42
0.0000001
 43
0.0000001
 44
0.0000000001
 40
0.0
 40
0.0
 40
0.0
 40
0.0
 40
0.2021740768
 40
0.4299941987
 40
0.6962083056
 40
1.0
 40
1.0
 40
1.0
 40
1.0
 10
15.2795043703
 20
12.1166453598
 30
0.0
 10
15.281073269
 20
12.1217163731
 30
0.0
 10
15.2872054646
 20
12.131746025
 30
0.0
 10
15.3026163737
 20
12.1422548778
 30
0.0
 10
15.3228151285
 20
12.1485593052
 30
0.0
 10
15.3378392117
 20
12.1498042493
 30
0.0
 10
15.3458153901
 20
12.1498042493
 30
0.0
  0
SPLINE
  5
29E
100
AcDbEntity
  8
0
100
AcDbSpline
 62
7
  6
CONTINUOUS
 70
0
 71
3
 72
11
 73
7
 74
0
 42
0.0000001
 43
0.0000001
 44
0.0000000001
 40
0.0
 40
0.0
 40
0.0
 40
0.0
 40
0.2021740768
 40
0.4299941987
 40
0.6962083056
 40
1.0
 40
1.0
 40
1.0
 40
1.0
 10
14.5542594932
 20
12.1166453598
 30
0.0
 10
14.5558283918
 20
12.1217163731
 30
0.0
 10
14.5619605874
 20
12.131746025
 30
0.0
 10
14.5773714965
 20
12.1422548778
 30
0.0
 10
14.5975702513
 20
12.1485593052
 30
0.0
 10
14.6125943345
 20
12.1498042493
 30
0.0
 10
14.620570513
 20
12.1498042493
 30
0.0
  0
SPLINE
  5
29F
100
AcDbEntity
  8
0
100
AcDbSpline
 62
7
  6
CONTINUOUS
 70
0
 71
3
 72
11
 73
7
 74
0
 42
0.0000001
 43
0.0000001
 44
0.0000000001
 40
0.0
 40
0.0
 40
0.0
 40
0.0
 40
0.2046020979
 40
0.4367446271
 40
0.7025926593
 40
1.0
 40
1.0
 40
1.0
 40
1.0
 10
13.8320459912
 20
12.1235729773
 30
0.0
 10
13.8344771506
 20
12.1277853454
 30
0.0
 10
13.8416318768
 20
12.1356940413
 30
0.0
 10
13.8564290688
 20
12.1438727337
 30
0.0
 10
13.8748252945
 20
12.148812291
 30
0.0
 10
13.8882519767
 20
12.1498002255
 30
0.0
 10
13.8953216482
 20
12.1498002255
 30
0.0
  0
SPLINE
  5
2A0
100
AcDbEntity
  8
0
100
AcDbSpline
 62
7
  6
CONTINUOUS
 70
0
 71
3
 72
10
 73
6
 74
0
 42
0.0000001
 43
0.0000001
 44
0.0000000001
 40
0.0
 40
0.0
 40
0.0
 40
0.0
 40
0.5058216804
 40
0.761271613
 40
1.0
 40
1.0
 40
1.0
 40
1.0
 10
16.8542596713
 20
12.1498042579
 30
0.0
 10
16.8729662276
 20
12.1498042579
 30
0.0
 10
16.9013253126
 20
12.144413459
 30
0.0
 10
16.9351713407
 20
12.1293274012
 30
0.0
 10
16.9504575567
 20
12.1190446302
 30
0.0
 10
16.9571969771
 20
12.1133413427
 30
0.0
  0
SPLINE
  5
2A1
100
AcDbEntity
  8
0
100
AcDbSpline
 62
7
  6
CONTINUOUS
 70
0
 71
3
 72
10
 73
6
 74
0
 42
0.0000001
 43
0.0000001
 44
0.0000000001
 40
0.0
 40
0.0
 40
0.0
 40
0.0
 40
0.5058216804
 40
0.761271613
 40
1.0
 40
1.0
 40
1.0
 40
1.0
 10
16.1290147941
 20
12.1498042579
 30
0.0
 10
16.1477213504
 20
12.1498042579
 30
0.0
 10
16.1760804355
 20
12.144413459
 30
0.0
 10
16.2099264635
 20
12.1293274012
 30
0.0
 10
16.2252126795
 20
12.1190446302
 30
0.0
 10
16.2319520999
 20
12.1133413427
 30
0.0
  0
SPLINE
  5
2A2
100
AcDbEntity
  8
0
100
AcDbSpline
 62
7
  6
CONTINUOUS
 70
0
 71
3
 72
10
 73
6
 74
0
 42
0.0000001
 43
0.0000001
 44
0.0000000001
 40
0.0
 40
0.0
 40
0.0
 40
0.0
 40
0.5058216804
 40
0.761271613
 40
1.0
 40
1.0
 40
1.0
 40
1.0
 10
15.403769917
 20
12.1498042579
 30
0.0
 10
15.4224764733
 20
12.1498042579
 30
0.0
 10
15.4508355583
 20
12.144413459
 30
0.0
 10
15.4846815864
 20
12.1293274012
 30
0.0
 10
15.4999678024
 20
12.1190446302
 30
0.0
 10
15.5067072227
 20
12.1133413427
 30
0.0
  0
SPLINE
  5
2A3
100
AcDbEntity
  8
0
100
AcDbSpline
 62
7
  6
CONTINUOUS
 70
0
 71
3
 72
11
 73
7
 74
0
 42
0.0000001
 43
0.0000001
 44
0.0000000001
 40
0.0
 40
0.0
 40
0.0
 40
0.0
 40
0.3037542146
 40
0.5698853113
 40
0.797672838
 40
1.0
 40
1.0
 40
1.0
 40
1.0
 10
17.4198701709
 20
12.0274181329
 30
0.0
 10
17.422181352
 20
12.0274181329
 30
0.0
 10
17.4265345405
 20
12.027784583
 30
0.0
 10
17.4323829717
 20
12.0296233822
 30
0.0
 10
17.4368443737
 20
12.0326758334
 30
0.0
 10
17.4386183722
 20
12.0355844322
 30
0.0
 10
17.4390738625
 20
12.0370549552
 30
0.0
  0
SPLINE
  5
2A4
100
AcDbEntity
  8
0
100
AcDbSpline
 62
7
  6
CONTINUOUS
 70
0
 71
3
 72
9
 73
5
 74
0
 42
0.0000001
 43
0.0000001
 44
0.0000000001
 40
0.0
 40
0.0
 40
0.0
 40
0.0
 40
0.4931108937
 40
1.0
 40
1.0
 40
1.0
 40
1.0
 10
17.0462071798
 20
12.0380157582
 30
0.0
 10
17.050236797
 20
12.034605663
 30
0.0
 10
17.0599134398
 20
12.0294740147
 30
0.0
 10
17.070629926
 20
12.0274181329
 30
0.0
 10
17.0760563045
 20
12.0274181329
 30
0.0
  0
SPLINE
  5
2A5
100
AcDbEntity
  8
0
100
AcDbSpline
 62
7
  6
CONTINUOUS
 70
0
 71
3
 72
11
 73
7
 74
0
 42
0.0000001
 43
0.0000001
 44
0.0000000001
 40
0.0
 40
0.0
 40
0.0
 40
0.0
 40
0.3037542146
 40
0.5698853113
 40
0.797672838
 40
1.0
 40
1.0
 40
1.0
 40
1.0
 10
16.6946252937
 20
12.0274181329
 30
0.0
 10
16.6969364748
 20
12.0274181329
 30
0.0
 10
16.7012896634
 20
12.027784583
 30
0.0
 10
16.7071380945
 20
12.0296233822
 30
0.0
 10
16.7115994966
 20
12.0326758334
 30
0.0
 10
16.713373495
 20
12.0355844322
 30
0.0
 10
16.7138289853
 20
12.0370549552
 30
0.0
  0
SPLINE
  5
2A6
100
AcDbEntity
  8
0
100
AcDbSpline
 62
7
  6
CONTINUOUS
 70
0
 71
3
 72
9
 73
5
 74
0
 42
0.0000001
 43
0.0000001
 44
0.0000000001
 40
0.0
 40
0.0
 40
0.0
 40
0.0
 40
0.4931108937
 40
1.0
 40
1.0
 40
1.0
 40
1.0
 10
16.3209623027
 20
12.0380157582
 30
0.0
 10
16.3249919199
 20
12.034605663
 30
0.0
 10
16.3346685626
 20
12.0294740147
 30
0.0
 10
16.3453850489
 20
12.0274181329
 30
0.0
 10
16.3508114273
 20
12.0274181329
 30
0.0
  0
SPLINE
  5
2A7
100
AcDbEntity
  8
0
100
AcDbSpline
 62
7
  6
CONTINUOUS
 70
0
 71
3
 72
11
 73
7
 74
0
 42
0.0000001
 43
0.0000001
 44
0.0000000001
 40
0.0
 40
0.0
 40
0.0
 40
0.0
 40
0.3037542146
 40
0.5698853113
 40
0.797672838
 40
1.0
 40
1.0
 40
1.0
 40
1.0
 10
15.9693804165
 20
12.0274181329
 30
0.0
 10
15.9716915977
 20
12.0274181329
 30
0.0
 10
15.9760447862
 20
12.027784583
 30
0.0
 10
15.9818932174
 20
12.0296233822
 30
0.0
 10
15.9863546194
 20
12.0326758334
 30
0.0
 10
15.9881286178
 20
12.0355844322
 30
0.0
 10
15.9885841081
 20
12.0370549552
 30
0.0
  0
SPLINE
  5
2A8
100
AcDbEntity
  8
0
100
AcDbSpline
 62
7
  6
CONTINUOUS
 70
0
 71
3
 72
9
 73
5
 74
0
 42
0.0000001
 43
0.0000001
 44
0.0000000001
 40
0.0
 40
0.0
 40
0.0
 40
0.0
 40
0.4931108937
 40
1.0
 40
1.0
 40
1.0
 40
1.0
 10
15.5957174255
 20
12.0380157582
 30
0.0
 10
15.5997470427
 20
12.034605663
 30
0.0
 10
15.6094236855
 20
12.0294740147
 30
0.0
 10
15.6201401717
 20
12.0274181329
 30
0.0
 10
15.6255665501
 20
12.0274181329
 30
0.0
  0
SPLINE
  5
2A9
100
AcDbEntity
  8
0
100
AcDbSpline
 62
7
  6
CONTINUOUS
 70
0
 71
3
 72
11
 73
7
 74
0
 42
0.0000001
 43
0.0000001
 44
0.0000000001
 40
0.0
 40
0.0
 40
0.0
 40
0.0
 40
0.3037542146
 40
0.5698853113
 40
0.797672838
 40
1.0
 40
1.0
 40
1.0
 40
1.0
 10
15.2441355394
 20
12.0274181329
 30
0.0
 10
15.2464467205
 20
12.0274181329
 30
0.0
 10
15.250799909
 20
12.027784583
 30
0.0
 10
15.2566483402
 20
12.0296233822
 30
0.0
 10
15.2611097422
 20
12.0326758334
 30
0.0
 10
15.2628837407
 20
12.0355844322
 30
0.0
 10
15.263339231
 20
12.0370549552
 30
0.0
  0
SPLINE
  5
2AA
100
AcDbEntity
  8
0
100
AcDbSpline
 62
7
  6
CONTINUOUS
 70
0
 71
3
 72
9
 73
5
 74
0
 42
0.0000001
 43
0.0000001
 44
0.0000000001
 40
0.0
 40
0.0
 40
0.0
 40
0.0
 40
0.4931108937
 40
1.0
 40
1.0
 40
1.0
 40
1.0
 10
14.8704725483
 20
12.0380157582
 30
0.0
 10
14.8745021655
 20
12.034605663
 30
0.0
 10
14.8841788083
 20
12.0294740147
 30
0.0
 10
14.8948952945
 20
12.0274181329
 30
0.0
 10
14.900321673
 20
12.0274181329
 30
0.0
  0
SPLINE
  5
2AB
100
AcDbEntity
  8
0
100
AcDbSpline
 62
7
  6
CONTINUOUS
 70
0
 71
3
 72
11
 73
7
 74
0
 42
0.0000001
 43
0.0000001
 44
0.0000000001
 40
0.0
 40
0.0
 40
0.0
 40
0.0
 40
0.3037542146
 40
0.5698853113
 40
0.797672838
 40
1.0
 40
1.0
 40
1.0
 40
1.0
 10
14.5188906622
 20
12.0274181329
 30
0.0
 10
14.5212018433
 20
12.0274181329
 30
0.0
 10
14.5255550319
 20
12.027784583
 30
0.0
 10
14.531403463
 20
12.0296233822
 30
0.0
 10
14.5358648651
 20
12.0326758334
 30
0.0
 10
14.5376388635
 20
12.0355844322
 30
0.0
 10
14.5380943538
 20
12.0370549552
 30
0.0
  0
SPLINE
  5
2AC
100
AcDbEntity
  8
0
100
AcDbSpline
 62
7
  6
CONTINUOUS
 70
0
 71
3
 72
9
 73
5
 74
0
 42
0.0000001
 43
0.0000001
 44
0.0000000001
 40
0.0
 40
0.0
 40
0.0
 40
0.0
 40
0.4931108937
 40
1.0
 40
1.0
 40
1.0
 40
1.0
 10
14.1452276712
 20
12.0380157582
 30
0.0
 10
14.1492572884
 20
12.034605663
 30
0.0
 10
14.1589339311
 20
12.0294740147
 30
0.0
 10
14.1696504174
 20
12.0274181329
 30
0.0
 10
14.1750767958
 20
12.0274181329
 30
0.0
  0
SPLINE
  5
2AD
100
AcDbEntity
  8
0
100
AcDbSpline
 62
7
  6
CONTINUOUS
 70
0
 71
3
 72
11
 73
7
 74
0
 42
0.0000001
 43
0.0000001
 44
0.0000000001
 40
0.0
 40
0.0
 40
0.0
 40
0.0
 40
0.3037987827
 40
0.5698939037
 40
0.7977139027
 40
1.0
 40
1.0
 40
1.0
 40
1.0
 10
13.793645785
 20
12.0274181329
 30
0.0
 10
13.7959573032
 20
12.0274181329
 30
0.0
 10
13.8003106006
 20
12.0277843437
 30
0.0
 10
13.8061591815
 20
12.0296239767
 30
0.0
 10
13.8106199368
 20
12.0326762916
 30
0.0
 10
13.8123947389
 20
12.0355845245
 30
0.0
 10
13.8128496558
 20
12.0370548965
 30
0.0
  0
SPLINE
  5
2AE
100
AcDbEntity
  8
0
100
AcDbSpline
 62
7
  6
CONTINUOUS
 70
0
 71
3
 72
9
 73
5
 74
0
 42
0.0000001
 43
0.0000001
 44
0.0000000001
 40
0.0
 40
0.0
 40
0.0
 40
0.0
 40
0.4931113051
 40
1.0
 40
1.0
 40
1.0
 40
1.0
 10
13.419982794
 20
12.0380157582
 30
0.0
 10
13.4240124063
 20
12.0346056671
 30
0.0
 10
13.4336891919
 20
12.029474383
 30
0.0
 10
13.4444055557
 20
12.0274181329
 30
0.0
 10
13.4498319186
 20
12.0274181329
 30
0.0
  0
SPLINE
  5
2AF
100
AcDbEntity
  8
0
100
AcDbSpline
 62
7
  6
CONTINUOUS
 70
0
 71
3
 72
10
 73
6
 74
0
 42
0.0000001
 43
0.0000001
 44
0.0000000001
 40
0.0
 40
0.0
 40
0.0
 40
0.0
 40
0.5058216804
 40
0.761271613
 40
1.0
 40
1.0
 40
1.0
 40
1.0
 10
14.6785250398
 20
12.1498042579
 30
0.0
 10
14.6972315961
 20
12.1498042579
 30
0.0
 10
14.7255906811
 20
12.144413459
 30
0.0
 10
14.7594367092
 20
12.1293274012
 30
0.0
 10
14.7747229252
 20
12.1190446302
 30
0.0
 10
14.7814623455
 20
12.1133413427
 30
0.0
  0
SPLINE
  5
2B0
100
AcDbEntity
  8
0
100
AcDbSpline
 62
7
  6
CONTINUOUS
 70
0
 71
3
 72
10
 73
6
 74
0
 42
0.0000001
 43
0.0000001
 44
0.0000000001
 40
0.0
 40
0.0
 40
0.0
 40
0.0
 40
0.5058216804
 40
0.761271613
 40
1.0
 40
1.0
 40
1.0
 40
1.0
 10
13.9532801626
 20
12.1498042579
 30
0.0
 10
13.9719867189
 20
12.1498042579
 30
0.0
 10
14.000345804
 20
12.144413459
 30
0.0
 10
14.034191832
 20
12.1293274012
 30
0.0
 10
14.049478048
 20
12.1190446302
 30
0.0
 10
14.0562174684
 20
12.1133413427
 30
0.0
  0
SPLINE
  5
2B1
100
AcDbEntity
  8
0
100
AcDbSpline
 62
7
  6
CONTINUOUS
 70
0
 71
3
 72
10
 73
6
 74
0
 42
0.0000001
 43
0.0000001
 44
0.0000000001
 40
0.0
 40
0.0
 40
0.0
 40
0.0
 40
0.5058177369
 40
0.7612706507
 40
1.0
 40
1.0
 40
1.0
 40
1.0
 10
13.2280432315
 20
12.1498002294
 30
0.0
 10
13.2467482145
 20
12.1498002294
 30
0.0
 10
13.275105936
 20
12.1444134822
 30
0.0
 10
13.3089484096
 20
12.1293259892
 30
0.0
 10
13.324233658
 20
12.119044218
 30
0.0
 10
13.3309725912
 20
12.1133413427
 30
0.0
  0
ENDSEC
  0
SECTION
  2
OBJECTS
  0
DICTIONARY
  5
C
100
AcDbDictionary
280
0
281
1
  3
ACAD_GROUP
350
D
  3
ACAD_MLINESTYLE
350
17
  3
ACAD_LAYOUT
350
1A
  3
ACAD_PLOTSETTINGS
350
19
  3
ACAD_PLOTSTYLENAME
350
E
  0
DICTIONARY
  5
D
102
{ACAD_REACTORS
330
C
102
}
100
AcDbDictionary
280
0
281
1
  0
ACDBDICTIONARYWDFLT
  5
E
102
{ACAD_REACTORS
330
C
102
}
100
AcDbDictionary
281
1
  3
Normal
350
F
100
AcDbDictionaryWithDefault
340
F
  0
DICTIONARY
  5
17
102
{ACAD_REACTORS
330
C
102
}
100
AcDbDictionary
280
0
281
1
  3
Standard
350
18
  0
DICTIONARY
  5
19
102
{ACAD_REACTORS
330
C
102
}
100
AcDbDictionary
281
1
  0
DICTIONARY
  5
1A
102
{ACAD_REACTORS
330
C
102
}
100
AcDbDictionary
281
1
  3
Model
350
2B2
  3
Layout1
350
2B3
  0
ACDBPLACEHOLDER
  5
F
102
{ACAD_REACTORS
330
E
102
}
  0
MLINESTYLE
  5
18
102
{ACAD_REACTORS
330
17
102
}
100
AcDbMlineStyle
  2
STANDARD
 70
0
  3

 62
256
 51
90.0
 52
90.0
 71
2
 49
0.5
 62
256
  6
BYLAYER
 49
-0.5
 62
256
  6
BYLAYER
  0
LAYOUT
  5
2B2
102
{ACAD_REACTORS
330
1A
102
}
100
AcDbPlotSettings
  1

  2
none_device
  4
ANSI_C_(22.00_x_17.00_Inches)
  6

 40
0.0
 41
0.0
 42
0.0
 43
0.0
 44
558.8
 45
431.8
 46
0.0
 47
0.0
 48
0.0
 49
0.0
140
0.0
141
0.0
142
1.0
143
1.0
 70
1024
 72
0
 73
0
 74
0
  7

 75
0
147
1.0
148
0.0
149
0.0
100
AcDbLayout
  1
Model
 70
0
 71
0
 10
0.0
 20
0.0
 11
22.0
 21
17.0
 12
0.0
 22
0.0
 32
0.0
 14
0.0
 24
0.0
 34
0.0
 15
0.0
 25
0.0
 35
0.0
146
0.0
 13
0.0
 23
0.0
 33
0.0
 16
1.0
 26
0.0
 36
0.0
 17
0.0
 27
1.0
 37
0.0
 76
0
330
216
345
0
346
0
  0
LAYOUT
  5
2B3
102
{ACAD_REACTORS
330
1A
102
}
100
AcDbPlotSettings
  1

  2
none_device
  4
ANSI_C_(22.00_x_17.00_Inches)
  6

 40
0.0
 41
0.0
 42
0.0
 43
0.0
 44
558.8
 45
431.8
 46
0.0
 47
0.0
 48
0.0
 49
0.0
140
0.0
141
0.0
142
1.0
143
1.0
 70
0
 72
0
 73
0
 74
0
  7

 75
0
147
1.0
148
0.0
149
0.0
100
AcDbLayout
  1
Layout1
 70
0
 71
1
 10
0.0
 20
0.0
 11
22.0
 21
17.0
 12
0.0
 22
0.0
 32
0.0
 14
0.0
 24
0.0
 34
0.0
 15
0.0
 25
0.0
 35
0.0
146
0.0
 13
0.0
 23
0.0
 33
0.0
 16
1.0
 26
0.0
 36
0.0
 17
0.0
 27
1.0
 37
0.0
 76
0
330
217
345
0
346
0
  0
ENDSEC
  0
EOF