999
DXF file: _cgs_temp_output.dxf
999
Pro/ENGINEER 2015110 by Parametric Technology Corporation
  0
SECTION
  2
HEADER
  9
$ACADVER
  1
AC1021
  9
$DWGCODEPAGE
  3
ANSI_1252
  9
$EXTMAX
 10
22.0
 20
17.0
 30
0.0
  9
$EXTMIN
 10
0.0
 20
0.0
 30
0.0
  9
$LIMMIN
 10
0.0
 20
0.0
  9
$LIMMAX
 10
22.0
 20
17.0
  9
$VIEWCTR
 10
11.0
 20
8.5
  9
$VIEWSIZE
 40
17.0
  9
$CLAYER
  8
0
  9
$LTSCALE
 40
1.21
  9
$CELTYPE
  6
BYLAYER
  9
$DIMSCALE
 40
1.0
  9
$DIMASZ
 40
0.1875
  9
$DIMEXO
 40
0.0625
  9
$DIMDLI
 40
0.836
  9
$DIMEXE
 40
0.125
  9
$DIMCEN
 40
0.198
  9
$DIMLFAC
 40
1.0
  9
$DIMBLK
  1
_CLOSED
  9
$DIMALT
 70
0
  9
$DIMALTF
 40
25.4
  9
$DIMTXT
 40
0.15625
  9
$DIMTOL
 70
0
  9
$DIMLIM
 70
0
  9
$DIMTFAC
 40
1.0
  9
$DIMGAP
 40
0.09
  9
$DIMDSEP
 70
46
  9
$AUNITS
 70
0
  9
$PDMODE
 70
3
  9
$PDSIZE
 40
0.3125
  9
$HANDSEED
  5
2D1
  9
$TILEMODE
 70
1
  9
$MEASUREMENT
 70
0
  9
$INSUNITS
 70
1
  0
ENDSEC
  0
SECTION
  2
CLASSES
  0
CLASS
  1
ACDBDICTIONARYWDFLT
  2
AcDbDictionaryWithDefault
  3
AutoCAD 2000
 90
0
 91
1
280
0
281
0
  0
CLASS
  1
ACDBPLACEHOLDER
  2
AcDbPlaceHolder
  3
AutoCAD 2000
 90
0
 91
1
280
0
281
0
  0
CLASS
  1
LAYOUT
  2
AcDbLayout
  3
AutoCAD 2000
 90
0
 91
0
280
0
281
0
  0
ENDSEC
  0
SECTION
  2
TABLES
  0
TABLE
  2
VPORT
  5
8
100
AcDbSymbolTable
 70
2
  0
VPORT
  5
1F4
100
AcDbSymbolTableRecord
100
AcDbViewportTableRecord
  2
*ACTIVE
 70
0
 10
0.0
 20
0.0
 11
1.0
 21
1.0
 12
11.0
 22
8.5
 13
0.0
 23
0.0
 14
1.0
 24
1.0
 15
0.0
 25
0.0
 16
0.0
 26
0.0
 36
1.0
 17
0.0
 27
0.0
 37
0.0
 40
17.0
 41
1.2941176471
 42
50.0
 43
0.0
 44
0.0
 50
0.0
 51
0.0
 71
0
 72
100
 73
1
 74
1
 75
0
 76
0
 77
0
 78
0
  0
ENDTAB
  0
TABLE
  2
LTYPE
  5
5
100
AcDbSymbolTable
 70
6
  0
LTYPE
  5
14
100
AcDbSymbolTableRecord
100
AcDbLinetypeTableRecord
  2
BYBLOCK
 70
0
  3

 72
65
 73
0
 40
0.0
  0
LTYPE
  5
15
100
AcDbSymbolTableRecord
100
AcDbLinetypeTableRecord
  2
BYLAYER
 70
0
  3

 72
65
 73
0
 40
0.0
  0
LTYPE
  5
16
100
AcDbSymbolTableRecord
100
AcDbLinetypeTableRecord
  2
CONTINUOUS
 70
64
  3
Solid line
 72
65
 73
0
 40
0.0
  0
LTYPE
  5
1F5
100
AcDbSymbolTableRecord
100
AcDbLinetypeTableRecord
  2
CENTER
 70
64
  3
____ _ ____ _ ____ _ ____ _ ____ _ ____ _ ____
 72
65
 73
4
 40
0.6
 49
0.375
 74
0
 49
-0.075
 74
0
 49
0.075
 74
0
 49
-0.075
 74
0
  0
LTYPE
  5
1F6
100
AcDbSymbolTableRecord
100
AcDbLinetypeTableRecord
  2
HIDDEN
 70
64
  3
- - - - - - - - - - - - - - - - - - - -
 72
65
 73
2
 40
0.2
 49
0.1
 74
0
 49
-0.1
 74
0
  0
LTYPE
  5
1F7
100
AcDbSymbolTableRecord
100
AcDbLinetypeTableRecord
  2
PHANTOM
 70
64
  3
_____ _ _ _____ _ _ _____ _ _ _____
 72
65
 73
6
 40
0.8
 49
0.45
 74
0
 49
-0.05
 74
0
 49
0.1
 74
0
 49
-0.05
 74
0
 49
0.1
 74
0
 49
-0.05
 74
0
  0
LTYPE
  5
1F8
100
AcDbSymbolTableRecord
100
AcDbLinetypeTableRecord
  2
DOT
 70
64
  3
. . . . . . . . . . . . . . . . . . . .
 72
65
 73
2
 40
0.2
 49
0.1
 74
0
 49
-0.1
 74
0
  0
LTYPE
  5
1F9
100
AcDbSymbolTableRecord
100
AcDbLinetypeTableRecord
  2
DASHED
 70
64
  3
- - - - - - - - - - - - - - - - - - - -
 72
65
 73
2
 40
0.2
 49
0.1
 74
0
 49
-0.1
 74
0
  0
ENDTAB
  0
TABLE
  2
LAYER
  5
2
100
AcDbSymbolTable
 70
36
  0
LAYER
  5
10
100
AcDbSymbolTableRecord
100
AcDbLayerTableRecord
  2
0
 70
0
 62
7
  6
CONTINUOUS
370
-3
390
F
  0
LAYER
  5
1FA
100
AcDbSymbolTableRecord
100
AcDbLayerTableRecord
  2
DEFAULT_1
 70
0
 62
7
  6
CENTER
370
-3
390
F
  0
LAYER
  5
1FB
100
AcDbSymbolTableRecord
100
AcDbLayerTableRecord
  2
DEFAULT_2
 70
0
 62
8
  6
HIDDEN
370
-3
390
F
  0
LAYER
  5
1FC
100
AcDbSymbolTableRecord
100
AcDbLayerTableRecord
  2
DEFAULT_3
 70
0
 62
7
  6
PHANTOM
370
-3
390
F
  0
LAYER
  5
1FD
100
AcDbSymbolTableRecord
100
AcDbLayerTableRecord
  2
01_ALL_DTM_PLN
 70
0
 62
7
  6
CONTINUOUS
370
-3
390
F
  0
LAYER
  5
1FE
100
AcDbSymbolTableRecord
100
AcDbLayerTableRecord
  2
01__ASM_ALL_DTM_PLN
 70
0
 62
7
  6
CONTINUOUS
370
-3
390
F
  0
LAYER
  5
1FF
100
AcDbSymbolTableRecord
100
AcDbLayerTableRecord
  2
01__ASM_DEF_DTM_PLN
 70
0
 62
7
  6
CONTINUOUS
370
-3
390
F
  0
LAYER
  5
200
100
AcDbSymbolTableRecord
100
AcDbLayerTableRecord
  2
01___PRT_ALL_DTM_PLN
 70
0
 62
7
  6
CONTINUOUS
370
-3
390
F
  0
LAYER
  5
201
100
AcDbSymbolTableRecord
100
AcDbLayerTableRecord
  2
01___PRT_DEF_DTM_PLN
 70
0
 62
7
  6
CONTINUOUS
370
-3
390
F
  0
LAYER
  5
202
100
AcDbSymbolTableRecord
100
AcDbLayerTableRecord
  2
02_ALL_AXES
 70
0
 62
7
  6
CONTINUOUS
370
-3
390
F
  0
LAYER
  5
203
100
AcDbSymbolTableRecord
100
AcDbLayerTableRecord
  2
02__ASM_ALL_AXES
 70
0
 62
7
  6
CONTINUOUS
370
-3
390
F
  0
LAYER
  5
204
100
AcDbSymbolTableRecord
100
AcDbLayerTableRecord
  2
02___PRT_ALL_AXES
 70
0
 62
7
  6
CONTINUOUS
370
-3
390
F
  0
LAYER
  5
205
100
AcDbSymbolTableRecord
100
AcDbLayerTableRecord
  2
03_ALL_CURVES
 70
0
 62
7
  6
CONTINUOUS
370
-3
390
F
  0
LAYER
  5
206
100
AcDbSymbolTableRecord
100
AcDbLayerTableRecord
  2
03__ASM_ALL_CURVES
 70
0
 62
7
  6
CONTINUOUS
370
-3
390
F
  0
LAYER
  5
207
100
AcDbSymbolTableRecord
100
AcDbLayerTableRecord
  2
03___PRT_ALL_CURVES
 70
0
 62
7
  6
CONTINUOUS
370
-3
390
F
  0
LAYER
  5
208
100
AcDbSymbolTableRecord
100
AcDbLayerTableRecord
  2
04_ALL_DTM_PNT
 70
0
 62
7
  6
CONTINUOUS
370
-3
390
F
  0
LAYER
  5
209
100
AcDbSymbolTableRecord
100
AcDbLayerTableRecord
  2
04__ASM_ALL_DTM_PNT
 70
0
 62
7
  6
CONTINUOUS
370
-3
390
F
  0
LAYER
  5
20A
100
AcDbSymbolTableRecord
100
AcDbLayerTableRecord
  2
04___PRT_ALL_DTM_PNT
 70
0
 62
7
  6
CONTINUOUS
370
-3
390
F
  0
LAYER
  5
20B
100
AcDbSymbolTableRecord
100
AcDbLayerTableRecord
  2
05_ALL_DTM_CSYS
 70
0
 62
7
  6
CONTINUOUS
370
-3
390
F
  0
LAYER
  5
20C
100
AcDbSymbolTableRecord
100
AcDbLayerTableRecord
  2
05__ASM_ALL_DTM_CSYS
 70
0
 62
7
  6
CONTINUOUS
370
-3
390
F
  0
LAYER
  5
20D
100
AcDbSymbolTableRecord
100
AcDbLayerTableRecord
  2
05__ASM_DEF_DTM_CSYS
 70
0
 62
7
  6
CONTINUOUS
370
-3
390
F
  0
LAYER
  5
20E
100
AcDbSymbolTableRecord
100
AcDbLayerTableRecord
  2
05___PRT_ALL_DTM_CSYS
 70
0
 62
7
  6
CONTINUOUS
370
-3
390
F
  0
LAYER
  5
20F
100
AcDbSymbolTableRecord
100
AcDbLayerTableRecord
  2
05___PRT_DEF_DTM_CSYS
 70
0
 62
7
  6
CONTINUOUS
370
-3
390
F
  0
LAYER
  5
210
100
AcDbSymbolTableRecord
100
AcDbLayerTableRecord
  2
06_ALL_SURFS
 70
0
 62
7
  6
CONTINUOUS
370
-3
390
F
  0
LAYER
  5
211
100
AcDbSymbolTableRecord
100
AcDbLayerTableRecord
  2
06__ASM_ALL_SURFS
 70
0
 62
7
  6
CONTINUOUS
370
-3
390
F
  0
LAYER
  5
212
100
AcDbSymbolTableRecord
100
AcDbLayerTableRecord
  2
06___PRT_ALL_SURFS
 70
0
 62
7
  6
CONTINUOUS
370
-3
390
F
  0
LAYER
  5
213
100
AcDbSymbolTableRecord
100
AcDbLayerTableRecord
  2
07__ASM_ALL_SKELETONS
 70
0
 62
7
  6
CONTINUOUS
370
-3
390
F
  0
ENDTAB
  0
TABLE
  2
STYLE
  5
3
100
AcDbSymbolTable
 70
1
  0
STYLE
  5
11
100
AcDbSymbolTableRecord
100
AcDbTextStyleTableRecord
  2
STANDARD
 70
0
 40
0.0
 41
0.8
 50
0.0
 71
0
 42
0.2
  3
txt
  4

  0
STYLE
  5
214
100
AcDbSymbolTableRecord
100
AcDbTextStyleTableRecord
  2
TEXTSTYLE_1
 70
0
 40
0.0
 41
0.8
 50
0.0
 71
0
 42
0.2
  3
gdt
  4

  0
ENDTAB
  0
TABLE
  2
VIEW
  5
6
100
AcDbSymbolTable
 70
0
  0
ENDTAB
  0
TABLE
  2
UCS
  5
7
100
AcDbSymbolTable
 70
0
  0
ENDTAB
  0
TABLE
  2
APPID
  5
9
100
AcDbSymbolTable
 70
1
  0
APPID
  5
215
100
AcDbSymbolTableRecord
100
AcDbRegAppTableRecord
  2
ACAD
 70
0
  0
ENDTAB
  0
TABLE
  2
BLOCK_RECORD
  5
1
100
AcDbSymbolTable
 70
0
  0
BLOCK_RECORD
  5
216
100
AcDbSymbolTableRecord
100
AcDbBlockTableRecord
  2
*Model_Space
  0
BLOCK_RECORD
  5
217
100
AcDbSymbolTableRecord
100
AcDbBlockTableRecord
  2
*Paper_Space
  0
ENDTAB
  0
TABLE
  2
DIMSTYLE
  5
A
100
AcDbSymbolTable
 70
1
100
AcDbDimStyleTable
 71
0
  0
DIMSTYLE
105
218
100
AcDbSymbolTableRecord
100
AcDbDimStyleTableRecord
  2
STANDARD
 70
0
  3

  4

 40
1.0
 41
0.1875
 42
0.0625
 43
0.38
 44
0.125
 45
0.0
 46
0.0
 47
0.0001
 48
0.0001
140
0.15625
141
0.09
142
0.0
143
25.4
144
1.0
145
0.0
146
1.0
147
0.09
 71
0.0
 72
0.0
 73
1
 74
1
 75
0
 76
0
 77
0
 78
4
170
0
171
2
172
0
173
0
174
0
175
0
176
0
177
0
178
0
270
2
271
4
272
4
273
2
274
2
275
0
280
0
281
0
282
0
283
1
284
4
285
0
286
0
287
3
288
0
340
11
278
46
  0
ENDTAB
  0
ENDSEC
  0
SECTION
  2
BLOCKS
  0
BLOCK
  5
20
100
AcDbEntity
  8
0
100
AcDbBlockBegin
  2
*Model_Space
 70
0
 10
0.0
 20
0.0
 30
0.0
  3
*Model_Space
  1

  0
ENDBLK
  5
21
100
AcDbEntity
  8
0
100
AcDbBlockEnd
  0
BLOCK
  5
1C
100
AcDbEntity
  8
0
100
AcDbBlockBegin
  2
*Paper_Space
 70
0
 10
0.0
 20
0.0
 30
0.0
  3
*Paper_Space
  1

  0
ENDBLK
  5
1D
100
AcDbEntity
  8
0
100
AcDbBlockEnd
  0
ENDSEC
  0
SECTION
  2
ENTITIES
  0
MTEXT
  5
219
100
AcDbEntity
  8
0
100
AcDbMText
 62
7
  6
CONTINUOUS
  7
STANDARD
 71
1
 72
1
 10
15.9560215477
 20
0.9479130325
 30
0.0
 11
1.0
 21
0.0
 31
0.0
 44
0.9
  1
SCALE: 1:1.000
 40
0.3
 41
3.36
  0
LINE
  5
21A
100
AcDbEntity
  8
0
100
AcDbLine
 62
7
  6
CONTINUOUS
 10
0.0
 20
0.0
 11
0.0
 21
17.0
  0
LINE
  5
21B
100
AcDbEntity
  8
0
100
AcDbLine
 62
7
  6
CONTINUOUS
 10
0.0
 20
0.0
 11
22.0
 21
0.0
  0
LINE
  5
21C
100
AcDbEntity
  8
0
100
AcDbLine
 62
7
  6
CONTINUOUS
 10
0.0
 20
17.0
 11
22.0
 21
17.0
  0
LINE
  5
21D
100
AcDbEntity
  8
0
100
AcDbLine
 62
7
  6
CONTINUOUS
 10
22.0
 20
0.0
 11
22.0
 21
17.0
  0
LINE
  5
21E
100
AcDbEntity
  8
0
100
AcDbLine
 62
7
  6
CONTINUOUS
 10
4.949264914
 20
5.6087025739
 11
4.949264914
 21
5.5457104479
  0
LINE
  5
21F
100
AcDbEntity
  8
0
100
AcDbLine
 62
7
  6
CONTINUOUS
 10
5.0174775398
 20
5.4976596669
 11
5.043010992
 21
5.4429030018
  0
LINE
  5
220
100
AcDbEntity
  8
0
100
AcDbLine
 62
7
  6
CONTINUOUS
 10
4.949264914
 20
5.5457104479
 11
4.9650129455
 21
5.5299624164
  0
LINE
  5
221
100
AcDbEntity
  8
0
100
AcDbLine
 62
7
  6
CONTINUOUS
 10
5.2492196233
 20
5.4429030018
 11
5.2747530756
 21
5.4976596669
  0
LINE
  5
222
100
AcDbEntity
  8
0
100
AcDbLine
 62
7
  6
CONTINUOUS
 10
5.4111783272
 20
5.4976596669
 11
5.4367117794
 21
5.4429030018
  0
LINE
  5
223
100
AcDbEntity
  8
0
100
AcDbLine
 62
7
  6
CONTINUOUS
 10
5.3272176699
 20
5.5299624164
 11
5.3429657014
 21
5.5457104479
  0
LINE
  5
224
100
AcDbEntity
  8
0
100
AcDbLine
 62
7
  6
CONTINUOUS
 10
5.3429657014
 20
5.5457104479
 11
5.3587137329
 21
5.5299624164
  0
LINE
  5
225
100
AcDbEntity
  8
0
100
AcDbLine
 62
7
  6
CONTINUOUS
 10
5.6429204107
 20
5.4429030018
 11
5.668453863
 21
5.4976596669
  0
LINE
  5
226
100
AcDbEntity
  8
0
100
AcDbLine
 62
7
  6
CONTINUOUS
 10
5.7209184573
 20
5.5299624164
 11
5.7366664888
 21
5.5457104479
  0
LINE
  5
227
100
AcDbEntity
  8
0
100
AcDbLine
 62
7
  6
CONTINUOUS
 10
5.7366664888
 20
5.5457104479
 11
5.7524145203
 21
5.5299624164
  0
LINE
  5
228
100
AcDbEntity
  8
0
100
AcDbLine
 62
7
  6
CONTINUOUS
 10
5.8048791146
 20
5.4976596669
 11
5.8304125668
 21
5.4429030018
  0
LINE
  5
229
100
AcDbEntity
  8
0
100
AcDbLine
 62
7
  6
CONTINUOUS
 10
5.0608516965
 20
5.4315372196
 11
5.2313789189
 21
5.4315372196
  0
LINE
  5
22A
100
AcDbEntity
  8
0
100
AcDbLine
 62
7
  6
CONTINUOUS
 10
5.4545524839
 20
5.4315372196
 11
5.6250797063
 21
5.4315372196
  0
LINE
  5
22B
100
AcDbEntity
  8
0
100
AcDbLine
 62
7
  6
CONTINUOUS
 10
5.8482532713
 20
5.4315372196
 11
6.0187804937
 21
5.4315372196
  0
LINE
  5
22C
100
AcDbEntity
  8
0
100
AcDbLine
 62
7
  6
CONTINUOUS
 10
6.2419540587
 20
5.4315372196
 11
6.4124812811
 21
5.4315372196
  0
LINE
  5
22D
100
AcDbEntity
  8
0
100
AcDbLine
 62
7
  6
CONTINUOUS
 10
6.6356548461
 20
5.4315372196
 11
6.8061820685
 21
5.4315372196
  0
LINE
  5
22E
100
AcDbEntity
  8
0
100
AcDbLine
 62
7
  6
CONTINUOUS
 10
7.0293556335
 20
5.4315372196
 11
7.1998828559
 21
5.4315372196
  0
LINE
  5
22F
100
AcDbEntity
  8
0
100
AcDbLine
 62
7
  6
CONTINUOUS
 10
6.0366211981
 20
5.4429030018
 11
6.0621546504
 21
5.4976596669
  0
LINE
  5
230
100
AcDbEntity
  8
0
100
AcDbLine
 62
7
  6
CONTINUOUS
 10
6.1146192447
 20
5.5299624164
 11
6.1303672762
 21
5.5457104479
  0
LINE
  5
231
100
AcDbEntity
  8
0
100
AcDbLine
 62
7
  6
CONTINUOUS
 10
4.9650129455
 20
5.5299624164
 11
4.9667723797
 21
5.5299624164
  0
LINE
  5
232
100
AcDbEntity
  8
0
100
AcDbLine
 62
7
  6
CONTINUOUS
 10
5.3254582356
 20
5.5299624164
 11
5.3272176699
 21
5.5299624164
  0
LINE
  5
233
100
AcDbEntity
  8
0
100
AcDbLine
 62
7
  6
CONTINUOUS
 10
5.3587137329
 20
5.5299624164
 11
5.3604731671
 21
5.5299624164
  0
LINE
  5
234
100
AcDbEntity
  8
0
100
AcDbLine
 62
7
  6
CONTINUOUS
 10
5.719159023
 20
5.5299624164
 11
5.7209184573
 21
5.5299624164
  0
LINE
  5
235
100
AcDbEntity
  8
0
100
AcDbLine
 62
7
  6
CONTINUOUS
 10
5.7524145203
 20
5.5299624164
 11
5.7541739545
 21
5.5299624164
  0
LINE
  5
236
100
AcDbEntity
  8
0
100
AcDbLine
 62
7
  6
CONTINUOUS
 10
6.1128598104
 20
5.5299624164
 11
6.1146192447
 21
5.5299624164
  0
LINE
  5
237
100
AcDbEntity
  8
0
100
AcDbLine
 62
7
  6
CONTINUOUS
 10
6.1461153077
 20
5.5299624164
 11
6.1478747419
 21
5.5299624164
  0
LINE
  5
238
100
AcDbEntity
  8
0
100
AcDbLine
 62
7
  6
CONTINUOUS
 10
6.5065605978
 20
5.5299624164
 11
6.5083200321
 21
5.5299624164
  0
LINE
  5
239
100
AcDbEntity
  8
0
100
AcDbLine
 62
7
  6
CONTINUOUS
 10
6.5398160951
 20
5.5299624164
 11
6.5415755293
 21
5.5299624164
  0
LINE
  5
23A
100
AcDbEntity
  8
0
100
AcDbLine
 62
7
  6
CONTINUOUS
 10
6.9002613852
 20
5.5299624164
 11
6.9020208195
 21
5.5299624164
  0
LINE
  5
23B
100
AcDbEntity
  8
0
100
AcDbLine
 62
7
  6
CONTINUOUS
 10
6.9335168825
 20
5.5299624164
 11
6.9352763167
 21
5.5299624164
  0
LINE
  5
23C
100
AcDbEntity
  8
0
100
AcDbLine
 62
7
  6
CONTINUOUS
 10
7.2939621726
 20
5.5299624164
 11
7.2957216069
 21
5.5299624164
  0
LINE
  5
23D
100
AcDbEntity
  8
0
100
AcDbLine
 62
7
  6
CONTINUOUS
 10
7.3114696384
 20
5.6087025739
 11
4.949264914
 21
5.6087025739
  0
LINE
  5
23E
100
AcDbEntity
  8
0
100
AcDbLine
 62
7
  6
CONTINUOUS
 10
6.1303672762
 20
5.5457104479
 11
6.1461153077
 21
5.5299624164
  0
LINE
  5
23F
100
AcDbEntity
  8
0
100
AcDbLine
 62
7
  6
CONTINUOUS
 10
6.198579902
 20
5.4976596669
 11
6.2241133542
 21
5.4429030018
  0
LINE
  5
240
100
AcDbEntity
  8
0
100
AcDbLine
 62
7
  6
CONTINUOUS
 10
6.4303219855
 20
5.4429030018
 11
6.4558554378
 21
5.4976596669
  0
LINE
  5
241
100
AcDbEntity
  8
0
100
AcDbLine
 62
7
  6
CONTINUOUS
 10
6.5083200321
 20
5.5299624164
 11
6.5240680636
 21
5.5457104479
  0
LINE
  5
242
100
AcDbEntity
  8
0
100
AcDbLine
 62
7
  6
CONTINUOUS
 10
6.5240680636
 20
5.5457104479
 11
6.5398160951
 21
5.5299624164
  0
LINE
  5
243
100
AcDbEntity
  8
0
100
AcDbLine
 62
7
  6
CONTINUOUS
 10
6.5922806894
 20
5.4976596669
 11
6.6178141416
 21
5.4429030018
  0
LINE
  5
244
100
AcDbEntity
  8
0
100
AcDbLine
 62
7
  6
CONTINUOUS
 10
6.9020208195
 20
5.5299624164
 11
6.917768851
 21
5.5457104479
  0
LINE
  5
245
100
AcDbEntity
  8
0
100
AcDbLine
 62
7
  6
CONTINUOUS
 10
6.917768851
 20
5.5457104479
 11
6.9335168825
 21
5.5299624164
  0
LINE
  5
246
100
AcDbEntity
  8
0
100
AcDbLine
 62
7
  6
CONTINUOUS
 10
6.8240227729
 20
5.4429030018
 11
6.8495562252
 21
5.4976596669
  0
LINE
  5
247
100
AcDbEntity
  8
0
100
AcDbLine
 62
7
  6
CONTINUOUS
 10
6.9859814768
 20
5.4976596669
 11
7.011514929
 21
5.4429030018
  0
LINE
  5
248
100
AcDbEntity
  8
0
100
AcDbLine
 62
7
  6
CONTINUOUS
 10
7.2957216069
 20
5.5299624164
 11
7.3114696384
 21
5.5457104479
  0
LINE
  5
249
100
AcDbEntity
  8
0
100
AcDbLine
 62
7
  6
CONTINUOUS
 10
7.2177235603
 20
5.4429030018
 11
7.2432570126
 21
5.4976596669
  0
LINE
  5
24A
100
AcDbEntity
  8
0
100
AcDbLine
 62
7
  6
CONTINUOUS
 10
7.3114696384
 20
5.5457104479
 11
7.3114696384
 21
5.6087025739
  0
LINE
  5
24B
100
AcDbEntity
  8
0
100
AcDbLine
 62
7
  6
CONTINUOUS
 10
7.2519744461
 20
10.6315438444
 11
4.8897697217
 21
10.6315438444
  0
LINE
  5
24C
100
AcDbEntity
  8
0
100
AcDbLine
 62
7
  6
CONTINUOUS
 10
4.8897697217
 20
14.5685517184
 11
4.8897697217
 21
10.6315438444
  0
LINE
  5
24D
100
AcDbEntity
  8
0
100
AcDbLine
 62
7
  6
CONTINUOUS
 10
7.2519744461
 20
14.5685517184
 11
7.2519744461
 21
10.6315438444
  0
LINE
  5
24E
100
AcDbEntity
  8
0
100
AcDbLine
 62
7
  6
CONTINUOUS
 10
4.8897697217
 20
14.5685517184
 11
7.2519744461
 21
14.5685517184
  0
LINE
  5
24F
100
AcDbEntity
  8
0
100
AcDbLine
 62
7
  6
CONTINUOUS
 10
13.5918513199
 20
5.3720420273
 11
13.5918513199
 21
5.5492073816
  0
LINE
  5
250
100
AcDbEntity
  8
0
100
AcDbLine
 62
7
  6
CONTINUOUS
 10
13.5918513199
 20
5.3720420273
 11
17.5288591939
 21
5.3720420273
  0
LINE
  5
251
100
AcDbEntity
  8
0
100
AcDbLine
 62
7
  6
CONTINUOUS
 10
17.5288591939
 20
5.4704672241
 11
13.5918513199
 21
5.4704672241
  0
LINE
  5
252
100
AcDbEntity
  8
0
100
AcDbLine
 62
7
  6
CONTINUOUS
 10
17.5288591939
 20
5.4862152556
 11
13.5918513199
 21
5.4862152556
  0
LINE
  5
253
100
AcDbEntity
  8
0
100
AcDbLine
 62
7
  6
CONTINUOUS
 10
17.5288591939
 20
5.5492073816
 11
13.5918513199
 21
5.5492073816
  0
LINE
  5
254
100
AcDbEntity
  8
0
100
AcDbLine
 62
7
  6
CONTINUOUS
 10
17.5288591939
 20
5.3720420273
 11
17.5288591939
 21
5.5492073816
  0
LINE
  5
255
100
AcDbEntity
  8
0
100
AcDbLine
 62
7
  6
CONTINUOUS
 10
13.9938297488
 20
10.9548613846
 11
14.034050691
 21
10.9208240957
  0
LINE
  5
256
100
AcDbEntity
  8
0
100
AcDbLine
 62
7
  6
CONTINUOUS
 10
13.9163442599
 20
10.984730229
 11
13.9356529664
 21
10.9749410957
  0
LINE
  5
257
100
AcDbEntity
  8
0
100
AcDbLine
 62
7
  6
CONTINUOUS
 10
13.8971290242
 20
11.0238867625
 11
13.9163442599
 21
10.984730229
  0
LINE
  5
258
100
AcDbEntity
  8
0
100
AcDbLine
 62
7
  6
CONTINUOUS
 10
14.2789666985
 20
10.984730229
 11
14.298275405
 21
10.9749410957
  0
LINE
  5
259
100
AcDbEntity
  8
0
100
AcDbLine
 62
7
  6
CONTINUOUS
 10
14.3564521874
 20
10.9548613846
 11
14.3966731296
 21
10.9208240957
  0
LINE
  5
25A
100
AcDbEntity
  8
0
100
AcDbLine
 62
7
  6
CONTINUOUS
 10
14.6415891371
 20
10.984730229
 11
14.6608978436
 21
10.9749410957
  0
LINE
  5
25B
100
AcDbEntity
  8
0
100
AcDbLine
 62
7
  6
CONTINUOUS
 10
14.719074626
 20
10.9548613846
 11
14.7592955682
 21
10.9208240957
  0
LINE
  5
25C
100
AcDbEntity
  8
0
100
AcDbLine
 62
7
  6
CONTINUOUS
 10
14.0539501074
 20
10.9137590122
 11
14.2110160804
 21
10.9137590122
  0
LINE
  5
25D
100
AcDbEntity
  8
0
100
AcDbLine
 62
7
  6
CONTINUOUS
 10
14.416572546
 20
10.9137590122
 11
14.573638519
 21
10.9137590122
  0
LINE
  5
25E
100
AcDbEntity
  8
0
100
AcDbLine
 62
7
  6
CONTINUOUS
 10
14.7791949846
 20
10.9137590122
 11
14.9362609576
 21
10.9137590122
  0
LINE
  5
25F
100
AcDbEntity
  8
0
100
AcDbLine
 62
7
  6
CONTINUOUS
 10
15.1418174232
 20
10.9137590122
 11
15.2988833961
 21
10.9137590122
  0
LINE
  5
260
100
AcDbEntity
  8
0
100
AcDbLine
 62
7
  6
CONTINUOUS
 10
15.5044398618
 20
10.9137590122
 11
15.6615058347
 21
10.9137590122
  0
LINE
  5
261
100
AcDbEntity
  8
0
100
AcDbLine
 62
7
  6
CONTINUOUS
 10
15.8670623004
 20
10.9137590122
 11
16.0241282733
 21
10.9137590122
  0
LINE
  5
262
100
AcDbEntity
  8
0
100
AcDbLine
 62
7
  6
CONTINUOUS
 10
13.9356529664
 20
10.9749410957
 11
13.9372735126
 21
10.9749410957
  0
LINE
  5
263
100
AcDbEntity
  8
0
100
AcDbLine
 62
7
  6
CONTINUOUS
 10
14.2676450637
 20
10.9749410957
 11
14.2692656099
 21
10.9749410957
  0
LINE
  5
264
100
AcDbEntity
  8
0
100
AcDbLine
 62
7
  6
CONTINUOUS
 10
14.298275405
 20
10.9749410957
 11
14.2998959512
 21
10.9749410957
  0
LINE
  5
265
100
AcDbEntity
  8
0
100
AcDbLine
 62
7
  6
CONTINUOUS
 10
14.6302675022
 20
10.9749410957
 11
14.6318880485
 21
10.9749410957
  0
LINE
  5
266
100
AcDbEntity
  8
0
100
AcDbLine
 62
7
  6
CONTINUOUS
 10
14.6608978436
 20
10.9749410957
 11
14.6625183898
 21
10.9749410957
  0
LINE
  5
267
100
AcDbEntity
  8
0
100
AcDbLine
 62
7
  6
CONTINUOUS
 10
14.9928899408
 20
10.9749410957
 11
14.9945104871
 21
10.9749410957
  0
LINE
  5
268
100
AcDbEntity
  8
0
100
AcDbLine
 62
7
  6
CONTINUOUS
 10
15.0235202821
 20
10.9749410957
 11
15.0251408284
 21
10.9749410957
  0
LINE
  5
269
100
AcDbEntity
  8
0
100
AcDbLine
 62
7
  6
CONTINUOUS
 10
15.3555123794
 20
10.9749410957
 11
15.3571329256
 21
10.9749410957
  0
LINE
  5
26A
100
AcDbEntity
  8
0
100
AcDbLine
 62
7
  6
CONTINUOUS
 10
15.3861427207
 20
10.9749410957
 11
15.387763267
 21
10.9749410957
  0
LINE
  5
26B
100
AcDbEntity
  8
0
100
AcDbLine
 62
7
  6
CONTINUOUS
 10
15.718134818
 20
10.9749410957
 11
15.7197553642
 21
10.9749410957
  0
LINE
  5
26C
100
AcDbEntity
  8
0
100
AcDbLine
 62
7
  6
CONTINUOUS
 10
15.7487651593
 20
10.9749410957
 11
15.7503857056
 21
10.9749410957
  0
LINE
  5
26D
100
AcDbEntity
  8
0
100
AcDbLine
 62
7
  6
CONTINUOUS
 10
16.0807572566
 20
10.9749410957
 11
16.0823778028
 21
10.9749410957
  0
LINE
  5
26E
100
AcDbEntity
  8
0
100
AcDbLine
 62
7
  6
CONTINUOUS
 10
16.0728636557
 20
11.0238867625
 11
13.8971290242
 21
11.0238867625
  0
LINE
  5
26F
100
AcDbEntity
  8
0
100
AcDbLine
 62
7
  6
CONTINUOUS
 10
15.0042115757
 20
10.984730229
 11
15.0235202821
 21
10.9749410957
  0
LINE
  5
270
100
AcDbEntity
  8
0
100
AcDbLine
 62
7
  6
CONTINUOUS
 10
15.3668340143
 20
10.984730229
 11
15.3861427207
 21
10.9749410957
  0
LINE
  5
271
100
AcDbEntity
  8
0
100
AcDbLine
 62
7
  6
CONTINUOUS
 10
15.0816970645
 20
10.9548613846
 11
15.1219180068
 21
10.9208240957
  0
LINE
  5
272
100
AcDbEntity
  8
0
100
AcDbLine
 62
7
  6
CONTINUOUS
 10
15.7294564528
 20
10.984730229
 11
15.7487651593
 21
10.9749410957
  0
LINE
  5
273
100
AcDbEntity
  8
0
100
AcDbLine
 62
7
  6
CONTINUOUS
 10
15.4443195031
 20
10.9548613846
 11
15.4845404453
 21
10.9208240957
  0
LINE
  5
274
100
AcDbEntity
  8
0
100
AcDbLine
 62
7
  6
CONTINUOUS
 10
14.8501460455
 20
14.1078509736
 11
13.8971290242
 21
11.0238867625
  0
LINE
  5
275
100
AcDbEntity
  8
0
100
AcDbLine
 62
7
  6
CONTINUOUS
 10
14.2239814179
 20
10.9208240957
 11
14.2307962095
 21
10.9548613846
  0
LINE
  5
276
100
AcDbEntity
  8
0
100
AcDbLine
 62
7
  6
CONTINUOUS
 10
15.8069419417
 20
10.9548613846
 11
15.8471628839
 21
10.9208240957
  0
LINE
  5
277
100
AcDbEntity
  8
0
100
AcDbLine
 62
7
  6
CONTINUOUS
 10
14.2307962095
 20
10.9548613846
 11
14.2312552085
 21
10.9566830685
  0
LINE
  5
278
100
AcDbEntity
  8
0
100
AcDbLine
 62
7
  6
CONTINUOUS
 10
14.2238140456
 20
10.9201849529
 11
14.2239814179
 21
10.9208240957
  0
LINE
  5
279
100
AcDbEntity
  8
0
100
AcDbLine
 62
7
  6
CONTINUOUS
 10
14.2238188162
 20
10.9201834728
 11
14.2380255531
 21
10.9661564902
  0
LINE
  5
27A
100
AcDbEntity
  8
0
100
AcDbLine
 62
7
  6
CONTINUOUS
 10
14.5866038565
 20
10.9208240957
 11
14.5934186481
 21
10.9548613846
  0
LINE
  5
27B
100
AcDbEntity
  8
0
100
AcDbLine
 62
7
  6
CONTINUOUS
 10
14.5934186481
 20
10.9548613846
 11
14.5938775584
 21
10.9566830959
  0
LINE
  5
27C
100
AcDbEntity
  8
0
100
AcDbLine
 62
7
  6
CONTINUOUS
 10
14.5864358544
 20
10.9201851495
 11
14.5866038565
 21
10.9208240957
  0
LINE
  5
27D
100
AcDbEntity
  8
0
100
AcDbLine
 62
7
  6
CONTINUOUS
 10
14.5864412548
 20
10.9201834728
 11
14.6006481092
 21
10.9661568707
  0
LINE
  5
27E
100
AcDbEntity
  8
0
100
AcDbLine
 62
7
  6
CONTINUOUS
 10
14.9492262951
 20
10.9208240957
 11
14.9560410867
 21
10.9548613846
  0
LINE
  5
27F
100
AcDbEntity
  8
0
100
AcDbLine
 62
7
  6
CONTINUOUS
 10
14.9560410867
 20
10.9548613846
 11
14.956499997
 21
10.9566830959
  0
LINE
  5
280
100
AcDbEntity
  8
0
100
AcDbLine
 62
7
  6
CONTINUOUS
 10
14.949058293
 20
10.9201851495
 11
14.9492262951
 21
10.9208240957
  0
LINE
  5
281
100
AcDbEntity
  8
0
100
AcDbLine
 62
7
  6
CONTINUOUS
 10
14.9490636933
 20
10.9201834728
 11
14.9632705478
 21
10.9661568707
  0
LINE
  5
282
100
AcDbEntity
  8
0
100
AcDbLine
 62
7
  6
CONTINUOUS
 10
16.0920788914
 20
10.984730229
 11
16.0728636557
 21
11.0238867625
  0
LINE
  5
283
100
AcDbEntity
  8
0
100
AcDbLine
 62
7
  6
CONTINUOUS
 10
15.3118487337
 20
10.9208240957
 11
15.3186635253
 21
10.9548613846
  0
LINE
  5
284
100
AcDbEntity
  8
0
100
AcDbLine
 62
7
  6
CONTINUOUS
 10
15.3186635253
 20
10.9548613846
 11
15.3191224356
 21
10.9566830959
  0
LINE
  5
285
100
AcDbEntity
  8
0
100
AcDbLine
 62
7
  6
CONTINUOUS
 10
15.3116807316
 20
10.9201851495
 11
15.3118487337
 21
10.9208240957
  0
LINE
  5
286
100
AcDbEntity
  8
0
100
AcDbLine
 62
7
  6
CONTINUOUS
 10
15.3116861319
 20
10.9201834728
 11
15.3258929864
 21
10.9661568707
  0
LINE
  5
287
100
AcDbEntity
  8
0
100
AcDbLine
 62
7
  6
CONTINUOUS
 10
14.2692656099
 20
10.9749410957
 11
14.2789666985
 21
10.984730229
  0
LINE
  5
288
100
AcDbEntity
  8
0
100
AcDbLine
 62
7
  6
CONTINUOUS
 10
15.6744711723
 20
10.9208240957
 11
15.6812859639
 21
10.9548613846
  0
LINE
  5
289
100
AcDbEntity
  8
0
100
AcDbLine
 62
7
  6
CONTINUOUS
 10
15.6812859639
 20
10.9548613846
 11
15.6817448742
 21
10.9566830959
  0
LINE
  5
28A
100
AcDbEntity
  8
0
100
AcDbLine
 62
7
  6
CONTINUOUS
 10
15.6743031702
 20
10.9201851495
 11
15.6744711723
 21
10.9208240957
  0
LINE
  5
28B
100
AcDbEntity
  8
0
100
AcDbLine
 62
7
  6
CONTINUOUS
 10
14.6318880485
 20
10.9749410957
 11
14.6415891371
 21
10.984730229
  0
LINE
  5
28C
100
AcDbEntity
  8
0
100
AcDbLine
 62
7
  6
CONTINUOUS
 10
15.6743085705
 20
10.9201834728
 11
15.688515425
 21
10.9661568707
  0
LINE
  5
28D
100
AcDbEntity
  8
0
100
AcDbLine
 62
7
  6
CONTINUOUS
 10
14.9945104871
 20
10.9749410957
 11
15.0042115757
 21
10.984730229
  0
LINE
  5
28E
100
AcDbEntity
  8
0
100
AcDbLine
 62
7
  6
CONTINUOUS
 10
16.0370936109
 20
10.9208240957
 11
16.0439084025
 21
10.9548613846
  0
LINE
  5
28F
100
AcDbEntity
  8
0
100
AcDbLine
 62
7
  6
CONTINUOUS
 10
16.0439084025
 20
10.9548613846
 11
16.0443673127
 21
10.9566830959
  0
LINE
  5
290
100
AcDbEntity
  8
0
100
AcDbLine
 62
7
  6
CONTINUOUS
 10
16.0369256088
 20
10.9201851495
 11
16.0370936109
 21
10.9208240957
  0
LINE
  5
291
100
AcDbEntity
  8
0
100
AcDbLine
 62
7
  6
CONTINUOUS
 10
16.0369310091
 20
10.9201834728
 11
16.0511378635
 21
10.9661568707
  0
LINE
  5
292
100
AcDbEntity
  8
0
100
AcDbLine
 62
7
  6
CONTINUOUS
 10
17.025880677
 20
14.1078509736
 11
16.0728636557
 21
11.0238867625
  0
LINE
  5
293
100
AcDbEntity
  8
0
100
AcDbLine
 62
7
  6
CONTINUOUS
 10
17.0450959127
 20
14.0686944402
 11
16.0920788914
 21
10.984730229
  0
LINE
  5
294
100
AcDbEntity
  8
0
100
AcDbLine
 62
7
  6
CONTINUOUS
 10
15.3571329256
 20
10.9749410957
 11
15.3668340143
 21
10.984730229
  0
LINE
  5
295
100
AcDbEntity
  8
0
100
AcDbLine
 62
7
  6
CONTINUOUS
 10
15.7197553642
 20
10.9749410957
 11
15.7294564528
 21
10.984730229
  0
LINE
  5
296
100
AcDbEntity
  8
0
100
AcDbLine
 62
7
  6
CONTINUOUS
 10
16.0823778028
 20
10.9749410957
 11
16.0920788914
 21
10.984730229
  0
LINE
  5
297
100
AcDbEntity
  8
0
100
AcDbLine
 62
7
  6
CONTINUOUS
 10
14.8501460455
 20
14.1078509736
 11
17.025880677
 21
14.1078509736
  0
LINE
  5
298
100
AcDbEntity
  8
0
100
AcDbLine
 62
7
  6
CONTINUOUS
 10
17.0450959127
 20
14.0686944402
 11
17.025880677
 21
14.1078509736
  0
ARC
  5
299
100
AcDbEntity
  8
0
100
AcDbCircle
 62
7
  6
CONTINUOUS
 10
7.2939621726
 20
5.4740154624
 40
0.055946954
100
AcDbArc
 50
90.0
 51
155.0
  0
ARC
  5
29A
100
AcDbEntity
  8
0
100
AcDbCircle
 62
7
  6
CONTINUOUS
 10
6.9352763167
 20
5.4740154624
 40
0.055946954
100
AcDbArc
 50
25.0
 51
90.0
  0
ARC
  5
29B
100
AcDbEntity
  8
0
100
AcDbCircle
 62
7
  6
CONTINUOUS
 10
6.9002613852
 20
5.4740154624
 40
0.055946954
100
AcDbArc
 50
90.0
 51
155.0
  0
ARC
  5
29C
100
AcDbEntity
  8
0
100
AcDbCircle
 62
7
  6
CONTINUOUS
 10
6.5415755293
 20
5.4740154624
 40
0.055946954
100
AcDbArc
 50
25.0
 51
90.0
  0
ARC
  5
29D
100
AcDbEntity
  8
0
100
AcDbCircle
 62
7
  6
CONTINUOUS
 10
6.5065605978
 20
5.4740154624
 40
0.055946954
100
AcDbArc
 50
90.0
 51
155.0
  0
ARC
  5
29E
100
AcDbEntity
  8
0
100
AcDbCircle
 62
7
  6
CONTINUOUS
 10
6.1478747419
 20
5.4740154624
 40
0.055946954
100
AcDbArc
 50
25.0
 51
90.0
  0
ARC
  5
29F
100
AcDbEntity
  8
0
100
AcDbCircle
 62
7
  6
CONTINUOUS
 10
6.1128598104
 20
5.4740154624
 40
0.055946954
100
AcDbArc
 50
90.0
 51
155.0
  0
ARC
  5
2A0
100
AcDbEntity
  8
0
100
AcDbCircle
 62
7
  6
CONTINUOUS
 10
5.7541739545
 20
5.4740154624
 40
0.055946954
100
AcDbArc
 50
25.0
 51
90.0
  0
ARC
  5
2A1
100
AcDbEntity
  8
0
100
AcDbCircle
 62
7
  6
CONTINUOUS
 10
5.719159023
 20
5.4740154624
 40
0.055946954
100
AcDbArc
 50
90.0
 51
155.0
  0
ARC
  5
2A2
100
AcDbEntity
  8
0
100
AcDbCircle
 62
7
  6
CONTINUOUS
 10
5.3604731671
 20
5.4740154624
 40
0.055946954
100
AcDbArc
 50
25.0
 51
90.0
  0
ARC
  5
2A3
100
AcDbEntity
  8
0
100
AcDbCircle
 62
7
  6
CONTINUOUS
 10
4.9667723797
 20
5.4740154624
 40
0.055946954
100
AcDbArc
 50
25.0
 51
90.0
  0
ARC
  5
2A4
100
AcDbEntity
  8
0
100
AcDbCircle
 62
7
  6
CONTINUOUS
 10
5.3254582356
 20
5.4740154624
 40
0.055946954
100
AcDbArc
 50
90.0
 51
155.0
  0
ARC
  5
2A5
100
AcDbEntity
  8
0
100
AcDbCircle
 62
7
  6
CONTINUOUS
 10
5.0608516965
 20
5.451222259
 40
0.0196850394
100
AcDbArc
 50
205.0
 51
270.0
  0
ARC
  5
2A6
100
AcDbEntity
  8
0
100
AcDbCircle
 62
7
  6
CONTINUOUS
 10
5.2313789189
 20
5.451222259
 40
0.0196850394
100
AcDbArc
 50
270.0
 51
335.0
  0
ARC
  5
2A7
100
AcDbEntity
  8
0
100
AcDbCircle
 62
7
  6
CONTINUOUS
 10
5.4545524839
 20
5.451222259
 40
0.0196850394
100
AcDbArc
 50
205.0
 51
270.0
  0
ARC
  5
2A8
100
AcDbEntity
  8
0
100
AcDbCircle
 62
7
  6
CONTINUOUS
 10
5.6250797063
 20
5.451222259
 40
0.0196850394
100
AcDbArc
 50
270.0
 51
335.0
  0
ARC
  5
2A9
100
AcDbEntity
  8
0
100
AcDbCircle
 62
7
  6
CONTINUOUS
 10
5.8482532713
 20
5.451222259
 40
0.0196850394
100
AcDbArc
 50
205.0
 51
270.0
  0
ARC
  5
2AA
100
AcDbEntity
  8
0
100
AcDbCircle
 62
7
  6
CONTINUOUS
 10
6.0187804937
 20
5.451222259
 40
0.0196850394
100
AcDbArc
 50
270.0
 51
335.0
  0
ARC
  5
2AB
100
AcDbEntity
  8
0
100
AcDbCircle
 62
7
  6
CONTINUOUS
 10
6.2419540587
 20
5.451222259
 40
0.0196850394
100
AcDbArc
 50
205.0
 51
270.0
  0
ARC
  5
2AC
100
AcDbEntity
  8
0
100
AcDbCircle
 62
7
  6
CONTINUOUS
 10
6.4124812811
 20
5.451222259
 40
0.0196850394
100
AcDbArc
 50
270.0
 51
335.0
  0
ARC
  5
2AD
100
AcDbEntity
  8
0
100
AcDbCircle
 62
7
  6
CONTINUOUS
 10
6.6356548461
 20
5.451222259
 40
0.0196850394
100
AcDbArc
 50
205.0
 51
270.0
  0
ARC
  5
2AE
100
AcDbEntity
  8
0
100
AcDbCircle
 62
7
  6
CONTINUOUS
 10
7.1998828559
 20
5.451222259
 40
0.0196850394
100
AcDbArc
 50
270.0
 51
335.0
  0
ARC
  5
2AF
100
AcDbEntity
  8
0
100
AcDbCircle
 62
7
  6
CONTINUOUS
 10
7.0293556335
 20
5.451222259
 40
0.0196850394
100
AcDbArc
 50
205.0
 51
270.0
  0
ARC
  5
2B0
100
AcDbEntity
  8
0
100
AcDbCircle
 62
7
  6
CONTINUOUS
 10
6.8061820685
 20
5.451222259
 40
0.0196850394
100
AcDbArc
 50
270.0
 51
335.0
  0
SPLINE
  5
2B1
100
AcDbEntity
  8
0
100
AcDbSpline
 62
7
  6
CONTINUOUS
 70
0
 71
3
 72
8
 73
4
 74
0
 42
0.0000001
 43
0.0000001
 44
0.0000000001
 40
0.0
 40
0.0
 40
0.0
 40
0.0
 40
1.0
 40
1.0
 40
1.0
 40
1.0
 10
16.0443709727
 20
10.9566819644
 30
0.0
 10
16.0448997099
 20
10.9583909483
 30
0.0
 10
16.0456902207
 20
10.9600360861
 30
0.0
 10
16.0466782363
 20
10.9615273989
 30
0.0
  0
SPLINE
  5
2B2
100
AcDbEntity
  8
0
100
AcDbSpline
 62
7
  6
CONTINUOUS
 70
0
 71
3
 72
10
 73
6
 74
0
 42
0.0000001
 43
0.0000001
 44
0.0000000001
 40
0.0
 40
0.0
 40
0.0
 40
0.0
 40
0.206318436
 40
0.5677523504
 40
1.0
 40
1.0
 40
1.0
 40
1.0
 10
16.0466782363
 20
10.9615273989
 30
0.0
 10
16.0481170489
 20
10.9636991456
 30
0.0
 10
16.053299844
 20
10.9688906935
 30
0.0
 10
16.0652243061
 20
10.9739035247
 30
0.0
 10
16.0752993913
 20
10.9749410957
 30
0.0
 10
16.0807572566
 20
10.9749410957
 30
0.0
  0
SPLINE
  5
2B3
100
AcDbEntity
  8
0
100
AcDbSpline
 62
7
  6
CONTINUOUS
 70
0
 71
3
 72
8
 73
4
 74
0
 42
0.0000001
 43
0.0000001
 44
0.0000000001
 40
0.0
 40
0.0
 40
0.0
 40
0.0
 40
1.0
 40
1.0
 40
1.0
 40
1.0
 10
15.6817485341
 20
10.9566819644
 30
0.0
 10
15.6822772713
 20
10.9583909483
 30
0.0
 10
15.6830677821
 20
10.9600360861
 30
0.0
 10
15.6840557978
 20
10.9615273989
 30
0.0
  0
SPLINE
  5
2B4
100
AcDbEntity
  8
0
100
AcDbSpline
 62
7
  6
CONTINUOUS
 70
0
 71
3
 72
10
 73
6
 74
0
 42
0.0000001
 43
0.0000001
 44
0.0000000001
 40
0.0
 40
0.0
 40
0.0
 40
0.0
 40
0.206318436
 40
0.5677523504
 40
1.0
 40
1.0
 40
1.0
 40
1.0
 10
15.6840557978
 20
10.9615273989
 30
0.0
 10
15.6854946103
 20
10.9636991456
 30
0.0
 10
15.6906774054
 20
10.9688906935
 30
0.0
 10
15.7026018675
 20
10.9739035247
 30
0.0
 10
15.7126769527
 20
10.9749410957
 30
0.0
 10
15.718134818
 20
10.9749410957
 30
0.0
  0
SPLINE
  5
2B5
100
AcDbEntity
  8
0
100
AcDbSpline
 62
7
  6
CONTINUOUS
 70
0
 71
3
 72
8
 73
4
 74
0
 42
0.0000001
 43
0.0000001
 44
0.0000000001
 40
0.0
 40
0.0
 40
0.0
 40
0.0
 40
1.0
 40
1.0
 40
1.0
 40
1.0
 10
15.3191260956
 20
10.9566819644
 30
0.0
 10
15.3196548327
 20
10.9583909483
 30
0.0
 10
15.3204453435
 20
10.9600360861
 30
0.0
 10
15.3214333592
 20
10.9615273989
 30
0.0
  0
SPLINE
  5
2B6
100
AcDbEntity
  8
0
100
AcDbSpline
 62
7
  6
CONTINUOUS
 70
0
 71
3
 72
10
 73
6
 74
0
 42
0.0000001
 43
0.0000001
 44
0.0000000001
 40
0.0
 40
0.0
 40
0.0
 40
0.0
 40
0.206318436
 40
0.5677523504
 40
1.0
 40
1.0
 40
1.0
 40
1.0
 10
15.3214333592
 20
10.9615273989
 30
0.0
 10
15.3228721718
 20
10.9636991456
 30
0.0
 10
15.3280549668
 20
10.9688906935
 30
0.0
 10
15.3399794289
 20
10.9739035247
 30
0.0
 10
15.3500545141
 20
10.9749410957
 30
0.0
 10
15.3555123794
 20
10.9749410957
 30
0.0
  0
SPLINE
  5
2B7
100
AcDbEntity
  8
0
100
AcDbSpline
 62
7
  6
CONTINUOUS
 70
0
 71
3
 72
8
 73
4
 74
0
 42
0.0000001
 43
0.0000001
 44
0.0000000001
 40
0.0
 40
0.0
 40
0.0
 40
0.0
 40
1.0
 40
1.0
 40
1.0
 40
1.0
 10
14.956503657
 20
10.9566819644
 30
0.0
 10
14.9570323941
 20
10.9583909483
 30
0.0
 10
14.9578229049
 20
10.9600360861
 30
0.0
 10
14.9588109206
 20
10.9615273989
 30
0.0
  0
SPLINE
  5
2B8
100
AcDbEntity
  8
0
100
AcDbSpline
 62
7
  6
CONTINUOUS
 70
0
 71
3
 72
10
 73
6
 74
0
 42
0.0000001
 43
0.0000001
 44
0.0000000001
 40
0.0
 40
0.0
 40
0.0
 40
0.0
 40
0.206318436
 40
0.5677523504
 40
1.0
 40
1.0
 40
1.0
 40
1.0
 10
14.9588109206
 20
10.9615273989
 30
0.0
 10
14.9602497332
 20
10.9636991456
 30
0.0
 10
14.9654325283
 20
10.9688906935
 30
0.0
 10
14.9773569904
 20
10.9739035247
 30
0.0
 10
14.9874320755
 20
10.9749410957
 30
0.0
 10
14.9928899408
 20
10.9749410957
 30
0.0
  0
SPLINE
  5
2B9
100
AcDbEntity
  8
0
100
AcDbSpline
 62
7
  6
CONTINUOUS
 70
0
 71
3
 72
8
 73
4
 74
0
 42
0.0000001
 43
0.0000001
 44
0.0000000001
 40
0.0
 40
0.0
 40
0.0
 40
0.0
 40
1.0
 40
1.0
 40
1.0
 40
1.0
 10
14.5938812184
 20
10.9566819644
 30
0.0
 10
14.5944099555
 20
10.9583909483
 30
0.0
 10
14.5952004663
 20
10.9600360861
 30
0.0
 10
14.596188482
 20
10.9615273989
 30
0.0
  0
SPLINE
  5
2BA
100
AcDbEntity
  8
0
100
AcDbSpline
 62
7
  6
CONTINUOUS
 70
0
 71
3
 72
10
 73
6
 74
0
 42
0.0000001
 43
0.0000001
 44
0.0000000001
 40
0.0
 40
0.0
 40
0.0
 40
0.0
 40
0.206318436
 40
0.5677523504
 40
1.0
 40
1.0
 40
1.0
 40
1.0
 10
14.596188482
 20
10.9615273989
 30
0.0
 10
14.5976272946
 20
10.9636991456
 30
0.0
 10
14.6028100897
 20
10.9688906935
 30
0.0
 10
14.6147345518
 20
10.9739035247
 30
0.0
 10
14.624809637
 20
10.9749410957
 30
0.0
 10
14.6302675022
 20
10.9749410957
 30
0.0
  0
SPLINE
  5
2BB
100
AcDbEntity
  8
0
100
AcDbSpline
 62
7
  6
CONTINUOUS
 70
0
 71
3
 72
8
 73
4
 74
0
 42
0.0000001
 43
0.0000001
 44
0.0000000001
 40
0.0
 40
0.0
 40
0.0
 40
0.0
 40
1.0
 40
1.0
 40
1.0
 40
1.0
 10
14.23125878
 20
10.9566819644
 30
0.0
 10
14.2317876629
 20
10.9583914185
 30
0.0
 10
14.2325784681
 20
10.9600369931
 30
0.0
 10
14.2335668675
 20
10.9615286421
 30
0.0
  0
SPLINE
  5
2BC
100
AcDbEntity
  8
0
100
AcDbSpline
 62
7
  6
CONTINUOUS
 70
0
 71
3
 72
10
 73
6
 74
0
 42
0.0000001
 43
0.0000001
 44
0.0000000001
 40
0.0
 40
0.0
 40
0.0
 40
0.0
 40
0.2063200661
 40
0.5677551514
 40
1.0
 40
1.0
 40
1.0
 40
1.0
 10
14.2335668675
 20
10.9615286421
 30
0.0
 10
14.2350057988
 20
10.9637002143
 30
0.0
 10
14.2401887037
 20
10.9688912627
 30
0.0
 10
14.2521127732
 20
10.9739036041
 30
0.0
 10
14.2621874442
 20
10.9749410957
 30
0.0
 10
14.2676450637
 20
10.9749410957
 30
0.0
  0
SPLINE
  5
2BD
100
AcDbEntity
  8
0
100
AcDbSpline
 62
7
  6
CONTINUOUS
 70
0
 71
3
 72
9
 73
5
 74
0
 42
0.0000001
 43
0.0000001
 44
0.0000000001
 40
0.0
 40
0.0
 40
0.0
 40
0.0
 40
0.5068899422
 40
1.0
 40
1.0
 40
1.0
 40
1.0
 10
15.7503857056
 20
10.9749410957
 30
0.0
 10
15.7606672604
 20
10.9749410957
 30
0.0
 10
15.7809719485
 20
10.9710450269
 30
0.0
 10
15.7993069062
 20
10.9613225934
 30
0.0
 10
15.8069419417
 20
10.9548613846
 30
0.0
  0
SPLINE
  5
2BE
100
AcDbEntity
  8
0
100
AcDbSpline
 62
7
  6
CONTINUOUS
 70
0
 71
3
 72
9
 73
5
 74
0
 42
0.0000001
 43
0.0000001
 44
0.0000000001
 40
0.0
 40
0.0
 40
0.0
 40
0.0
 40
0.5068899422
 40
1.0
 40
1.0
 40
1.0
 40
1.0
 10
15.387763267
 20
10.9749410957
 30
0.0
 10
15.3980448218
 20
10.9749410957
 30
0.0
 10
15.4183495099
 20
10.9710450269
 30
0.0
 10
15.4366844676
 20
10.9613225934
 30
0.0
 10
15.4443195031
 20
10.9548613846
 30
0.0
  0
SPLINE
  5
2BF
100
AcDbEntity
  8
0
100
AcDbSpline
 62
7
  6
CONTINUOUS
 70
0
 71
3
 72
9
 73
5
 74
0
 42
0.0000001
 43
0.0000001
 44
0.0000000001
 40
0.0
 40
0.0
 40
0.0
 40
0.0
 40
0.5068899422
 40
1.0
 40
1.0
 40
1.0
 40
1.0
 10
15.0251408284
 20
10.9749410957
 30
0.0
 10
15.0354223833
 20
10.9749410957
 30
0.0
 10
15.0557270713
 20
10.9710450269
 30
0.0
 10
15.074062029
 20
10.9613225934
 30
0.0
 10
15.0816970645
 20
10.9548613846
 30
0.0
  0
SPLINE
  5
2C0
100
AcDbEntity
  8
0
100
AcDbSpline
 62
7
  6
CONTINUOUS
 70
0
 71
3
 72
9
 73
5
 74
0
 42
0.0000001
 43
0.0000001
 44
0.0000000001
 40
0.0
 40
0.0
 40
0.0
 40
0.0
 40
0.5068899422
 40
1.0
 40
1.0
 40
1.0
 40
1.0
 10
14.6625183898
 20
10.9749410957
 30
0.0
 10
14.6727999447
 20
10.9749410957
 30
0.0
 10
14.6931046327
 20
10.9710450269
 30
0.0
 10
14.7114395904
 20
10.9613225934
 30
0.0
 10
14.719074626
 20
10.9548613846
 30
0.0
  0
SPLINE
  5
2C1
100
AcDbEntity
  8
0
100
AcDbSpline
 62
7
  6
CONTINUOUS
 70
0
 71
3
 72
9
 73
5
 74
0
 42
0.0000001
 43
0.0000001
 44
0.0000000001
 40
0.0
 40
0.0
 40
0.0
 40
0.0
 40
0.5068899422
 40
1.0
 40
1.0
 40
1.0
 40
1.0
 10
14.2998959512
 20
10.9749410957
 30
0.0
 10
14.3101775061
 20
10.9749410957
 30
0.0
 10
14.3304821941
 20
10.9710450269
 30
0.0
 10
14.3488171519
 20
10.9613225934
 30
0.0
 10
14.3564521874
 20
10.9548613846
 30
0.0
  0
SPLINE
  5
2C2
100
AcDbEntity
  8
0
100
AcDbSpline
 62
7
  6
CONTINUOUS
 70
0
 71
3
 72
11
 73
7
 74
0
 42
0.0000001
 43
0.0000001
 44
0.0000000001
 40
0.0
 40
0.0
 40
0.0
 40
0.0
 40
0.303760767
 40
0.5698864917
 40
0.7976684585
 40
1.0
 40
1.0
 40
1.0
 40
1.0
 10
16.0241282733
 20
10.9137590122
 30
0.0
 10
16.0256690943
 20
10.9137590122
 30
0.0
 10
16.0285712273
 20
10.9140033296
 30
0.0
 10
16.0324701539
 20
10.9152291936
 30
0.0
 10
16.0354444092
 20
10.9172641275
 30
0.0
 10
16.0366270544
 20
10.9192031983
 30
0.0
 10
16.0369307314
 20
10.9201835653
 30
0.0
  0
SPLINE
  5
2C3
100
AcDbEntity
  8
0
100
AcDbSpline
 62
7
  6
CONTINUOUS
 70
0
 71
3
 72
9
 73
5
 74
0
 42
0.0000001
 43
0.0000001
 44
0.0000000001
 40
0.0
 40
0.0
 40
0.0
 40
0.0
 40
0.4931108489
 40
1.0
 40
1.0
 40
1.0
 40
1.0
 10
15.8471628839
 20
10.9208240957
 30
0.0
 10
15.8498492952
 20
10.9185506991
 30
0.0
 10
15.8563003903
 20
10.9151296002
 30
0.0
 10
15.8634447144
 20
10.9137590122
 30
0.0
 10
15.8670623004
 20
10.9137590122
 30
0.0
  0
SPLINE
  5
2C4
100
AcDbEntity
  8
0
100
AcDbSpline
 62
7
  6
CONTINUOUS
 70
0
 71
3
 72
11
 73
7
 74
0
 42
0.0000001
 43
0.0000001
 44
0.0000000001
 40
0.0
 40
0.0
 40
0.0
 40
0.0
 40
0.303760767
 40
0.5698864917
 40
0.7976684585
 40
1.0
 40
1.0
 40
1.0
 40
1.0
 10
15.6615058347
 20
10.9137590122
 30
0.0
 10
15.6630466558
 20
10.9137590122
 30
0.0
 10
15.6659487887
 20
10.9140033296
 30
0.0
 10
15.6698477154
 20
10.9152291936
 30
0.0
 10
15.6728219706
 20
10.9172641275
 30
0.0
 10
15.6740046158
 20
10.9192031983
 30
0.0
 10
15.6743082928
 20
10.9201835653
 30
0.0
  0
SPLINE
  5
2C5
100
AcDbEntity
  8
0
100
AcDbSpline
 62
7
  6
CONTINUOUS
 70
0
 71
3
 72
9
 73
5
 74
0
 42
0.0000001
 43
0.0000001
 44
0.0000000001
 40
0.0
 40
0.0
 40
0.0
 40
0.0
 40
0.4931108489
 40
1.0
 40
1.0
 40
1.0
 40
1.0
 10
15.4845404453
 20
10.9208240957
 30
0.0
 10
15.4872268566
 20
10.9185506991
 30
0.0
 10
15.4936779517
 20
10.9151296002
 30
0.0
 10
15.5008222758
 20
10.9137590122
 30
0.0
 10
15.5044398618
 20
10.9137590122
 30
0.0
  0
SPLINE
  5
2C6
100
AcDbEntity
  8
0
100
AcDbSpline
 62
7
  6
CONTINUOUS
 70
0
 71
3
 72
11
 73
7
 74
0
 42
0.0000001
 43
0.0000001
 44
0.0000000001
 40
0.0
 40
0.0
 40
0.0
 40
0.0
 40
0.303760767
 40
0.5698864917
 40
0.7976684585
 40
1.0
 40
1.0
 40
1.0
 40
1.0
 10
15.2988833961
 20
10.9137590122
 30
0.0
 10
15.3004242172
 20
10.9137590122
 30
0.0
 10
15.3033263501
 20
10.9140033296
 30
0.0
 10
15.3072252768
 20
10.9152291936
 30
0.0
 10
15.310199532
 20
10.9172641275
 30
0.0
 10
15.3113821772
 20
10.9192031983
 30
0.0
 10
15.3116858542
 20
10.9201835653
 30
0.0
  0
SPLINE
  5
2C7
100
AcDbEntity
  8
0
100
AcDbSpline
 62
7
  6
CONTINUOUS
 70
0
 71
3
 72
9
 73
5
 74
0
 42
0.0000001
 43
0.0000001
 44
0.0000000001
 40
0.0
 40
0.0
 40
0.0
 40
0.0
 40
0.4931108489
 40
1.0
 40
1.0
 40
1.0
 40
1.0
 10
15.1219180068
 20
10.9208240957
 30
0.0
 10
15.124604418
 20
10.9185506991
 30
0.0
 10
15.1310555131
 20
10.9151296002
 30
0.0
 10
15.1381998373
 20
10.9137590122
 30
0.0
 10
15.1418174232
 20
10.9137590122
 30
0.0
  0
SPLINE
  5
2C8
100
AcDbEntity
  8
0
100
AcDbSpline
 62
7
  6
CONTINUOUS
 70
0
 71
3
 72
11
 73
7
 74
0
 42
0.0000001
 43
0.0000001
 44
0.0000000001
 40
0.0
 40
0.0
 40
0.0
 40
0.0
 40
0.303760767
 40
0.5698864917
 40
0.7976684585
 40
1.0
 40
1.0
 40
1.0
 40
1.0
 10
14.9362609576
 20
10.9137590122
 30
0.0
 10
14.9378017786
 20
10.9137590122
 30
0.0
 10
14.9407039115
 20
10.9140033296
 30
0.0
 10
14.9446028382
 20
10.9152291936
 30
0.0
 10
14.9475770934
 20
10.9172641275
 30
0.0
 10
14.9487597386
 20
10.9192031983
 30
0.0
 10
14.9490634157
 20
10.9201835653
 30
0.0
  0
SPLINE
  5
2C9
100
AcDbEntity
  8
0
100
AcDbSpline
 62
7
  6
CONTINUOUS
 70
0
 71
3
 72
9
 73
5
 74
0
 42
0.0000001
 43
0.0000001
 44
0.0000000001
 40
0.0
 40
0.0
 40
0.0
 40
0.0
 40
0.4931108489
 40
1.0
 40
1.0
 40
1.0
 40
1.0
 10
14.7592955682
 20
10.9208240957
 30
0.0
 10
14.7619819794
 20
10.9185506991
 30
0.0
 10
14.7684330745
 20
10.9151296002
 30
0.0
 10
14.7755773987
 20
10.9137590122
 30
0.0
 10
14.7791949846
 20
10.9137590122
 30
0.0
  0
SPLINE
  5
2CA
100
AcDbEntity
  8
0
100
AcDbSpline
 62
7
  6
CONTINUOUS
 70
0
 71
3
 72
11
 73
7
 74
0
 42
0.0000001
 43
0.0000001
 44
0.0000000001
 40
0.0
 40
0.0
 40
0.0
 40
0.0
 40
0.303760767
 40
0.5698864917
 40
0.7976684585
 40
1.0
 40
1.0
 40
1.0
 40
1.0
 10
14.573638519
 20
10.9137590122
 30
0.0
 10
14.57517934
 20
10.9137590122
 30
0.0
 10
14.578081473
 20
10.9140033296
 30
0.0
 10
14.5819803996
 20
10.9152291936
 30
0.0
 10
14.5849546549
 20
10.9172641275
 30
0.0
 10
14.5861373
 20
10.9192031983
 30
0.0
 10
14.5864409771
 20
10.9201835653
 30
0.0
  0
SPLINE
  5
2CB
100
AcDbEntity
  8
0
100
AcDbSpline
 62
7
  6
CONTINUOUS
 70
0
 71
3
 72
9
 73
5
 74
0
 42
0.0000001
 43
0.0000001
 44
0.0000000001
 40
0.0
 40
0.0
 40
0.0
 40
0.0
 40
0.4931108489
 40
1.0
 40
1.0
 40
1.0
 40
1.0
 10
14.3966731296
 20
10.9208240957
 30
0.0
 10
14.3993595408
 20
10.9185506991
 30
0.0
 10
14.4058106359
 20
10.9151296002
 30
0.0
 10
14.4129549601
 20
10.9137590122
 30
0.0
 10
14.416572546
 20
10.9137590122
 30
0.0
  0
SPLINE
  5
2CC
100
AcDbEntity
  8
0
100
AcDbSpline
 62
7
  6
CONTINUOUS
 70
0
 71
3
 72
11
 73
7
 74
0
 42
0.0000001
 43
0.0000001
 44
0.0000000001
 40
0.0
 40
0.0
 40
0.0
 40
0.0
 40
0.3037576261
 40
0.5698859062
 40
0.7976703168
 40
1.0
 40
1.0
 40
1.0
 40
1.0
 10
14.2110160804
 20
10.9137590122
 30
0.0
 10
14.2125568853
 20
10.9137590122
 30
0.0
 10
14.2154590149
 20
10.9140033209
 30
0.0
 10
14.2193579529
 20
10.9152291865
 30
0.0
 10
14.2223322161
 20
10.9172641344
 30
0.0
 10
14.2235148696
 20
10.9192032039
 30
0.0
 10
14.2238185396
 20
10.920183563
 30
0.0
  0
SPLINE
  5
2CD
100
AcDbEntity
  8
0
100
AcDbSpline
 62
7
  6
CONTINUOUS
 70
0
 71
3
 72
9
 73
5
 74
0
 42
0.0000001
 43
0.0000001
 44
0.0000000001
 40
0.0
 40
0.0
 40
0.0
 40
0.0
 40
0.4931108253
 40
1.0
 40
1.0
 40
1.0
 40
1.0
 10
14.034050691
 20
10.9208240957
 30
0.0
 10
14.0367371021
 20
10.9185506992
 30
0.0
 10
14.0431881972
 20
10.9151296002
 30
0.0
 10
14.0503325213
 20
10.9137590122
 30
0.0
 10
14.0539501074
 20
10.9137590122
 30
0.0
  0
SPLINE
  5
2CE
100
AcDbEntity
  8
0
100
AcDbSpline
 62
7
  6
CONTINUOUS
 70
0
 71
3
 72
9
 73
5
 74
0
 42
0.0000001
 43
0.0000001
 44
0.0000000001
 40
0.0
 40
0.0
 40
0.0
 40
0.0
 40
0.5068898785
 40
1.0
 40
1.0
 40
1.0
 40
1.0
 10
13.9372735126
 20
10.9749410957
 30
0.0
 10
13.9475550663
 20
10.9749410957
 30
0.0
 10
13.9678597554
 20
10.9710450307
 30
0.0
 10
13.9861947122
 20
10.9613225943
 30
0.0
 10
13.9938297488
 20
10.9548613846
 30
0.0
  0
ENDSEC
  0
SECTION
  2
OBJECTS
  0
DICTIONARY
  5
C
100
AcDbDictionary
280
0
281
1
  3
ACAD_GROUP
350
D
  3
ACAD_MLINESTYLE
350
17
  3
ACAD_LAYOUT
350
1A
  3
ACAD_PLOTSETTINGS
350
19
  3
ACAD_PLOTSTYLENAME
350
E
  0
DICTIONARY
  5
D
102
{ACAD_REACTORS
330
C
102
}
100
AcDbDictionary
280
0
281
1
  0
ACDBDICTIONARYWDFLT
  5
E
102
{ACAD_REACTORS
330
C
102
}
100
AcDbDictionary
281
1
  3
Normal
350
F
100
AcDbDictionaryWithDefault
340
F
  0
DICTIONARY
  5
17
102
{ACAD_REACTORS
330
C
102
}
100
AcDbDictionary
280
0
281
1
  3
Standard
350
18
  0
DICTIONARY
  5
19
102
{ACAD_REACTORS
330
C
102
}
100
AcDbDictionary
281
1
  0
DICTIONARY
  5
1A
102
{ACAD_REACTORS
330
C
102
}
100
AcDbDictionary
281
1
  3
Model
350
2CF
  3
Layout1
350
2D0
  0
ACDBPLACEHOLDER
  5
F
102
{ACAD_REACTORS
330
E
102
}
  0
MLINESTYLE
  5
18
102
{ACAD_REACTORS
330
17
102
}
100
AcDbMlineStyle
  2
STANDARD
 70
0
  3

 62
256
 51
90.0
 52
90.0
 71
2
 49
0.5
 62
256
  6
BYLAYER
 49
-0.5
 62
256
  6
BYLAYER
  0
LAYOUT
  5
2CF
102
{ACAD_REACTORS
330
1A
102
}
100
AcDbPlotSettings
  1

  2
none_device
  4
ANSI_C_(22.00_x_17.00_Inches)
  6

 40
0.0
 41
0.0
 42
0.0
 43
0.0
 44
558.8
 45
431.8
 46
0.0
 47
0.0
 48
0.0
 49
0.0
140
0.0
141
0.0
142
1.0
143
1.0
 70
1024
 72
0
 73
0
 74
0
  7

 75
0
147
1.0
148
0.0
149
0.0
100
AcDbLayout
  1
Model
 70
0
 71
0
 10
0.0
 20
0.0
 11
22.0
 21
17.0
 12
0.0
 22
0.0
 32
0.0
 14
0.0
 24
0.0
 34
0.0
 15
0.0
 25
0.0
 35
0.0
146
0.0
 13
0.0
 23
0.0
 33
0.0
 16
1.0
 26
0.0
 36
0.0
 17
0.0
 27
1.0
 37
0.0
 76
0
330
216
345
0
346
0
  0
LAYOUT
  5
2D0
102
{ACAD_REACTORS
330
1A
102
}
100
AcDbPlotSettings
  1

  2
none_device
  4
ANSI_C_(22.00_x_17.00_Inches)
  6

 40
0.0
 41
0.0
 42
0.0
 43
0.0
 44
558.8
 45
431.8
 46
0.0
 47
0.0
 48
0.0
 49
0.0
140
0.0
141
0.0
142
1.0
143
1.0
 70
0
 72
0
 73
0
 74
0
  7

 75
0
147
1.0
148
0.0
149
0.0
100
AcDbLayout
  1
Layout1
 70
0
 71
1
 10
0.0
 20
0.0
 11
22.0
 21
17.0
 12
0.0
 22
0.0
 32
0.0
 14
0.0
 24
0.0
 34
0.0
 15
0.0
 25
0.0
 35
0.0
146
0.0
 13
0.0
 23
0.0
 33
0.0
 16
1.0
 26
0.0
 36
0.0
 17
0.0
 27
1.0
 37
0.0
 76
0
330
217
345
0
346
0
  0
ENDSEC
  0
EOF