999
DXF file: _cgs_temp_output.dxf
999
Pro/ENGINEER 2015110 by Parametric Technology Corporation
  0
SECTION
  2
HEADER
  9
$ACADVER
  1
AC1021
  9
$DWGCODEPAGE
  3
ANSI_1252
  9
$EXTMAX
 10
22.0
 20
17.0
 30
0.0
  9
$EXTMIN
 10
0.0
 20
0.0
 30
0.0
  9
$LIMMIN
 10
0.0
 20
0.0
  9
$LIMMAX
 10
22.0
 20
17.0
  9
$VIEWCTR
 10
11.0
 20
8.5
  9
$VIEWSIZE
 40
17.0
  9
$CLAYER
  8
0
  9
$LTSCALE
 40
1.21
  9
$CELTYPE
  6
BYLAYER
  9
$DIMSCALE
 40
1.0
  9
$DIMASZ
 40
0.1875
  9
$DIMEXO
 40
0.0625
  9
$DIMDLI
 40
0.836
  9
$DIMEXE
 40
0.125
  9
$DIMCEN
 40
0.198
  9
$DIMLFAC
 40
1.0
  9
$DIMBLK
  1
_CLOSED
  9
$DIMALT
 70
0
  9
$DIMALTF
 40
25.4
  9
$DIMTXT
 40
0.15625
  9
$DIMTOL
 70
0
  9
$DIMLIM
 70
0
  9
$DIMTFAC
 40
1.0
  9
$DIMGAP
 40
0.09
  9
$DIMDSEP
 70
46
  9
$AUNITS
 70
0
  9
$PDMODE
 70
3
  9
$PDSIZE
 40
0.3125
  9
$HANDSEED
  5
2C6
  9
$TILEMODE
 70
1
  9
$MEASUREMENT
 70
0
  9
$INSUNITS
 70
1
  0
ENDSEC
  0
SECTION
  2
CLASSES
  0
CLASS
  1
ACDBDICTIONARYWDFLT
  2
AcDbDictionaryWithDefault
  3
AutoCAD 2000
 90
0
 91
1
280
0
281
0
  0
CLASS
  1
ACDBPLACEHOLDER
  2
AcDbPlaceHolder
  3
AutoCAD 2000
 90
0
 91
1
280
0
281
0
  0
CLASS
  1
LAYOUT
  2
AcDbLayout
  3
AutoCAD 2000
 90
0
 91
0
280
0
281
0
  0
ENDSEC
  0
SECTION
  2
TABLES
  0
TABLE
  2
VPORT
  5
8
100
AcDbSymbolTable
 70
2
  0
VPORT
  5
1F4
100
AcDbSymbolTableRecord
100
AcDbViewportTableRecord
  2
*ACTIVE
 70
0
 10
0.0
 20
0.0
 11
1.0
 21
1.0
 12
11.0
 22
8.5
 13
0.0
 23
0.0
 14
1.0
 24
1.0
 15
0.0
 25
0.0
 16
0.0
 26
0.0
 36
1.0
 17
0.0
 27
0.0
 37
0.0
 40
17.0
 41
1.2941176471
 42
50.0
 43
0.0
 44
0.0
 50
0.0
 51
0.0
 71
0
 72
100
 73
1
 74
1
 75
0
 76
0
 77
0
 78
0
  0
ENDTAB
  0
TABLE
  2
LTYPE
  5
5
100
AcDbSymbolTable
 70
6
  0
LTYPE
  5
14
100
AcDbSymbolTableRecord
100
AcDbLinetypeTableRecord
  2
BYBLOCK
 70
0
  3

 72
65
 73
0
 40
0.0
  0
LTYPE
  5
15
100
AcDbSymbolTableRecord
100
AcDbLinetypeTableRecord
  2
BYLAYER
 70
0
  3

 72
65
 73
0
 40
0.0
  0
LTYPE
  5
16
100
AcDbSymbolTableRecord
100
AcDbLinetypeTableRecord
  2
CONTINUOUS
 70
64
  3
Solid line
 72
65
 73
0
 40
0.0
  0
LTYPE
  5
1F5
100
AcDbSymbolTableRecord
100
AcDbLinetypeTableRecord
  2
CENTER
 70
64
  3
____ _ ____ _ ____ _ ____ _ ____ _ ____ _ ____
 72
65
 73
4
 40
0.6
 49
0.375
 74
0
 49
-0.075
 74
0
 49
0.075
 74
0
 49
-0.075
 74
0
  0
LTYPE
  5
1F6
100
AcDbSymbolTableRecord
100
AcDbLinetypeTableRecord
  2
HIDDEN
 70
64
  3
- - - - - - - - - - - - - - - - - - - -
 72
65
 73
2
 40
0.2
 49
0.1
 74
0
 49
-0.1
 74
0
  0
LTYPE
  5
1F7
100
AcDbSymbolTableRecord
100
AcDbLinetypeTableRecord
  2
PHANTOM
 70
64
  3
_____ _ _ _____ _ _ _____ _ _ _____
 72
65
 73
6
 40
0.8
 49
0.45
 74
0
 49
-0.05
 74
0
 49
0.1
 74
0
 49
-0.05
 74
0
 49
0.1
 74
0
 49
-0.05
 74
0
  0
LTYPE
  5
1F8
100
AcDbSymbolTableRecord
100
AcDbLinetypeTableRecord
  2
DOT
 70
64
  3
. . . . . . . . . . . . . . . . . . . .
 72
65
 73
2
 40
0.2
 49
0.1
 74
0
 49
-0.1
 74
0
  0
LTYPE
  5
1F9
100
AcDbSymbolTableRecord
100
AcDbLinetypeTableRecord
  2
DASHED
 70
64
  3
- - - - - - - - - - - - - - - - - - - -
 72
65
 73
2
 40
0.2
 49
0.1
 74
0
 49
-0.1
 74
0
  0
ENDTAB
  0
TABLE
  2
LAYER
  5
2
100
AcDbSymbolTable
 70
36
  0
LAYER
  5
10
100
AcDbSymbolTableRecord
100
AcDbLayerTableRecord
  2
0
 70
0
 62
7
  6
CONTINUOUS
370
-3
390
F
  0
LAYER
  5
1FA
100
AcDbSymbolTableRecord
100
AcDbLayerTableRecord
  2
DEFAULT_1
 70
0
 62
7
  6
CENTER
370
-3
390
F
  0
LAYER
  5
1FB
100
AcDbSymbolTableRecord
100
AcDbLayerTableRecord
  2
DEFAULT_2
 70
0
 62
8
  6
HIDDEN
370
-3
390
F
  0
LAYER
  5
1FC
100
AcDbSymbolTableRecord
100
AcDbLayerTableRecord
  2
DEFAULT_3
 70
0
 62
7
  6
PHANTOM
370
-3
390
F
  0
LAYER
  5
1FD
100
AcDbSymbolTableRecord
100
AcDbLayerTableRecord
  2
01_ALL_DTM_PLN
 70
0
 62
7
  6
CONTINUOUS
370
-3
390
F
  0
LAYER
  5
1FE
100
AcDbSymbolTableRecord
100
AcDbLayerTableRecord
  2
01__ASM_ALL_DTM_PLN
 70
0
 62
7
  6
CONTINUOUS
370
-3
390
F
  0
LAYER
  5
1FF
100
AcDbSymbolTableRecord
100
AcDbLayerTableRecord
  2
01__ASM_DEF_DTM_PLN
 70
0
 62
7
  6
CONTINUOUS
370
-3
390
F
  0
LAYER
  5
200
100
AcDbSymbolTableRecord
100
AcDbLayerTableRecord
  2
01___PRT_ALL_DTM_PLN
 70
0
 62
7
  6
CONTINUOUS
370
-3
390
F
  0
LAYER
  5
201
100
AcDbSymbolTableRecord
100
AcDbLayerTableRecord
  2
01___PRT_DEF_DTM_PLN
 70
0
 62
7
  6
CONTINUOUS
370
-3
390
F
  0
LAYER
  5
202
100
AcDbSymbolTableRecord
100
AcDbLayerTableRecord
  2
02_ALL_AXES
 70
0
 62
7
  6
CONTINUOUS
370
-3
390
F
  0
LAYER
  5
203
100
AcDbSymbolTableRecord
100
AcDbLayerTableRecord
  2
02__ASM_ALL_AXES
 70
0
 62
7
  6
CONTINUOUS
370
-3
390
F
  0
LAYER
  5
204
100
AcDbSymbolTableRecord
100
AcDbLayerTableRecord
  2
02___PRT_ALL_AXES
 70
0
 62
7
  6
CONTINUOUS
370
-3
390
F
  0
LAYER
  5
205
100
AcDbSymbolTableRecord
100
AcDbLayerTableRecord
  2
03_ALL_CURVES
 70
0
 62
7
  6
CONTINUOUS
370
-3
390
F
  0
LAYER
  5
206
100
AcDbSymbolTableRecord
100
AcDbLayerTableRecord
  2
03__ASM_ALL_CURVES
 70
0
 62
7
  6
CONTINUOUS
370
-3
390
F
  0
LAYER
  5
207
100
AcDbSymbolTableRecord
100
AcDbLayerTableRecord
  2
03___PRT_ALL_CURVES
 70
0
 62
7
  6
CONTINUOUS
370
-3
390
F
  0
LAYER
  5
208
100
AcDbSymbolTableRecord
100
AcDbLayerTableRecord
  2
04_ALL_DTM_PNT
 70
0
 62
7
  6
CONTINUOUS
370
-3
390
F
  0
LAYER
  5
209
100
AcDbSymbolTableRecord
100
AcDbLayerTableRecord
  2
04__ASM_ALL_DTM_PNT
 70
0
 62
7
  6
CONTINUOUS
370
-3
390
F
  0
LAYER
  5
20A
100
AcDbSymbolTableRecord
100
AcDbLayerTableRecord
  2
04___PRT_ALL_DTM_PNT
 70
0
 62
7
  6
CONTINUOUS
370
-3
390
F
  0
LAYER
  5
20B
100
AcDbSymbolTableRecord
100
AcDbLayerTableRecord
  2
05_ALL_DTM_CSYS
 70
0
 62
7
  6
CONTINUOUS
370
-3
390
F
  0
LAYER
  5
20C
100
AcDbSymbolTableRecord
100
AcDbLayerTableRecord
  2
05__ASM_ALL_DTM_CSYS
 70
0
 62
7
  6
CONTINUOUS
370
-3
390
F
  0
LAYER
  5
20D
100
AcDbSymbolTableRecord
100
AcDbLayerTableRecord
  2
05__ASM_DEF_DTM_CSYS
 70
0
 62
7
  6
CONTINUOUS
370
-3
390
F
  0
LAYER
  5
20E
100
AcDbSymbolTableRecord
100
AcDbLayerTableRecord
  2
05___PRT_ALL_DTM_CSYS
 70
0
 62
7
  6
CONTINUOUS
370
-3
390
F
  0
LAYER
  5
20F
100
AcDbSymbolTableRecord
100
AcDbLayerTableRecord
  2
05___PRT_DEF_DTM_CSYS
 70
0
 62
7
  6
CONTINUOUS
370
-3
390
F
  0
LAYER
  5
210
100
AcDbSymbolTableRecord
100
AcDbLayerTableRecord
  2
06_ALL_SURFS
 70
0
 62
7
  6
CONTINUOUS
370
-3
390
F
  0
LAYER
  5
211
100
AcDbSymbolTableRecord
100
AcDbLayerTableRecord
  2
06__ASM_ALL_SURFS
 70
0
 62
7
  6
CONTINUOUS
370
-3
390
F
  0
LAYER
  5
212
100
AcDbSymbolTableRecord
100
AcDbLayerTableRecord
  2
06___PRT_ALL_SURFS
 70
0
 62
7
  6
CONTINUOUS
370
-3
390
F
  0
LAYER
  5
213
100
AcDbSymbolTableRecord
100
AcDbLayerTableRecord
  2
07__ASM_ALL_SKELETONS
 70
0
 62
7
  6
CONTINUOUS
370
-3
390
F
  0
ENDTAB
  0
TABLE
  2
STYLE
  5
3
100
AcDbSymbolTable
 70
1
  0
STYLE
  5
11
100
AcDbSymbolTableRecord
100
AcDbTextStyleTableRecord
  2
STANDARD
 70
0
 40
0.0
 41
0.8
 50
0.0
 71
0
 42
0.2
  3
txt
  4

  0
STYLE
  5
214
100
AcDbSymbolTableRecord
100
AcDbTextStyleTableRecord
  2
TEXTSTYLE_1
 70
0
 40
0.0
 41
0.8
 50
0.0
 71
0
 42
0.2
  3
gdt
  4

  0
ENDTAB
  0
TABLE
  2
VIEW
  5
6
100
AcDbSymbolTable
 70
0
  0
ENDTAB
  0
TABLE
  2
UCS
  5
7
100
AcDbSymbolTable
 70
0
  0
ENDTAB
  0
TABLE
  2
APPID
  5
9
100
AcDbSymbolTable
 70
1
  0
APPID
  5
215
100
AcDbSymbolTableRecord
100
AcDbRegAppTableRecord
  2
ACAD
 70
0
  0
ENDTAB
  0
TABLE
  2
BLOCK_RECORD
  5
1
100
AcDbSymbolTable
 70
0
  0
BLOCK_RECORD
  5
216
100
AcDbSymbolTableRecord
100
AcDbBlockTableRecord
  2
*Model_Space
  0
BLOCK_RECORD
  5
217
100
AcDbSymbolTableRecord
100
AcDbBlockTableRecord
  2
*Paper_Space
  0
ENDTAB
  0
TABLE
  2
DIMSTYLE
  5
A
100
AcDbSymbolTable
 70
1
100
AcDbDimStyleTable
 71
0
  0
DIMSTYLE
105
218
100
AcDbSymbolTableRecord
100
AcDbDimStyleTableRecord
  2
STANDARD
 70
0
  3

  4

 40
1.0
 41
0.1875
 42
0.0625
 43
0.38
 44
0.125
 45
0.0
 46
0.0
 47
0.0001
 48
0.0001
140
0.15625
141
0.09
142
0.0
143
25.4
144
1.0
145
0.0
146
1.0
147
0.09
 71
0.0
 72
0.0
 73
1
 74
1
 75
0
 76
0
 77
0
 78
4
170
0
171
2
172
0
173
0
174
0
175
0
176
0
177
0
178
0
270
2
271
4
272
4
273
2
274
2
275
0
280
0
281
0
282
0
283
1
284
4
285
0
286
0
287
3
288
0
340
11
278
46
  0
ENDTAB
  0
ENDSEC
  0
SECTION
  2
BLOCKS
  0
BLOCK
  5
20
100
AcDbEntity
  8
0
100
AcDbBlockBegin
  2
*Model_Space
 70
0
 10
0.0
 20
0.0
 30
0.0
  3
*Model_Space
  1

  0
ENDBLK
  5
21
100
AcDbEntity
  8
0
100
AcDbBlockEnd
  0
BLOCK
  5
1C
100
AcDbEntity
  8
0
100
AcDbBlockBegin
  2
*Paper_Space
 70
0
 10
0.0
 20
0.0
 30
0.0
  3
*Paper_Space
  1

  0
ENDBLK
  5
1D
100
AcDbEntity
  8
0
100
AcDbBlockEnd
  0
ENDSEC
  0
SECTION
  2
ENTITIES
  0
MTEXT
  5
219
100
AcDbEntity
  8
0
100
AcDbMText
 62
7
  6
CONTINUOUS
  7
STANDARD
 71
1
 72
1
 10
15.9560215477
 20
0.9479130325
 30
0.0
 11
1.0
 21
0.0
 31
0.0
 44
0.9
  1
SCALE: 1:1.000
 40
0.3
 41
3.36
  0
LINE
  5
21A
100
AcDbEntity
  8
0
100
AcDbLine
 62
7
  6
CONTINUOUS
 10
0.0
 20
0.0
 11
0.0
 21
17.0
  0
LINE
  5
21B
100
AcDbEntity
  8
0
100
AcDbLine
 62
7
  6
CONTINUOUS
 10
0.0
 20
0.0
 11
22.0
 21
0.0
  0
LINE
  5
21C
100
AcDbEntity
  8
0
100
AcDbLine
 62
7
  6
CONTINUOUS
 10
0.0
 20
17.0
 11
22.0
 21
17.0
  0
LINE
  5
21D
100
AcDbEntity
  8
0
100
AcDbLine
 62
7
  6
CONTINUOUS
 10
22.0
 20
0.0
 11
22.0
 21
17.0
  0
LINE
  5
21E
100
AcDbEntity
  8
0
100
AcDbLine
 62
7
  6
CONTINUOUS
 10
3.9103672762
 20
5.7701198968
 11
3.9103672762
 21
5.6034532301
  0
LINE
  5
21F
100
AcDbEntity
  8
0
100
AcDbLine
 62
7
  6
CONTINUOUS
 10
3.9103672762
 20
5.6034532301
 11
3.9953452581
 21
5.2972262682
  0
LINE
  5
220
100
AcDbEntity
  8
0
100
AcDbLine
 62
7
  6
CONTINUOUS
 10
4.1953892943
 20
5.2972262682
 11
4.2803672762
 21
5.6034532301
  0
LINE
  5
221
100
AcDbEntity
  8
0
100
AcDbLine
 62
7
  6
CONTINUOUS
 10
4.2803672762
 20
5.6034532301
 11
4.3653452581
 21
5.2972262682
  0
LINE
  5
222
100
AcDbEntity
  8
0
100
AcDbLine
 62
7
  6
CONTINUOUS
 10
4.5653892943
 20
5.2972262682
 11
4.6503672762
 21
5.6034532301
  0
LINE
  5
223
100
AcDbEntity
  8
0
100
AcDbLine
 62
7
  6
CONTINUOUS
 10
4.6503672762
 20
5.6034532301
 11
4.7353452581
 21
5.2972262682
  0
LINE
  5
224
100
AcDbEntity
  8
0
100
AcDbLine
 62
7
  6
CONTINUOUS
 10
4.9353892943
 20
5.2972262682
 11
5.0203672762
 21
5.6034532301
  0
LINE
  5
225
100
AcDbEntity
  8
0
100
AcDbLine
 62
7
  6
CONTINUOUS
 10
5.0203672762
 20
5.6034532301
 11
5.1053452581
 21
5.2972262682
  0
LINE
  5
226
100
AcDbEntity
  8
0
100
AcDbLine
 62
7
  6
CONTINUOUS
 10
5.3053892943
 20
5.2972262682
 11
5.3903672762
 21
5.6034532301
  0
LINE
  5
227
100
AcDbEntity
  8
0
100
AcDbLine
 62
7
  6
CONTINUOUS
 10
5.3903672762
 20
5.6034532301
 11
5.4753452581
 21
5.2972262682
  0
LINE
  5
228
100
AcDbEntity
  8
0
100
AcDbLine
 62
7
  6
CONTINUOUS
 10
5.6753892943
 20
5.2972262682
 11
5.7603672762
 21
5.6034532301
  0
LINE
  5
229
100
AcDbEntity
  8
0
100
AcDbLine
 62
7
  6
CONTINUOUS
 10
5.7603672762
 20
5.6034532301
 11
5.8453452581
 21
5.2972262682
  0
LINE
  5
22A
100
AcDbEntity
  8
0
100
AcDbLine
 62
7
  6
CONTINUOUS
 10
4.0309979735
 20
5.2701198968
 11
4.1597365789
 21
5.2701198968
  0
LINE
  5
22B
100
AcDbEntity
  8
0
100
AcDbLine
 62
7
  6
CONTINUOUS
 10
4.4009979735
 20
5.2701198968
 11
4.5297365789
 21
5.2701198968
  0
LINE
  5
22C
100
AcDbEntity
  8
0
100
AcDbLine
 62
7
  6
CONTINUOUS
 10
4.7709979735
 20
5.2701198968
 11
4.8997365789
 21
5.2701198968
  0
LINE
  5
22D
100
AcDbEntity
  8
0
100
AcDbLine
 62
7
  6
CONTINUOUS
 10
5.1409979735
 20
5.2701198968
 11
5.2697365789
 21
5.2701198968
  0
LINE
  5
22E
100
AcDbEntity
  8
0
100
AcDbLine
 62
7
  6
CONTINUOUS
 10
5.5109979735
 20
5.2701198968
 11
5.6397365789
 21
5.2701198968
  0
LINE
  5
22F
100
AcDbEntity
  8
0
100
AcDbLine
 62
7
  6
CONTINUOUS
 10
5.8809979735
 20
5.2701198968
 11
6.0097365789
 21
5.2701198968
  0
LINE
  5
230
100
AcDbEntity
  8
0
100
AcDbLine
 62
7
  6
CONTINUOUS
 10
6.2509979735
 20
5.2701198968
 11
6.3797365789
 21
5.2701198968
  0
LINE
  5
231
100
AcDbEntity
  8
0
100
AcDbLine
 62
7
  6
CONTINUOUS
 10
6.6209979735
 20
5.2701198968
 11
6.7497365789
 21
5.2701198968
  0
LINE
  5
232
100
AcDbEntity
  8
0
100
AcDbLine
 62
7
  6
CONTINUOUS
 10
6.9909979735
 20
5.2701198968
 11
7.1197365789
 21
5.2701198968
  0
LINE
  5
233
100
AcDbEntity
  8
0
100
AcDbLine
 62
7
  6
CONTINUOUS
 10
7.3609979735
 20
5.2701198968
 11
7.4897365789
 21
5.2701198968
  0
LINE
  5
234
100
AcDbEntity
  8
0
100
AcDbLine
 62
7
  6
CONTINUOUS
 10
7.7309979735
 20
5.2701198968
 11
7.8597365789
 21
5.2701198968
  0
LINE
  5
235
100
AcDbEntity
  8
0
100
AcDbLine
 62
7
  6
CONTINUOUS
 10
8.1009979735
 20
5.2701198968
 11
8.2297365789
 21
5.2701198968
  0
LINE
  5
236
100
AcDbEntity
  8
0
100
AcDbLine
 62
7
  6
CONTINUOUS
 10
6.0453892943
 20
5.2972262682
 11
6.1303672762
 21
5.6034532301
  0
LINE
  5
237
100
AcDbEntity
  8
0
100
AcDbLine
 62
7
  6
CONTINUOUS
 10
6.1303672762
 20
5.6034532301
 11
6.2153452581
 21
5.2972262682
  0
LINE
  5
238
100
AcDbEntity
  8
0
100
AcDbLine
 62
7
  6
CONTINUOUS
 10
8.3503672762
 20
5.7701198968
 11
3.9103672762
 21
5.7701198968
  0
LINE
  5
239
100
AcDbEntity
  8
0
100
AcDbLine
 62
7
  6
CONTINUOUS
 10
6.4153892943
 20
5.2972262682
 11
6.5003672762
 21
5.6034532301
  0
LINE
  5
23A
100
AcDbEntity
  8
0
100
AcDbLine
 62
7
  6
CONTINUOUS
 10
6.5003672762
 20
5.6034532301
 11
6.5853452581
 21
5.2972262682
  0
LINE
  5
23B
100
AcDbEntity
  8
0
100
AcDbLine
 62
7
  6
CONTINUOUS
 10
6.7853892943
 20
5.2972262682
 11
6.8703672762
 21
5.6034532301
  0
LINE
  5
23C
100
AcDbEntity
  8
0
100
AcDbLine
 62
7
  6
CONTINUOUS
 10
6.8703672762
 20
5.6034532301
 11
6.9553452581
 21
5.2972262682
  0
LINE
  5
23D
100
AcDbEntity
  8
0
100
AcDbLine
 62
7
  6
CONTINUOUS
 10
7.1553892943
 20
5.2972262682
 11
7.2403672762
 21
5.6034532301
  0
LINE
  5
23E
100
AcDbEntity
  8
0
100
AcDbLine
 62
7
  6
CONTINUOUS
 10
7.2403672762
 20
5.6034532301
 11
7.3253452581
 21
5.2972262682
  0
LINE
  5
23F
100
AcDbEntity
  8
0
100
AcDbLine
 62
7
  6
CONTINUOUS
 10
7.5253892943
 20
5.2972262682
 11
7.6103672762
 21
5.6034532301
  0
LINE
  5
240
100
AcDbEntity
  8
0
100
AcDbLine
 62
7
  6
CONTINUOUS
 10
7.6103672762
 20
5.6034532301
 11
7.6953452581
 21
5.2972262682
  0
LINE
  5
241
100
AcDbEntity
  8
0
100
AcDbLine
 62
7
  6
CONTINUOUS
 10
7.8953892943
 20
5.2972262682
 11
7.9803672762
 21
5.6034532301
  0
LINE
  5
242
100
AcDbEntity
  8
0
100
AcDbLine
 62
7
  6
CONTINUOUS
 10
7.9803672762
 20
5.6034532301
 11
8.0653452581
 21
5.2972262682
  0
LINE
  5
243
100
AcDbEntity
  8
0
100
AcDbLine
 62
7
  6
CONTINUOUS
 10
8.3503672762
 20
5.6034532301
 11
8.3503672762
 21
5.7701198968
  0
LINE
  5
244
100
AcDbEntity
  8
0
100
AcDbLine
 62
7
  6
CONTINUOUS
 10
8.2653892943
 20
5.2972262682
 11
8.3503672762
 21
5.6034532301
  0
LINE
  5
245
100
AcDbEntity
  8
0
100
AcDbLine
 62
7
  6
CONTINUOUS
 10
3.8508720839
 20
14.6000477814
 11
3.8508720839
 21
10.6000477814
  0
LINE
  5
246
100
AcDbEntity
  8
0
100
AcDbLine
 62
7
  6
CONTINUOUS
 10
8.2908720839
 20
10.6000477814
 11
3.8508720839
 21
10.6000477814
  0
LINE
  5
247
100
AcDbEntity
  8
0
100
AcDbLine
 62
7
  6
CONTINUOUS
 10
3.8508720839
 20
14.6000477814
 11
8.2908720839
 21
14.6000477814
  0
LINE
  5
248
100
AcDbEntity
  8
0
100
AcDbLine
 62
7
  6
CONTINUOUS
 10
8.2908720839
 20
14.6000477814
 11
8.2908720839
 21
10.6000477814
  0
LINE
  5
249
100
AcDbEntity
  8
0
100
AcDbLine
 62
7
  6
CONTINUOUS
 10
13.5603552569
 20
5.2106247044
 11
13.5603552569
 21
5.7106247044
  0
LINE
  5
24A
100
AcDbEntity
  8
0
100
AcDbLine
 62
7
  6
CONTINUOUS
 10
13.5603552569
 20
5.2106247044
 11
17.5603552569
 21
5.2106247044
  0
LINE
  5
24B
100
AcDbEntity
  8
0
100
AcDbLine
 62
7
  6
CONTINUOUS
 10
17.5603552569
 20
5.5439580378
 11
13.5603552569
 21
5.5439580378
  0
LINE
  5
24C
100
AcDbEntity
  8
0
100
AcDbLine
 62
7
  6
CONTINUOUS
 10
17.5603552569
 20
5.7106247044
 11
13.5603552569
 21
5.7106247044
  0
LINE
  5
24D
100
AcDbEntity
  8
0
100
AcDbLine
 62
7
  6
CONTINUOUS
 10
17.5603552569
 20
5.2106247044
 11
17.5603552569
 21
5.7106247044
  0
LINE
  5
24E
100
AcDbEntity
  8
0
100
AcDbLine
 62
7
  6
CONTINUOUS
 10
12.9600735007
 20
10.9959520043
 11
13.1317554493
 21
10.8055982723
  0
LINE
  5
24F
100
AcDbEntity
  8
0
100
AcDbLine
 62
7
  6
CONTINUOUS
 10
12.9092331896
 20
11.0995536657
 11
12.9600735007
 21
10.9959520043
  0
LINE
  5
250
100
AcDbEntity
  8
0
100
AcDbLine
 62
7
  6
CONTINUOUS
 10
13.3008660685
 20
10.9959520043
 11
13.4725480171
 21
10.8055982723
  0
LINE
  5
251
100
AcDbEntity
  8
0
100
AcDbLine
 62
7
  6
CONTINUOUS
 10
13.3160082081
 20
10.8055982723
 11
13.3008660685
 21
10.9959520043
  0
LINE
  5
252
100
AcDbEntity
  8
0
100
AcDbLine
 62
7
  6
CONTINUOUS
 10
13.6416586363
 20
10.9959520043
 11
13.8133405849
 21
10.8055982723
  0
LINE
  5
253
100
AcDbEntity
  8
0
100
AcDbLine
 62
7
  6
CONTINUOUS
 10
13.8774984833
 20
14.2328613042
 11
12.9092331896
 21
11.0995536657
  0
LINE
  5
254
100
AcDbEntity
  8
0
100
AcDbLine
 62
7
  6
CONTINUOUS
 10
13.9824512041
 20
10.9959520043
 11
14.1541331526
 21
10.8055982723
  0
LINE
  5
255
100
AcDbEntity
  8
0
100
AcDbLine
 62
7
  6
CONTINUOUS
 10
13.6568007759
 20
10.8055982723
 11
13.6416586363
 21
10.9959520043
  0
LINE
  5
256
100
AcDbEntity
  8
0
100
AcDbLine
 62
7
  6
CONTINUOUS
 10
13.3154983385
 20
10.8008253729
 11
13.3160082081
 21
10.8055982723
  0
LINE
  5
257
100
AcDbEntity
  8
0
100
AcDbLine
 62
7
  6
CONTINUOUS
 10
14.3232437719
 20
10.9959520043
 11
14.4949257204
 21
10.8055982723
  0
LINE
  5
258
100
AcDbEntity
  8
0
100
AcDbLine
 62
7
  6
CONTINUOUS
 10
13.6562909063
 20
10.8008253729
 11
13.6568007759
 21
10.8055982723
  0
LINE
  5
259
100
AcDbEntity
  8
0
100
AcDbLine
 62
7
  6
CONTINUOUS
 10
13.1728623529
 20
10.7887486816
 11
13.2914384608
 21
10.7887486816
  0
LINE
  5
25A
100
AcDbEntity
  8
0
100
AcDbLine
 62
7
  6
CONTINUOUS
 10
13.5136549207
 20
10.7887486816
 11
13.6322310286
 21
10.7887486816
  0
LINE
  5
25B
100
AcDbEntity
  8
0
100
AcDbLine
 62
7
  6
CONTINUOUS
 10
13.8544474885
 20
10.7887486816
 11
13.9730235963
 21
10.7887486816
  0
LINE
  5
25C
100
AcDbEntity
  8
0
100
AcDbLine
 62
7
  6
CONTINUOUS
 10
14.1952400563
 20
10.7887486816
 11
14.3138161641
 21
10.7887486816
  0
LINE
  5
25D
100
AcDbEntity
  8
0
100
AcDbLine
 62
7
  6
CONTINUOUS
 10
14.536032624
 20
10.7887486816
 11
14.6546087319
 21
10.7887486816
  0
LINE
  5
25E
100
AcDbEntity
  8
0
100
AcDbLine
 62
7
  6
CONTINUOUS
 10
14.8768251918
 20
10.7887486816
 11
14.9954012997
 21
10.7887486816
  0
LINE
  5
25F
100
AcDbEntity
  8
0
100
AcDbLine
 62
7
  6
CONTINUOUS
 10
15.2176177596
 20
10.7887486816
 11
15.3361938675
 21
10.7887486816
  0
LINE
  5
260
100
AcDbEntity
  8
0
100
AcDbLine
 62
7
  6
CONTINUOUS
 10
15.5584103274
 20
10.7887486816
 11
15.6769864352
 21
10.7887486816
  0
LINE
  5
261
100
AcDbEntity
  8
0
100
AcDbLine
 62
7
  6
CONTINUOUS
 10
15.8992028952
 20
10.7887486816
 11
16.017779003
 21
10.7887486816
  0
LINE
  5
262
100
AcDbEntity
  8
0
100
AcDbLine
 62
7
  6
CONTINUOUS
 10
16.239995463
 20
10.7887486816
 11
16.3585715708
 21
10.7887486816
  0
LINE
  5
263
100
AcDbEntity
  8
0
100
AcDbLine
 62
7
  6
CONTINUOUS
 10
16.5807880307
 20
10.7887486816
 11
16.6993641386
 21
10.7887486816
  0
LINE
  5
264
100
AcDbEntity
  8
0
100
AcDbLine
 62
7
  6
CONTINUOUS
 10
16.9215805985
 20
10.7887486816
 11
17.0401567064
 21
10.7887486816
  0
LINE
  5
265
100
AcDbEntity
  8
0
100
AcDbLine
 62
7
  6
CONTINUOUS
 10
13.9975933437
 20
10.8055982723
 11
13.9824512041
 21
10.9959520043
  0
LINE
  5
266
100
AcDbEntity
  8
0
100
AcDbLine
 62
7
  6
CONTINUOUS
 10
13.3168932929
 20
10.8053247604
 11
13.3566784511
 21
10.9340695793
  0
LINE
  5
267
100
AcDbEntity
  8
0
100
AcDbLine
 62
7
  6
CONTINUOUS
 10
14.6640363396
 20
10.9959520043
 11
14.8357182882
 21
10.8055982723
  0
LINE
  5
268
100
AcDbEntity
  8
0
100
AcDbLine
 62
7
  6
CONTINUOUS
 10
14.3383859114
 20
10.8055982723
 11
14.3232437719
 21
10.9959520043
  0
LINE
  5
269
100
AcDbEntity
  8
0
100
AcDbLine
 62
7
  6
CONTINUOUS
 10
13.9970834741
 20
10.8008253729
 11
13.9975933437
 21
10.8055982723
  0
LINE
  5
26A
100
AcDbEntity
  8
0
100
AcDbLine
 62
7
  6
CONTINUOUS
 10
13.6576858607
 20
10.8053247604
 11
13.6974710188
 21
10.9340695793
  0
LINE
  5
26B
100
AcDbEntity
  8
0
100
AcDbLine
 62
7
  6
CONTINUOUS
 10
16.998744003
 20
11.0995536657
 11
12.9092331896
 21
11.0995536657
  0
LINE
  5
26C
100
AcDbEntity
  8
0
100
AcDbLine
 62
7
  6
CONTINUOUS
 10
15.0048289074
 20
10.9959520043
 11
15.176510856
 21
10.8055982723
  0
LINE
  5
26D
100
AcDbEntity
  8
0
100
AcDbLine
 62
7
  6
CONTINUOUS
 10
15.3456214752
 20
10.9959520043
 11
15.5173034238
 21
10.8055982723
  0
LINE
  5
26E
100
AcDbEntity
  8
0
100
AcDbLine
 62
7
  6
CONTINUOUS
 10
14.6791784792
 20
10.8055982723
 11
14.6640363396
 21
10.9959520043
  0
LINE
  5
26F
100
AcDbEntity
  8
0
100
AcDbLine
 62
7
  6
CONTINUOUS
 10
14.3378760419
 20
10.8008253729
 11
14.3383859114
 21
10.8055982723
  0
LINE
  5
270
100
AcDbEntity
  8
0
100
AcDbLine
 62
7
  6
CONTINUOUS
 10
13.9984784285
 20
10.8053247604
 11
14.0382635866
 21
10.9340695793
  0
LINE
  5
271
100
AcDbEntity
  8
0
100
AcDbLine
 62
7
  6
CONTINUOUS
 10
15.686414043
 20
10.9959520043
 11
15.8580959915
 21
10.8055982723
  0
LINE
  5
272
100
AcDbEntity
  8
0
100
AcDbLine
 62
7
  6
CONTINUOUS
 10
14.6786686096
 20
10.8008253729
 11
14.6791784792
 21
10.8055982723
  0
LINE
  5
273
100
AcDbEntity
  8
0
100
AcDbLine
 62
7
  6
CONTINUOUS
 10
16.0272066108
 20
10.9959520043
 11
16.1988885593
 21
10.8055982723
  0
LINE
  5
274
100
AcDbEntity
  8
0
100
AcDbLine
 62
7
  6
CONTINUOUS
 10
15.019971047
 20
10.8055982723
 11
15.0048289074
 21
10.9959520043
  0
LINE
  5
275
100
AcDbEntity
  8
0
100
AcDbLine
 62
7
  6
CONTINUOUS
 10
14.3392709963
 20
10.8053247604
 11
14.3790561544
 21
10.9340695793
  0
LINE
  5
276
100
AcDbEntity
  8
0
100
AcDbLine
 62
7
  6
CONTINUOUS
 10
15.3607636148
 20
10.8055982723
 11
15.3456214752
 21
10.9959520043
  0
LINE
  5
277
100
AcDbEntity
  8
0
100
AcDbLine
 62
7
  6
CONTINUOUS
 10
15.0194611774
 20
10.8008253729
 11
15.019971047
 21
10.8055982723
  0
LINE
  5
278
100
AcDbEntity
  8
0
100
AcDbLine
 62
7
  6
CONTINUOUS
 10
14.680063564
 20
10.8053247604
 11
14.7198487222
 21
10.9340695793
  0
LINE
  5
279
100
AcDbEntity
  8
0
100
AcDbLine
 62
7
  6
CONTINUOUS
 10
16.3679991786
 20
10.9959520043
 11
16.5396811271
 21
10.8055982723
  0
LINE
  5
27A
100
AcDbEntity
  8
0
100
AcDbLine
 62
7
  6
CONTINUOUS
 10
16.7087917463
 20
10.9959520043
 11
16.8804736949
 21
10.8055982723
  0
LINE
  5
27B
100
AcDbEntity
  8
0
100
AcDbLine
 62
7
  6
CONTINUOUS
 10
15.7015561826
 20
10.8055982723
 11
15.686414043
 21
10.9959520043
  0
LINE
  5
27C
100
AcDbEntity
  8
0
100
AcDbLine
 62
7
  6
CONTINUOUS
 10
15.3602537452
 20
10.8008253729
 11
15.3607636148
 21
10.8055982723
  0
LINE
  5
27D
100
AcDbEntity
  8
0
100
AcDbLine
 62
7
  6
CONTINUOUS
 10
15.0208561318
 20
10.8053247604
 11
15.06064129
 21
10.9340695793
  0
LINE
  5
27E
100
AcDbEntity
  8
0
100
AcDbLine
 62
7
  6
CONTINUOUS
 10
16.0423487503
 20
10.8055982723
 11
16.0272066108
 21
10.9959520043
  0
LINE
  5
27F
100
AcDbEntity
  8
0
100
AcDbLine
 62
7
  6
CONTINUOUS
 10
15.701046313
 20
10.8008253729
 11
15.7015561826
 21
10.8055982723
  0
LINE
  5
280
100
AcDbEntity
  8
0
100
AcDbLine
 62
7
  6
CONTINUOUS
 10
15.3616486996
 20
10.8053247604
 11
15.4014338577
 21
10.9340695793
  0
LINE
  5
281
100
AcDbEntity
  8
0
100
AcDbLine
 62
7
  6
CONTINUOUS
 10
16.3831413181
 20
10.8055982723
 11
16.3679991786
 21
10.9959520043
  0
LINE
  5
282
100
AcDbEntity
  8
0
100
AcDbLine
 62
7
  6
CONTINUOUS
 10
16.0418388808
 20
10.8008253729
 11
16.0423487503
 21
10.8055982723
  0
LINE
  5
283
100
AcDbEntity
  8
0
100
AcDbLine
 62
7
  6
CONTINUOUS
 10
15.7024412674
 20
10.8053247604
 11
15.7422264255
 21
10.9340695793
  0
LINE
  5
284
100
AcDbEntity
  8
0
100
AcDbLine
 62
7
  6
CONTINUOUS
 10
17.0495843141
 20
10.9959520043
 11
16.998744003
 21
11.0995536657
  0
LINE
  5
285
100
AcDbEntity
  8
0
100
AcDbLine
 62
7
  6
CONTINUOUS
 10
16.0432338352
 20
10.8053247604
 11
16.0830189933
 21
10.9340695793
  0
LINE
  5
286
100
AcDbEntity
  8
0
100
AcDbLine
 62
7
  6
CONTINUOUS
 10
16.7239338859
 20
10.8055982723
 11
16.7087917463
 21
10.9959520043
  0
LINE
  5
287
100
AcDbEntity
  8
0
100
AcDbLine
 62
7
  6
CONTINUOUS
 10
16.3826314485
 20
10.8008253729
 11
16.3831413181
 21
10.8055982723
  0
LINE
  5
288
100
AcDbEntity
  8
0
100
AcDbLine
 62
7
  6
CONTINUOUS
 10
17.0647264537
 20
10.8055982723
 11
17.0495843141
 21
10.9959520043
  0
LINE
  5
289
100
AcDbEntity
  8
0
100
AcDbLine
 62
7
  6
CONTINUOUS
 10
16.7234240163
 20
10.8008253729
 11
16.7239338859
 21
10.8055982723
  0
LINE
  5
28A
100
AcDbEntity
  8
0
100
AcDbLine
 62
7
  6
CONTINUOUS
 10
16.3840264029
 20
10.8053247604
 11
16.4238115611
 21
10.9340695793
  0
LINE
  5
28B
100
AcDbEntity
  8
0
100
AcDbLine
 62
7
  6
CONTINUOUS
 10
17.0642165841
 20
10.8008253729
 11
17.0647264537
 21
10.8055982723
  0
LINE
  5
28C
100
AcDbEntity
  8
0
100
AcDbLine
 62
7
  6
CONTINUOUS
 10
16.7248189707
 20
10.8053247604
 11
16.7646041289
 21
10.9340695793
  0
LINE
  5
28D
100
AcDbEntity
  8
0
100
AcDbLine
 62
7
  6
CONTINUOUS
 10
17.9670092966
 20
14.2328613042
 11
16.998744003
 21
11.0995536657
  0
LINE
  5
28E
100
AcDbEntity
  8
0
100
AcDbLine
 62
7
  6
CONTINUOUS
 10
13.8774984833
 20
14.2328613042
 11
17.9670092966
 21
14.2328613042
  0
LINE
  5
28F
100
AcDbEntity
  8
0
100
AcDbLine
 62
7
  6
CONTINUOUS
 10
18.0178496077
 20
14.1292596429
 11
17.0495843141
 21
10.9959520043
  0
LINE
  5
290
100
AcDbEntity
  8
0
100
AcDbLine
 62
7
  6
CONTINUOUS
 10
17.0656115385
 20
10.8053247604
 11
18.0324860222
 21
13.9341317362
  0
LINE
  5
291
100
AcDbEntity
  8
0
100
AcDbLine
 62
7
  6
CONTINUOUS
 10
18.0329917473
 20
13.9389059108
 11
18.0324818777
 21
13.9341330114
  0
LINE
  5
292
100
AcDbEntity
  8
0
100
AcDbLine
 62
7
  6
CONTINUOUS
 10
18.0329917473
 20
13.9389059108
 11
18.0178496077
 21
14.1292596429
  0
LINE
  5
293
100
AcDbEntity
  8
0
100
AcDbLine
 62
7
  6
CONTINUOUS
 10
18.0178496077
 20
14.1292596429
 11
17.9670092966
 21
14.2328613042
  0
ARC
  5
294
100
AcDbEntity
  8
0
100
AcDbCircle
 62
7
  6
CONTINUOUS
 10
4.0309979735
 20
5.3071198968
 40
0.037
100
AcDbArc
 50
195.5093345227
 51
270.0
  0
ARC
  5
295
100
AcDbEntity
  8
0
100
AcDbCircle
 62
7
  6
CONTINUOUS
 10
4.1597365789
 20
5.3071198968
 40
0.037
100
AcDbArc
 50
270.0
 51
344.4906654773
  0
ARC
  5
296
100
AcDbEntity
  8
0
100
AcDbCircle
 62
7
  6
CONTINUOUS
 10
4.4009979735
 20
5.3071198968
 40
0.037
100
AcDbArc
 50
195.5093345227
 51
270.0
  0
ARC
  5
297
100
AcDbEntity
  8
0
100
AcDbCircle
 62
7
  6
CONTINUOUS
 10
4.5297365789
 20
5.3071198968
 40
0.037
100
AcDbArc
 50
270.0
 51
344.4906654773
  0
ARC
  5
298
100
AcDbEntity
  8
0
100
AcDbCircle
 62
7
  6
CONTINUOUS
 10
4.7709979735
 20
5.3071198968
 40
0.037
100
AcDbArc
 50
195.5093345227
 51
270.0
  0
ARC
  5
299
100
AcDbEntity
  8
0
100
AcDbCircle
 62
7
  6
CONTINUOUS
 10
4.8997365789
 20
5.3071198968
 40
0.037
100
AcDbArc
 50
270.0
 51
344.4906654773
  0
ARC
  5
29A
100
AcDbEntity
  8
0
100
AcDbCircle
 62
7
  6
CONTINUOUS
 10
5.1409979735
 20
5.3071198968
 40
0.037
100
AcDbArc
 50
195.5093345227
 51
270.0
  0
ARC
  5
29B
100
AcDbEntity
  8
0
100
AcDbCircle
 62
7
  6
CONTINUOUS
 10
5.2697365789
 20
5.3071198968
 40
0.037
100
AcDbArc
 50
270.0
 51
344.4906654773
  0
ARC
  5
29C
100
AcDbEntity
  8
0
100
AcDbCircle
 62
7
  6
CONTINUOUS
 10
5.5109979735
 20
5.3071198968
 40
0.037
100
AcDbArc
 50
195.5093345227
 51
270.0
  0
ARC
  5
29D
100
AcDbEntity
  8
0
100
AcDbCircle
 62
7
  6
CONTINUOUS
 10
5.6397365789
 20
5.3071198968
 40
0.037
100
AcDbArc
 50
270.0
 51
344.4906654773
  0
ARC
  5
29E
100
AcDbEntity
  8
0
100
AcDbCircle
 62
7
  6
CONTINUOUS
 10
5.8809979735
 20
5.3071198968
 40
0.037
100
AcDbArc
 50
195.5093345227
 51
270.0
  0
ARC
  5
29F
100
AcDbEntity
  8
0
100
AcDbCircle
 62
7
  6
CONTINUOUS
 10
6.0097365789
 20
5.3071198968
 40
0.037
100
AcDbArc
 50
270.0
 51
344.4906654773
  0
ARC
  5
2A0
100
AcDbEntity
  8
0
100
AcDbCircle
 62
7
  6
CONTINUOUS
 10
6.2509979735
 20
5.3071198968
 40
0.037
100
AcDbArc
 50
195.5093345227
 51
270.0
  0
ARC
  5
2A1
100
AcDbEntity
  8
0
100
AcDbCircle
 62
7
  6
CONTINUOUS
 10
6.3797365789
 20
5.3071198968
 40
0.037
100
AcDbArc
 50
270.0
 51
344.4906654773
  0
ARC
  5
2A2
100
AcDbEntity
  8
0
100
AcDbCircle
 62
7
  6
CONTINUOUS
 10
6.6209979735
 20
5.3071198968
 40
0.037
100
AcDbArc
 50
195.5093345227
 51
270.0
  0
ARC
  5
2A3
100
AcDbEntity
  8
0
100
AcDbCircle
 62
7
  6
CONTINUOUS
 10
6.7497365789
 20
5.3071198968
 40
0.037
100
AcDbArc
 50
270.0
 51
344.4906654773
  0
ARC
  5
2A4
100
AcDbEntity
  8
0
100
AcDbCircle
 62
7
  6
CONTINUOUS
 10
6.9909979735
 20
5.3071198968
 40
0.037
100
AcDbArc
 50
195.5093345227
 51
270.0
  0
ARC
  5
2A5
100
AcDbEntity
  8
0
100
AcDbCircle
 62
7
  6
CONTINUOUS
 10
7.1197365789
 20
5.3071198968
 40
0.037
100
AcDbArc
 50
270.0
 51
344.4906654773
  0
ARC
  5
2A6
100
AcDbEntity
  8
0
100
AcDbCircle
 62
7
  6
CONTINUOUS
 10
7.3609979735
 20
5.3071198968
 40
0.037
100
AcDbArc
 50
195.5093345227
 51
270.0
  0
ARC
  5
2A7
100
AcDbEntity
  8
0
100
AcDbCircle
 62
7
  6
CONTINUOUS
 10
7.4897365789
 20
5.3071198968
 40
0.037
100
AcDbArc
 50
270.0
 51
344.4906654773
  0
ARC
  5
2A8
100
AcDbEntity
  8
0
100
AcDbCircle
 62
7
  6
CONTINUOUS
 10
7.7309979735
 20
5.3071198968
 40
0.037
100
AcDbArc
 50
195.5093345227
 51
270.0
  0
ARC
  5
2A9
100
AcDbEntity
  8
0
100
AcDbCircle
 62
7
  6
CONTINUOUS
 10
7.8597365789
 20
5.3071198968
 40
0.037
100
AcDbArc
 50
270.0
 51
344.4906654773
  0
ARC
  5
2AA
100
AcDbEntity
  8
0
100
AcDbCircle
 62
7
  6
CONTINUOUS
 10
8.1009979735
 20
5.3071198968
 40
0.037
100
AcDbArc
 50
195.5093345227
 51
270.0
  0
ARC
  5
2AB
100
AcDbEntity
  8
0
100
AcDbCircle
 62
7
  6
CONTINUOUS
 10
8.2297365789
 20
5.3071198968
 40
0.037
100
AcDbArc
 50
270.0
 51
344.4906654773
  0
SPLINE
  5
2AC
100
AcDbEntity
  8
0
100
AcDbSpline
 62
7
  6
CONTINUOUS
 70
0
 71
3
 72
14
 73
10
 74
0
 42
0.0000001
 43
0.0000001
 44
0.0000000001
 40
0.0
 40
0.0
 40
0.0
 40
0.0
 40
0.1556341877
 40
0.30326687
 40
0.5688173267
 40
0.6871248181
 40
0.7968632571
 40
0.900161614
 40
1.0
 40
1.0
 40
1.0
 40
1.0
 10
17.0401567064
 20
10.7887486816
 30
0.0
 10
17.0416443763
 20
10.7887486816
 30
0.0
 10
17.0445466604
 20
10.7888786086
 30
0.0
 10
17.0499306232
 20
10.7896551353
 30
0.0
 10
17.0548450046
 20
10.7912003584
 30
0.0
 10
17.0589152885
 20
10.7936255276
 30
0.0
 10
17.0613186626
 20
10.795718734
 30
0.0
 10
17.0631412811
 20
10.7981184847
 30
0.0
 10
17.0639378085
 20
10.7999126624
 30
0.0
 10
17.0642189017
 20
10.8008246573
 30
0.0
  0
SPLINE
  5
2AD
100
AcDbEntity
  8
0
100
AcDbSpline
 62
7
  6
CONTINUOUS
 70
0
 71
3
 72
15
 73
11
 74
0
 42
0.0000001
 43
0.0000001
 44
0.0000000001
 40
0.0
 40
0.0
 40
0.0
 40
0.0
 40
0.1105316277
 40
0.2292454789
 40
0.3542357314
 40
0.4835315856
 40
0.6150364284
 40
0.7465370095
 40
0.8757296059
 40
1.0
 40
1.0
 40
1.0
 40
1.0
 10
16.8804736949
 20
10.8055982723
 30
0.0
 10
16.8815982528
 20
10.8043514097
 30
0.0
 10
16.8841250712
 20
10.801937581
 30
0.0
 10
16.8884413512
 20
10.7987064082
 30
0.0
 10
16.8933277485
 20
10.7958173903
 30
0.0
 10
16.8986487639
 20
10.7933402102
 30
0.0
 10
16.9042720195
 20
10.7913414368
 30
0.0
 10
16.9100537948
 20
10.789867613
 30
0.0
 10
16.9158403664
 20
10.7889661684
 30
0.0
 10
16.919692818
 20
10.7887486816
 30
0.0
 10
16.9215805985
 20
10.7887486816
 30
0.0
  0
SPLINE
  5
2AE
100
AcDbEntity
  8
0
100
AcDbSpline
 62
7
  6
CONTINUOUS
 70
0
 71
3
 72
14
 73
10
 74
0
 42
0.0000001
 43
0.0000001
 44
0.0000000001
 40
0.0
 40
0.0
 40
0.0
 40
0.0
 40
0.1556341877
 40
0.30326687
 40
0.5688173267
 40
0.6871248181
 40
0.7968632571
 40
0.900161614
 40
1.0
 40
1.0
 40
1.0
 40
1.0
 10
16.6993641386
 20
10.7887486816
 30
0.0
 10
16.7008518086
 20
10.7887486816
 30
0.0
 10
16.7037540927
 20
10.7888786086
 30
0.0
 10
16.7091380554
 20
10.7896551353
 30
0.0
 10
16.7140524369
 20
10.7912003584
 30
0.0
 10
16.7181227207
 20
10.7936255276
 30
0.0
 10
16.7205260949
 20
10.795718734
 30
0.0
 10
16.7223487133
 20
10.7981184847
 30
0.0
 10
16.7231452407
 20
10.7999126624
 30
0.0
 10
16.723426334
 20
10.8008246573
 30
0.0
  0
SPLINE
  5
2AF
100
AcDbEntity
  8
0
100
AcDbSpline
 62
7
  6
CONTINUOUS
 70
0
 71
3
 72
15
 73
11
 74
0
 42
0.0000001
 43
0.0000001
 44
0.0000000001
 40
0.0
 40
0.0
 40
0.0
 40
0.0
 40
0.1105316277
 40
0.2292454789
 40
0.3542357314
 40
0.4835315856
 40
0.6150364284
 40
0.7465370095
 40
0.8757296059
 40
1.0
 40
1.0
 40
1.0
 40
1.0
 10
16.5396811271
 20
10.8055982723
 30
0.0
 10
16.540805685
 20
10.8043514097
 30
0.0
 10
16.5433325034
 20
10.801937581
 30
0.0
 10
16.5476487834
 20
10.7987064082
 30
0.0
 10
16.5525351807
 20
10.7958173903
 30
0.0
 10
16.5578561961
 20
10.7933402102
 30
0.0
 10
16.5634794518
 20
10.7913414368
 30
0.0
 10
16.569261227
 20
10.789867613
 30
0.0
 10
16.5750477986
 20
10.7889661684
 30
0.0
 10
16.5789002502
 20
10.7887486816
 30
0.0
 10
16.5807880307
 20
10.7887486816
 30
0.0
  0
SPLINE
  5
2B0
100
AcDbEntity
  8
0
100
AcDbSpline
 62
7
  6
CONTINUOUS
 70
0
 71
3
 72
14
 73
10
 74
0
 42
0.0000001
 43
0.0000001
 44
0.0000000001
 40
0.0
 40
0.0
 40
0.0
 40
0.0
 40
0.1556341877
 40
0.30326687
 40
0.5688173267
 40
0.6871248181
 40
0.7968632571
 40
0.900161614
 40
1.0
 40
1.0
 40
1.0
 40
1.0
 10
16.3585715708
 20
10.7887486816
 30
0.0
 10
16.3600592408
 20
10.7887486816
 30
0.0
 10
16.3629615249
 20
10.7888786086
 30
0.0
 10
16.3683454877
 20
10.7896551353
 30
0.0
 10
16.3732598691
 20
10.7912003584
 30
0.0
 10
16.3773301529
 20
10.7936255276
 30
0.0
 10
16.3797335271
 20
10.795718734
 30
0.0
 10
16.3815561455
 20
10.7981184847
 30
0.0
 10
16.3823526729
 20
10.7999126624
 30
0.0
 10
16.3826337662
 20
10.8008246573
 30
0.0
  0
SPLINE
  5
2B1
100
AcDbEntity
  8
0
100
AcDbSpline
 62
7
  6
CONTINUOUS
 70
0
 71
3
 72
15
 73
11
 74
0
 42
0.0000001
 43
0.0000001
 44
0.0000000001
 40
0.0
 40
0.0
 40
0.0
 40
0.0
 40
0.1105316277
 40
0.2292454789
 40
0.3542357314
 40
0.4835315856
 40
0.6150364284
 40
0.7465370095
 40
0.8757296059
 40
1.0
 40
1.0
 40
1.0
 40
1.0
 10
16.1988885593
 20
10.8055982723
 30
0.0
 10
16.2000131172
 20
10.8043514097
 30
0.0
 10
16.2025399356
 20
10.801937581
 30
0.0
 10
16.2068562156
 20
10.7987064082
 30
0.0
 10
16.2117426129
 20
10.7958173903
 30
0.0
 10
16.2170636283
 20
10.7933402102
 30
0.0
 10
16.222686884
 20
10.7913414368
 30
0.0
 10
16.2284686593
 20
10.789867613
 30
0.0
 10
16.2342552308
 20
10.7889661684
 30
0.0
 10
16.2381076824
 20
10.7887486816
 30
0.0
 10
16.239995463
 20
10.7887486816
 30
0.0
  0
SPLINE
  5
2B2
100
AcDbEntity
  8
0
100
AcDbSpline
 62
7
  6
CONTINUOUS
 70
0
 71
3
 72
14
 73
10
 74
0
 42
0.0000001
 43
0.0000001
 44
0.0000000001
 40
0.0
 40
0.0
 40
0.0
 40
0.0
 40
0.1556341877
 40
0.30326687
 40
0.5688173267
 40
0.6871248181
 40
0.7968632571
 40
0.900161614
 40
1.0
 40
1.0
 40
1.0
 40
1.0
 10
16.017779003
 20
10.7887486816
 30
0.0
 10
16.019266673
 20
10.7887486816
 30
0.0
 10
16.0221689571
 20
10.7888786086
 30
0.0
 10
16.0275529199
 20
10.7896551353
 30
0.0
 10
16.0324673013
 20
10.7912003584
 30
0.0
 10
16.0365375852
 20
10.7936255276
 30
0.0
 10
16.0389409593
 20
10.795718734
 30
0.0
 10
16.0407635778
 20
10.7981184847
 30
0.0
 10
16.0415601051
 20
10.7999126624
 30
0.0
 10
16.0418411984
 20
10.8008246573
 30
0.0
  0
SPLINE
  5
2B3
100
AcDbEntity
  8
0
100
AcDbSpline
 62
7
  6
CONTINUOUS
 70
0
 71
3
 72
15
 73
11
 74
0
 42
0.0000001
 43
0.0000001
 44
0.0000000001
 40
0.0
 40
0.0
 40
0.0
 40
0.0
 40
0.1105316277
 40
0.2292454789
 40
0.3542357314
 40
0.4835315856
 40
0.6150364284
 40
0.7465370095
 40
0.8757296059
 40
1.0
 40
1.0
 40
1.0
 40
1.0
 10
15.8580959915
 20
10.8055982723
 30
0.0
 10
15.8592205495
 20
10.8043514097
 30
0.0
 10
15.8617473678
 20
10.801937581
 30
0.0
 10
15.8660636478
 20
10.7987064082
 30
0.0
 10
15.8709500451
 20
10.7958173903
 30
0.0
 10
15.8762710605
 20
10.7933402102
 30
0.0
 10
15.8818943162
 20
10.7913414368
 30
0.0
 10
15.8876760915
 20
10.789867613
 30
0.0
 10
15.893462663
 20
10.7889661684
 30
0.0
 10
15.8973151146
 20
10.7887486816
 30
0.0
 10
15.8992028952
 20
10.7887486816
 30
0.0
  0
SPLINE
  5
2B4
100
AcDbEntity
  8
0
100
AcDbSpline
 62
7
  6
CONTINUOUS
 70
0
 71
3
 72
14
 73
10
 74
0
 42
0.0000001
 43
0.0000001
 44
0.0000000001
 40
0.0
 40
0.0
 40
0.0
 40
0.0
 40
0.1556341877
 40
0.30326687
 40
0.5688173267
 40
0.6871248181
 40
0.7968632571
 40
0.900161614
 40
1.0
 40
1.0
 40
1.0
 40
1.0
 10
15.6769864352
 20
10.7887486816
 30
0.0
 10
15.6784741052
 20
10.7887486816
 30
0.0
 10
15.6813763893
 20
10.7888786086
 30
0.0
 10
15.6867603521
 20
10.7896551353
 30
0.0
 10
15.6916747335
 20
10.7912003584
 30
0.0
 10
15.6957450174
 20
10.7936255276
 30
0.0
 10
15.6981483915
 20
10.795718734
 30
0.0
 10
15.69997101
 20
10.7981184847
 30
0.0
 10
15.7007675374
 20
10.7999126624
 30
0.0
 10
15.7010486306
 20
10.8008246573
 30
0.0
  0
SPLINE
  5
2B5
100
AcDbEntity
  8
0
100
AcDbSpline
 62
7
  6
CONTINUOUS
 70
0
 71
3
 72
15
 73
11
 74
0
 42
0.0000001
 43
0.0000001
 44
0.0000000001
 40
0.0
 40
0.0
 40
0.0
 40
0.0
 40
0.1105316277
 40
0.2292454789
 40
0.3542357314
 40
0.4835315856
 40
0.6150364284
 40
0.7465370095
 40
0.8757296059
 40
1.0
 40
1.0
 40
1.0
 40
1.0
 10
15.5173034238
 20
10.8055982723
 30
0.0
 10
15.5184279817
 20
10.8043514097
 30
0.0
 10
15.5209548
 20
10.801937581
 30
0.0
 10
15.52527108
 20
10.7987064082
 30
0.0
 10
15.5301574773
 20
10.7958173903
 30
0.0
 10
15.5354784928
 20
10.7933402102
 30
0.0
 10
15.5411017484
 20
10.7913414368
 30
0.0
 10
15.5468835237
 20
10.789867613
 30
0.0
 10
15.5526700953
 20
10.7889661684
 30
0.0
 10
15.5565225468
 20
10.7887486816
 30
0.0
 10
15.5584103274
 20
10.7887486816
 30
0.0
  0
SPLINE
  5
2B6
100
AcDbEntity
  8
0
100
AcDbSpline
 62
7
  6
CONTINUOUS
 70
0
 71
3
 72
14
 73
10
 74
0
 42
0.0000001
 43
0.0000001
 44
0.0000000001
 40
0.0
 40
0.0
 40
0.0
 40
0.0
 40
0.1556341877
 40
0.30326687
 40
0.5688173267
 40
0.6871248181
 40
0.7968632571
 40
0.900161614
 40
1.0
 40
1.0
 40
1.0
 40
1.0
 10
15.3361938675
 20
10.7887486816
 30
0.0
 10
15.3376815374
 20
10.7887486816
 30
0.0
 10
15.3405838215
 20
10.7888786086
 30
0.0
 10
15.3459677843
 20
10.7896551353
 30
0.0
 10
15.3508821657
 20
10.7912003584
 30
0.0
 10
15.3549524496
 20
10.7936255276
 30
0.0
 10
15.3573558237
 20
10.795718734
 30
0.0
 10
15.3591784422
 20
10.7981184847
 30
0.0
 10
15.3599749696
 20
10.7999126624
 30
0.0
 10
15.3602560628
 20
10.8008246573
 30
0.0
  0
SPLINE
  5
2B7
100
AcDbEntity
  8
0
100
AcDbSpline
 62
7
  6
CONTINUOUS
 70
0
 71
3
 72
15
 73
11
 74
0
 42
0.0000001
 43
0.0000001
 44
0.0000000001
 40
0.0
 40
0.0
 40
0.0
 40
0.0
 40
0.1105316277
 40
0.2292454789
 40
0.3542357314
 40
0.4835315856
 40
0.6150364284
 40
0.7465370095
 40
0.8757296059
 40
1.0
 40
1.0
 40
1.0
 40
1.0
 10
15.176510856
 20
10.8055982723
 30
0.0
 10
15.1776354139
 20
10.8043514097
 30
0.0
 10
15.1801622322
 20
10.801937581
 30
0.0
 10
15.1844785123
 20
10.7987064082
 30
0.0
 10
15.1893649096
 20
10.7958173903
 30
0.0
 10
15.194685925
 20
10.7933402102
 30
0.0
 10
15.2003091806
 20
10.7913414368
 30
0.0
 10
15.2060909559
 20
10.789867613
 30
0.0
 10
15.2118775275
 20
10.7889661684
 30
0.0
 10
15.215729979
 20
10.7887486816
 30
0.0
 10
15.2176177596
 20
10.7887486816
 30
0.0
  0
SPLINE
  5
2B8
100
AcDbEntity
  8
0
100
AcDbSpline
 62
7
  6
CONTINUOUS
 70
0
 71
3
 72
14
 73
10
 74
0
 42
0.0000001
 43
0.0000001
 44
0.0000000001
 40
0.0
 40
0.0
 40
0.0
 40
0.0
 40
0.1556341877
 40
0.30326687
 40
0.5688173267
 40
0.6871248181
 40
0.7968632571
 40
0.900161614
 40
1.0
 40
1.0
 40
1.0
 40
1.0
 10
14.9954012997
 20
10.7887486816
 30
0.0
 10
14.9968889697
 20
10.7887486816
 30
0.0
 10
14.9997912538
 20
10.7888786086
 30
0.0
 10
15.0051752165
 20
10.7896551353
 30
0.0
 10
15.010089598
 20
10.7912003584
 30
0.0
 10
15.0141598818
 20
10.7936255276
 30
0.0
 10
15.016563256
 20
10.795718734
 30
0.0
 10
15.0183858744
 20
10.7981184847
 30
0.0
 10
15.0191824018
 20
10.7999126624
 30
0.0
 10
15.019463495
 20
10.8008246573
 30
0.0
  0
SPLINE
  5
2B9
100
AcDbEntity
  8
0
100
AcDbSpline
 62
7
  6
CONTINUOUS
 70
0
 71
3
 72
15
 73
11
 74
0
 42
0.0000001
 43
0.0000001
 44
0.0000000001
 40
0.0
 40
0.0
 40
0.0
 40
0.0
 40
0.1105316277
 40
0.2292454789
 40
0.3542357314
 40
0.4835315856
 40
0.6150364284
 40
0.7465370095
 40
0.8757296059
 40
1.0
 40
1.0
 40
1.0
 40
1.0
 10
14.8357182882
 20
10.8055982723
 30
0.0
 10
14.8368428461
 20
10.8043514097
 30
0.0
 10
14.8393696645
 20
10.801937581
 30
0.0
 10
14.8436859445
 20
10.7987064082
 30
0.0
 10
14.8485723418
 20
10.7958173903
 30
0.0
 10
14.8538933572
 20
10.7933402102
 30
0.0
 10
14.8595166129
 20
10.7913414368
 30
0.0
 10
14.8652983881
 20
10.789867613
 30
0.0
 10
14.8710849597
 20
10.7889661684
 30
0.0
 10
14.8749374113
 20
10.7887486816
 30
0.0
 10
14.8768251918
 20
10.7887486816
 30
0.0
  0
SPLINE
  5
2BA
100
AcDbEntity
  8
0
100
AcDbSpline
 62
7
  6
CONTINUOUS
 70
0
 71
3
 72
14
 73
10
 74
0
 42
0.0000001
 43
0.0000001
 44
0.0000000001
 40
0.0
 40
0.0
 40
0.0
 40
0.0
 40
0.1556341877
 40
0.30326687
 40
0.5688173267
 40
0.6871248181
 40
0.7968632571
 40
0.900161614
 40
1.0
 40
1.0
 40
1.0
 40
1.0
 10
14.6546087319
 20
10.7887486816
 30
0.0
 10
14.6560964019
 20
10.7887486816
 30
0.0
 10
14.658998686
 20
10.7888786086
 30
0.0
 10
14.6643826487
 20
10.7896551353
 30
0.0
 10
14.6692970302
 20
10.7912003584
 30
0.0
 10
14.673367314
 20
10.7936255276
 30
0.0
 10
14.6757706882
 20
10.795718734
 30
0.0
 10
14.6775933066
 20
10.7981184847
 30
0.0
 10
14.678389834
 20
10.7999126624
 30
0.0
 10
14.6786709273
 20
10.8008246573
 30
0.0
  0
SPLINE
  5
2BB
100
AcDbEntity
  8
0
100
AcDbSpline
 62
7
  6
CONTINUOUS
 70
0
 71
3
 72
15
 73
11
 74
0
 42
0.0000001
 43
0.0000001
 44
0.0000000001
 40
0.0
 40
0.0
 40
0.0
 40
0.0
 40
0.1105316277
 40
0.2292454789
 40
0.3542357314
 40
0.4835315856
 40
0.6150364284
 40
0.7465370095
 40
0.8757296059
 40
1.0
 40
1.0
 40
1.0
 40
1.0
 10
14.4949257204
 20
10.8055982723
 30
0.0
 10
14.4960502783
 20
10.8043514097
 30
0.0
 10
14.4985770967
 20
10.801937581
 30
0.0
 10
14.5028933767
 20
10.7987064082
 30
0.0
 10
14.507779774
 20
10.7958173903
 30
0.0
 10
14.5131007894
 20
10.7933402102
 30
0.0
 10
14.5187240451
 20
10.7913414368
 30
0.0
 10
14.5245058204
 20
10.789867613
 30
0.0
 10
14.5302923919
 20
10.7889661684
 30
0.0
 10
14.5341448435
 20
10.7887486816
 30
0.0
 10
14.536032624
 20
10.7887486816
 30
0.0
  0
SPLINE
  5
2BC
100
AcDbEntity
  8
0
100
AcDbSpline
 62
7
  6
CONTINUOUS
 70
0
 71
3
 72
14
 73
10
 74
0
 42
0.0000001
 43
0.0000001
 44
0.0000000001
 40
0.0
 40
0.0
 40
0.0
 40
0.0
 40
0.1556341877
 40
0.30326687
 40
0.5688173267
 40
0.6871248181
 40
0.7968632571
 40
0.900161614
 40
1.0
 40
1.0
 40
1.0
 40
1.0
 10
14.3138161641
 20
10.7887486816
 30
0.0
 10
14.3153038341
 20
10.7887486816
 30
0.0
 10
14.3182061182
 20
10.7888786086
 30
0.0
 10
14.323590081
 20
10.7896551353
 30
0.0
 10
14.3285044624
 20
10.7912003584
 30
0.0
 10
14.3325747462
 20
10.7936255276
 30
0.0
 10
14.3349781204
 20
10.795718734
 30
0.0
 10
14.3368007389
 20
10.7981184847
 30
0.0
 10
14.3375972662
 20
10.7999126624
 30
0.0
 10
14.3378783595
 20
10.8008246573
 30
0.0
  0
SPLINE
  5
2BD
100
AcDbEntity
  8
0
100
AcDbSpline
 62
7
  6
CONTINUOUS
 70
0
 71
3
 72
15
 73
11
 74
0
 42
0.0000001
 43
0.0000001
 44
0.0000000001
 40
0.0
 40
0.0
 40
0.0
 40
0.0
 40
0.1105316277
 40
0.2292454789
 40
0.3542357314
 40
0.4835315856
 40
0.6150364284
 40
0.7465370095
 40
0.8757296059
 40
1.0
 40
1.0
 40
1.0
 40
1.0
 10
14.1541331526
 20
10.8055982723
 30
0.0
 10
14.1552577106
 20
10.8043514097
 30
0.0
 10
14.1577845289
 20
10.801937581
 30
0.0
 10
14.1621008089
 20
10.7987064082
 30
0.0
 10
14.1669872062
 20
10.7958173903
 30
0.0
 10
14.1723082216
 20
10.7933402102
 30
0.0
 10
14.1779314773
 20
10.7913414368
 30
0.0
 10
14.1837132526
 20
10.789867613
 30
0.0
 10
14.1894998241
 20
10.7889661684
 30
0.0
 10
14.1933522757
 20
10.7887486816
 30
0.0
 10
14.1952400563
 20
10.7887486816
 30
0.0
  0
SPLINE
  5
2BE
100
AcDbEntity
  8
0
100
AcDbSpline
 62
7
  6
CONTINUOUS
 70
0
 71
3
 72
14
 73
10
 74
0
 42
0.0000001
 43
0.0000001
 44
0.0000000001
 40
0.0
 40
0.0
 40
0.0
 40
0.0
 40
0.1556341877
 40
0.30326687
 40
0.5688173267
 40
0.6871248181
 40
0.7968632571
 40
0.900161614
 40
1.0
 40
1.0
 40
1.0
 40
1.0
 10
13.9730235963
 20
10.7887486816
 30
0.0
 10
13.9745112663
 20
10.7887486816
 30
0.0
 10
13.9774135504
 20
10.7888786086
 30
0.0
 10
13.9827975132
 20
10.7896551353
 30
0.0
 10
13.9877118946
 20
10.7912003584
 30
0.0
 10
13.9917821785
 20
10.7936255276
 30
0.0
 10
13.9941855526
 20
10.795718734
 30
0.0
 10
13.9960081711
 20
10.7981184847
 30
0.0
 10
13.9968046985
 20
10.7999126624
 30
0.0
 10
13.9970857917
 20
10.8008246573
 30
0.0
  0
SPLINE
  5
2BF
100
AcDbEntity
  8
0
100
AcDbSpline
 62
7
  6
CONTINUOUS
 70
0
 71
3
 72
15
 73
11
 74
0
 42
0.0000001
 43
0.0000001
 44
0.0000000001
 40
0.0
 40
0.0
 40
0.0
 40
0.0
 40
0.1105316277
 40
0.2292454789
 40
0.3542357314
 40
0.4835315856
 40
0.6150364284
 40
0.7465370095
 40
0.8757296059
 40
1.0
 40
1.0
 40
1.0
 40
1.0
 10
13.8133405849
 20
10.8055982723
 30
0.0
 10
13.8144651428
 20
10.8043514097
 30
0.0
 10
13.8169919611
 20
10.801937581
 30
0.0
 10
13.8213082411
 20
10.7987064082
 30
0.0
 10
13.8261946384
 20
10.7958173903
 30
0.0
 10
13.8315156539
 20
10.7933402102
 30
0.0
 10
13.8371389095
 20
10.7913414368
 30
0.0
 10
13.8429206848
 20
10.789867613
 30
0.0
 10
13.8487072563
 20
10.7889661684
 30
0.0
 10
13.8525597079
 20
10.7887486816
 30
0.0
 10
13.8544474885
 20
10.7887486816
 30
0.0
  0
SPLINE
  5
2C0
100
AcDbEntity
  8
0
100
AcDbSpline
 62
7
  6
CONTINUOUS
 70
0
 71
3
 72
14
 73
10
 74
0
 42
0.0000001
 43
0.0000001
 44
0.0000000001
 40
0.0
 40
0.0
 40
0.0
 40
0.0
 40
0.1556341877
 40
0.30326687
 40
0.5688173267
 40
0.6871248181
 40
0.7968632571
 40
0.900161614
 40
1.0
 40
1.0
 40
1.0
 40
1.0
 10
13.6322310286
 20
10.7887486816
 30
0.0
 10
13.6337186985
 20
10.7887486816
 30
0.0
 10
13.6366209826
 20
10.7888786086
 30
0.0
 10
13.6420049454
 20
10.7896551353
 30
0.0
 10
13.6469193268
 20
10.7912003584
 30
0.0
 10
13.6509896107
 20
10.7936255276
 30
0.0
 10
13.6533929848
 20
10.795718734
 30
0.0
 10
13.6552156033
 20
10.7981184847
 30
0.0
 10
13.6560121307
 20
10.7999126624
 30
0.0
 10
13.6562932239
 20
10.8008246573
 30
0.0
  0
SPLINE
  5
2C1
100
AcDbEntity
  8
0
100
AcDbSpline
 62
7
  6
CONTINUOUS
 70
0
 71
3
 72
15
 73
11
 74
0
 42
0.0000001
 43
0.0000001
 44
0.0000000001
 40
0.0
 40
0.0
 40
0.0
 40
0.0
 40
0.1105316277
 40
0.2292454789
 40
0.3542357314
 40
0.4835315856
 40
0.6150364284
 40
0.7465370095
 40
0.8757296059
 40
1.0
 40
1.0
 40
1.0
 40
1.0
 10
13.4725480171
 20
10.8055982723
 30
0.0
 10
13.473672575
 20
10.8043514097
 30
0.0
 10
13.4761993933
 20
10.801937581
 30
0.0
 10
13.4805156734
 20
10.7987064082
 30
0.0
 10
13.4854020707
 20
10.7958173903
 30
0.0
 10
13.4907230861
 20
10.7933402102
 30
0.0
 10
13.4963463417
 20
10.7913414368
 30
0.0
 10
13.502128117
 20
10.789867613
 30
0.0
 10
13.5079146886
 20
10.7889661684
 30
0.0
 10
13.5117671401
 20
10.7887486816
 30
0.0
 10
13.5136549207
 20
10.7887486816
 30
0.0
  0
SPLINE
  5
2C2
100
AcDbEntity
  8
0
100
AcDbSpline
 62
7
  6
CONTINUOUS
 70
0
 71
3
 72
14
 73
10
 74
0
 42
0.0000001
 43
0.0000001
 44
0.0000000001
 40
0.0
 40
0.0
 40
0.0
 40
0.0
 40
0.1556341877
 40
0.30326687
 40
0.5688173267
 40
0.6871248181
 40
0.7968632571
 40
0.900161614
 40
1.0
 40
1.0
 40
1.0
 40
1.0
 10
13.2914384608
 20
10.7887486816
 30
0.0
 10
13.2929261308
 20
10.7887486816
 30
0.0
 10
13.2958284149
 20
10.7888786086
 30
0.0
 10
13.3012123776
 20
10.7896551353
 30
0.0
 10
13.306126759
 20
10.7912003584
 30
0.0
 10
13.3101970429
 20
10.7936255276
 30
0.0
 10
13.3126004171
 20
10.795718734
 30
0.0
 10
13.3144230355
 20
10.7981184847
 30
0.0
 10
13.3152195629
 20
10.7999126624
 30
0.0
 10
13.3155006561
 20
10.8008246573
 30
0.0
  0
SPLINE
  5
2C3
100
AcDbEntity
  8
0
100
AcDbSpline
 62
7
  6
CONTINUOUS
 70
0
 71
3
 72
15
 73
11
 74
0
 42
0.0000001
 43
0.0000001
 44
0.0000000001
 40
0.0
 40
0.0
 40
0.0
 40
0.0
 40
0.1105316277
 40
0.2292454789
 40
0.3542357314
 40
0.4835315856
 40
0.6150364284
 40
0.7465370095
 40
0.8757296059
 40
1.0
 40
1.0
 40
1.0
 40
1.0
 10
13.1317554493
 20
10.8055982723
 30
0.0
 10
13.1328800072
 20
10.8043514097
 30
0.0
 10
13.1354068256
 20
10.801937581
 30
0.0
 10
13.1397231056
 20
10.7987064082
 30
0.0
 10
13.1446095029
 20
10.7958173903
 30
0.0
 10
13.1499305183
 20
10.7933402102
 30
0.0
 10
13.155553774
 20
10.7913414368
 30
0.0
 10
13.1613355492
 20
10.789867613
 30
0.0
 10
13.1671221208
 20
10.7889661684
 30
0.0
 10
13.1709745724
 20
10.7887486816
 30
0.0
 10
13.1728623529
 20
10.7887486816
 30
0.0
  0
ENDSEC
  0
SECTION
  2
OBJECTS
  0
DICTIONARY
  5
C
100
AcDbDictionary
280
0
281
1
  3
ACAD_GROUP
350
D
  3
ACAD_MLINESTYLE
350
17
  3
ACAD_LAYOUT
350
1A
  3
ACAD_PLOTSETTINGS
350
19
  3
ACAD_PLOTSTYLENAME
350
E
  0
DICTIONARY
  5
D
102
{ACAD_REACTORS
330
C
102
}
100
AcDbDictionary
280
0
281
1
  0
ACDBDICTIONARYWDFLT
  5
E
102
{ACAD_REACTORS
330
C
102
}
100
AcDbDictionary
281
1
  3
Normal
350
F
100
AcDbDictionaryWithDefault
340
F
  0
DICTIONARY
  5
17
102
{ACAD_REACTORS
330
C
102
}
100
AcDbDictionary
280
0
281
1
  3
Standard
350
18
  0
DICTIONARY
  5
19
102
{ACAD_REACTORS
330
C
102
}
100
AcDbDictionary
281
1
  0
DICTIONARY
  5
1A
102
{ACAD_REACTORS
330
C
102
}
100
AcDbDictionary
281
1
  3
Model
350
2C4
  3
Layout1
350
2C5
  0
ACDBPLACEHOLDER
  5
F
102
{ACAD_REACTORS
330
E
102
}
  0
MLINESTYLE
  5
18
102
{ACAD_REACTORS
330
17
102
}
100
AcDbMlineStyle
  2
STANDARD
 70
0
  3

 62
256
 51
90.0
 52
90.0
 71
2
 49
0.5
 62
256
  6
BYLAYER
 49
-0.5
 62
256
  6
BYLAYER
  0
LAYOUT
  5
2C4
102
{ACAD_REACTORS
330
1A
102
}
100
AcDbPlotSettings
  1

  2
none_device
  4
ANSI_C_(22.00_x_17.00_Inches)
  6

 40
0.0
 41
0.0
 42
0.0
 43
0.0
 44
558.8
 45
431.8
 46
0.0
 47
0.0
 48
0.0
 49
0.0
140
0.0
141
0.0
142
1.0
143
1.0
 70
1024
 72
0
 73
0
 74
0
  7

 75
0
147
1.0
148
0.0
149
0.0
100
AcDbLayout
  1
Model
 70
0
 71
0
 10
0.0
 20
0.0
 11
22.0
 21
17.0
 12
0.0
 22
0.0
 32
0.0
 14
0.0
 24
0.0
 34
0.0
 15
0.0
 25
0.0
 35
0.0
146
0.0
 13
0.0
 23
0.0
 33
0.0
 16
1.0
 26
0.0
 36
0.0
 17
0.0
 27
1.0
 37
0.0
 76
0
330
216
345
0
346
0
  0
LAYOUT
  5
2C5
102
{ACAD_REACTORS
330
1A
102
}
100
AcDbPlotSettings
  1

  2
none_device
  4
ANSI_C_(22.00_x_17.00_Inches)
  6

 40
0.0
 41
0.0
 42
0.0
 43
0.0
 44
558.8
 45
431.8
 46
0.0
 47
0.0
 48
0.0
 49
0.0
140
0.0
141
0.0
142
1.0
143
1.0
 70
0
 72
0
 73
0
 74
0
  7

 75
0
147
1.0
148
0.0
149
0.0
100
AcDbLayout
  1
Layout1
 70
0
 71
1
 10
0.0
 20
0.0
 11
22.0
 21
17.0
 12
0.0
 22
0.0
 32
0.0
 14
0.0
 24
0.0
 34
0.0
 15
0.0
 25
0.0
 35
0.0
146
0.0
 13
0.0
 23
0.0
 33
0.0
 16
1.0
 26
0.0
 36
0.0
 17
0.0
 27
1.0
 37
0.0
 76
0
330
217
345
0
346
0
  0
ENDSEC
  0
EOF