999
DXF file: _cgs_temp_output.dxf
999
Pro/ENGINEER 2015110 by Parametric Technology Corporation
  0
SECTION
  2
HEADER
  9
$ACADVER
  1
AC1021
  9
$DWGCODEPAGE
  3
ANSI_1252
  9
$EXTMAX
 10
22.0
 20
17.0
 30
0.0
  9
$EXTMIN
 10
0.0
 20
0.0
 30
0.0
  9
$LIMMIN
 10
0.0
 20
0.0
  9
$LIMMAX
 10
22.0
 20
17.0
  9
$VIEWCTR
 10
11.0
 20
8.5
  9
$VIEWSIZE
 40
17.0
  9
$CLAYER
  8
0
  9
$LTSCALE
 40
1.21
  9
$CELTYPE
  6
BYLAYER
  9
$DIMSCALE
 40
1.0
  9
$DIMASZ
 40
0.1875
  9
$DIMEXO
 40
0.0625
  9
$DIMDLI
 40
0.836
  9
$DIMEXE
 40
0.125
  9
$DIMCEN
 40
0.198
  9
$DIMLFAC
 40
1.0
  9
$DIMBLK
  1
_CLOSED
  9
$DIMALT
 70
0
  9
$DIMALTF
 40
25.4
  9
$DIMTXT
 40
0.15625
  9
$DIMTOL
 70
0
  9
$DIMLIM
 70
0
  9
$DIMTFAC
 40
1.0
  9
$DIMGAP
 40
0.09
  9
$DIMDSEP
 70
46
  9
$AUNITS
 70
0
  9
$PDMODE
 70
3
  9
$PDSIZE
 40
0.3125
  9
$HANDSEED
  5
2E9
  9
$TILEMODE
 70
1
  9
$MEASUREMENT
 70
0
  9
$INSUNITS
 70
1
  0
ENDSEC
  0
SECTION
  2
CLASSES
  0
CLASS
  1
ACDBDICTIONARYWDFLT
  2
AcDbDictionaryWithDefault
  3
AutoCAD 2000
 90
0
 91
1
280
0
281
0
  0
CLASS
  1
ACDBPLACEHOLDER
  2
AcDbPlaceHolder
  3
AutoCAD 2000
 90
0
 91
1
280
0
281
0
  0
CLASS
  1
LAYOUT
  2
AcDbLayout
  3
AutoCAD 2000
 90
0
 91
0
280
0
281
0
  0
ENDSEC
  0
SECTION
  2
TABLES
  0
TABLE
  2
VPORT
  5
8
100
AcDbSymbolTable
 70
2
  0
VPORT
  5
1F4
100
AcDbSymbolTableRecord
100
AcDbViewportTableRecord
  2
*ACTIVE
 70
0
 10
0.0
 20
0.0
 11
1.0
 21
1.0
 12
11.0
 22
8.5
 13
0.0
 23
0.0
 14
1.0
 24
1.0
 15
0.0
 25
0.0
 16
0.0
 26
0.0
 36
1.0
 17
0.0
 27
0.0
 37
0.0
 40
17.0
 41
1.2941176471
 42
50.0
 43
0.0
 44
0.0
 50
0.0
 51
0.0
 71
0
 72
100
 73
1
 74
1
 75
0
 76
0
 77
0
 78
0
  0
ENDTAB
  0
TABLE
  2
LTYPE
  5
5
100
AcDbSymbolTable
 70
6
  0
LTYPE
  5
14
100
AcDbSymbolTableRecord
100
AcDbLinetypeTableRecord
  2
BYBLOCK
 70
0
  3

 72
65
 73
0
 40
0.0
  0
LTYPE
  5
15
100
AcDbSymbolTableRecord
100
AcDbLinetypeTableRecord
  2
BYLAYER
 70
0
  3

 72
65
 73
0
 40
0.0
  0
LTYPE
  5
16
100
AcDbSymbolTableRecord
100
AcDbLinetypeTableRecord
  2
CONTINUOUS
 70
64
  3
Solid line
 72
65
 73
0
 40
0.0
  0
LTYPE
  5
1F5
100
AcDbSymbolTableRecord
100
AcDbLinetypeTableRecord
  2
CENTER
 70
64
  3
____ _ ____ _ ____ _ ____ _ ____ _ ____ _ ____
 72
65
 73
4
 40
0.6
 49
0.375
 74
0
 49
-0.075
 74
0
 49
0.075
 74
0
 49
-0.075
 74
0
  0
LTYPE
  5
1F6
100
AcDbSymbolTableRecord
100
AcDbLinetypeTableRecord
  2
HIDDEN
 70
64
  3
- - - - - - - - - - - - - - - - - - - -
 72
65
 73
2
 40
0.2
 49
0.1
 74
0
 49
-0.1
 74
0
  0
LTYPE
  5
1F7
100
AcDbSymbolTableRecord
100
AcDbLinetypeTableRecord
  2
PHANTOM
 70
64
  3
_____ _ _ _____ _ _ _____ _ _ _____
 72
65
 73
6
 40
0.8
 49
0.45
 74
0
 49
-0.05
 74
0
 49
0.1
 74
0
 49
-0.05
 74
0
 49
0.1
 74
0
 49
-0.05
 74
0
  0
LTYPE
  5
1F8
100
AcDbSymbolTableRecord
100
AcDbLinetypeTableRecord
  2
DOT
 70
64
  3
. . . . . . . . . . . . . . . . . . . .
 72
65
 73
2
 40
0.2
 49
0.1
 74
0
 49
-0.1
 74
0
  0
LTYPE
  5
1F9
100
AcDbSymbolTableRecord
100
AcDbLinetypeTableRecord
  2
DASHED
 70
64
  3
- - - - - - - - - - - - - - - - - - - -
 72
65
 73
2
 40
0.2
 49
0.1
 74
0
 49
-0.1
 74
0
  0
ENDTAB
  0
TABLE
  2
LAYER
  5
2
100
AcDbSymbolTable
 70
36
  0
LAYER
  5
10
100
AcDbSymbolTableRecord
100
AcDbLayerTableRecord
  2
0
 70
0
 62
7
  6
CONTINUOUS
370
-3
390
F
  0
LAYER
  5
1FA
100
AcDbSymbolTableRecord
100
AcDbLayerTableRecord
  2
DEFAULT_1
 70
0
 62
7
  6
CENTER
370
-3
390
F
  0
LAYER
  5
1FB
100
AcDbSymbolTableRecord
100
AcDbLayerTableRecord
  2
DEFAULT_2
 70
0
 62
8
  6
HIDDEN
370
-3
390
F
  0
LAYER
  5
1FC
100
AcDbSymbolTableRecord
100
AcDbLayerTableRecord
  2
DEFAULT_3
 70
0
 62
7
  6
PHANTOM
370
-3
390
F
  0
LAYER
  5
1FD
100
AcDbSymbolTableRecord
100
AcDbLayerTableRecord
  2
01_ALL_DTM_PLN
 70
0
 62
7
  6
CONTINUOUS
370
-3
390
F
  0
LAYER
  5
1FE
100
AcDbSymbolTableRecord
100
AcDbLayerTableRecord
  2
01__ASM_ALL_DTM_PLN
 70
0
 62
7
  6
CONTINUOUS
370
-3
390
F
  0
LAYER
  5
1FF
100
AcDbSymbolTableRecord
100
AcDbLayerTableRecord
  2
01__ASM_DEF_DTM_PLN
 70
0
 62
7
  6
CONTINUOUS
370
-3
390
F
  0
LAYER
  5
200
100
AcDbSymbolTableRecord
100
AcDbLayerTableRecord
  2
01___PRT_ALL_DTM_PLN
 70
0
 62
7
  6
CONTINUOUS
370
-3
390
F
  0
LAYER
  5
201
100
AcDbSymbolTableRecord
100
AcDbLayerTableRecord
  2
01___PRT_DEF_DTM_PLN
 70
0
 62
7
  6
CONTINUOUS
370
-3
390
F
  0
LAYER
  5
202
100
AcDbSymbolTableRecord
100
AcDbLayerTableRecord
  2
02_ALL_AXES
 70
0
 62
7
  6
CONTINUOUS
370
-3
390
F
  0
LAYER
  5
203
100
AcDbSymbolTableRecord
100
AcDbLayerTableRecord
  2
02__ASM_ALL_AXES
 70
0
 62
7
  6
CONTINUOUS
370
-3
390
F
  0
LAYER
  5
204
100
AcDbSymbolTableRecord
100
AcDbLayerTableRecord
  2
02___PRT_ALL_AXES
 70
0
 62
7
  6
CONTINUOUS
370
-3
390
F
  0
LAYER
  5
205
100
AcDbSymbolTableRecord
100
AcDbLayerTableRecord
  2
03_ALL_CURVES
 70
0
 62
7
  6
CONTINUOUS
370
-3
390
F
  0
LAYER
  5
206
100
AcDbSymbolTableRecord
100
AcDbLayerTableRecord
  2
03__ASM_ALL_CURVES
 70
0
 62
7
  6
CONTINUOUS
370
-3
390
F
  0
LAYER
  5
207
100
AcDbSymbolTableRecord
100
AcDbLayerTableRecord
  2
03___PRT_ALL_CURVES
 70
0
 62
7
  6
CONTINUOUS
370
-3
390
F
  0
LAYER
  5
208
100
AcDbSymbolTableRecord
100
AcDbLayerTableRecord
  2
04_ALL_DTM_PNT
 70
0
 62
7
  6
CONTINUOUS
370
-3
390
F
  0
LAYER
  5
209
100
AcDbSymbolTableRecord
100
AcDbLayerTableRecord
  2
04__ASM_ALL_DTM_PNT
 70
0
 62
7
  6
CONTINUOUS
370
-3
390
F
  0
LAYER
  5
20A
100
AcDbSymbolTableRecord
100
AcDbLayerTableRecord
  2
04___PRT_ALL_DTM_PNT
 70
0
 62
7
  6
CONTINUOUS
370
-3
390
F
  0
LAYER
  5
20B
100
AcDbSymbolTableRecord
100
AcDbLayerTableRecord
  2
05_ALL_DTM_CSYS
 70
0
 62
7
  6
CONTINUOUS
370
-3
390
F
  0
LAYER
  5
20C
100
AcDbSymbolTableRecord
100
AcDbLayerTableRecord
  2
05__ASM_ALL_DTM_CSYS
 70
0
 62
7
  6
CONTINUOUS
370
-3
390
F
  0
LAYER
  5
20D
100
AcDbSymbolTableRecord
100
AcDbLayerTableRecord
  2
05__ASM_DEF_DTM_CSYS
 70
0
 62
7
  6
CONTINUOUS
370
-3
390
F
  0
LAYER
  5
20E
100
AcDbSymbolTableRecord
100
AcDbLayerTableRecord
  2
05___PRT_ALL_DTM_CSYS
 70
0
 62
7
  6
CONTINUOUS
370
-3
390
F
  0
LAYER
  5
20F
100
AcDbSymbolTableRecord
100
AcDbLayerTableRecord
  2
05___PRT_DEF_DTM_CSYS
 70
0
 62
7
  6
CONTINUOUS
370
-3
390
F
  0
LAYER
  5
210
100
AcDbSymbolTableRecord
100
AcDbLayerTableRecord
  2
06_ALL_SURFS
 70
0
 62
7
  6
CONTINUOUS
370
-3
390
F
  0
LAYER
  5
211
100
AcDbSymbolTableRecord
100
AcDbLayerTableRecord
  2
06__ASM_ALL_SURFS
 70
0
 62
7
  6
CONTINUOUS
370
-3
390
F
  0
LAYER
  5
212
100
AcDbSymbolTableRecord
100
AcDbLayerTableRecord
  2
06___PRT_ALL_SURFS
 70
0
 62
7
  6
CONTINUOUS
370
-3
390
F
  0
LAYER
  5
213
100
AcDbSymbolTableRecord
100
AcDbLayerTableRecord
  2
07__ASM_ALL_SKELETONS
 70
0
 62
7
  6
CONTINUOUS
370
-3
390
F
  0
LAYER
  5
214
100
AcDbSymbolTableRecord
100
AcDbLayerTableRecord
  2
LAYER_DIM
 70
0
 62
7
  6
CONTINUOUS
370
-3
390
F
  0
LAYER
  5
215
100
AcDbSymbolTableRecord
100
AcDbLayerTableRecord
  2
LAYER_FEATURE
 70
0
 62
7
  6
CONTINUOUS
370
-3
390
F
  0
LAYER
  5
216
100
AcDbSymbolTableRecord
100
AcDbLayerTableRecord
  2
LAYER_GEOM_FEAT
 70
0
 62
7
  6
CONTINUOUS
370
-3
390
F
  0
LAYER
  5
217
100
AcDbSymbolTableRecord
100
AcDbLayerTableRecord
  2
LAYER_PARAMETER_DIM
 70
0
 62
7
  6
CONTINUOUS
370
-3
390
F
  0
LAYER
  5
218
100
AcDbSymbolTableRecord
100
AcDbLayerTableRecord
  2
LAYER_PROTRUSION_FEAT
 70
0
 62
7
  6
CONTINUOUS
370
-3
390
F
  0
LAYER
  5
219
100
AcDbSymbolTableRecord
100
AcDbLayerTableRecord
  2
LAYER_ROUND_FEAT
 70
0
 62
7
  6
CONTINUOUS
370
-3
390
F
  0
ENDTAB
  0
TABLE
  2
STYLE
  5
3
100
AcDbSymbolTable
 70
1
  0
STYLE
  5
11
100
AcDbSymbolTableRecord
100
AcDbTextStyleTableRecord
  2
STANDARD
 70
0
 40
0.0
 41
0.8
 50
0.0
 71
0
 42
0.2
  3
txt
  4

  0
STYLE
  5
21A
100
AcDbSymbolTableRecord
100
AcDbTextStyleTableRecord
  2
TEXTSTYLE_1
 70
0
 40
0.0
 41
0.8
 50
0.0
 71
0
 42
0.2
  3
gdt
  4

  0
ENDTAB
  0
TABLE
  2
VIEW
  5
6
100
AcDbSymbolTable
 70
0
  0
ENDTAB
  0
TABLE
  2
UCS
  5
7
100
AcDbSymbolTable
 70
0
  0
ENDTAB
  0
TABLE
  2
APPID
  5
9
100
AcDbSymbolTable
 70
1
  0
APPID
  5
21B
100
AcDbSymbolTableRecord
100
AcDbRegAppTableRecord
  2
ACAD
 70
0
  0
ENDTAB
  0
TABLE
  2
BLOCK_RECORD
  5
1
100
AcDbSymbolTable
 70
0
  0
BLOCK_RECORD
  5
21C
100
AcDbSymbolTableRecord
100
AcDbBlockTableRecord
  2
*Model_Space
  0
BLOCK_RECORD
  5
21D
100
AcDbSymbolTableRecord
100
AcDbBlockTableRecord
  2
*Paper_Space
  0
ENDTAB
  0
TABLE
  2
DIMSTYLE
  5
A
100
AcDbSymbolTable
 70
1
100
AcDbDimStyleTable
 71
0
  0
DIMSTYLE
105
21E
100
AcDbSymbolTableRecord
100
AcDbDimStyleTableRecord
  2
STANDARD
 70
0
  3

  4

 40
1.0
 41
0.1875
 42
0.0625
 43
0.38
 44
0.125
 45
0.0
 46
0.0
 47
0.0001
 48
0.0001
140
0.15625
141
0.09
142
0.0
143
25.4
144
1.0
145
0.0
146
1.0
147
0.09
 71
0.0
 72
0.0
 73
1
 74
1
 75
0
 76
0
 77
0
 78
4
170
0
171
2
172
0
173
0
174
0
175
0
176
0
177
0
178
0
270
2
271
4
272
4
273
2
274
2
275
0
280
0
281
0
282
0
283
1
284
4
285
0
286
0
287
3
288
0
340
11
278
46
  0
ENDTAB
  0
ENDSEC
  0
SECTION
  2
BLOCKS
  0
BLOCK
  5
20
100
AcDbEntity
  8
0
100
AcDbBlockBegin
  2
*Model_Space
 70
0
 10
0.0
 20
0.0
 30
0.0
  3
*Model_Space
  1

  0
ENDBLK
  5
21
100
AcDbEntity
  8
0
100
AcDbBlockEnd
  0
BLOCK
  5
1C
100
AcDbEntity
  8
0
100
AcDbBlockBegin
  2
*Paper_Space
 70
0
 10
0.0
 20
0.0
 30
0.0
  3
*Paper_Space
  1

  0
ENDBLK
  5
1D
100
AcDbEntity
  8
0
100
AcDbBlockEnd
  0
ENDSEC
  0
SECTION
  2
ENTITIES
  0
MTEXT
  5
21F
100
AcDbEntity
  8
0
100
AcDbMText
 62
7
  6
CONTINUOUS
  7
STANDARD
 71
1
 72
1
 10
15.9560215477
 20
0.9479130325
 30
0.0
 11
1.0
 21
0.0
 31
0.0
 44
0.9
  1
SCALE: 1:0.500
 40
0.3
 41
3.36
  0
LINE
  5
220
100
AcDbEntity
  8
0
100
AcDbLine
 62
7
  6
CONTINUOUS
 10
0.0
 20
0.0
 11
0.0
 21
17.0
  0
LINE
  5
221
100
AcDbEntity
  8
0
100
AcDbLine
 62
7
  6
CONTINUOUS
 10
0.0
 20
0.0
 11
22.0
 21
0.0
  0
LINE
  5
222
100
AcDbEntity
  8
0
100
AcDbLine
 62
7
  6
CONTINUOUS
 10
0.0
 20
17.0
 11
22.0
 21
17.0
  0
LINE
  5
223
100
AcDbEntity
  8
0
100
AcDbLine
 62
7
  6
CONTINUOUS
 10
22.0
 20
0.0
 11
22.0
 21
17.0
  0
LINE
  5
224
100
AcDbEntity
  8
0
100
AcDbLine
 62
7
  6
CONTINUOUS
 10
3.9103672762
 20
5.6776198968
 11
3.9103672762
 21
5.6201198968
  0
LINE
  5
225
100
AcDbEntity
  8
0
100
AcDbLine
 62
7
  6
CONTINUOUS
 10
3.9103672762
 20
5.6201198968
 11
3.988856292
 21
5.3680036642
  0
LINE
  5
226
100
AcDbEntity
  8
0
100
AcDbLine
 62
7
  6
CONTINUOUS
 10
4.3503672762
 20
5.6201198968
 11
4.3503672762
 21
5.6526198968
  0
LINE
  5
227
100
AcDbEntity
  8
LAYER_FEATURE
100
AcDbLine
 62
7
  6
CONTINUOUS
 10
4.4103672762
 20
5.6526198968
 11
4.4103672762
 21
5.6201198968
  0
LINE
  5
228
100
AcDbEntity
  8
0
100
AcDbLine
 62
7
  6
CONTINUOUS
 10
4.2718782604
 20
5.3680036642
 11
4.3503672762
 21
5.6201198968
  0
LINE
  5
229
100
AcDbEntity
  8
LAYER_FEATURE
100
AcDbLine
 62
7
  6
CONTINUOUS
 10
4.4103672762
 20
5.6201198968
 11
4.488856292
 21
5.3680036642
  0
LINE
  5
22A
100
AcDbEntity
  8
LAYER_FEATURE
100
AcDbLine
 62
7
  6
CONTINUOUS
 10
4.8503672762
 20
5.6201198968
 11
4.8503672762
 21
5.6526198968
  0
LINE
  5
22B
100
AcDbEntity
  8
LAYER_FEATURE
100
AcDbLine
 62
7
  6
CONTINUOUS
 10
4.9103672762
 20
5.6526198968
 11
4.9103672762
 21
5.6201198968
  0
LINE
  5
22C
100
AcDbEntity
  8
LAYER_FEATURE
100
AcDbLine
 62
7
  6
CONTINUOUS
 10
4.7718782604
 20
5.3680036642
 11
4.8503672762
 21
5.6201198968
  0
LINE
  5
22D
100
AcDbEntity
  8
LAYER_FEATURE
100
AcDbLine
 62
7
  6
CONTINUOUS
 10
4.9103672762
 20
5.6201198968
 11
4.988856292
 21
5.3680036642
  0
LINE
  5
22E
100
AcDbEntity
  8
LAYER_FEATURE
100
AcDbLine
 62
7
  6
CONTINUOUS
 10
5.3503672762
 20
5.6201198968
 11
5.3503672762
 21
5.6526198968
  0
LINE
  5
22F
100
AcDbEntity
  8
LAYER_FEATURE
100
AcDbLine
 62
7
  6
CONTINUOUS
 10
5.2718782604
 20
5.3680036642
 11
5.3503672762
 21
5.6201198968
  0
LINE
  5
230
100
AcDbEntity
  8
LAYER_FEATURE
100
AcDbLine
 62
7
  6
CONTINUOUS
 10
5.4103672762
 20
5.6526198968
 11
5.4103672762
 21
5.6201198968
  0
LINE
  5
231
100
AcDbEntity
  8
LAYER_FEATURE
100
AcDbLine
 62
7
  6
CONTINUOUS
 10
5.4103672762
 20
5.6201198968
 11
5.488856292
 21
5.3680036642
  0
LINE
  5
232
100
AcDbEntity
  8
LAYER_FEATURE
100
AcDbLine
 62
7
  6
CONTINUOUS
 10
5.8503672762
 20
5.6201198968
 11
5.8503672762
 21
5.6526198968
  0
LINE
  5
233
100
AcDbEntity
  8
LAYER_FEATURE
100
AcDbLine
 62
7
  6
CONTINUOUS
 10
5.7718782604
 20
5.3680036642
 11
5.8503672762
 21
5.6201198968
  0
LINE
  5
234
100
AcDbEntity
  8
LAYER_FEATURE
100
AcDbLine
 62
7
  6
CONTINUOUS
 10
5.9103672762
 20
5.6526198968
 11
5.9103672762
 21
5.6201198968
  0
LINE
  5
235
100
AcDbEntity
  8
0
100
AcDbLine
 62
7
  6
CONTINUOUS
 10
4.0063609583
 20
5.3551198968
 11
4.2543735941
 21
5.3551198968
  0
LINE
  5
236
100
AcDbEntity
  8
LAYER_FEATURE
100
AcDbLine
 62
7
  6
CONTINUOUS
 10
4.5063609583
 20
5.3551198968
 11
4.7543735941
 21
5.3551198968
  0
LINE
  5
237
100
AcDbEntity
  8
LAYER_FEATURE
100
AcDbLine
 62
7
  6
CONTINUOUS
 10
5.0063609583
 20
5.3551198968
 11
5.2543735941
 21
5.3551198968
  0
LINE
  5
238
100
AcDbEntity
  8
LAYER_FEATURE
100
AcDbLine
 62
7
  6
CONTINUOUS
 10
5.5063609583
 20
5.3551198968
 11
5.7543735941
 21
5.3551198968
  0
LINE
  5
239
100
AcDbEntity
  8
LAYER_FEATURE
100
AcDbLine
 62
7
  6
CONTINUOUS
 10
6.0063609583
 20
5.3551198968
 11
6.2543735941
 21
5.3551198968
  0
LINE
  5
23A
100
AcDbEntity
  8
LAYER_FEATURE
100
AcDbLine
 62
7
  6
CONTINUOUS
 10
6.5063609583
 20
5.3551198968
 11
6.7543735941
 21
5.3551198968
  0
LINE
  5
23B
100
AcDbEntity
  8
LAYER_FEATURE
100
AcDbLine
 62
7
  6
CONTINUOUS
 10
7.0063609583
 20
5.3551198968
 11
7.2543735941
 21
5.3551198968
  0
LINE
  5
23C
100
AcDbEntity
  8
LAYER_FEATURE
100
AcDbLine
 62
7
  6
CONTINUOUS
 10
7.5063609583
 20
5.3551198968
 11
7.7543735941
 21
5.3551198968
  0
LINE
  5
23D
100
AcDbEntity
  8
LAYER_FEATURE
100
AcDbLine
 62
7
  6
CONTINUOUS
 10
8.0063609583
 20
5.3551198968
 11
8.2543735941
 21
5.3551198968
  0
LINE
  5
23E
100
AcDbEntity
  8
LAYER_FEATURE
100
AcDbLine
 62
7
  6
CONTINUOUS
 10
5.9103672762
 20
5.6201198968
 11
5.988856292
 21
5.3680036642
  0
LINE
  5
23F
100
AcDbEntity
  8
LAYER_FEATURE
100
AcDbLine
 62
7
  6
CONTINUOUS
 10
4.3503672762
 20
5.6526198968
 11
4.4103672762
 21
5.6526198968
  0
LINE
  5
240
100
AcDbEntity
  8
LAYER_FEATURE
100
AcDbLine
 62
7
  6
CONTINUOUS
 10
4.8503672762
 20
5.6526198968
 11
4.9103672762
 21
5.6526198968
  0
LINE
  5
241
100
AcDbEntity
  8
LAYER_FEATURE
100
AcDbLine
 62
7
  6
CONTINUOUS
 10
5.3503672762
 20
5.6526198968
 11
5.4103672762
 21
5.6526198968
  0
LINE
  5
242
100
AcDbEntity
  8
LAYER_FEATURE
100
AcDbLine
 62
7
  6
CONTINUOUS
 10
5.8503672762
 20
5.6526198968
 11
5.9103672762
 21
5.6526198968
  0
LINE
  5
243
100
AcDbEntity
  8
LAYER_FEATURE
100
AcDbLine
 62
7
  6
CONTINUOUS
 10
6.3503672762
 20
5.6526198968
 11
6.4103672762
 21
5.6526198968
  0
LINE
  5
244
100
AcDbEntity
  8
LAYER_FEATURE
100
AcDbLine
 62
7
  6
CONTINUOUS
 10
6.8503672762
 20
5.6526198968
 11
6.9103672762
 21
5.6526198968
  0
LINE
  5
245
100
AcDbEntity
  8
LAYER_FEATURE
100
AcDbLine
 62
7
  6
CONTINUOUS
 10
7.3503672762
 20
5.6526198968
 11
7.4103672762
 21
5.6526198968
  0
LINE
  5
246
100
AcDbEntity
  8
LAYER_FEATURE
100
AcDbLine
 62
7
  6
CONTINUOUS
 10
7.8503672762
 20
5.6526198968
 11
7.9103672762
 21
5.6526198968
  0
LINE
  5
247
100
AcDbEntity
  8
0
100
AcDbLine
 62
7
  6
CONTINUOUS
 10
8.3428672762
 20
5.6851198968
 11
3.9178672762
 21
5.6851198968
  0
LINE
  5
248
100
AcDbEntity
  8
LAYER_FEATURE
100
AcDbLine
 62
7
  6
CONTINUOUS
 10
6.3503672762
 20
5.6201198968
 11
6.3503672762
 21
5.6526198968
  0
LINE
  5
249
100
AcDbEntity
  8
LAYER_FEATURE
100
AcDbLine
 62
7
  6
CONTINUOUS
 10
6.4103672762
 20
5.6526198968
 11
6.4103672762
 21
5.6201198968
  0
LINE
  5
24A
100
AcDbEntity
  8
LAYER_FEATURE
100
AcDbLine
 62
7
  6
CONTINUOUS
 10
6.2718782604
 20
5.3680036642
 11
6.3503672762
 21
5.6201198968
  0
LINE
  5
24B
100
AcDbEntity
  8
LAYER_FEATURE
100
AcDbLine
 62
7
  6
CONTINUOUS
 10
6.4103672762
 20
5.6201198968
 11
6.488856292
 21
5.3680036642
  0
LINE
  5
24C
100
AcDbEntity
  8
LAYER_FEATURE
100
AcDbLine
 62
7
  6
CONTINUOUS
 10
6.8503672762
 20
5.6201198968
 11
6.8503672762
 21
5.6526198968
  0
LINE
  5
24D
100
AcDbEntity
  8
LAYER_FEATURE
100
AcDbLine
 62
7
  6
CONTINUOUS
 10
6.7718782604
 20
5.3680036642
 11
6.8503672762
 21
5.6201198968
  0
LINE
  5
24E
100
AcDbEntity
  8
LAYER_FEATURE
100
AcDbLine
 62
7
  6
CONTINUOUS
 10
6.9103672762
 20
5.6526198968
 11
6.9103672762
 21
5.6201198968
  0
LINE
  5
24F
100
AcDbEntity
  8
LAYER_FEATURE
100
AcDbLine
 62
7
  6
CONTINUOUS
 10
6.9103672762
 20
5.6201198968
 11
6.988856292
 21
5.3680036642
  0
LINE
  5
250
100
AcDbEntity
  8
LAYER_FEATURE
100
AcDbLine
 62
7
  6
CONTINUOUS
 10
7.2718782604
 20
5.3680036642
 11
7.3503672762
 21
5.6201198968
  0
LINE
  5
251
100
AcDbEntity
  8
LAYER_FEATURE
100
AcDbLine
 62
7
  6
CONTINUOUS
 10
7.3503672762
 20
5.6201198968
 11
7.3503672762
 21
5.6526198968
  0
LINE
  5
252
100
AcDbEntity
  8
LAYER_FEATURE
100
AcDbLine
 62
7
  6
CONTINUOUS
 10
7.4103672762
 20
5.6526198968
 11
7.4103672762
 21
5.6201198968
  0
LINE
  5
253
100
AcDbEntity
  8
LAYER_FEATURE
100
AcDbLine
 62
7
  6
CONTINUOUS
 10
7.4103672762
 20
5.6201198968
 11
7.488856292
 21
5.3680036642
  0
LINE
  5
254
100
AcDbEntity
  8
LAYER_FEATURE
100
AcDbLine
 62
7
  6
CONTINUOUS
 10
7.7718782604
 20
5.3680036642
 11
7.8503672762
 21
5.6201198968
  0
LINE
  5
255
100
AcDbEntity
  8
LAYER_FEATURE
100
AcDbLine
 62
7
  6
CONTINUOUS
 10
7.8503672762
 20
5.6201198968
 11
7.8503672762
 21
5.6526198968
  0
LINE
  5
256
100
AcDbEntity
  8
LAYER_FEATURE
100
AcDbLine
 62
7
  6
CONTINUOUS
 10
7.9103672762
 20
5.6526198968
 11
7.9103672762
 21
5.6201198968
  0
LINE
  5
257
100
AcDbEntity
  8
LAYER_FEATURE
100
AcDbLine
 62
7
  6
CONTINUOUS
 10
7.9103672762
 20
5.6201198968
 11
7.988856292
 21
5.3680036642
  0
LINE
  5
258
100
AcDbEntity
  8
0
100
AcDbLine
 62
7
  6
CONTINUOUS
 10
8.3503672762
 20
5.6201198968
 11
8.3503672762
 21
5.6776198968
  0
LINE
  5
259
100
AcDbEntity
  8
LAYER_FEATURE
100
AcDbLine
 62
7
  6
CONTINUOUS
 10
8.2718782604
 20
5.3680036642
 11
8.3503672762
 21
5.6201198968
  0
LINE
  5
25A
100
AcDbEntity
  8
0
100
AcDbLine
 62
7
  6
CONTINUOUS
 10
3.8508720839
 20
13.6000477814
 11
3.8508720839
 21
11.6000477814
  0
LINE
  5
25B
100
AcDbEntity
  8
0
100
AcDbLine
 62
7
  6
CONTINUOUS
 10
8.2908720839
 20
11.6000477814
 11
3.8508720839
 21
11.6000477814
  0
LINE
  5
25C
100
AcDbEntity
  8
0
100
AcDbLine
 62
7
  6
CONTINUOUS
 10
3.8508720839
 20
13.6000477814
 11
8.2908720839
 21
13.6000477814
  0
LINE
  5
25D
100
AcDbEntity
  8
0
100
AcDbLine
 62
7
  6
CONTINUOUS
 10
8.2908720839
 20
11.6000477814
 11
8.2908720839
 21
13.6000477814
  0
LINE
  5
25E
100
AcDbEntity
  8
LAYER_FEATURE
100
AcDbLine
 62
7
  6
CONTINUOUS
 10
14.5603552569
 20
5.2956247044
 11
14.5603552569
 21
5.5606247044
  0
LINE
  5
25F
100
AcDbEntity
  8
0
100
AcDbLine
 62
7
  6
CONTINUOUS
 10
14.5603552569
 20
5.5606247044
 11
14.5603552569
 21
5.6256247044
  0
LINE
  5
260
100
AcDbEntity
  8
LAYER_FEATURE
100
AcDbLine
 62
7
  6
CONTINUOUS
 10
14.5603552569
 20
5.2956247044
 11
16.5603552569
 21
5.2956247044
  0
LINE
  5
261
100
AcDbEntity
  8
LAYER_FEATURE
100
AcDbLine
 62
7
  6
CONTINUOUS
 10
16.5603552569
 20
5.5606247044
 11
14.5603552569
 21
5.5606247044
  0
LINE
  5
262
100
AcDbEntity
  8
0
100
AcDbLine
 62
7
  6
CONTINUOUS
 10
14.5603552569
 20
5.6256247044
 11
16.5603552569
 21
5.6256247044
  0
LINE
  5
263
100
AcDbEntity
  8
0
100
AcDbLine
 62
7
  6
CONTINUOUS
 10
16.5603552569
 20
5.6256247044
 11
16.5603552569
 21
5.5606247044
  0
LINE
  5
264
100
AcDbEntity
  8
LAYER_FEATURE
100
AcDbLine
 62
7
  6
CONTINUOUS
 10
16.5603552569
 20
5.2956247044
 11
16.5603552569
 21
5.5606247044
  0
LINE
  5
265
100
AcDbEntity
  8
0
100
AcDbLine
 62
7
  6
CONTINUOUS
 10
13.1733895682
 20
11.8253816533
 11
13.1909294756
 21
11.7896390801
  0
LINE
  5
266
100
AcDbEntity
  8
0
100
AcDbLine
 62
7
  6
CONTINUOUS
 10
13.1909294756
 20
11.7896390801
 11
13.3401286527
 21
11.6329211168
  0
LINE
  5
267
100
AcDbEntity
  8
0
100
AcDbLine
 62
7
  6
CONTINUOUS
 10
13.6572645162
 20
13.3942498278
 11
13.1731318693
 21
11.8275960086
  0
LINE
  5
268
100
AcDbEntity
  8
0
100
AcDbLine
 62
7
  6
CONTINUOUS
 10
13.5961963129
 20
11.7896390801
 11
13.5862824522
 21
11.8098414041
  0
LINE
  5
269
100
AcDbEntity
  8
LAYER_FEATURE
100
AcDbLine
 62
7
  6
CONTINUOUS
 10
13.6415461119
 20
11.8098414041
 11
13.6514599726
 21
11.7896390801
  0
LINE
  5
26A
100
AcDbEntity
  8
0
100
AcDbLine
 62
7
  6
CONTINUOUS
 10
13.6008091482
 20
11.6329211168
 11
13.5961963129
 21
11.7896390801
  0
LINE
  5
26B
100
AcDbEntity
  8
LAYER_FEATURE
100
AcDbLine
 62
7
  6
CONTINUOUS
 10
13.6514599726
 20
11.7896390801
 11
13.8006591497
 21
11.6329211168
  0
LINE
  5
26C
100
AcDbEntity
  8
0
100
AcDbLine
 62
7
  6
CONTINUOUS
 10
13.6005335468
 20
11.6308977301
 11
13.6008091482
 21
11.6329211168
  0
LINE
  5
26D
100
AcDbEntity
  8
0
100
AcDbLine
 62
7
  6
CONTINUOUS
 10
13.6024393032
 20
11.8098414041
 11
13.5961963129
 21
11.7896390801
  0
LINE
  5
26E
100
AcDbEntity
  8
0
100
AcDbLine
 62
7
  6
CONTINUOUS
 10
13.6011347748
 20
11.6328204905
 11
13.6503158592
 21
11.7919705379
  0
LINE
  5
26F
100
AcDbEntity
  8
LAYER_FEATURE
100
AcDbLine
 62
7
  6
CONTINUOUS
 10
14.1119904696
 20
11.7896390801
 11
14.2611896467
 21
11.6329211168
  0
LINE
  5
270
100
AcDbEntity
  8
LAYER_FEATURE
100
AcDbLine
 62
7
  6
CONTINUOUS
 10
14.0567268099
 20
11.7896390801
 11
14.0468129493
 21
11.8098414041
  0
LINE
  5
271
100
AcDbEntity
  8
LAYER_FEATURE
100
AcDbLine
 62
7
  6
CONTINUOUS
 10
14.1020766089
 20
11.8098414041
 11
14.1119904696
 21
11.7896390801
  0
LINE
  5
272
100
AcDbEntity
  8
LAYER_FEATURE
100
AcDbLine
 62
7
  6
CONTINUOUS
 10
14.0613396452
 20
11.6329211168
 11
14.0567268099
 21
11.7896390801
  0
LINE
  5
273
100
AcDbEntity
  8
LAYER_FEATURE
100
AcDbLine
 62
7
  6
CONTINUOUS
 10
14.0610640438
 20
11.6308977301
 11
14.0613396452
 21
11.6329211168
  0
LINE
  5
274
100
AcDbEntity
  8
LAYER_FEATURE
100
AcDbLine
 62
7
  6
CONTINUOUS
 10
14.0629698002
 20
11.8098414041
 11
14.0567268099
 21
11.7896390801
  0
LINE
  5
275
100
AcDbEntity
  8
LAYER_FEATURE
100
AcDbLine
 62
7
  6
CONTINUOUS
 10
14.5725209666
 20
11.7896390801
 11
14.7217201437
 21
11.6329211168
  0
LINE
  5
276
100
AcDbEntity
  8
LAYER_FEATURE
100
AcDbLine
 62
7
  6
CONTINUOUS
 10
14.5172573069
 20
11.7896390801
 11
14.5073434463
 21
11.8098414041
  0
LINE
  5
277
100
AcDbEntity
  8
LAYER_FEATURE
100
AcDbLine
 62
7
  6
CONTINUOUS
 10
14.5218701422
 20
11.6329211168
 11
14.5172573069
 21
11.7896390801
  0
LINE
  5
278
100
AcDbEntity
  8
LAYER_FEATURE
100
AcDbLine
 62
7
  6
CONTINUOUS
 10
14.0616652718
 20
11.6328204905
 11
14.1108463562
 21
11.7919705379
  0
LINE
  5
279
100
AcDbEntity
  8
LAYER_FEATURE
100
AcDbLine
 62
7
  6
CONTINUOUS
 10
14.5626071059
 20
11.8098414041
 11
14.5725209666
 21
11.7896390801
  0
LINE
  5
27A
100
AcDbEntity
  8
LAYER_FEATURE
100
AcDbLine
 62
7
  6
CONTINUOUS
 10
14.5215945408
 20
11.6308977301
 11
14.5218701422
 21
11.6329211168
  0
LINE
  5
27B
100
AcDbEntity
  8
0
100
AcDbLine
 62
7
  6
CONTINUOUS
 10
13.3601816065
 20
11.6249124385
 11
13.5886163713
 21
11.6249124385
  0
LINE
  5
27C
100
AcDbEntity
  8
LAYER_FEATURE
100
AcDbLine
 62
7
  6
CONTINUOUS
 10
13.8207121035
 20
11.6249124385
 11
14.0491468683
 21
11.6249124385
  0
LINE
  5
27D
100
AcDbEntity
  8
LAYER_FEATURE
100
AcDbLine
 62
7
  6
CONTINUOUS
 10
14.2812426005
 20
11.6249124385
 11
14.5096773653
 21
11.6249124385
  0
LINE
  5
27E
100
AcDbEntity
  8
LAYER_FEATURE
100
AcDbLine
 62
7
  6
CONTINUOUS
 10
14.7417730975
 20
11.6249124385
 11
14.9702078623
 21
11.6249124385
  0
LINE
  5
27F
100
AcDbEntity
  8
LAYER_FEATURE
100
AcDbLine
 62
7
  6
CONTINUOUS
 10
15.2023035945
 20
11.6249124385
 11
15.4307383593
 21
11.6249124385
  0
LINE
  5
280
100
AcDbEntity
  8
LAYER_FEATURE
100
AcDbLine
 62
7
  6
CONTINUOUS
 10
15.6628340915
 20
11.6249124385
 11
15.8912688563
 21
11.6249124385
  0
LINE
  5
281
100
AcDbEntity
  8
LAYER_FEATURE
100
AcDbLine
 62
7
  6
CONTINUOUS
 10
16.1233645885
 20
11.6249124385
 11
16.3517993533
 21
11.6249124385
  0
LINE
  5
282
100
AcDbEntity
  8
LAYER_FEATURE
100
AcDbLine
 62
7
  6
CONTINUOUS
 10
16.5838950855
 20
11.6249124385
 11
16.8123298503
 21
11.6249124385
  0
LINE
  5
283
100
AcDbEntity
  8
LAYER_FEATURE
100
AcDbLine
 62
7
  6
CONTINUOUS
 10
17.0444255825
 20
11.6249124385
 11
17.2728603473
 21
11.6249124385
  0
LINE
  5
284
100
AcDbEntity
  8
LAYER_FEATURE
100
AcDbLine
 62
7
  6
CONTINUOUS
 10
15.0330514636
 20
11.7896390801
 11
15.1822506407
 21
11.6329211168
  0
LINE
  5
285
100
AcDbEntity
  8
LAYER_FEATURE
100
AcDbLine
 62
7
  6
CONTINUOUS
 10
14.5235002972
 20
11.8098414041
 11
14.5172573069
 21
11.7896390801
  0
LINE
  5
286
100
AcDbEntity
  8
LAYER_FEATURE
100
AcDbLine
 62
7
  6
CONTINUOUS
 10
14.5221957688
 20
11.6328204905
 11
14.5713768532
 21
11.7919705379
  0
LINE
  5
287
100
AcDbEntity
  8
LAYER_FEATURE
100
AcDbLine
 62
7
  6
CONTINUOUS
 10
13.5862824522
 20
11.8098414041
 11
13.6415461119
 21
11.8098414041
  0
LINE
  5
288
100
AcDbEntity
  8
LAYER_FEATURE
100
AcDbLine
 62
7
  6
CONTINUOUS
 10
14.0468129493
 20
11.8098414041
 11
14.1020766089
 21
11.8098414041
  0
LINE
  5
289
100
AcDbEntity
  8
LAYER_FEATURE
100
AcDbLine
 62
7
  6
CONTINUOUS
 10
14.5073434463
 20
11.8098414041
 11
14.5626071059
 21
11.8098414041
  0
LINE
  5
28A
100
AcDbEntity
  8
LAYER_FEATURE
100
AcDbLine
 62
7
  6
CONTINUOUS
 10
14.9678739433
 20
11.8098414041
 11
15.0231376029
 21
11.8098414041
  0
LINE
  5
28B
100
AcDbEntity
  8
LAYER_FEATURE
100
AcDbLine
 62
7
  6
CONTINUOUS
 10
15.4284044403
 20
11.8098414041
 11
15.4836680999
 21
11.8098414041
  0
LINE
  5
28C
100
AcDbEntity
  8
LAYER_FEATURE
100
AcDbLine
 62
7
  6
CONTINUOUS
 10
15.8889349373
 20
11.8098414041
 11
15.9441985969
 21
11.8098414041
  0
LINE
  5
28D
100
AcDbEntity
  8
LAYER_FEATURE
100
AcDbLine
 62
7
  6
CONTINUOUS
 10
16.3494654343
 20
11.8098414041
 11
16.4047290939
 21
11.8098414041
  0
LINE
  5
28E
100
AcDbEntity
  8
LAYER_FEATURE
100
AcDbLine
 62
7
  6
CONTINUOUS
 10
16.8099959313
 20
11.8098414041
 11
16.8652595909
 21
11.8098414041
  0
LINE
  5
28F
100
AcDbEntity
  8
0
100
AcDbLine
 62
7
  6
CONTINUOUS
 10
17.2537046101
 20
11.830043728
 11
13.1780097117
 21
11.830043728
  0
LINE
  5
290
100
AcDbEntity
  8
LAYER_FEATURE
100
AcDbLine
 62
7
  6
CONTINUOUS
 10
14.9777878039
 20
11.7896390801
 11
14.9678739433
 21
11.8098414041
  0
LINE
  5
291
100
AcDbEntity
  8
LAYER_FEATURE
100
AcDbLine
 62
7
  6
CONTINUOUS
 10
15.0231376029
 20
11.8098414041
 11
15.0330514636
 21
11.7896390801
  0
LINE
  5
292
100
AcDbEntity
  8
LAYER_FEATURE
100
AcDbLine
 62
7
  6
CONTINUOUS
 10
14.9824006392
 20
11.6329211168
 11
14.9777878039
 21
11.7896390801
  0
LINE
  5
293
100
AcDbEntity
  8
LAYER_FEATURE
100
AcDbLine
 62
7
  6
CONTINUOUS
 10
15.4935819606
 20
11.7896390801
 11
15.6427811377
 21
11.6329211168
  0
LINE
  5
294
100
AcDbEntity
  8
LAYER_FEATURE
100
AcDbLine
 62
7
  6
CONTINUOUS
 10
14.9821250378
 20
11.6308977301
 11
14.9824006392
 21
11.6329211168
  0
LINE
  5
295
100
AcDbEntity
  8
LAYER_FEATURE
100
AcDbLine
 62
7
  6
CONTINUOUS
 10
15.4383183009
 20
11.7896390801
 11
15.4284044403
 21
11.8098414041
  0
LINE
  5
296
100
AcDbEntity
  8
LAYER_FEATURE
100
AcDbLine
 62
7
  6
CONTINUOUS
 10
14.9840307942
 20
11.8098414041
 11
14.9777878039
 21
11.7896390801
  0
LINE
  5
297
100
AcDbEntity
  8
LAYER_FEATURE
100
AcDbLine
 62
7
  6
CONTINUOUS
 10
14.9827262658
 20
11.6328204905
 11
15.0319073502
 21
11.7919705379
  0
LINE
  5
298
100
AcDbEntity
  8
LAYER_FEATURE
100
AcDbLine
 62
7
  6
CONTINUOUS
 10
15.9541124576
 20
11.7896390801
 11
16.1033116347
 21
11.6329211168
  0
LINE
  5
299
100
AcDbEntity
  8
LAYER_FEATURE
100
AcDbLine
 62
7
  6
CONTINUOUS
 10
15.4836680999
 20
11.8098414041
 11
15.4935819606
 21
11.7896390801
  0
LINE
  5
29A
100
AcDbEntity
  8
LAYER_FEATURE
100
AcDbLine
 62
7
  6
CONTINUOUS
 10
15.4429311362
 20
11.6329211168
 11
15.4383183009
 21
11.7896390801
  0
LINE
  5
29B
100
AcDbEntity
  8
LAYER_FEATURE
100
AcDbLine
 62
7
  6
CONTINUOUS
 10
15.4426555348
 20
11.6308977301
 11
15.4429311362
 21
11.6329211168
  0
LINE
  5
29C
100
AcDbEntity
  8
LAYER_FEATURE
100
AcDbLine
 62
7
  6
CONTINUOUS
 10
15.4445612912
 20
11.8098414041
 11
15.4383183009
 21
11.7896390801
  0
LINE
  5
29D
100
AcDbEntity
  8
LAYER_FEATURE
100
AcDbLine
 62
7
  6
CONTINUOUS
 10
16.4146429546
 20
11.7896390801
 11
16.5638421317
 21
11.6329211168
  0
LINE
  5
29E
100
AcDbEntity
  8
LAYER_FEATURE
100
AcDbLine
 62
7
  6
CONTINUOUS
 10
15.8988487979
 20
11.7896390801
 11
15.8889349373
 21
11.8098414041
  0
LINE
  5
29F
100
AcDbEntity
  8
LAYER_FEATURE
100
AcDbLine
 62
7
  6
CONTINUOUS
 10
15.9441985969
 20
11.8098414041
 11
15.9541124576
 21
11.7896390801
  0
LINE
  5
2A0
100
AcDbEntity
  8
LAYER_FEATURE
100
AcDbLine
 62
7
  6
CONTINUOUS
 10
15.4432567629
 20
11.6328204905
 11
15.4924378472
 21
11.7919705379
  0
LINE
  5
2A1
100
AcDbEntity
  8
LAYER_FEATURE
100
AcDbLine
 62
7
  6
CONTINUOUS
 10
15.9034616332
 20
11.6329211168
 11
15.8988487979
 21
11.7896390801
  0
LINE
  5
2A2
100
AcDbEntity
  8
LAYER_FEATURE
100
AcDbLine
 62
7
  6
CONTINUOUS
 10
16.3593792949
 20
11.7896390801
 11
16.3494654343
 21
11.8098414041
  0
LINE
  5
2A3
100
AcDbEntity
  8
LAYER_FEATURE
100
AcDbLine
 62
7
  6
CONTINUOUS
 10
15.9031860318
 20
11.6308977301
 11
15.9034616332
 21
11.6329211168
  0
LINE
  5
2A4
100
AcDbEntity
  8
LAYER_FEATURE
100
AcDbLine
 62
7
  6
CONTINUOUS
 10
15.9050917882
 20
11.8098414041
 11
15.8988487979
 21
11.7896390801
  0
LINE
  5
2A5
100
AcDbEntity
  8
LAYER_FEATURE
100
AcDbLine
 62
7
  6
CONTINUOUS
 10
15.9037872599
 20
11.6328204905
 11
15.9529683442
 21
11.7919705379
  0
LINE
  5
2A6
100
AcDbEntity
  8
LAYER_FEATURE
100
AcDbLine
 62
7
  6
CONTINUOUS
 10
16.8751734516
 20
11.7896390801
 11
17.0243726287
 21
11.6329211168
  0
LINE
  5
2A7
100
AcDbEntity
  8
LAYER_FEATURE
100
AcDbLine
 62
7
  6
CONTINUOUS
 10
16.4047290939
 20
11.8098414041
 11
16.4146429546
 21
11.7896390801
  0
LINE
  5
2A8
100
AcDbEntity
  8
LAYER_FEATURE
100
AcDbLine
 62
7
  6
CONTINUOUS
 10
16.3639921302
 20
11.6329211168
 11
16.3593792949
 21
11.7896390801
  0
LINE
  5
2A9
100
AcDbEntity
  8
LAYER_FEATURE
100
AcDbLine
 62
7
  6
CONTINUOUS
 10
16.3637165288
 20
11.6308977301
 11
16.3639921302
 21
11.6329211168
  0
LINE
  5
2AA
100
AcDbEntity
  8
0
100
AcDbLine
 62
7
  6
CONTINUOUS
 10
13.6621423585
 20
13.3966975473
 11
17.737837257
 21
13.3966975473
  0
LINE
  5
2AB
100
AcDbEntity
  8
LAYER_FEATURE
100
AcDbLine
 62
7
  6
CONTINUOUS
 10
16.8199097919
 20
11.7896390801
 11
16.8099959313
 21
11.8098414041
  0
LINE
  5
2AC
100
AcDbEntity
  8
LAYER_FEATURE
100
AcDbLine
 62
7
  6
CONTINUOUS
 10
16.8652595909
 20
11.8098414041
 11
16.8751734516
 21
11.7896390801
  0
LINE
  5
2AD
100
AcDbEntity
  8
LAYER_FEATURE
100
AcDbLine
 62
7
  6
CONTINUOUS
 10
16.3656222852
 20
11.8098414041
 11
16.3593792949
 21
11.7896390801
  0
LINE
  5
2AE
100
AcDbEntity
  8
LAYER_FEATURE
100
AcDbLine
 62
7
  6
CONTINUOUS
 10
16.3643177569
 20
11.6328204905
 11
16.4134988412
 21
11.7919705379
  0
LINE
  5
2AF
100
AcDbEntity
  8
LAYER_FEATURE
100
AcDbLine
 62
7
  6
CONTINUOUS
 10
16.8245226272
 20
11.6329211168
 11
16.8199097919
 21
11.7896390801
  0
LINE
  5
2B0
100
AcDbEntity
  8
0
100
AcDbLine
 62
7
  6
CONTINUOUS
 10
17.2804402889
 20
11.7896390801
 11
17.2629003816
 21
11.8253816533
  0
LINE
  5
2B1
100
AcDbEntity
  8
LAYER_FEATURE
100
AcDbLine
 62
7
  6
CONTINUOUS
 10
16.8242470258
 20
11.6308977301
 11
16.8245226272
 21
11.6329211168
  0
LINE
  5
2B2
100
AcDbEntity
  8
LAYER_FEATURE
100
AcDbLine
 62
7
  6
CONTINUOUS
 10
16.8261527822
 20
11.8098414041
 11
16.8199097919
 21
11.7896390801
  0
LINE
  5
2B3
100
AcDbEntity
  8
LAYER_FEATURE
100
AcDbLine
 62
7
  6
CONTINUOUS
 10
16.8248482539
 20
11.6328204905
 11
16.8740293382
 21
11.7919705379
  0
LINE
  5
2B4
100
AcDbEntity
  8
LAYER_FEATURE
100
AcDbLine
 62
7
  6
CONTINUOUS
 10
17.2850531242
 20
11.6329211168
 11
17.2804402889
 21
11.7896390801
  0
LINE
  5
2B5
100
AcDbEntity
  8
LAYER_FEATURE
100
AcDbLine
 62
7
  6
CONTINUOUS
 10
17.2847775228
 20
11.6308977301
 11
17.2850531242
 21
11.6329211168
  0
LINE
  5
2B6
100
AcDbEntity
  8
LAYER_FEATURE
100
AcDbLine
 62
7
  6
CONTINUOUS
 10
17.7645729357
 20
13.3562928994
 11
17.2804402889
 21
11.7896390801
  0
LINE
  5
2B7
100
AcDbEntity
  8
LAYER_FEATURE
100
AcDbLine
 62
7
  6
CONTINUOUS
 10
17.2853787509
 20
11.6328204905
 11
17.7689166087
 21
13.197549572
  0
LINE
  5
2B8
100
AcDbEntity
  8
LAYER_FEATURE
100
AcDbLine
 62
7
  6
CONTINUOUS
 10
17.769185771
 20
13.199574936
 11
17.7645729357
 21
13.3562928994
  0
LINE
  5
2B9
100
AcDbEntity
  8
LAYER_FEATURE
100
AcDbLine
 62
7
  6
CONTINUOUS
 10
17.769185771
 20
13.199574936
 11
17.7689101696
 21
13.1975515493
  0
LINE
  5
2BA
100
AcDbEntity
  8
0
100
AcDbLine
 62
7
  6
CONTINUOUS
 10
17.7470330284
 20
13.3920354725
 11
17.7645729357
 21
13.3562928994
  0
ARC
  5
2BB
100
AcDbEntity
  8
0
100
AcDbCircle
 62
7
  6
CONTINUOUS
 10
4.0063609583
 20
5.3734532301
 40
0.0183333333
100
AcDbArc
 50
197.2924493999
 51
270.0
  0
ARC
  5
2BC
100
AcDbEntity
  8
0
100
AcDbCircle
 62
7
  6
CONTINUOUS
 10
4.2543735941
 20
5.3734532301
 40
0.0183333333
100
AcDbArc
 50
270.0
 51
342.7075506001
  0
ARC
  5
2BD
100
AcDbEntity
  8
LAYER_FEATURE
100
AcDbCircle
 62
7
  6
CONTINUOUS
 10
4.5063609583
 20
5.3734532301
 40
0.0183333333
100
AcDbArc
 50
197.2924493999
 51
270.0
  0
ARC
  5
2BE
100
AcDbEntity
  8
LAYER_FEATURE
100
AcDbCircle
 62
7
  6
CONTINUOUS
 10
4.7543735941
 20
5.3734532301
 40
0.0183333333
100
AcDbArc
 50
270.0
 51
342.7075506001
  0
ARC
  5
2BF
100
AcDbEntity
  8
LAYER_FEATURE
100
AcDbCircle
 62
7
  6
CONTINUOUS
 10
5.0063609583
 20
5.3734532301
 40
0.0183333333
100
AcDbArc
 50
197.2924493999
 51
270.0
  0
ARC
  5
2C0
100
AcDbEntity
  8
LAYER_FEATURE
100
AcDbCircle
 62
7
  6
CONTINUOUS
 10
5.2543735941
 20
5.3734532301
 40
0.0183333333
100
AcDbArc
 50
270.0
 51
342.7075506001
  0
ARC
  5
2C1
100
AcDbEntity
  8
LAYER_FEATURE
100
AcDbCircle
 62
7
  6
CONTINUOUS
 10
5.5063609583
 20
5.3734532301
 40
0.0183333333
100
AcDbArc
 50
197.2924493999
 51
270.0
  0
ARC
  5
2C2
100
AcDbEntity
  8
LAYER_FEATURE
100
AcDbCircle
 62
7
  6
CONTINUOUS
 10
5.7543735941
 20
5.3734532301
 40
0.0183333333
100
AcDbArc
 50
270.0
 51
342.7075506001
  0
ARC
  5
2C3
100
AcDbEntity
  8
LAYER_FEATURE
100
AcDbCircle
 62
7
  6
CONTINUOUS
 10
6.0063609583
 20
5.3734532301
 40
0.0183333333
100
AcDbArc
 50
197.2924493999
 51
270.0
  0
ARC
  5
2C4
100
AcDbEntity
  8
LAYER_FEATURE
100
AcDbCircle
 62
7
  6
CONTINUOUS
 10
6.2543735941
 20
5.3734532301
 40
0.0183333333
100
AcDbArc
 50
270.0
 51
342.7075506001
  0
ARC
  5
2C5
100
AcDbEntity
  8
LAYER_FEATURE
100
AcDbCircle
 62
7
  6
CONTINUOUS
 10
6.5063609583
 20
5.3734532301
 40
0.0183333333
100
AcDbArc
 50
197.2924493999
 51
270.0
  0
ARC
  5
2C6
100
AcDbEntity
  8
LAYER_FEATURE
100
AcDbCircle
 62
7
  6
CONTINUOUS
 10
6.7543735941
 20
5.3734532301
 40
0.0183333333
100
AcDbArc
 50
270.0
 51
342.7075506001
  0
ARC
  5
2C7
100
AcDbEntity
  8
LAYER_FEATURE
100
AcDbCircle
 62
7
  6
CONTINUOUS
 10
7.0063609583
 20
5.3734532301
 40
0.0183333333
100
AcDbArc
 50
197.2924493999
 51
270.0
  0
ARC
  5
2C8
100
AcDbEntity
  8
LAYER_FEATURE
100
AcDbCircle
 62
7
  6
CONTINUOUS
 10
7.2543735941
 20
5.3734532301
 40
0.0183333333
100
AcDbArc
 50
270.0
 51
342.7075506001
  0
ARC
  5
2C9
100
AcDbEntity
  8
LAYER_FEATURE
100
AcDbCircle
 62
7
  6
CONTINUOUS
 10
7.5063609583
 20
5.3734532301
 40
0.0183333333
100
AcDbArc
 50
197.2924493999
 51
270.0
  0
ARC
  5
2CA
100
AcDbEntity
  8
LAYER_FEATURE
100
AcDbCircle
 62
7
  6
CONTINUOUS
 10
8.2543735941
 20
5.3734532301
 40
0.0183333333
100
AcDbArc
 50
270.0
 51
342.7075506001
  0
ARC
  5
2CB
100
AcDbEntity
  8
LAYER_FEATURE
100
AcDbCircle
 62
7
  6
CONTINUOUS
 10
8.0063609583
 20
5.3734532301
 40
0.0183333333
100
AcDbArc
 50
197.2924493999
 51
270.0
  0
ARC
  5
2CC
100
AcDbEntity
  8
LAYER_FEATURE
100
AcDbCircle
 62
7
  6
CONTINUOUS
 10
7.7543735941
 20
5.3734532301
 40
0.0183333333
100
AcDbArc
 50
270.0
 51
342.7075506001
  0
ARC
  5
2CD
100
AcDbEntity
  8
0
100
AcDbCircle
 62
7
  6
CONTINUOUS
 10
3.9178672762
 20
5.6776198968
 40
0.0075
100
AcDbArc
 50
90.0
 51
180.0
  0
ARC
  5
2CE
100
AcDbEntity
  8
0
100
AcDbCircle
 62
7
  6
CONTINUOUS
 10
8.3428672762
 20
5.6776198968
 40
0.0075
100
AcDbArc
 50
0.0
 51
90.0
  0
ARC
  5
2CF
100
AcDbEntity
  8
0
100
AcDbCircle
 62
7
  6
CONTINUOUS
 10
13.1754917983
 20
11.8268662739
 40
0.0024701287
100
AcDbArc
 50
162.8176811642
 51
173.1764857042
  0
SPLINE
  5
2D0
100
AcDbEntity
  8
0
100
AcDbSpline
 62
7
  6
CONTINUOUS
 70
0
 71
3
 72
11
 73
7
 74
0
 42
0.0000001
 43
0.0000001
 44
0.0000000001
 40
0.0
 40
0.0
 40
0.0
 40
0.0
 40
0.2646775377
 40
0.5366308069
 40
0.7885558833
 40
1.0
 40
1.0
 40
1.0
 40
1.0
 10
17.737837257
 20
13.3966975473
 30
0.0
 10
17.7387838169
 20
13.3966975473
 30
0.0
 10
17.7407068552
 20
13.3964382201
 30
0.0
 10
17.7433750312
 20
13.3954591915
 30
0.0
 10
17.7455975519
 20
13.394014073
 30
0.0
 10
17.7466998977
 20
13.3927143215
 30
0.0
 10
17.7470330284
 20
13.3920354725
 30
0.0
  0
SPLINE
  5
2D1
100
AcDbEntity
  8
0
100
AcDbSpline
 62
7
  6
CONTINUOUS
 70
0
 71
3
 72
9
 73
5
 74
0
 42
0.0000001
 43
0.0000001
 44
0.0000000001
 40
0.0
 40
0.0
 40
0.0
 40
0.0
 40
0.2357230423
 40
1.0
 40
1.0
 40
1.0
 40
1.0
 10
13.1730391659
 20
11.8271597535
 30
0.0
 10
13.1730220971
 20
11.8270172057
 30
0.0
 10
13.1730017031
 20
11.8264060339
 30
0.0
 10
13.1731845047
 20
11.8257995289
 30
0.0
 10
13.1733895682
 20
11.8253816533
 30
0.0
  0
SPLINE
  5
2D2
100
AcDbEntity
  8
0
100
AcDbSpline
 62
7
  6
CONTINUOUS
 70
0
 71
3
 72
11
 73
7
 74
0
 42
0.0000001
 43
0.0000001
 44
0.0000000001
 40
0.0
 40
0.0
 40
0.0
 40
0.0
 40
0.2022219841
 40
0.4299972305
 40
0.6965191172
 40
1.0
 40
1.0
 40
1.0
 40
1.0
 10
13.6572645593
 20
13.3942498019
 30
0.0
 10
13.6573801777
 20
13.3946231155
 30
0.0
 10
13.6578306479
 20
13.3953616227
 30
0.0
 10
13.6589640816
 20
13.3961375935
 30
0.0
 10
13.6604501054
 20
13.3966036214
 30
0.0
 10
13.661555861
 20
13.3966975473
 30
0.0
 10
13.6621423585
 20
13.3966975473
 30
0.0
  0
SPLINE
  5
2D3
100
AcDbEntity
  8
LAYER_FEATURE
100
AcDbSpline
 62
7
  6
CONTINUOUS
 70
0
 71
3
 72
12
 73
8
 74
0
 42
0.0000001
 43
0.0000001
 44
0.0000000001
 40
0.0
 40
0.0
 40
0.0
 40
0.0
 40
0.3033053169
 40
0.5691657579
 40
0.7965858082
 40
0.9000260959
 40
1.0
 40
1.0
 40
1.0
 40
1.0
 10
17.2728603473
 20
11.6249124385
 30
0.0
 10
17.274295053
 20
11.6249124385
 30
0.0
 10
17.2769980997
 20
11.6251420033
 30
0.0
 10
17.2806283558
 20
11.6262767509
 30
0.0
 10
17.2830075404
 20
11.6279194598
 30
0.0
 10
17.2842489819
 20
11.6295550685
 30
0.0
 10
17.2846434975
 20
11.6304441825
 30
0.0
 10
17.2847829575
 20
11.6308960513
 30
0.0
  0
SPLINE
  5
2D4
100
AcDbEntity
  8
LAYER_FEATURE
100
AcDbSpline
 62
7
  6
CONTINUOUS
 70
0
 71
3
 72
11
 73
7
 74
0
 42
0.0000001
 43
0.0000001
 44
0.0000000001
 40
0.0
 40
0.0
 40
0.0
 40
0.0
 40
0.2309700095
 40
0.4854319125
 40
0.7475780014
 40
1.0
 40
1.0
 40
1.0
 40
1.0
 10
17.0243726287
 20
11.6329211168
 30
0.0
 10
17.0255453102
 20
11.6316893387
 30
0.0
 10
17.0283783446
 20
11.6294459992
 30
0.0
 10
17.0333174575
 20
11.6269511475
 30
0.0
 10
17.0387719349
 20
11.6253274598
 30
0.0
 10
17.0425668999
 20
11.6249124385
 30
0.0
 10
17.0444255825
 20
11.6249124385
 30
0.0
  0
SPLINE
  5
2D5
100
AcDbEntity
  8
LAYER_FEATURE
100
AcDbSpline
 62
7
  6
CONTINUOUS
 70
0
 71
3
 72
12
 73
8
 74
0
 42
0.0000001
 43
0.0000001
 44
0.0000000001
 40
0.0
 40
0.0
 40
0.0
 40
0.0
 40
0.3033053169
 40
0.5691657579
 40
0.7965858082
 40
0.9000260959
 40
1.0
 40
1.0
 40
1.0
 40
1.0
 10
16.8123298503
 20
11.6249124385
 30
0.0
 10
16.813764556
 20
11.6249124385
 30
0.0
 10
16.8164676027
 20
11.6251420033
 30
0.0
 10
16.8200978588
 20
11.6262767509
 30
0.0
 10
16.8224770434
 20
11.6279194598
 30
0.0
 10
16.8237184849
 20
11.6295550685
 30
0.0
 10
16.8241130005
 20
11.6304441825
 30
0.0
 10
16.8242524605
 20
11.6308960513
 30
0.0
  0
SPLINE
  5
2D6
100
AcDbEntity
  8
LAYER_FEATURE
100
AcDbSpline
 62
7
  6
CONTINUOUS
 70
0
 71
3
 72
11
 73
7
 74
0
 42
0.0000001
 43
0.0000001
 44
0.0000000001
 40
0.0
 40
0.0
 40
0.0
 40
0.0
 40
0.2309700095
 40
0.4854319125
 40
0.7475780014
 40
1.0
 40
1.0
 40
1.0
 40
1.0
 10
16.5638421317
 20
11.6329211168
 30
0.0
 10
16.5650148132
 20
11.6316893387
 30
0.0
 10
16.5678478476
 20
11.6294459992
 30
0.0
 10
16.5727869605
 20
11.6269511475
 30
0.0
 10
16.5782414379
 20
11.6253274598
 30
0.0
 10
16.5820364029
 20
11.6249124385
 30
0.0
 10
16.5838950855
 20
11.6249124385
 30
0.0
  0
SPLINE
  5
2D7
100
AcDbEntity
  8
LAYER_FEATURE
100
AcDbSpline
 62
7
  6
CONTINUOUS
 70
0
 71
3
 72
12
 73
8
 74
0
 42
0.0000001
 43
0.0000001
 44
0.0000000001
 40
0.0
 40
0.0
 40
0.0
 40
0.0
 40
0.3033053169
 40
0.5691657579
 40
0.7965858082
 40
0.9000260959
 40
1.0
 40
1.0
 40
1.0
 40
1.0
 10
16.3517993533
 20
11.6249124385
 30
0.0
 10
16.353234059
 20
11.6249124385
 30
0.0
 10
16.3559371057
 20
11.6251420033
 30
0.0
 10
16.3595673618
 20
11.6262767509
 30
0.0
 10
16.3619465464
 20
11.6279194598
 30
0.0
 10
16.3631879879
 20
11.6295550685
 30
0.0
 10
16.3635825035
 20
11.6304441825
 30
0.0
 10
16.3637219635
 20
11.6308960513
 30
0.0
  0
SPLINE
  5
2D8
100
AcDbEntity
  8
LAYER_FEATURE
100
AcDbSpline
 62
7
  6
CONTINUOUS
 70
0
 71
3
 72
11
 73
7
 74
0
 42
0.0000001
 43
0.0000001
 44
0.0000000001
 40
0.0
 40
0.0
 40
0.0
 40
0.0
 40
0.2309700095
 40
0.4854319125
 40
0.7475780014
 40
1.0
 40
1.0
 40
1.0
 40
1.0
 10
16.1033116347
 20
11.6329211168
 30
0.0
 10
16.1044843162
 20
11.6316893387
 30
0.0
 10
16.1073173506
 20
11.6294459992
 30
0.0
 10
16.1122564635
 20
11.6269511475
 30
0.0
 10
16.1177109409
 20
11.6253274598
 30
0.0
 10
16.1215059059
 20
11.6249124385
 30
0.0
 10
16.1233645885
 20
11.6249124385
 30
0.0
  0
SPLINE
  5
2D9
100
AcDbEntity
  8
LAYER_FEATURE
100
AcDbSpline
 62
7
  6
CONTINUOUS
 70
0
 71
3
 72
12
 73
8
 74
0
 42
0.0000001
 43
0.0000001
 44
0.0000000001
 40
0.0
 40
0.0
 40
0.0
 40
0.0
 40
0.3033053169
 40
0.5691657579
 40
0.7965858082
 40
0.9000260959
 40
1.0
 40
1.0
 40
1.0
 40
1.0
 10
15.8912688563
 20
11.6249124385
 30
0.0
 10
15.892703562
 20
11.6249124385
 30
0.0
 10
15.8954066087
 20
11.6251420033
 30
0.0
 10
15.8990368648
 20
11.6262767509
 30
0.0
 10
15.9014160494
 20
11.6279194598
 30
0.0
 10
15.9026574909
 20
11.6295550685
 30
0.0
 10
15.9030520065
 20
11.6304441825
 30
0.0
 10
15.9031914665
 20
11.6308960513
 30
0.0
  0
SPLINE
  5
2DA
100
AcDbEntity
  8
LAYER_FEATURE
100
AcDbSpline
 62
7
  6
CONTINUOUS
 70
0
 71
3
 72
11
 73
7
 74
0
 42
0.0000001
 43
0.0000001
 44
0.0000000001
 40
0.0
 40
0.0
 40
0.0
 40
0.0
 40
0.2309700095
 40
0.4854319125
 40
0.7475780014
 40
1.0
 40
1.0
 40
1.0
 40
1.0
 10
15.6427811377
 20
11.6329211168
 30
0.0
 10
15.6439538192
 20
11.6316893387
 30
0.0
 10
15.6467868536
 20
11.6294459992
 30
0.0
 10
15.6517259665
 20
11.6269511475
 30
0.0
 10
15.6571804439
 20
11.6253274598
 30
0.0
 10
15.6609754089
 20
11.6249124385
 30
0.0
 10
15.6628340915
 20
11.6249124385
 30
0.0
  0
SPLINE
  5
2DB
100
AcDbEntity
  8
LAYER_FEATURE
100
AcDbSpline
 62
7
  6
CONTINUOUS
 70
0
 71
3
 72
12
 73
8
 74
0
 42
0.0000001
 43
0.0000001
 44
0.0000000001
 40
0.0
 40
0.0
 40
0.0
 40
0.0
 40
0.3033053169
 40
0.5691657579
 40
0.7965858082
 40
0.9000260959
 40
1.0
 40
1.0
 40
1.0
 40
1.0
 10
15.4307383593
 20
11.6249124385
 30
0.0
 10
15.432173065
 20
11.6249124385
 30
0.0
 10
15.4348761117
 20
11.6251420033
 30
0.0
 10
15.4385063678
 20
11.6262767509
 30
0.0
 10
15.4408855524
 20
11.6279194598
 30
0.0
 10
15.4421269939
 20
11.6295550685
 30
0.0
 10
15.4425215095
 20
11.6304441825
 30
0.0
 10
15.4426609695
 20
11.6308960513
 30
0.0
  0
SPLINE
  5
2DC
100
AcDbEntity
  8
LAYER_FEATURE
100
AcDbSpline
 62
7
  6
CONTINUOUS
 70
0
 71
3
 72
11
 73
7
 74
0
 42
0.0000001
 43
0.0000001
 44
0.0000000001
 40
0.0
 40
0.0
 40
0.0
 40
0.0
 40
0.2309700095
 40
0.4854319125
 40
0.7475780014
 40
1.0
 40
1.0
 40
1.0
 40
1.0
 10
15.1822506407
 20
11.6329211168
 30
0.0
 10
15.1834233222
 20
11.6316893387
 30
0.0
 10
15.1862563566
 20
11.6294459992
 30
0.0
 10
15.1911954695
 20
11.6269511475
 30
0.0
 10
15.1966499469
 20
11.6253274598
 30
0.0
 10
15.2004449119
 20
11.6249124385
 30
0.0
 10
15.2023035945
 20
11.6249124385
 30
0.0
  0
SPLINE
  5
2DD
100
AcDbEntity
  8
LAYER_FEATURE
100
AcDbSpline
 62
7
  6
CONTINUOUS
 70
0
 71
3
 72
12
 73
8
 74
0
 42
0.0000001
 43
0.0000001
 44
0.0000000001
 40
0.0
 40
0.0
 40
0.0
 40
0.0
 40
0.3033053169
 40
0.5691657579
 40
0.7965858082
 40
0.9000260959
 40
1.0
 40
1.0
 40
1.0
 40
1.0
 10
14.9702078623
 20
11.6249124385
 30
0.0
 10
14.971642568
 20
11.6249124385
 30
0.0
 10
14.9743456147
 20
11.6251420033
 30
0.0
 10
14.9779758708
 20
11.6262767509
 30
0.0
 10
14.9803550554
 20
11.6279194598
 30
0.0
 10
14.9815964969
 20
11.6295550685
 30
0.0
 10
14.9819910125
 20
11.6304441825
 30
0.0
 10
14.9821304725
 20
11.6308960513
 30
0.0
  0
SPLINE
  5
2DE
100
AcDbEntity
  8
LAYER_FEATURE
100
AcDbSpline
 62
7
  6
CONTINUOUS
 70
0
 71
3
 72
11
 73
7
 74
0
 42
0.0000001
 43
0.0000001
 44
0.0000000001
 40
0.0
 40
0.0
 40
0.0
 40
0.0
 40
0.2309700095
 40
0.4854319125
 40
0.7475780014
 40
1.0
 40
1.0
 40
1.0
 40
1.0
 10
14.7217201437
 20
11.6329211168
 30
0.0
 10
14.7228928252
 20
11.6316893387
 30
0.0
 10
14.7257258596
 20
11.6294459992
 30
0.0
 10
14.7306649725
 20
11.6269511475
 30
0.0
 10
14.7361194499
 20
11.6253274598
 30
0.0
 10
14.7399144149
 20
11.6249124385
 30
0.0
 10
14.7417730975
 20
11.6249124385
 30
0.0
  0
SPLINE
  5
2DF
100
AcDbEntity
  8
LAYER_FEATURE
100
AcDbSpline
 62
7
  6
CONTINUOUS
 70
0
 71
3
 72
12
 73
8
 74
0
 42
0.0000001
 43
0.0000001
 44
0.0000000001
 40
0.0
 40
0.0
 40
0.0
 40
0.0
 40
0.3033053169
 40
0.5691657579
 40
0.7965858082
 40
0.9000260959
 40
1.0
 40
1.0
 40
1.0
 40
1.0
 10
14.5096773653
 20
11.6249124385
 30
0.0
 10
14.511112071
 20
11.6249124385
 30
0.0
 10
14.5138151177
 20
11.6251420033
 30
0.0
 10
14.5174453738
 20
11.6262767509
 30
0.0
 10
14.5198245584
 20
11.6279194598
 30
0.0
 10
14.5210659999
 20
11.6295550685
 30
0.0
 10
14.5214605155
 20
11.6304441825
 30
0.0
 10
14.5215999755
 20
11.6308960513
 30
0.0
  0
SPLINE
  5
2E0
100
AcDbEntity
  8
LAYER_FEATURE
100
AcDbSpline
 62
7
  6
CONTINUOUS
 70
0
 71
3
 72
11
 73
7
 74
0
 42
0.0000001
 43
0.0000001
 44
0.0000000001
 40
0.0
 40
0.0
 40
0.0
 40
0.0
 40
0.2309700095
 40
0.4854319125
 40
0.7475780014
 40
1.0
 40
1.0
 40
1.0
 40
1.0
 10
14.2611896467
 20
11.6329211168
 30
0.0
 10
14.2623623282
 20
11.6316893387
 30
0.0
 10
14.2651953625
 20
11.6294459992
 30
0.0
 10
14.2701344755
 20
11.6269511475
 30
0.0
 10
14.2755889529
 20
11.6253274598
 30
0.0
 10
14.2793839179
 20
11.6249124385
 30
0.0
 10
14.2812426005
 20
11.6249124385
 30
0.0
  0
SPLINE
  5
2E1
100
AcDbEntity
  8
LAYER_FEATURE
100
AcDbSpline
 62
7
  6
CONTINUOUS
 70
0
 71
3
 72
12
 73
8
 74
0
 42
0.0000001
 43
0.0000001
 44
0.0000000001
 40
0.0
 40
0.0
 40
0.0
 40
0.0
 40
0.3033053169
 40
0.5691657579
 40
0.7965858082
 40
0.9000260959
 40
1.0
 40
1.0
 40
1.0
 40
1.0
 10
14.0491468683
 20
11.6249124385
 30
0.0
 10
14.050581574
 20
11.6249124385
 30
0.0
 10
14.0532846207
 20
11.6251420033
 30
0.0
 10
14.0569148768
 20
11.6262767509
 30
0.0
 10
14.0592940614
 20
11.6279194598
 30
0.0
 10
14.0605355029
 20
11.6295550685
 30
0.0
 10
14.0609300185
 20
11.6304441825
 30
0.0
 10
14.0610694785
 20
11.6308960513
 30
0.0
  0
SPLINE
  5
2E2
100
AcDbEntity
  8
LAYER_FEATURE
100
AcDbSpline
 62
7
  6
CONTINUOUS
 70
0
 71
3
 72
11
 73
7
 74
0
 42
0.0000001
 43
0.0000001
 44
0.0000000001
 40
0.0
 40
0.0
 40
0.0
 40
0.0
 40
0.2309700095
 40
0.4854319125
 40
0.7475780014
 40
1.0
 40
1.0
 40
1.0
 40
1.0
 10
13.8006591497
 20
11.6329211168
 30
0.0
 10
13.8018318312
 20
11.6316893387
 30
0.0
 10
13.8046648655
 20
11.6294459992
 30
0.0
 10
13.8096039785
 20
11.6269511475
 30
0.0
 10
13.8150584559
 20
11.6253274598
 30
0.0
 10
13.8188534209
 20
11.6249124385
 30
0.0
 10
13.8207121035
 20
11.6249124385
 30
0.0
  0
SPLINE
  5
2E3
100
AcDbEntity
  8
0
100
AcDbSpline
 62
7
  6
CONTINUOUS
 70
0
 71
3
 72
12
 73
8
 74
0
 42
0.0000001
 43
0.0000001
 44
0.0000000001
 40
0.0
 40
0.0
 40
0.0
 40
0.0
 40
0.3033053169
 40
0.5691657579
 40
0.7965858082
 40
0.9000260959
 40
1.0
 40
1.0
 40
1.0
 40
1.0
 10
13.5886163713
 20
11.6249124385
 30
0.0
 10
13.590051077
 20
11.6249124385
 30
0.0
 10
13.5927541237
 20
11.6251420033
 30
0.0
 10
13.5963843798
 20
11.6262767509
 30
0.0
 10
13.5987635644
 20
11.6279194598
 30
0.0
 10
13.6000050059
 20
11.6295550685
 30
0.0
 10
13.6003995215
 20
11.6304441825
 30
0.0
 10
13.6005389815
 20
11.6308960513
 30
0.0
  0
SPLINE
  5
2E4
100
AcDbEntity
  8
0
100
AcDbSpline
 62
7
  6
CONTINUOUS
 70
0
 71
3
 72
11
 73
7
 74
0
 42
0.0000001
 43
0.0000001
 44
0.0000000001
 40
0.0
 40
0.0
 40
0.0
 40
0.0
 40
0.2309700095
 40
0.4854319125
 40
0.7475780014
 40
1.0
 40
1.0
 40
1.0
 40
1.0
 10
13.3401286527
 20
11.6329211168
 30
0.0
 10
13.3413013342
 20
11.6316893387
 30
0.0
 10
13.3441343685
 20
11.6294459992
 30
0.0
 10
13.3490734815
 20
11.6269511475
 30
0.0
 10
13.3545279589
 20
11.6253274598
 30
0.0
 10
13.3583229239
 20
11.6249124385
 30
0.0
 10
13.3601816065
 20
11.6249124385
 30
0.0
  0
SPLINE
  5
2E5
100
AcDbEntity
  8
0
100
AcDbSpline
 62
7
  6
CONTINUOUS
 70
0
 71
3
 72
11
 73
7
 74
0
 42
0.0000001
 43
0.0000001
 44
0.0000000001
 40
0.0
 40
0.0
 40
0.0
 40
0.0
 40
0.3034808828
 40
0.5700027695
 40
0.7977780159
 40
1.0
 40
1.0
 40
1.0
 40
1.0
 10
13.1780097117
 20
11.830043728
 30
0.0
 10
13.1774232142
 20
11.830043728
 30
0.0
 10
13.1763174586
 20
11.8299498021
 30
0.0
 10
13.1748314348
 20
11.8294837742
 30
0.0
 10
13.1736980011
 20
11.8287078034
 30
0.0
 10
13.1732475309
 20
11.8279692963
 30
0.0
 10
13.1731319125
 20
11.8275959826
 30
0.0
  0
SPLINE
  5
2E6
100
AcDbEntity
  8
0
100
AcDbSpline
 62
7
  6
CONTINUOUS
 70
0
 71
3
 72
11
 73
7
 74
0
 42
0.0000001
 43
0.0000001
 44
0.0000000001
 40
0.0
 40
0.0
 40
0.0
 40
0.0
 40
0.2114441167
 40
0.4633691931
 40
0.7353224623
 40
1.0
 40
1.0
 40
1.0
 40
1.0
 10
17.2629003816
 20
11.8253816533
 30
0.0
 10
17.2625672509
 20
11.8260605023
 30
0.0
 10
17.2614649051
 20
11.8273602537
 30
0.0
 10
17.2592423844
 20
11.8288053722
 30
0.0
 10
17.2565742084
 20
11.8297844008
 30
0.0
 10
17.2546511701
 20
11.830043728
 30
0.0
 10
17.2537046101
 20
11.830043728
 30
0.0
  0
ENDSEC
  0
SECTION
  2
OBJECTS
  0
DICTIONARY
  5
C
100
AcDbDictionary
280
0
281
1
  3
ACAD_GROUP
350
D
  3
ACAD_MLINESTYLE
350
17
  3
ACAD_LAYOUT
350
1A
  3
ACAD_PLOTSETTINGS
350
19
  3
ACAD_PLOTSTYLENAME
350
E
  0
DICTIONARY
  5
D
102
{ACAD_REACTORS
330
C
102
}
100
AcDbDictionary
280
0
281
1
  0
ACDBDICTIONARYWDFLT
  5
E
102
{ACAD_REACTORS
330
C
102
}
100
AcDbDictionary
281
1
  3
Normal
350
F
100
AcDbDictionaryWithDefault
340
F
  0
DICTIONARY
  5
17
102
{ACAD_REACTORS
330
C
102
}
100
AcDbDictionary
280
0
281
1
  3
Standard
350
18
  0
DICTIONARY
  5
19
102
{ACAD_REACTORS
330
C
102
}
100
AcDbDictionary
281
1
  0
DICTIONARY
  5
1A
102
{ACAD_REACTORS
330
C
102
}
100
AcDbDictionary
281
1
  3
Model
350
2E7
  3
Layout1
350
2E8
  0
ACDBPLACEHOLDER
  5
F
102
{ACAD_REACTORS
330
E
102
}
  0
MLINESTYLE
  5
18
102
{ACAD_REACTORS
330
17
102
}
100
AcDbMlineStyle
  2
STANDARD
 70
0
  3

 62
256
 51
90.0
 52
90.0
 71
2
 49
0.5
 62
256
  6
BYLAYER
 49
-0.5
 62
256
  6
BYLAYER
  0
LAYOUT
  5
2E7
102
{ACAD_REACTORS
330
1A
102
}
100
AcDbPlotSettings
  1

  2
none_device
  4
ANSI_C_(22.00_x_17.00_Inches)
  6

 40
0.0
 41
0.0
 42
0.0
 43
0.0
 44
558.8
 45
431.8
 46
0.0
 47
0.0
 48
0.0
 49
0.0
140
0.0
141
0.0
142
1.0
143
1.0
 70
1024
 72
0
 73
0
 74
0
  7

 75
0
147
1.0
148
0.0
149
0.0
100
AcDbLayout
  1
Model
 70
0
 71
0
 10
0.0
 20
0.0
 11
22.0
 21
17.0
 12
0.0
 22
0.0
 32
0.0
 14
0.0
 24
0.0
 34
0.0
 15
0.0
 25
0.0
 35
0.0
146
0.0
 13
0.0
 23
0.0
 33
0.0
 16
1.0
 26
0.0
 36
0.0
 17
0.0
 27
1.0
 37
0.0
 76
0
330
21C
345
0
346
0
  0
LAYOUT
  5
2E8
102
{ACAD_REACTORS
330
1A
102
}
100
AcDbPlotSettings
  1

  2
none_device
  4
ANSI_C_(22.00_x_17.00_Inches)
  6

 40
0.0
 41
0.0
 42
0.0
 43
0.0
 44
558.8
 45
431.8
 46
0.0
 47
0.0
 48
0.0
 49
0.0
140
0.0
141
0.0
142
1.0
143
1.0
 70
0
 72
0
 73
0
 74
0
  7

 75
0
147
1.0
148
0.0
149
0.0
100
AcDbLayout
  1
Layout1
 70
0
 71
1
 10
0.0
 20
0.0
 11
22.0
 21
17.0
 12
0.0
 22
0.0
 32
0.0
 14
0.0
 24
0.0
 34
0.0
 15
0.0
 25
0.0
 35
0.0
146
0.0
 13
0.0
 23
0.0
 33
0.0
 16
1.0
 26
0.0
 36
0.0
 17
0.0
 27
1.0
 37
0.0
 76
0
330
21D
345
0
346
0
  0
ENDSEC
  0
EOF