999
DXF file: _cgs_temp_output.dxf
999
Pro/ENGINEER 2015110 by Parametric Technology Corporation
  0
SECTION
  2
HEADER
  9
$ACADVER
  1
AC1021
  9
$DWGCODEPAGE
  3
ANSI_1252
  9
$EXTMAX
 10
22.0
 20
17.0
 30
0.0
  9
$EXTMIN
 10
0.0
 20
0.0
 30
0.0
  9
$LIMMIN
 10
0.0
 20
0.0
  9
$LIMMAX
 10
22.0
 20
17.0
  9
$VIEWCTR
 10
11.0
 20
8.5
  9
$VIEWSIZE
 40
17.0
  9
$CLAYER
  8
0
  9
$LTSCALE
 40
1.21
  9
$CELTYPE
  6
BYLAYER
  9
$DIMSCALE
 40
1.0
  9
$DIMASZ
 40
0.1875
  9
$DIMEXO
 40
0.0625
  9
$DIMDLI
 40
0.836
  9
$DIMEXE
 40
0.125
  9
$DIMCEN
 40
0.198
  9
$DIMLFAC
 40
1.0
  9
$DIMBLK
  1
_CLOSED
  9
$DIMALT
 70
0
  9
$DIMALTF
 40
25.4
  9
$DIMTXT
 40
0.15625
  9
$DIMTOL
 70
0
  9
$DIMLIM
 70
0
  9
$DIMTFAC
 40
1.0
  9
$DIMGAP
 40
0.09
  9
$DIMDSEP
 70
46
  9
$AUNITS
 70
0
  9
$PDMODE
 70
3
  9
$PDSIZE
 40
0.3125
  9
$HANDSEED
  5
2E8
  9
$TILEMODE
 70
1
  9
$MEASUREMENT
 70
0
  9
$INSUNITS
 70
1
  0
ENDSEC
  0
SECTION
  2
CLASSES
  0
CLASS
  1
ACDBDICTIONARYWDFLT
  2
AcDbDictionaryWithDefault
  3
AutoCAD 2000
 90
0
 91
1
280
0
281
0
  0
CLASS
  1
ACDBPLACEHOLDER
  2
AcDbPlaceHolder
  3
AutoCAD 2000
 90
0
 91
1
280
0
281
0
  0
CLASS
  1
LAYOUT
  2
AcDbLayout
  3
AutoCAD 2000
 90
0
 91
0
280
0
281
0
  0
ENDSEC
  0
SECTION
  2
TABLES
  0
TABLE
  2
VPORT
  5
8
100
AcDbSymbolTable
 70
2
  0
VPORT
  5
1F4
100
AcDbSymbolTableRecord
100
AcDbViewportTableRecord
  2
*ACTIVE
 70
0
 10
0.0
 20
0.0
 11
1.0
 21
1.0
 12
11.0
 22
8.5
 13
0.0
 23
0.0
 14
1.0
 24
1.0
 15
0.0
 25
0.0
 16
0.0
 26
0.0
 36
1.0
 17
0.0
 27
0.0
 37
0.0
 40
17.0
 41
1.2941176471
 42
50.0
 43
0.0
 44
0.0
 50
0.0
 51
0.0
 71
0
 72
100
 73
1
 74
1
 75
0
 76
0
 77
0
 78
0
  0
ENDTAB
  0
TABLE
  2
LTYPE
  5
5
100
AcDbSymbolTable
 70
6
  0
LTYPE
  5
14
100
AcDbSymbolTableRecord
100
AcDbLinetypeTableRecord
  2
BYBLOCK
 70
0
  3

 72
65
 73
0
 40
0.0
  0
LTYPE
  5
15
100
AcDbSymbolTableRecord
100
AcDbLinetypeTableRecord
  2
BYLAYER
 70
0
  3

 72
65
 73
0
 40
0.0
  0
LTYPE
  5
16
100
AcDbSymbolTableRecord
100
AcDbLinetypeTableRecord
  2
CONTINUOUS
 70
64
  3
Solid line
 72
65
 73
0
 40
0.0
  0
LTYPE
  5
1F5
100
AcDbSymbolTableRecord
100
AcDbLinetypeTableRecord
  2
CENTER
 70
64
  3
____ _ ____ _ ____ _ ____ _ ____ _ ____ _ ____
 72
65
 73
4
 40
0.6
 49
0.375
 74
0
 49
-0.075
 74
0
 49
0.075
 74
0
 49
-0.075
 74
0
  0
LTYPE
  5
1F6
100
AcDbSymbolTableRecord
100
AcDbLinetypeTableRecord
  2
HIDDEN
 70
64
  3
- - - - - - - - - - - - - - - - - - - -
 72
65
 73
2
 40
0.2
 49
0.1
 74
0
 49
-0.1
 74
0
  0
LTYPE
  5
1F7
100
AcDbSymbolTableRecord
100
AcDbLinetypeTableRecord
  2
PHANTOM
 70
64
  3
_____ _ _ _____ _ _ _____ _ _ _____
 72
65
 73
6
 40
0.8
 49
0.45
 74
0
 49
-0.05
 74
0
 49
0.1
 74
0
 49
-0.05
 74
0
 49
0.1
 74
0
 49
-0.05
 74
0
  0
LTYPE
  5
1F8
100
AcDbSymbolTableRecord
100
AcDbLinetypeTableRecord
  2
DOT
 70
64
  3
. . . . . . . . . . . . . . . . . . . .
 72
65
 73
2
 40
0.2
 49
0.1
 74
0
 49
-0.1
 74
0
  0
LTYPE
  5
1F9
100
AcDbSymbolTableRecord
100
AcDbLinetypeTableRecord
  2
DASHED
 70
64
  3
- - - - - - - - - - - - - - - - - - - -
 72
65
 73
2
 40
0.2
 49
0.1
 74
0
 49
-0.1
 74
0
  0
ENDTAB
  0
TABLE
  2
LAYER
  5
2
100
AcDbSymbolTable
 70
36
  0
LAYER
  5
10
100
AcDbSymbolTableRecord
100
AcDbLayerTableRecord
  2
0
 70
0
 62
7
  6
CONTINUOUS
370
-3
390
F
  0
LAYER
  5
1FA
100
AcDbSymbolTableRecord
100
AcDbLayerTableRecord
  2
DEFAULT_1
 70
0
 62
7
  6
CENTER
370
-3
390
F
  0
LAYER
  5
1FB
100
AcDbSymbolTableRecord
100
AcDbLayerTableRecord
  2
DEFAULT_2
 70
0
 62
8
  6
HIDDEN
370
-3
390
F
  0
LAYER
  5
1FC
100
AcDbSymbolTableRecord
100
AcDbLayerTableRecord
  2
DEFAULT_3
 70
0
 62
7
  6
PHANTOM
370
-3
390
F
  0
LAYER
  5
1FD
100
AcDbSymbolTableRecord
100
AcDbLayerTableRecord
  2
01_ALL_DTM_PLN
 70
0
 62
7
  6
CONTINUOUS
370
-3
390
F
  0
LAYER
  5
1FE
100
AcDbSymbolTableRecord
100
AcDbLayerTableRecord
  2
01__ASM_ALL_DTM_PLN
 70
0
 62
7
  6
CONTINUOUS
370
-3
390
F
  0
LAYER
  5
1FF
100
AcDbSymbolTableRecord
100
AcDbLayerTableRecord
  2
01__ASM_DEF_DTM_PLN
 70
0
 62
7
  6
CONTINUOUS
370
-3
390
F
  0
LAYER
  5
200
100
AcDbSymbolTableRecord
100
AcDbLayerTableRecord
  2
01___PRT_ALL_DTM_PLN
 70
0
 62
7
  6
CONTINUOUS
370
-3
390
F
  0
LAYER
  5
201
100
AcDbSymbolTableRecord
100
AcDbLayerTableRecord
  2
01___PRT_DEF_DTM_PLN
 70
0
 62
7
  6
CONTINUOUS
370
-3
390
F
  0
LAYER
  5
202
100
AcDbSymbolTableRecord
100
AcDbLayerTableRecord
  2
02_ALL_AXES
 70
0
 62
7
  6
CONTINUOUS
370
-3
390
F
  0
LAYER
  5
203
100
AcDbSymbolTableRecord
100
AcDbLayerTableRecord
  2
02__ASM_ALL_AXES
 70
0
 62
7
  6
CONTINUOUS
370
-3
390
F
  0
LAYER
  5
204
100
AcDbSymbolTableRecord
100
AcDbLayerTableRecord
  2
02___PRT_ALL_AXES
 70
0
 62
7
  6
CONTINUOUS
370
-3
390
F
  0
LAYER
  5
205
100
AcDbSymbolTableRecord
100
AcDbLayerTableRecord
  2
03_ALL_CURVES
 70
0
 62
7
  6
CONTINUOUS
370
-3
390
F
  0
LAYER
  5
206
100
AcDbSymbolTableRecord
100
AcDbLayerTableRecord
  2
03__ASM_ALL_CURVES
 70
0
 62
7
  6
CONTINUOUS
370
-3
390
F
  0
LAYER
  5
207
100
AcDbSymbolTableRecord
100
AcDbLayerTableRecord
  2
03___PRT_ALL_CURVES
 70
0
 62
7
  6
CONTINUOUS
370
-3
390
F
  0
LAYER
  5
208
100
AcDbSymbolTableRecord
100
AcDbLayerTableRecord
  2
04_ALL_DTM_PNT
 70
0
 62
7
  6
CONTINUOUS
370
-3
390
F
  0
LAYER
  5
209
100
AcDbSymbolTableRecord
100
AcDbLayerTableRecord
  2
04__ASM_ALL_DTM_PNT
 70
0
 62
7
  6
CONTINUOUS
370
-3
390
F
  0
LAYER
  5
20A
100
AcDbSymbolTableRecord
100
AcDbLayerTableRecord
  2
04___PRT_ALL_DTM_PNT
 70
0
 62
7
  6
CONTINUOUS
370
-3
390
F
  0
LAYER
  5
20B
100
AcDbSymbolTableRecord
100
AcDbLayerTableRecord
  2
05_ALL_DTM_CSYS
 70
0
 62
7
  6
CONTINUOUS
370
-3
390
F
  0
LAYER
  5
20C
100
AcDbSymbolTableRecord
100
AcDbLayerTableRecord
  2
05__ASM_ALL_DTM_CSYS
 70
0
 62
7
  6
CONTINUOUS
370
-3
390
F
  0
LAYER
  5
20D
100
AcDbSymbolTableRecord
100
AcDbLayerTableRecord
  2
05__ASM_DEF_DTM_CSYS
 70
0
 62
7
  6
CONTINUOUS
370
-3
390
F
  0
LAYER
  5
20E
100
AcDbSymbolTableRecord
100
AcDbLayerTableRecord
  2
05___PRT_ALL_DTM_CSYS
 70
0
 62
7
  6
CONTINUOUS
370
-3
390
F
  0
LAYER
  5
20F
100
AcDbSymbolTableRecord
100
AcDbLayerTableRecord
  2
05___PRT_DEF_DTM_CSYS
 70
0
 62
7
  6
CONTINUOUS
370
-3
390
F
  0
LAYER
  5
210
100
AcDbSymbolTableRecord
100
AcDbLayerTableRecord
  2
06_ALL_SURFS
 70
0
 62
7
  6
CONTINUOUS
370
-3
390
F
  0
LAYER
  5
211
100
AcDbSymbolTableRecord
100
AcDbLayerTableRecord
  2
06__ASM_ALL_SURFS
 70
0
 62
7
  6
CONTINUOUS
370
-3
390
F
  0
LAYER
  5
212
100
AcDbSymbolTableRecord
100
AcDbLayerTableRecord
  2
06___PRT_ALL_SURFS
 70
0
 62
7
  6
CONTINUOUS
370
-3
390
F
  0
LAYER
  5
213
100
AcDbSymbolTableRecord
100
AcDbLayerTableRecord
  2
07__ASM_ALL_SKELETONS
 70
0
 62
7
  6
CONTINUOUS
370
-3
390
F
  0
LAYER
  5
214
100
AcDbSymbolTableRecord
100
AcDbLayerTableRecord
  2
LAYER_DIM
 70
0
 62
7
  6
CONTINUOUS
370
-3
390
F
  0
LAYER
  5
215
100
AcDbSymbolTableRecord
100
AcDbLayerTableRecord
  2
LAYER_FEATURE
 70
0
 62
7
  6
CONTINUOUS
370
-3
390
F
  0
LAYER
  5
216
100
AcDbSymbolTableRecord
100
AcDbLayerTableRecord
  2
LAYER_GEOM_FEAT
 70
0
 62
7
  6
CONTINUOUS
370
-3
390
F
  0
LAYER
  5
217
100
AcDbSymbolTableRecord
100
AcDbLayerTableRecord
  2
LAYER_PARAMETER_DIM
 70
0
 62
7
  6
CONTINUOUS
370
-3
390
F
  0
LAYER
  5
218
100
AcDbSymbolTableRecord
100
AcDbLayerTableRecord
  2
LAYER_PROTRUSION_FEAT
 70
0
 62
7
  6
CONTINUOUS
370
-3
390
F
  0
LAYER
  5
219
100
AcDbSymbolTableRecord
100
AcDbLayerTableRecord
  2
LAYER_ROUND_FEAT
 70
0
 62
7
  6
CONTINUOUS
370
-3
390
F
  0
ENDTAB
  0
TABLE
  2
STYLE
  5
3
100
AcDbSymbolTable
 70
1
  0
STYLE
  5
11
100
AcDbSymbolTableRecord
100
AcDbTextStyleTableRecord
  2
STANDARD
 70
0
 40
0.0
 41
0.8
 50
0.0
 71
0
 42
0.2
  3
txt
  4

  0
STYLE
  5
21A
100
AcDbSymbolTableRecord
100
AcDbTextStyleTableRecord
  2
TEXTSTYLE_1
 70
0
 40
0.0
 41
0.8
 50
0.0
 71
0
 42
0.2
  3
gdt
  4

  0
ENDTAB
  0
TABLE
  2
VIEW
  5
6
100
AcDbSymbolTable
 70
0
  0
ENDTAB
  0
TABLE
  2
UCS
  5
7
100
AcDbSymbolTable
 70
0
  0
ENDTAB
  0
TABLE
  2
APPID
  5
9
100
AcDbSymbolTable
 70
1
  0
APPID
  5
21B
100
AcDbSymbolTableRecord
100
AcDbRegAppTableRecord
  2
ACAD
 70
0
  0
ENDTAB
  0
TABLE
  2
BLOCK_RECORD
  5
1
100
AcDbSymbolTable
 70
0
  0
BLOCK_RECORD
  5
21C
100
AcDbSymbolTableRecord
100
AcDbBlockTableRecord
  2
*Model_Space
  0
BLOCK_RECORD
  5
21D
100
AcDbSymbolTableRecord
100
AcDbBlockTableRecord
  2
*Paper_Space
  0
ENDTAB
  0
TABLE
  2
DIMSTYLE
  5
A
100
AcDbSymbolTable
 70
1
100
AcDbDimStyleTable
 71
0
  0
DIMSTYLE
105
21E
100
AcDbSymbolTableRecord
100
AcDbDimStyleTableRecord
  2
STANDARD
 70
0
  3

  4

 40
1.0
 41
0.1875
 42
0.0625
 43
0.38
 44
0.125
 45
0.0
 46
0.0
 47
0.0001
 48
0.0001
140
0.15625
141
0.09
142
0.0
143
25.4
144
1.0
145
0.0
146
1.0
147
0.09
 71
0.0
 72
0.0
 73
1
 74
1
 75
0
 76
0
 77
0
 78
4
170
0
171
2
172
0
173
0
174
0
175
0
176
0
177
0
178
0
270
2
271
4
272
4
273
2
274
2
275
0
280
0
281
0
282
0
283
1
284
4
285
0
286
0
287
3
288
0
340
11
278
46
  0
ENDTAB
  0
ENDSEC
  0
SECTION
  2
BLOCKS
  0
BLOCK
  5
20
100
AcDbEntity
  8
0
100
AcDbBlockBegin
  2
*Model_Space
 70
0
 10
0.0
 20
0.0
 30
0.0
  3
*Model_Space
  1

  0
ENDBLK
  5
21
100
AcDbEntity
  8
0
100
AcDbBlockEnd
  0
BLOCK
  5
1C
100
AcDbEntity
  8
0
100
AcDbBlockBegin
  2
*Paper_Space
 70
0
 10
0.0
 20
0.0
 30
0.0
  3
*Paper_Space
  1

  0
ENDBLK
  5
1D
100
AcDbEntity
  8
0
100
AcDbBlockEnd
  0
ENDSEC
  0
SECTION
  2
ENTITIES
  0
MTEXT
  5
21F
100
AcDbEntity
  8
0
100
AcDbMText
 62
7
  6
CONTINUOUS
  7
STANDARD
 71
1
 72
1
 10
15.9560215477
 20
0.9479130325
 30
0.0
 11
1.0
 21
0.0
 31
0.0
 44
0.9
  1
SCALE: 1:1.000
 40
0.3
 41
3.36
  0
LINE
  5
220
100
AcDbEntity
  8
0
100
AcDbLine
 62
7
  6
CONTINUOUS
 10
0.0
 20
0.0
 11
0.0
 21
17.0
  0
LINE
  5
221
100
AcDbEntity
  8
0
100
AcDbLine
 62
7
  6
CONTINUOUS
 10
0.0
 20
0.0
 11
22.0
 21
0.0
  0
LINE
  5
222
100
AcDbEntity
  8
0
100
AcDbLine
 62
7
  6
CONTINUOUS
 10
0.0
 20
17.0
 11
22.0
 21
17.0
  0
LINE
  5
223
100
AcDbEntity
  8
0
100
AcDbLine
 62
7
  6
CONTINUOUS
 10
22.0
 20
0.0
 11
22.0
 21
17.0
  0
LINE
  5
224
100
AcDbEntity
  8
0
100
AcDbLine
 62
7
  6
CONTINUOUS
 10
3.3803672762
 20
5.7101198968
 11
3.3803672762
 21
5.6251198968
  0
LINE
  5
225
100
AcDbEntity
  8
0
100
AcDbLine
 62
7
  6
CONTINUOUS
 10
3.3803672762
 20
5.6251198968
 11
3.4696406616
 21
5.3299225688
  0
LINE
  5
226
100
AcDbEntity
  8
0
100
AcDbLine
 62
7
  6
CONTINUOUS
 10
3.8803672762
 20
5.6251198968
 11
3.8803672762
 21
5.6751198968
  0
LINE
  5
227
100
AcDbEntity
  8
0
100
AcDbLine
 62
7
  6
CONTINUOUS
 10
3.7910938907
 20
5.3299225688
 11
3.8803672762
 21
5.6251198968
  0
LINE
  5
228
100
AcDbEntity
  8
LAYER_FEATURE
100
AcDbLine
 62
7
  6
CONTINUOUS
 10
4.0053672762
 20
5.6751198968
 11
4.0053672762
 21
5.6251198968
  0
LINE
  5
229
100
AcDbEntity
  8
LAYER_FEATURE
100
AcDbLine
 62
7
  6
CONTINUOUS
 10
4.0053672762
 20
5.6251198968
 11
4.0946406616
 21
5.3299225688
  0
LINE
  5
22A
100
AcDbEntity
  8
LAYER_FEATURE
100
AcDbLine
 62
7
  6
CONTINUOUS
 10
4.5053672762
 20
5.6251198968
 11
4.5053672762
 21
5.6751198968
  0
LINE
  5
22B
100
AcDbEntity
  8
LAYER_FEATURE
100
AcDbLine
 62
7
  6
CONTINUOUS
 10
4.6303672762
 20
5.6751198968
 11
4.6303672762
 21
5.6251198968
  0
LINE
  5
22C
100
AcDbEntity
  8
LAYER_FEATURE
100
AcDbLine
 62
7
  6
CONTINUOUS
 10
4.4160938907
 20
5.3299225688
 11
4.5053672762
 21
5.6251198968
  0
LINE
  5
22D
100
AcDbEntity
  8
LAYER_FEATURE
100
AcDbLine
 62
7
  6
CONTINUOUS
 10
4.6303672762
 20
5.6251198968
 11
4.7196406616
 21
5.3299225688
  0
LINE
  5
22E
100
AcDbEntity
  8
LAYER_FEATURE
100
AcDbLine
 62
7
  6
CONTINUOUS
 10
5.1303672762
 20
5.6251198968
 11
5.1303672762
 21
5.6751198968
  0
LINE
  5
22F
100
AcDbEntity
  8
LAYER_FEATURE
100
AcDbLine
 62
7
  6
CONTINUOUS
 10
5.0410938907
 20
5.3299225688
 11
5.1303672762
 21
5.6251198968
  0
LINE
  5
230
100
AcDbEntity
  8
LAYER_FEATURE
100
AcDbLine
 62
7
  6
CONTINUOUS
 10
5.2553672762
 20
5.6751198968
 11
5.2553672762
 21
5.6251198968
  0
LINE
  5
231
100
AcDbEntity
  8
LAYER_FEATURE
100
AcDbLine
 62
7
  6
CONTINUOUS
 10
5.2553672762
 20
5.6251198968
 11
5.3446406616
 21
5.3299225688
  0
LINE
  5
232
100
AcDbEntity
  8
LAYER_FEATURE
100
AcDbLine
 62
7
  6
CONTINUOUS
 10
5.7553672762
 20
5.6251198968
 11
5.7553672762
 21
5.6751198968
  0
LINE
  5
233
100
AcDbEntity
  8
LAYER_FEATURE
100
AcDbLine
 62
7
  6
CONTINUOUS
 10
5.6660938907
 20
5.3299225688
 11
5.7553672762
 21
5.6251198968
  0
LINE
  5
234
100
AcDbEntity
  8
LAYER_FEATURE
100
AcDbLine
 62
7
  6
CONTINUOUS
 10
5.8803672762
 20
5.6751198968
 11
5.8803672762
 21
5.6251198968
  0
LINE
  5
235
100
AcDbEntity
  8
0
100
AcDbLine
 62
7
  6
CONTINUOUS
 10
3.4895820483
 20
5.3151198968
 11
3.771152504
 21
5.3151198968
  0
LINE
  5
236
100
AcDbEntity
  8
LAYER_FEATURE
100
AcDbLine
 62
7
  6
CONTINUOUS
 10
4.1145820483
 20
5.3151198968
 11
4.396152504
 21
5.3151198968
  0
LINE
  5
237
100
AcDbEntity
  8
LAYER_FEATURE
100
AcDbLine
 62
7
  6
CONTINUOUS
 10
4.7395820483
 20
5.3151198968
 11
5.021152504
 21
5.3151198968
  0
LINE
  5
238
100
AcDbEntity
  8
LAYER_FEATURE
100
AcDbLine
 62
7
  6
CONTINUOUS
 10
5.3645820483
 20
5.3151198968
 11
5.646152504
 21
5.3151198968
  0
LINE
  5
239
100
AcDbEntity
  8
LAYER_FEATURE
100
AcDbLine
 62
7
  6
CONTINUOUS
 10
5.9895820483
 20
5.3151198968
 11
6.271152504
 21
5.3151198968
  0
LINE
  5
23A
100
AcDbEntity
  8
LAYER_FEATURE
100
AcDbLine
 62
7
  6
CONTINUOUS
 10
6.6145820483
 20
5.3151198968
 11
6.896152504
 21
5.3151198968
  0
LINE
  5
23B
100
AcDbEntity
  8
LAYER_FEATURE
100
AcDbLine
 62
7
  6
CONTINUOUS
 10
7.2395820483
 20
5.3151198968
 11
7.521152504
 21
5.3151198968
  0
LINE
  5
23C
100
AcDbEntity
  8
LAYER_FEATURE
100
AcDbLine
 62
7
  6
CONTINUOUS
 10
7.8645820483
 20
5.3151198968
 11
8.146152504
 21
5.3151198968
  0
LINE
  5
23D
100
AcDbEntity
  8
LAYER_FEATURE
100
AcDbLine
 62
7
  6
CONTINUOUS
 10
8.4895820483
 20
5.3151198968
 11
8.771152504
 21
5.3151198968
  0
LINE
  5
23E
100
AcDbEntity
  8
LAYER_FEATURE
100
AcDbLine
 62
7
  6
CONTINUOUS
 10
5.8803672762
 20
5.6251198968
 11
5.9696406616
 21
5.3299225688
  0
LINE
  5
23F
100
AcDbEntity
  8
LAYER_FEATURE
100
AcDbLine
 62
7
  6
CONTINUOUS
 10
3.8803672762
 20
5.6751198968
 11
4.0053672762
 21
5.6751198968
  0
LINE
  5
240
100
AcDbEntity
  8
LAYER_FEATURE
100
AcDbLine
 62
7
  6
CONTINUOUS
 10
4.5053672762
 20
5.6751198968
 11
4.6303672762
 21
5.6751198968
  0
LINE
  5
241
100
AcDbEntity
  8
LAYER_FEATURE
100
AcDbLine
 62
7
  6
CONTINUOUS
 10
5.1303672762
 20
5.6751198968
 11
5.2553672762
 21
5.6751198968
  0
LINE
  5
242
100
AcDbEntity
  8
LAYER_FEATURE
100
AcDbLine
 62
7
  6
CONTINUOUS
 10
5.7553672762
 20
5.6751198968
 11
5.8803672762
 21
5.6751198968
  0
LINE
  5
243
100
AcDbEntity
  8
LAYER_FEATURE
100
AcDbLine
 62
7
  6
CONTINUOUS
 10
6.3803672762
 20
5.6751198968
 11
6.5053672762
 21
5.6751198968
  0
LINE
  5
244
100
AcDbEntity
  8
LAYER_FEATURE
100
AcDbLine
 62
7
  6
CONTINUOUS
 10
7.0053672762
 20
5.6751198968
 11
7.1303672762
 21
5.6751198968
  0
LINE
  5
245
100
AcDbEntity
  8
LAYER_FEATURE
100
AcDbLine
 62
7
  6
CONTINUOUS
 10
7.6303672762
 20
5.6751198968
 11
7.7553672762
 21
5.6751198968
  0
LINE
  5
246
100
AcDbEntity
  8
LAYER_FEATURE
100
AcDbLine
 62
7
  6
CONTINUOUS
 10
8.2553672762
 20
5.6751198968
 11
8.3803672762
 21
5.6751198968
  0
LINE
  5
247
100
AcDbEntity
  8
0
100
AcDbLine
 62
7
  6
CONTINUOUS
 10
8.8653672762
 20
5.7251198968
 11
3.3953672762
 21
5.7251198968
  0
LINE
  5
248
100
AcDbEntity
  8
LAYER_FEATURE
100
AcDbLine
 62
7
  6
CONTINUOUS
 10
6.3803672762
 20
5.6251198968
 11
6.3803672762
 21
5.6751198968
  0
LINE
  5
249
100
AcDbEntity
  8
LAYER_FEATURE
100
AcDbLine
 62
7
  6
CONTINUOUS
 10
6.5053672762
 20
5.6751198968
 11
6.5053672762
 21
5.6251198968
  0
LINE
  5
24A
100
AcDbEntity
  8
LAYER_FEATURE
100
AcDbLine
 62
7
  6
CONTINUOUS
 10
6.2910938907
 20
5.3299225688
 11
6.3803672762
 21
5.6251198968
  0
LINE
  5
24B
100
AcDbEntity
  8
LAYER_FEATURE
100
AcDbLine
 62
7
  6
CONTINUOUS
 10
6.5053672762
 20
5.6251198968
 11
6.5946406616
 21
5.3299225688
  0
LINE
  5
24C
100
AcDbEntity
  8
LAYER_FEATURE
100
AcDbLine
 62
7
  6
CONTINUOUS
 10
7.0053672762
 20
5.6251198968
 11
7.0053672762
 21
5.6751198968
  0
LINE
  5
24D
100
AcDbEntity
  8
LAYER_FEATURE
100
AcDbLine
 62
7
  6
CONTINUOUS
 10
6.9160938907
 20
5.3299225688
 11
7.0053672762
 21
5.6251198968
  0
LINE
  5
24E
100
AcDbEntity
  8
LAYER_FEATURE
100
AcDbLine
 62
7
  6
CONTINUOUS
 10
7.1303672762
 20
5.6751198968
 11
7.1303672762
 21
5.6251198968
  0
LINE
  5
24F
100
AcDbEntity
  8
LAYER_FEATURE
100
AcDbLine
 62
7
  6
CONTINUOUS
 10
7.1303672762
 20
5.6251198968
 11
7.2196406616
 21
5.3299225688
  0
LINE
  5
250
100
AcDbEntity
  8
LAYER_FEATURE
100
AcDbLine
 62
7
  6
CONTINUOUS
 10
7.5410938907
 20
5.3299225688
 11
7.6303672762
 21
5.6251198968
  0
LINE
  5
251
100
AcDbEntity
  8
LAYER_FEATURE
100
AcDbLine
 62
7
  6
CONTINUOUS
 10
7.6303672762
 20
5.6251198968
 11
7.6303672762
 21
5.6751198968
  0
LINE
  5
252
100
AcDbEntity
  8
LAYER_FEATURE
100
AcDbLine
 62
7
  6
CONTINUOUS
 10
7.7553672762
 20
5.6751198968
 11
7.7553672762
 21
5.6251198968
  0
LINE
  5
253
100
AcDbEntity
  8
LAYER_FEATURE
100
AcDbLine
 62
7
  6
CONTINUOUS
 10
7.7553672762
 20
5.6251198968
 11
7.8446406616
 21
5.3299225688
  0
LINE
  5
254
100
AcDbEntity
  8
LAYER_FEATURE
100
AcDbLine
 62
7
  6
CONTINUOUS
 10
8.1660938907
 20
5.3299225688
 11
8.2553672762
 21
5.6251198968
  0
LINE
  5
255
100
AcDbEntity
  8
LAYER_FEATURE
100
AcDbLine
 62
7
  6
CONTINUOUS
 10
8.2553672762
 20
5.6251198968
 11
8.2553672762
 21
5.6751198968
  0
LINE
  5
256
100
AcDbEntity
  8
LAYER_FEATURE
100
AcDbLine
 62
7
  6
CONTINUOUS
 10
8.3803672762
 20
5.6251198968
 11
8.4696406616
 21
5.3299225688
  0
LINE
  5
257
100
AcDbEntity
  8
LAYER_FEATURE
100
AcDbLine
 62
7
  6
CONTINUOUS
 10
8.3803672762
 20
5.6751198968
 11
8.3803672762
 21
5.6251198968
  0
LINE
  5
258
100
AcDbEntity
  8
0
100
AcDbLine
 62
7
  6
CONTINUOUS
 10
8.8803672762
 20
5.6251198968
 11
8.8803672762
 21
5.7101198968
  0
LINE
  5
259
100
AcDbEntity
  8
LAYER_FEATURE
100
AcDbLine
 62
7
  6
CONTINUOUS
 10
8.7910938907
 20
5.3299225688
 11
8.8803672762
 21
5.6251198968
  0
LINE
  5
25A
100
AcDbEntity
  8
0
100
AcDbLine
 62
7
  6
CONTINUOUS
 10
3.3208720839
 20
14.6000477814
 11
3.3208720839
 21
10.6000477814
  0
LINE
  5
25B
100
AcDbEntity
  8
0
100
AcDbLine
 62
7
  6
CONTINUOUS
 10
8.8208720839
 20
10.6000477814
 11
3.3208720839
 21
10.6000477814
  0
LINE
  5
25C
100
AcDbEntity
  8
0
100
AcDbLine
 62
7
  6
CONTINUOUS
 10
3.3208720839
 20
14.6000477814
 11
8.8208720839
 21
14.6000477814
  0
LINE
  5
25D
100
AcDbEntity
  8
0
100
AcDbLine
 62
7
  6
CONTINUOUS
 10
8.8208720839
 20
10.6000477814
 11
8.8208720839
 21
14.6000477814
  0
LINE
  5
25E
100
AcDbEntity
  8
LAYER_FEATURE
100
AcDbLine
 62
7
  6
CONTINUOUS
 10
13.5603552569
 20
5.2556247044
 11
13.5603552569
 21
5.5656247044
  0
LINE
  5
25F
100
AcDbEntity
  8
0
100
AcDbLine
 62
7
  6
CONTINUOUS
 10
13.5603552569
 20
5.5656247044
 11
13.5603552569
 21
5.6656247044
  0
LINE
  5
260
100
AcDbEntity
  8
LAYER_FEATURE
100
AcDbLine
 62
7
  6
CONTINUOUS
 10
13.5603552569
 20
5.2556247044
 11
17.5603552569
 21
5.2556247044
  0
LINE
  5
261
100
AcDbEntity
  8
LAYER_FEATURE
100
AcDbLine
 62
7
  6
CONTINUOUS
 10
17.5603552569
 20
5.5656247044
 11
13.5603552569
 21
5.5656247044
  0
LINE
  5
262
100
AcDbEntity
  8
0
100
AcDbLine
 62
7
  6
CONTINUOUS
 10
13.5603552569
 20
5.6656247044
 11
17.5603552569
 21
5.6656247044
  0
LINE
  5
263
100
AcDbEntity
  8
0
100
AcDbLine
 62
7
  6
CONTINUOUS
 10
17.5603552569
 20
5.6656247044
 11
17.5603552569
 21
5.5656247044
  0
LINE
  5
264
100
AcDbEntity
  8
LAYER_FEATURE
100
AcDbLine
 62
7
  6
CONTINUOUS
 10
17.5603552569
 20
5.2556247044
 11
17.5603552569
 21
5.5656247044
  0
LINE
  5
265
100
AcDbEntity
  8
0
100
AcDbLine
 62
7
  6
CONTINUOUS
 10
12.4634661144
 20
11.0094202203
 11
12.6357398915
 21
10.8259226187
  0
LINE
  5
266
100
AcDbEntity
  8
0
100
AcDbLine
 62
7
  6
CONTINUOUS
 10
12.4375375557
 20
11.0622570676
 11
12.4634661144
 21
11.0094202203
  0
LINE
  5
267
100
AcDbEntity
  8
LAYER_FEATURE
100
AcDbLine
 62
7
  6
CONTINUOUS
 10
13.0391292356
 20
11.0094202203
 11
13.2114030127
 21
10.8259226187
  0
LINE
  5
268
100
AcDbEntity
  8
0
100
AcDbLine
 62
7
  6
CONTINUOUS
 10
12.9239966114
 20
11.0094202203
 11
12.9087445181
 21
11.0405007187
  0
LINE
  5
269
100
AcDbEntity
  8
LAYER_FEATURE
100
AcDbLine
 62
7
  6
CONTINUOUS
 10
13.0238771423
 20
11.0405007187
 11
13.0391292356
 21
11.0094202203
  0
LINE
  5
26A
100
AcDbEntity
  8
0
100
AcDbLine
 62
7
  6
CONTINUOUS
 10
12.9318179222
 20
10.8259226187
 11
12.9239966114
 21
11.0094202203
  0
LINE
  5
26B
100
AcDbEntity
  8
0
100
AcDbLine
 62
7
  6
CONTINUOUS
 10
12.9315163059
 20
10.8235201596
 11
12.9318179222
 21
10.8259226187
  0
LINE
  5
26C
100
AcDbEntity
  8
0
100
AcDbLine
 62
7
  6
CONTINUOUS
 10
13.4052874516
 20
14.1999934167
 11
12.437022158
 21
11.0666857782
  0
LINE
  5
26D
100
AcDbEntity
  8
LAYER_FEATURE
100
AcDbLine
 62
7
  6
CONTINUOUS
 10
13.6147923569
 20
11.0094202203
 11
13.787066134
 21
10.8259226187
  0
LINE
  5
26E
100
AcDbEntity
  8
LAYER_FEATURE
100
AcDbLine
 62
7
  6
CONTINUOUS
 10
13.4996597326
 20
11.0094202203
 11
13.4844076393
 21
11.0405007187
  0
LINE
  5
26F
100
AcDbEntity
  8
LAYER_FEATURE
100
AcDbLine
 62
7
  6
CONTINUOUS
 10
13.5995402636
 20
11.0405007187
 11
13.6147923569
 21
11.0094202203
  0
LINE
  5
270
100
AcDbEntity
  8
LAYER_FEATURE
100
AcDbLine
 62
7
  6
CONTINUOUS
 10
13.5074810434
 20
10.8259226187
 11
13.4996597326
 21
11.0094202203
  0
LINE
  5
271
100
AcDbEntity
  8
0
100
AcDbLine
 62
7
  6
CONTINUOUS
 10
12.9336012118
 20
11.0405007187
 11
12.9239966114
 21
11.0094202203
  0
LINE
  5
272
100
AcDbEntity
  8
0
100
AcDbLine
 62
7
  6
CONTINUOUS
 10
12.9315156855
 20
10.8235203509
 11
12.9985676905
 21
11.0405007187
  0
LINE
  5
273
100
AcDbEntity
  8
LAYER_FEATURE
100
AcDbLine
 62
7
  6
CONTINUOUS
 10
14.1904554781
 20
11.0094202203
 11
14.3627292552
 21
10.8259226187
  0
LINE
  5
274
100
AcDbEntity
  8
LAYER_FEATURE
100
AcDbLine
 62
7
  6
CONTINUOUS
 10
14.0753228539
 20
11.0094202203
 11
14.0600707606
 21
11.0405007187
  0
LINE
  5
275
100
AcDbEntity
  8
LAYER_FEATURE
100
AcDbLine
 62
7
  6
CONTINUOUS
 10
13.5071794272
 20
10.8235201596
 11
13.5074810434
 21
10.8259226187
  0
LINE
  5
276
100
AcDbEntity
  8
0
100
AcDbLine
 62
7
  6
CONTINUOUS
 10
12.6586225596
 20
10.8167211302
 11
12.9179661235
 21
10.8167211302
  0
LINE
  5
277
100
AcDbEntity
  8
LAYER_FEATURE
100
AcDbLine
 62
7
  6
CONTINUOUS
 10
13.2342856809
 20
10.8167211302
 11
13.4936292447
 21
10.8167211302
  0
LINE
  5
278
100
AcDbEntity
  8
LAYER_FEATURE
100
AcDbLine
 62
7
  6
CONTINUOUS
 10
13.8099488021
 20
10.8167211302
 11
14.069292366
 21
10.8167211302
  0
LINE
  5
279
100
AcDbEntity
  8
LAYER_FEATURE
100
AcDbLine
 62
7
  6
CONTINUOUS
 10
14.3856119234
 20
10.8167211302
 11
14.6449554872
 21
10.8167211302
  0
LINE
  5
27A
100
AcDbEntity
  8
LAYER_FEATURE
100
AcDbLine
 62
7
  6
CONTINUOUS
 10
14.9612750446
 20
10.8167211302
 11
15.2206186085
 21
10.8167211302
  0
LINE
  5
27B
100
AcDbEntity
  8
LAYER_FEATURE
100
AcDbLine
 62
7
  6
CONTINUOUS
 10
15.5369381659
 20
10.8167211302
 11
15.7962817297
 21
10.8167211302
  0
LINE
  5
27C
100
AcDbEntity
  8
LAYER_FEATURE
100
AcDbLine
 62
7
  6
CONTINUOUS
 10
16.1126012871
 20
10.8167211302
 11
16.371944851
 21
10.8167211302
  0
LINE
  5
27D
100
AcDbEntity
  8
LAYER_FEATURE
100
AcDbLine
 62
7
  6
CONTINUOUS
 10
16.6882644084
 20
10.8167211302
 11
16.9476079722
 21
10.8167211302
  0
LINE
  5
27E
100
AcDbEntity
  8
LAYER_FEATURE
100
AcDbLine
 62
7
  6
CONTINUOUS
 10
17.2639275296
 20
10.8167211302
 11
17.5232710935
 21
10.8167211302
  0
LINE
  5
27F
100
AcDbEntity
  8
LAYER_FEATURE
100
AcDbLine
 62
7
  6
CONTINUOUS
 10
14.1752033848
 20
11.0405007187
 11
14.1904554781
 21
11.0094202203
  0
LINE
  5
280
100
AcDbEntity
  8
LAYER_FEATURE
100
AcDbLine
 62
7
  6
CONTINUOUS
 10
14.0831441647
 20
10.8259226187
 11
14.0753228539
 21
11.0094202203
  0
LINE
  5
281
100
AcDbEntity
  8
LAYER_FEATURE
100
AcDbLine
 62
7
  6
CONTINUOUS
 10
13.5092643331
 20
11.0405007187
 11
13.4996597326
 21
11.0094202203
  0
LINE
  5
282
100
AcDbEntity
  8
LAYER_FEATURE
100
AcDbLine
 62
7
  6
CONTINUOUS
 10
13.5071788067
 20
10.8235203509
 11
13.5742308118
 21
11.0405007187
  0
LINE
  5
283
100
AcDbEntity
  8
LAYER_FEATURE
100
AcDbLine
 62
7
  6
CONTINUOUS
 10
12.9087445181
 20
11.0405007187
 11
13.0238771423
 21
11.0405007187
  0
LINE
  5
284
100
AcDbEntity
  8
LAYER_FEATURE
100
AcDbLine
 62
7
  6
CONTINUOUS
 10
13.4844076393
 20
11.0405007187
 11
13.5995402636
 21
11.0405007187
  0
LINE
  5
285
100
AcDbEntity
  8
LAYER_FEATURE
100
AcDbLine
 62
7
  6
CONTINUOUS
 10
14.0600707606
 20
11.0405007187
 11
14.1752033848
 21
11.0405007187
  0
LINE
  5
286
100
AcDbEntity
  8
LAYER_FEATURE
100
AcDbLine
 62
7
  6
CONTINUOUS
 10
14.6357338818
 20
11.0405007187
 11
14.7508665061
 21
11.0405007187
  0
LINE
  5
287
100
AcDbEntity
  8
LAYER_FEATURE
100
AcDbLine
 62
7
  6
CONTINUOUS
 10
15.2113970031
 20
11.0405007187
 11
15.3265296273
 21
11.0405007187
  0
LINE
  5
288
100
AcDbEntity
  8
LAYER_FEATURE
100
AcDbLine
 62
7
  6
CONTINUOUS
 10
15.7870601243
 20
11.0405007187
 11
15.9021927486
 21
11.0405007187
  0
LINE
  5
289
100
AcDbEntity
  8
LAYER_FEATURE
100
AcDbLine
 62
7
  6
CONTINUOUS
 10
16.3627232456
 20
11.0405007187
 11
16.4778558698
 21
11.0405007187
  0
LINE
  5
28A
100
AcDbEntity
  8
LAYER_FEATURE
100
AcDbLine
 62
7
  6
CONTINUOUS
 10
16.9383863668
 20
11.0405007187
 11
17.0535189911
 21
11.0405007187
  0
LINE
  5
28B
100
AcDbEntity
  8
0
100
AcDbLine
 62
7
  6
CONTINUOUS
 10
17.4849814798
 20
11.0715812171
 11
12.4467778426
 21
11.0715812171
  0
LINE
  5
28C
100
AcDbEntity
  8
LAYER_FEATURE
100
AcDbLine
 62
7
  6
CONTINUOUS
 10
14.7661185994
 20
11.0094202203
 11
14.9383923765
 21
10.8259226187
  0
LINE
  5
28D
100
AcDbEntity
  8
LAYER_FEATURE
100
AcDbLine
 62
7
  6
CONTINUOUS
 10
14.6509859751
 20
11.0094202203
 11
14.6357338818
 21
11.0405007187
  0
LINE
  5
28E
100
AcDbEntity
  8
LAYER_FEATURE
100
AcDbLine
 62
7
  6
CONTINUOUS
 10
14.0828425484
 20
10.8235201596
 11
14.0831441647
 21
10.8259226187
  0
LINE
  5
28F
100
AcDbEntity
  8
LAYER_FEATURE
100
AcDbLine
 62
7
  6
CONTINUOUS
 10
14.7508665061
 20
11.0405007187
 11
14.7661185994
 21
11.0094202203
  0
LINE
  5
290
100
AcDbEntity
  8
LAYER_FEATURE
100
AcDbLine
 62
7
  6
CONTINUOUS
 10
15.3417817206
 20
11.0094202203
 11
15.5140554977
 21
10.8259226187
  0
LINE
  5
291
100
AcDbEntity
  8
LAYER_FEATURE
100
AcDbLine
 62
7
  6
CONTINUOUS
 10
14.6588072859
 20
10.8259226187
 11
14.6509859751
 21
11.0094202203
  0
LINE
  5
292
100
AcDbEntity
  8
LAYER_FEATURE
100
AcDbLine
 62
7
  6
CONTINUOUS
 10
14.0849274543
 20
11.0405007187
 11
14.0753228539
 21
11.0094202203
  0
LINE
  5
293
100
AcDbEntity
  8
LAYER_FEATURE
100
AcDbLine
 62
7
  6
CONTINUOUS
 10
14.082841928
 20
10.8235203509
 11
14.149893933
 21
11.0405007187
  0
LINE
  5
294
100
AcDbEntity
  8
LAYER_FEATURE
100
AcDbLine
 62
7
  6
CONTINUOUS
 10
15.9174448419
 20
11.0094202203
 11
16.089718619
 21
10.8259226187
  0
LINE
  5
295
100
AcDbEntity
  8
LAYER_FEATURE
100
AcDbLine
 62
7
  6
CONTINUOUS
 10
15.2266490964
 20
11.0094202203
 11
15.2113970031
 21
11.0405007187
  0
LINE
  5
296
100
AcDbEntity
  8
LAYER_FEATURE
100
AcDbLine
 62
7
  6
CONTINUOUS
 10
15.3265296273
 20
11.0405007187
 11
15.3417817206
 21
11.0094202203
  0
LINE
  5
297
100
AcDbEntity
  8
LAYER_FEATURE
100
AcDbLine
 62
7
  6
CONTINUOUS
 10
14.6585056697
 20
10.8235201596
 11
14.6588072859
 21
10.8259226187
  0
LINE
  5
298
100
AcDbEntity
  8
LAYER_FEATURE
100
AcDbLine
 62
7
  6
CONTINUOUS
 10
15.2344704072
 20
10.8259226187
 11
15.2266490964
 21
11.0094202203
  0
LINE
  5
299
100
AcDbEntity
  8
LAYER_FEATURE
100
AcDbLine
 62
7
  6
CONTINUOUS
 10
14.6605905756
 20
11.0405007187
 11
14.6509859751
 21
11.0094202203
  0
LINE
  5
29A
100
AcDbEntity
  8
LAYER_FEATURE
100
AcDbLine
 62
7
  6
CONTINUOUS
 10
14.6585050492
 20
10.8235203509
 11
14.7255570543
 21
11.0405007187
  0
LINE
  5
29B
100
AcDbEntity
  8
LAYER_FEATURE
100
AcDbLine
 62
7
  6
CONTINUOUS
 10
16.4931079631
 20
11.0094202203
 11
16.6653817403
 21
10.8259226187
  0
LINE
  5
29C
100
AcDbEntity
  8
LAYER_FEATURE
100
AcDbLine
 62
7
  6
CONTINUOUS
 10
15.8023122176
 20
11.0094202203
 11
15.7870601243
 21
11.0405007187
  0
LINE
  5
29D
100
AcDbEntity
  8
LAYER_FEATURE
100
AcDbLine
 62
7
  6
CONTINUOUS
 10
15.9021927486
 20
11.0405007187
 11
15.9174448419
 21
11.0094202203
  0
LINE
  5
29E
100
AcDbEntity
  8
LAYER_FEATURE
100
AcDbLine
 62
7
  6
CONTINUOUS
 10
15.2341687909
 20
10.8235201596
 11
15.2344704072
 21
10.8259226187
  0
LINE
  5
29F
100
AcDbEntity
  8
LAYER_FEATURE
100
AcDbLine
 62
7
  6
CONTINUOUS
 10
15.2362536968
 20
11.0405007187
 11
15.2266490964
 21
11.0094202203
  0
LINE
  5
2A0
100
AcDbEntity
  8
LAYER_FEATURE
100
AcDbLine
 62
7
  6
CONTINUOUS
 10
17.0687710844
 20
11.0094202203
 11
17.2410448615
 21
10.8259226187
  0
LINE
  5
2A1
100
AcDbEntity
  8
LAYER_FEATURE
100
AcDbLine
 62
7
  6
CONTINUOUS
 10
16.3779753389
 20
11.0094202203
 11
16.3627232456
 21
11.0405007187
  0
LINE
  5
2A2
100
AcDbEntity
  8
LAYER_FEATURE
100
AcDbLine
 62
7
  6
CONTINUOUS
 10
16.4778558698
 20
11.0405007187
 11
16.4931079631
 21
11.0094202203
  0
LINE
  5
2A3
100
AcDbEntity
  8
LAYER_FEATURE
100
AcDbLine
 62
7
  6
CONTINUOUS
 10
15.8101335284
 20
10.8259226187
 11
15.8023122176
 21
11.0094202203
  0
LINE
  5
2A4
100
AcDbEntity
  8
LAYER_FEATURE
100
AcDbLine
 62
7
  6
CONTINUOUS
 10
15.2341681705
 20
10.8235203509
 11
15.3012201755
 21
11.0405007187
  0
LINE
  5
2A5
100
AcDbEntity
  8
LAYER_FEATURE
100
AcDbLine
 62
7
  6
CONTINUOUS
 10
15.8098319122
 20
10.8235201596
 11
15.8101335284
 21
10.8259226187
  0
LINE
  5
2A6
100
AcDbEntity
  8
LAYER_FEATURE
100
AcDbLine
 62
7
  6
CONTINUOUS
 10
16.9536384602
 20
11.0094202203
 11
16.9383863668
 21
11.0405007187
  0
LINE
  5
2A7
100
AcDbEntity
  8
LAYER_FEATURE
100
AcDbLine
 62
7
  6
CONTINUOUS
 10
16.3857966497
 20
10.8259226187
 11
16.3779753389
 21
11.0094202203
  0
LINE
  5
2A8
100
AcDbEntity
  8
LAYER_FEATURE
100
AcDbLine
 62
7
  6
CONTINUOUS
 10
15.8119168181
 20
11.0405007187
 11
15.8023122176
 21
11.0094202203
  0
LINE
  5
2A9
100
AcDbEntity
  8
LAYER_FEATURE
100
AcDbLine
 62
7
  6
CONTINUOUS
 10
15.8098312918
 20
10.8235203509
 11
15.8768832968
 21
11.0405007187
  0
LINE
  5
2AA
100
AcDbEntity
  8
LAYER_FEATURE
100
AcDbLine
 62
7
  6
CONTINUOUS
 10
17.0535189911
 20
11.0405007187
 11
17.0687710844
 21
11.0094202203
  0
LINE
  5
2AB
100
AcDbEntity
  8
LAYER_FEATURE
100
AcDbLine
 62
7
  6
CONTINUOUS
 10
16.3854950334
 20
10.8235201596
 11
16.3857966497
 21
10.8259226187
  0
LINE
  5
2AC
100
AcDbEntity
  8
0
100
AcDbLine
 62
7
  6
CONTINUOUS
 10
17.5293015814
 20
11.0094202203
 11
17.5033730227
 21
11.0622570676
  0
LINE
  5
2AD
100
AcDbEntity
  8
LAYER_FEATURE
100
AcDbLine
 62
7
  6
CONTINUOUS
 10
16.9614597709
 20
10.8259226187
 11
16.9536384602
 21
11.0094202203
  0
LINE
  5
2AE
100
AcDbEntity
  8
LAYER_FEATURE
100
AcDbLine
 62
7
  6
CONTINUOUS
 10
16.3875799393
 20
11.0405007187
 11
16.3779753389
 21
11.0094202203
  0
LINE
  5
2AF
100
AcDbEntity
  8
LAYER_FEATURE
100
AcDbLine
 62
7
  6
CONTINUOUS
 10
16.385494413
 20
10.8235203509
 11
16.452546418
 21
11.0405007187
  0
LINE
  5
2B0
100
AcDbEntity
  8
LAYER_FEATURE
100
AcDbLine
 62
7
  6
CONTINUOUS
 10
16.9611581547
 20
10.8235201596
 11
16.9614597709
 21
10.8259226187
  0
LINE
  5
2B1
100
AcDbEntity
  8
LAYER_FEATURE
100
AcDbLine
 62
7
  6
CONTINUOUS
 10
16.9632430606
 20
11.0405007187
 11
16.9536384602
 21
11.0094202203
  0
LINE
  5
2B2
100
AcDbEntity
  8
0
100
AcDbLine
 62
7
  6
CONTINUOUS
 10
13.4150431363
 20
14.2048888557
 11
18.4532467735
 21
14.2048888557
  0
LINE
  5
2B3
100
AcDbEntity
  8
LAYER_FEATURE
100
AcDbLine
 62
7
  6
CONTINUOUS
 10
17.5371228922
 20
10.8259226187
 11
17.5293015814
 21
11.0094202203
  0
LINE
  5
2B4
100
AcDbEntity
  8
LAYER_FEATURE
100
AcDbLine
 62
7
  6
CONTINUOUS
 10
16.9611575343
 20
10.8235203509
 11
17.0282095393
 21
11.0405007187
  0
LINE
  5
2B5
100
AcDbEntity
  8
LAYER_FEATURE
100
AcDbLine
 62
7
  6
CONTINUOUS
 10
17.536821276
 20
10.8235201596
 11
17.5371228922
 21
10.8259226187
  0
LINE
  5
2B6
100
AcDbEntity
  8
LAYER_FEATURE
100
AcDbLine
 62
7
  6
CONTINUOUS
 10
18.497566875
 20
14.1427278588
 11
17.5293015814
 21
11.0094202203
  0
LINE
  5
2B7
100
AcDbEntity
  8
LAYER_FEATURE
100
AcDbLine
 62
7
  6
CONTINUOUS
 10
17.5368206555
 20
10.8235203509
 11
18.5050859491
 21
13.9568279894
  0
LINE
  5
2B8
100
AcDbEntity
  8
LAYER_FEATURE
100
AcDbLine
 62
7
  6
CONTINUOUS
 10
18.5053881858
 20
13.9592302572
 11
18.5050865696
 21
13.9568277981
  0
LINE
  5
2B9
100
AcDbEntity
  8
LAYER_FEATURE
100
AcDbLine
 62
7
  6
CONTINUOUS
 10
18.5053881858
 20
13.9592302572
 11
18.497566875
 21
14.1427278588
  0
LINE
  5
2BA
100
AcDbEntity
  8
0
100
AcDbLine
 62
7
  6
CONTINUOUS
 10
18.4716383164
 20
14.1955647061
 11
18.497566875
 21
14.1427278588
  0
ARC
  5
2BB
100
AcDbEntity
  8
0
100
AcDbCircle
 62
7
  6
CONTINUOUS
 10
3.4895820483
 20
5.3359532301
 40
0.0208333333
100
AcDbArc
 50
196.8263326308
 51
270.0
  0
ARC
  5
2BC
100
AcDbEntity
  8
0
100
AcDbCircle
 62
7
  6
CONTINUOUS
 10
3.771152504
 20
5.3359532301
 40
0.0208333333
100
AcDbArc
 50
270.0
 51
343.1736673692
  0
ARC
  5
2BD
100
AcDbEntity
  8
LAYER_FEATURE
100
AcDbCircle
 62
7
  6
CONTINUOUS
 10
4.1145820483
 20
5.3359532301
 40
0.0208333333
100
AcDbArc
 50
196.8263326308
 51
270.0
  0
ARC
  5
2BE
100
AcDbEntity
  8
LAYER_FEATURE
100
AcDbCircle
 62
7
  6
CONTINUOUS
 10
4.396152504
 20
5.3359532301
 40
0.0208333333
100
AcDbArc
 50
270.0
 51
343.1736673692
  0
ARC
  5
2BF
100
AcDbEntity
  8
LAYER_FEATURE
100
AcDbCircle
 62
7
  6
CONTINUOUS
 10
4.7395820483
 20
5.3359532301
 40
0.0208333333
100
AcDbArc
 50
196.8263326308
 51
270.0
  0
ARC
  5
2C0
100
AcDbEntity
  8
LAYER_FEATURE
100
AcDbCircle
 62
7
  6
CONTINUOUS
 10
5.021152504
 20
5.3359532301
 40
0.0208333333
100
AcDbArc
 50
270.0
 51
343.1736673692
  0
ARC
  5
2C1
100
AcDbEntity
  8
LAYER_FEATURE
100
AcDbCircle
 62
7
  6
CONTINUOUS
 10
5.3645820483
 20
5.3359532301
 40
0.0208333333
100
AcDbArc
 50
196.8263326308
 51
270.0
  0
ARC
  5
2C2
100
AcDbEntity
  8
LAYER_FEATURE
100
AcDbCircle
 62
7
  6
CONTINUOUS
 10
5.646152504
 20
5.3359532301
 40
0.0208333333
100
AcDbArc
 50
270.0
 51
343.1736673692
  0
ARC
  5
2C3
100
AcDbEntity
  8
LAYER_FEATURE
100
AcDbCircle
 62
7
  6
CONTINUOUS
 10
5.9895820483
 20
5.3359532301
 40
0.0208333333
100
AcDbArc
 50
196.8263326308
 51
270.0
  0
ARC
  5
2C4
100
AcDbEntity
  8
LAYER_FEATURE
100
AcDbCircle
 62
7
  6
CONTINUOUS
 10
6.271152504
 20
5.3359532301
 40
0.0208333333
100
AcDbArc
 50
270.0
 51
343.1736673692
  0
ARC
  5
2C5
100
AcDbEntity
  8
LAYER_FEATURE
100
AcDbCircle
 62
7
  6
CONTINUOUS
 10
6.6145820483
 20
5.3359532301
 40
0.0208333333
100
AcDbArc
 50
196.8263326308
 51
270.0
  0
ARC
  5
2C6
100
AcDbEntity
  8
LAYER_FEATURE
100
AcDbCircle
 62
7
  6
CONTINUOUS
 10
6.896152504
 20
5.3359532301
 40
0.0208333333
100
AcDbArc
 50
270.0
 51
343.1736673692
  0
ARC
  5
2C7
100
AcDbEntity
  8
LAYER_FEATURE
100
AcDbCircle
 62
7
  6
CONTINUOUS
 10
7.2395820483
 20
5.3359532301
 40
0.0208333333
100
AcDbArc
 50
196.8263326308
 51
270.0
  0
ARC
  5
2C8
100
AcDbEntity
  8
LAYER_FEATURE
100
AcDbCircle
 62
7
  6
CONTINUOUS
 10
7.521152504
 20
5.3359532301
 40
0.0208333333
100
AcDbArc
 50
270.0
 51
343.1736673692
  0
ARC
  5
2C9
100
AcDbEntity
  8
LAYER_FEATURE
100
AcDbCircle
 62
7
  6
CONTINUOUS
 10
7.8645820483
 20
5.3359532301
 40
0.0208333333
100
AcDbArc
 50
196.8263326308
 51
270.0
  0
ARC
  5
2CA
100
AcDbEntity
  8
LAYER_FEATURE
100
AcDbCircle
 62
7
  6
CONTINUOUS
 10
8.771152504
 20
5.3359532301
 40
0.0208333333
100
AcDbArc
 50
270.0
 51
343.1736673692
  0
ARC
  5
2CB
100
AcDbEntity
  8
LAYER_FEATURE
100
AcDbCircle
 62
7
  6
CONTINUOUS
 10
8.4895820483
 20
5.3359532301
 40
0.0208333333
100
AcDbArc
 50
196.8263326308
 51
270.0
  0
ARC
  5
2CC
100
AcDbEntity
  8
LAYER_FEATURE
100
AcDbCircle
 62
7
  6
CONTINUOUS
 10
8.146152504
 20
5.3359532301
 40
0.0208333333
100
AcDbArc
 50
270.0
 51
343.1736673692
  0
ARC
  5
2CD
100
AcDbEntity
  8
0
100
AcDbCircle
 62
7
  6
CONTINUOUS
 10
3.3953672762
 20
5.7101198968
 40
0.015
100
AcDbArc
 50
90.0
 51
180.0
  0
ARC
  5
2CE
100
AcDbEntity
  8
0
100
AcDbCircle
 62
7
  6
CONTINUOUS
 10
8.8653672762
 20
5.7101198968
 40
0.015
100
AcDbArc
 50
0.0
 51
90.0
  0
SPLINE
  5
2CF
100
AcDbEntity
  8
0
100
AcDbSpline
 62
7
  6
CONTINUOUS
 70
0
 71
3
 72
15
 73
11
 74
0
 42
0.0000001
 43
0.0000001
 44
0.0000000001
 40
0.0
 40
0.0
 40
0.0
 40
0.0
 40
0.1294165569
 40
0.2645180781
 40
0.4012970774
 40
0.5362628266
 40
0.6661560434
 40
0.78813941
 40
0.8999194788
 40
1.0
 40
1.0
 40
1.0
 40
1.0
 10
18.4532467735
 20
14.2048888557
 30
0.0
 10
18.4541746269
 20
14.2048888557
 30
0.0
 10
18.4560724312
 20
14.2047586474
 30
0.0
 10
18.4589064942
 20
14.204230214
 30
0.0
 10
18.4617008466
 20
14.2033722375
 30
0.0
 10
18.4643486896
 20
14.2022247571
 30
0.0
 10
18.4667514367
 20
14.2008259336
 30
0.0
 10
18.468824328
 20
14.1992298494
 30
0.0
 10
18.4704823478
 20
14.1974903145
 30
0.0
 10
18.4713222145
 20
14.1962088541
 30
0.0
 10
18.4716383164
 20
14.1955647061
 30
0.0
  0
SPLINE
  5
2D0
100
AcDbEntity
  8
0
100
AcDbSpline
 62
7
  6
CONTINUOUS
 70
0
 71
3
 72
10
 73
6
 74
0
 42
0.0000001
 43
0.0000001
 44
0.0000000001
 40
0.0
 40
0.0
 40
0.0
 40
0.0
 40
0.2343758129
 40
0.4761728829
 40
1.0
 40
1.0
 40
1.0
 40
1.0
 10
12.4370222443
 20
11.0666857263
 30
0.0
 10
12.4369170161
 20
11.0663459612
 30
0.0
 10
12.436779065
 20
11.0656294819
 30
0.0
 10
12.4368159419
 20
11.0641037801
 30
0.0
 10
12.4371873435
 20
11.0629707251
 30
0.0
 10
12.4375375557
 20
11.0622570676
 30
0.0
  0
SPLINE
  5
2D1
100
AcDbEntity
  8
0
100
AcDbSpline
 62
7
  6
CONTINUOUS
 70
0
 71
3
 72
13
 73
9
 74
0
 42
0.0000001
 43
0.0000001
 44
0.0000000001
 40
0.0
 40
0.0
 40
0.0
 40
0.0
 40
0.0997942201
 40
0.2030647278
 40
0.3128498857
 40
0.4312452013
 40
0.6971835619
 40
1.0
 40
1.0
 40
1.0
 40
1.0
 10
13.4052875379
 20
14.1999933648
 30
0.0
 10
13.405401901
 20
14.2003626252
 30
0.0
 10
13.4057257055
 20
14.2010887338
 30
0.0
 10
13.4064623982
 20
14.202062516
 30
0.0
 10
13.4074373925
 20
14.2029102805
 30
0.0
 10
13.4090880799
 20
14.203895512
 30
0.0
 10
13.4116607841
 20
14.2047013997
 30
0.0
 10
13.4138701412
 20
14.2048888557
 30
0.0
 10
13.4150431363
 20
14.2048888557
 30
0.0
  0
SPLINE
  5
2D2
100
AcDbEntity
  8
LAYER_FEATURE
100
AcDbSpline
 62
7
  6
CONTINUOUS
 70
0
 71
3
 72
13
 73
9
 74
0
 42
0.0000001
 43
0.0000001
 44
0.0000000001
 40
0.0
 40
0.0
 40
0.0
 40
0.0
 40
0.3030078194
 40
0.5686444543
 40
0.6869987889
 40
0.7967866759
 40
0.9001299236
 40
1.0
 40
1.0
 40
1.0
 40
1.0
 10
17.5232710935
 20
10.8167211302
 30
0.0
 10
17.5249013217
 20
10.8167211302
 30
0.0
 10
17.5279698704
 20
10.8169792548
 30
0.0
 10
17.5315410991
 20
10.8181012991
 30
0.0
 10
17.5338333149
 20
10.819467112
 30
0.0
 10
17.5351866027
 20
10.8206456673
 30
0.0
 10
17.5362128912
 20
10.8219969647
 30
0.0
 10
17.5366612335
 20
10.8230072293
 30
0.0
 10
17.5368196297
 20
10.8235206681
 30
0.0
  0
SPLINE
  5
2D3
100
AcDbEntity
  8
LAYER_FEATURE
100
AcDbSpline
 62
7
  6
CONTINUOUS
 70
0
 71
3
 72
12
 73
8
 74
0
 42
0.0000001
 43
0.0000001
 44
0.0000000001
 40
0.0
 40
0.0
 40
0.0
 40
0.0
 40
0.1114621381
 40
0.230786693
 40
0.4851291722
 40
0.7474237566
 40
1.0
 40
1.0
 40
1.0
 40
1.0
 10
17.2410448615
 20
10.8259226187
 30
0.0
 10
17.2416869864
 20
10.8252386586
 30
0.0
 10
17.2431185747
 20
10.8239163424
 30
0.0
 10
17.2464246431
 20
10.8215085462
 30
0.0
 10
17.2512302196
 20
10.8190649125
 30
0.0
 10
17.2574604954
 20
10.8171990293
 30
0.0
 10
17.2618016559
 20
10.8167211302
 30
0.0
 10
17.2639275296
 20
10.8167211302
 30
0.0
  0
SPLINE
  5
2D4
100
AcDbEntity
  8
LAYER_FEATURE
100
AcDbSpline
 62
7
  6
CONTINUOUS
 70
0
 71
3
 72
13
 73
9
 74
0
 42
0.0000001
 43
0.0000001
 44
0.0000000001
 40
0.0
 40
0.0
 40
0.0
 40
0.0
 40
0.3030078194
 40
0.5686444543
 40
0.6869987889
 40
0.7967866759
 40
0.9001299236
 40
1.0
 40
1.0
 40
1.0
 40
1.0
 10
16.9476079722
 20
10.8167211302
 30
0.0
 10
16.9492382004
 20
10.8167211302
 30
0.0
 10
16.9523067492
 20
10.8169792548
 30
0.0
 10
16.9558779779
 20
10.8181012991
 30
0.0
 10
16.9581701936
 20
10.819467112
 30
0.0
 10
16.9595234814
 20
10.8206456673
 30
0.0
 10
16.9605497699
 20
10.8219969647
 30
0.0
 10
16.9609981122
 20
10.8230072293
 30
0.0
 10
16.9611565084
 20
10.8235206681
 30
0.0
  0
SPLINE
  5
2D5
100
AcDbEntity
  8
LAYER_FEATURE
100
AcDbSpline
 62
7
  6
CONTINUOUS
 70
0
 71
3
 72
12
 73
8
 74
0
 42
0.0000001
 43
0.0000001
 44
0.0000000001
 40
0.0
 40
0.0
 40
0.0
 40
0.0
 40
0.1114621381
 40
0.230786693
 40
0.4851291722
 40
0.7474237566
 40
1.0
 40
1.0
 40
1.0
 40
1.0
 10
16.6653817403
 20
10.8259226187
 30
0.0
 10
16.6660238651
 20
10.8252386586
 30
0.0
 10
16.6674554534
 20
10.8239163424
 30
0.0
 10
16.6707615218
 20
10.8215085462
 30
0.0
 10
16.6755670984
 20
10.8190649125
 30
0.0
 10
16.6817973741
 20
10.8171990293
 30
0.0
 10
16.6861385347
 20
10.8167211302
 30
0.0
 10
16.6882644084
 20
10.8167211302
 30
0.0
  0
SPLINE
  5
2D6
100
AcDbEntity
  8
LAYER_FEATURE
100
AcDbSpline
 62
7
  6
CONTINUOUS
 70
0
 71
3
 72
13
 73
9
 74
0
 42
0.0000001
 43
0.0000001
 44
0.0000000001
 40
0.0
 40
0.0
 40
0.0
 40
0.0
 40
0.3030078194
 40
0.5686444543
 40
0.6869987889
 40
0.7967866759
 40
0.9001299236
 40
1.0
 40
1.0
 40
1.0
 40
1.0
 10
16.371944851
 20
10.8167211302
 30
0.0
 10
16.3735750792
 20
10.8167211302
 30
0.0
 10
16.3766436279
 20
10.8169792548
 30
0.0
 10
16.3802148566
 20
10.8181012991
 30
0.0
 10
16.3825070724
 20
10.819467112
 30
0.0
 10
16.3838603602
 20
10.8206456673
 30
0.0
 10
16.3848866487
 20
10.8219969647
 30
0.0
 10
16.385334991
 20
10.8230072293
 30
0.0
 10
16.3854933872
 20
10.8235206681
 30
0.0
  0
SPLINE
  5
2D7
100
AcDbEntity
  8
LAYER_FEATURE
100
AcDbSpline
 62
7
  6
CONTINUOUS
 70
0
 71
3
 72
12
 73
8
 74
0
 42
0.0000001
 43
0.0000001
 44
0.0000000001
 40
0.0
 40
0.0
 40
0.0
 40
0.0
 40
0.1114621381
 40
0.230786693
 40
0.4851291722
 40
0.7474237566
 40
1.0
 40
1.0
 40
1.0
 40
1.0
 10
16.089718619
 20
10.8259226187
 30
0.0
 10
16.0903607439
 20
10.8252386586
 30
0.0
 10
16.0917923322
 20
10.8239163424
 30
0.0
 10
16.0950984006
 20
10.8215085462
 30
0.0
 10
16.0999039771
 20
10.8190649125
 30
0.0
 10
16.1061342529
 20
10.8171990293
 30
0.0
 10
16.1104754134
 20
10.8167211302
 30
0.0
 10
16.1126012871
 20
10.8167211302
 30
0.0
  0
SPLINE
  5
2D8
100
AcDbEntity
  8
LAYER_FEATURE
100
AcDbSpline
 62
7
  6
CONTINUOUS
 70
0
 71
3
 72
13
 73
9
 74
0
 42
0.0000001
 43
0.0000001
 44
0.0000000001
 40
0.0
 40
0.0
 40
0.0
 40
0.0
 40
0.3030078194
 40
0.5686444543
 40
0.6869987889
 40
0.7967866759
 40
0.9001299236
 40
1.0
 40
1.0
 40
1.0
 40
1.0
 10
15.7962817297
 20
10.8167211302
 30
0.0
 10
15.7979119579
 20
10.8167211302
 30
0.0
 10
15.8009805066
 20
10.8169792548
 30
0.0
 10
15.8045517354
 20
10.8181012991
 30
0.0
 10
15.8068439511
 20
10.819467112
 30
0.0
 10
15.8081972389
 20
10.8206456673
 30
0.0
 10
15.8092235274
 20
10.8219969647
 30
0.0
 10
15.8096718697
 20
10.8230072293
 30
0.0
 10
15.8098302659
 20
10.8235206681
 30
0.0
  0
SPLINE
  5
2D9
100
AcDbEntity
  8
LAYER_FEATURE
100
AcDbSpline
 62
7
  6
CONTINUOUS
 70
0
 71
3
 72
12
 73
8
 74
0
 42
0.0000001
 43
0.0000001
 44
0.0000000001
 40
0.0
 40
0.0
 40
0.0
 40
0.0
 40
0.1114621381
 40
0.230786693
 40
0.4851291722
 40
0.7474237566
 40
1.0
 40
1.0
 40
1.0
 40
1.0
 10
15.5140554977
 20
10.8259226187
 30
0.0
 10
15.5146976226
 20
10.8252386586
 30
0.0
 10
15.5161292109
 20
10.8239163424
 30
0.0
 10
15.5194352793
 20
10.8215085462
 30
0.0
 10
15.5242408559
 20
10.8190649125
 30
0.0
 10
15.5304711316
 20
10.8171990293
 30
0.0
 10
15.5348122921
 20
10.8167211302
 30
0.0
 10
15.5369381659
 20
10.8167211302
 30
0.0
  0
SPLINE
  5
2DA
100
AcDbEntity
  8
LAYER_FEATURE
100
AcDbSpline
 62
7
  6
CONTINUOUS
 70
0
 71
3
 72
13
 73
9
 74
0
 42
0.0000001
 43
0.0000001
 44
0.0000000001
 40
0.0
 40
0.0
 40
0.0
 40
0.0
 40
0.3030078194
 40
0.5686444543
 40
0.6869987889
 40
0.7967866759
 40
0.9001299236
 40
1.0
 40
1.0
 40
1.0
 40
1.0
 10
15.2206186085
 20
10.8167211302
 30
0.0
 10
15.2222488367
 20
10.8167211302
 30
0.0
 10
15.2253173854
 20
10.8169792548
 30
0.0
 10
15.2288886141
 20
10.8181012991
 30
0.0
 10
15.2311808299
 20
10.819467112
 30
0.0
 10
15.2325341177
 20
10.8206456673
 30
0.0
 10
15.2335604062
 20
10.8219969647
 30
0.0
 10
15.2340087485
 20
10.8230072293
 30
0.0
 10
15.2341671447
 20
10.8235206681
 30
0.0
  0
SPLINE
  5
2DB
100
AcDbEntity
  8
LAYER_FEATURE
100
AcDbSpline
 62
7
  6
CONTINUOUS
 70
0
 71
3
 72
12
 73
8
 74
0
 42
0.0000001
 43
0.0000001
 44
0.0000000001
 40
0.0
 40
0.0
 40
0.0
 40
0.0
 40
0.1114621381
 40
0.230786693
 40
0.4851291722
 40
0.7474237566
 40
1.0
 40
1.0
 40
1.0
 40
1.0
 10
14.9383923765
 20
10.8259226187
 30
0.0
 10
14.9390345014
 20
10.8252386586
 30
0.0
 10
14.9404660897
 20
10.8239163424
 30
0.0
 10
14.9437721581
 20
10.8215085462
 30
0.0
 10
14.9485777346
 20
10.8190649125
 30
0.0
 10
14.9548080104
 20
10.8171990293
 30
0.0
 10
14.9591491709
 20
10.8167211302
 30
0.0
 10
14.9612750446
 20
10.8167211302
 30
0.0
  0
SPLINE
  5
2DC
100
AcDbEntity
  8
LAYER_FEATURE
100
AcDbSpline
 62
7
  6
CONTINUOUS
 70
0
 71
3
 72
13
 73
9
 74
0
 42
0.0000001
 43
0.0000001
 44
0.0000000001
 40
0.0
 40
0.0
 40
0.0
 40
0.0
 40
0.3030078194
 40
0.5686444543
 40
0.6869987889
 40
0.7967866759
 40
0.9001299236
 40
1.0
 40
1.0
 40
1.0
 40
1.0
 10
14.6449554872
 20
10.8167211302
 30
0.0
 10
14.6465857154
 20
10.8167211302
 30
0.0
 10
14.6496542641
 20
10.8169792548
 30
0.0
 10
14.6532254929
 20
10.8181012991
 30
0.0
 10
14.6555177086
 20
10.819467112
 30
0.0
 10
14.6568709964
 20
10.8206456673
 30
0.0
 10
14.6578972849
 20
10.8219969647
 30
0.0
 10
14.6583456272
 20
10.8230072293
 30
0.0
 10
14.6585040234
 20
10.8235206681
 30
0.0
  0
SPLINE
  5
2DD
100
AcDbEntity
  8
LAYER_FEATURE
100
AcDbSpline
 62
7
  6
CONTINUOUS
 70
0
 71
3
 72
12
 73
8
 74
0
 42
0.0000001
 43
0.0000001
 44
0.0000000001
 40
0.0
 40
0.0
 40
0.0
 40
0.0
 40
0.1114621381
 40
0.230786693
 40
0.4851291722
 40
0.7474237566
 40
1.0
 40
1.0
 40
1.0
 40
1.0
 10
14.3627292552
 20
10.8259226187
 30
0.0
 10
14.3633713801
 20
10.8252386586
 30
0.0
 10
14.3648029684
 20
10.8239163424
 30
0.0
 10
14.3681090368
 20
10.8215085462
 30
0.0
 10
14.3729146134
 20
10.8190649125
 30
0.0
 10
14.3791448891
 20
10.8171990293
 30
0.0
 10
14.3834860496
 20
10.8167211302
 30
0.0
 10
14.3856119234
 20
10.8167211302
 30
0.0
  0
SPLINE
  5
2DE
100
AcDbEntity
  8
LAYER_FEATURE
100
AcDbSpline
 62
7
  6
CONTINUOUS
 70
0
 71
3
 72
13
 73
9
 74
0
 42
0.0000001
 43
0.0000001
 44
0.0000000001
 40
0.0
 40
0.0
 40
0.0
 40
0.0
 40
0.3030078194
 40
0.5686444543
 40
0.6869987889
 40
0.7967866759
 40
0.9001299236
 40
1.0
 40
1.0
 40
1.0
 40
1.0
 10
14.069292366
 20
10.8167211302
 30
0.0
 10
14.0709225942
 20
10.8167211302
 30
0.0
 10
14.0739911429
 20
10.8169792548
 30
0.0
 10
14.0775623716
 20
10.8181012991
 30
0.0
 10
14.0798545874
 20
10.819467112
 30
0.0
 10
14.0812078752
 20
10.8206456673
 30
0.0
 10
14.0822341637
 20
10.8219969647
 30
0.0
 10
14.082682506
 20
10.8230072293
 30
0.0
 10
14.0828409022
 20
10.8235206681
 30
0.0
  0
SPLINE
  5
2DF
100
AcDbEntity
  8
LAYER_FEATURE
100
AcDbSpline
 62
7
  6
CONTINUOUS
 70
0
 71
3
 72
12
 73
8
 74
0
 42
0.0000001
 43
0.0000001
 44
0.0000000001
 40
0.0
 40
0.0
 40
0.0
 40
0.0
 40
0.1114621381
 40
0.230786693
 40
0.4851291722
 40
0.7474237566
 40
1.0
 40
1.0
 40
1.0
 40
1.0
 10
13.787066134
 20
10.8259226187
 30
0.0
 10
13.7877082589
 20
10.8252386586
 30
0.0
 10
13.7891398472
 20
10.8239163424
 30
0.0
 10
13.7924459156
 20
10.8215085462
 30
0.0
 10
13.7972514921
 20
10.8190649125
 30
0.0
 10
13.8034817679
 20
10.8171990293
 30
0.0
 10
13.8078229284
 20
10.8167211302
 30
0.0
 10
13.8099488021
 20
10.8167211302
 30
0.0
  0
SPLINE
  5
2E0
100
AcDbEntity
  8
LAYER_FEATURE
100
AcDbSpline
 62
7
  6
CONTINUOUS
 70
0
 71
3
 72
13
 73
9
 74
0
 42
0.0000001
 43
0.0000001
 44
0.0000000001
 40
0.0
 40
0.0
 40
0.0
 40
0.0
 40
0.3030078194
 40
0.5686444543
 40
0.6869987889
 40
0.7967866759
 40
0.9001299236
 40
1.0
 40
1.0
 40
1.0
 40
1.0
 10
13.4936292447
 20
10.8167211302
 30
0.0
 10
13.4952594729
 20
10.8167211302
 30
0.0
 10
13.4983280216
 20
10.8169792548
 30
0.0
 10
13.5018992504
 20
10.8181012991
 30
0.0
 10
13.5041914661
 20
10.819467112
 30
0.0
 10
13.5055447539
 20
10.8206456673
 30
0.0
 10
13.5065710424
 20
10.8219969647
 30
0.0
 10
13.5070193847
 20
10.8230072293
 30
0.0
 10
13.5071777809
 20
10.8235206681
 30
0.0
  0
SPLINE
  5
2E1
100
AcDbEntity
  8
LAYER_FEATURE
100
AcDbSpline
 62
7
  6
CONTINUOUS
 70
0
 71
3
 72
12
 73
8
 74
0
 42
0.0000001
 43
0.0000001
 44
0.0000000001
 40
0.0
 40
0.0
 40
0.0
 40
0.0
 40
0.1114621381
 40
0.230786693
 40
0.4851291722
 40
0.7474237566
 40
1.0
 40
1.0
 40
1.0
 40
1.0
 10
13.2114030127
 20
10.8259226187
 30
0.0
 10
13.2120451376
 20
10.8252386586
 30
0.0
 10
13.2134767259
 20
10.8239163424
 30
0.0
 10
13.2167827943
 20
10.8215085462
 30
0.0
 10
13.2215883709
 20
10.8190649125
 30
0.0
 10
13.2278186466
 20
10.8171990293
 30
0.0
 10
13.2321598071
 20
10.8167211302
 30
0.0
 10
13.2342856809
 20
10.8167211302
 30
0.0
  0
SPLINE
  5
2E2
100
AcDbEntity
  8
0
100
AcDbSpline
 62
7
  6
CONTINUOUS
 70
0
 71
3
 72
13
 73
9
 74
0
 42
0.0000001
 43
0.0000001
 44
0.0000000001
 40
0.0
 40
0.0
 40
0.0
 40
0.0
 40
0.3030078194
 40
0.5686444543
 40
0.6869987889
 40
0.7967866759
 40
0.9001299236
 40
1.0
 40
1.0
 40
1.0
 40
1.0
 10
12.9179661235
 20
10.8167211302
 30
0.0
 10
12.9195963516
 20
10.8167211302
 30
0.0
 10
12.9226649004
 20
10.8169792548
 30
0.0
 10
12.9262361291
 20
10.8181012991
 30
0.0
 10
12.9285283449
 20
10.819467112
 30
0.0
 10
12.9298816327
 20
10.8206456673
 30
0.0
 10
12.9309079212
 20
10.8219969647
 30
0.0
 10
12.9313562635
 20
10.8230072293
 30
0.0
 10
12.9315146596
 20
10.8235206681
 30
0.0
  0
SPLINE
  5
2E3
100
AcDbEntity
  8
0
100
AcDbSpline
 62
7
  6
CONTINUOUS
 70
0
 71
3
 72
12
 73
8
 74
0
 42
0.0000001
 43
0.0000001
 44
0.0000000001
 40
0.0
 40
0.0
 40
0.0
 40
0.0
 40
0.1114621381
 40
0.230786693
 40
0.4851291722
 40
0.7474237566
 40
1.0
 40
1.0
 40
1.0
 40
1.0
 10
12.6357398915
 20
10.8259226187
 30
0.0
 10
12.6363820164
 20
10.8252386586
 30
0.0
 10
12.6378136047
 20
10.8239163424
 30
0.0
 10
12.6411196731
 20
10.8215085462
 30
0.0
 10
12.6459252496
 20
10.8190649125
 30
0.0
 10
12.6521555254
 20
10.8171990293
 30
0.0
 10
12.6564966859
 20
10.8167211302
 30
0.0
 10
12.6586225596
 20
10.8167211302
 30
0.0
  0
SPLINE
  5
2E4
100
AcDbEntity
  8
0
100
AcDbSpline
 62
7
  6
CONTINUOUS
 70
0
 71
3
 72
13
 73
9
 74
0
 42
0.0000001
 43
0.0000001
 44
0.0000000001
 40
0.0
 40
0.0
 40
0.0
 40
0.0
 40
0.3028164381
 40
0.5687547987
 40
0.6871501143
 40
0.7969352722
 40
0.9002057799
 40
1.0
 40
1.0
 40
1.0
 40
1.0
 10
12.4467778426
 20
11.0715812171
 30
0.0
 10
12.4456048476
 20
11.0715812171
 30
0.0
 10
12.4433954905
 20
11.0713937612
 30
0.0
 10
12.4408227863
 20
11.0705878735
 30
0.0
 10
12.4391720989
 20
11.0696026419
 30
0.0
 10
12.4381971046
 20
11.0687548775
 30
0.0
 10
12.4374604119
 20
11.0677810953
 30
0.0
 10
12.4371366074
 20
11.0670549867
 30
0.0
 10
12.4370222443
 20
11.0666857263
 30
0.0
  0
SPLINE
  5
2E5
100
AcDbEntity
  8
0
100
AcDbSpline
 62
7
  6
CONTINUOUS
 70
0
 71
3
 72
15
 73
11
 74
0
 42
0.0000001
 43
0.0000001
 44
0.0000000001
 40
0.0
 40
0.0
 40
0.0
 40
0.0
 40
0.1000805212
 40
0.21186059
 40
0.3338439566
 40
0.4637371734
 40
0.5987029226
 40
0.7354819219
 40
0.8705834431
 40
1.0
 40
1.0
 40
1.0
 40
1.0
 10
17.5033730227
 20
11.0622570676
 30
0.0
 10
17.5030569208
 20
11.0629012156
 30
0.0
 10
17.5022170541
 20
11.064182676
 30
0.0
 10
17.5005590343
 20
11.0659222109
 30
0.0
 10
17.4984861431
 20
11.0675182951
 30
0.0
 10
17.496083396
 20
11.0689171185
 30
0.0
 10
17.4934355529
 20
11.0700645989
 30
0.0
 10
17.4906412006
 20
11.0709225755
 30
0.0
 10
17.4878071376
 20
11.0714510089
 30
0.0
 10
17.4859093333
 20
11.0715812171
 30
0.0
 10
17.4849814798
 20
11.0715812171
 30
0.0
  0
ENDSEC
  0
SECTION
  2
OBJECTS
  0
DICTIONARY
  5
C
100
AcDbDictionary
280
0
281
1
  3
ACAD_GROUP
350
D
  3
ACAD_MLINESTYLE
350
17
  3
ACAD_LAYOUT
350
1A
  3
ACAD_PLOTSETTINGS
350
19
  3
ACAD_PLOTSTYLENAME
350
E
  0
DICTIONARY
  5
D
102
{ACAD_REACTORS
330
C
102
}
100
AcDbDictionary
280
0
281
1
  0
ACDBDICTIONARYWDFLT
  5
E
102
{ACAD_REACTORS
330
C
102
}
100
AcDbDictionary
281
1
  3
Normal
350
F
100
AcDbDictionaryWithDefault
340
F
  0
DICTIONARY
  5
17
102
{ACAD_REACTORS
330
C
102
}
100
AcDbDictionary
280
0
281
1
  3
Standard
350
18
  0
DICTIONARY
  5
19
102
{ACAD_REACTORS
330
C
102
}
100
AcDbDictionary
281
1
  0
DICTIONARY
  5
1A
102
{ACAD_REACTORS
330
C
102
}
100
AcDbDictionary
281
1
  3
Model
350
2E6
  3
Layout1
350
2E7
  0
ACDBPLACEHOLDER
  5
F
102
{ACAD_REACTORS
330
E
102
}
  0
MLINESTYLE
  5
18
102
{ACAD_REACTORS
330
17
102
}
100
AcDbMlineStyle
  2
STANDARD
 70
0
  3

 62
256
 51
90.0
 52
90.0
 71
2
 49
0.5
 62
256
  6
BYLAYER
 49
-0.5
 62
256
  6
BYLAYER
  0
LAYOUT
  5
2E6
102
{ACAD_REACTORS
330
1A
102
}
100
AcDbPlotSettings
  1

  2
none_device
  4
ANSI_C_(22.00_x_17.00_Inches)
  6

 40
0.0
 41
0.0
 42
0.0
 43
0.0
 44
558.8
 45
431.8
 46
0.0
 47
0.0
 48
0.0
 49
0.0
140
0.0
141
0.0
142
1.0
143
1.0
 70
1024
 72
0
 73
0
 74
0
  7

 75
0
147
1.0
148
0.0
149
0.0
100
AcDbLayout
  1
Model
 70
0
 71
0
 10
0.0
 20
0.0
 11
22.0
 21
17.0
 12
0.0
 22
0.0
 32
0.0
 14
0.0
 24
0.0
 34
0.0
 15
0.0
 25
0.0
 35
0.0
146
0.0
 13
0.0
 23
0.0
 33
0.0
 16
1.0
 26
0.0
 36
0.0
 17
0.0
 27
1.0
 37
0.0
 76
0
330
21C
345
0
346
0
  0
LAYOUT
  5
2E7
102
{ACAD_REACTORS
330
1A
102
}
100
AcDbPlotSettings
  1

  2
none_device
  4
ANSI_C_(22.00_x_17.00_Inches)
  6

 40
0.0
 41
0.0
 42
0.0
 43
0.0
 44
558.8
 45
431.8
 46
0.0
 47
0.0
 48
0.0
 49
0.0
140
0.0
141
0.0
142
1.0
143
1.0
 70
0
 72
0
 73
0
 74
0
  7

 75
0
147
1.0
148
0.0
149
0.0
100
AcDbLayout
  1
Layout1
 70
0
 71
1
 10
0.0
 20
0.0
 11
22.0
 21
17.0
 12
0.0
 22
0.0
 32
0.0
 14
0.0
 24
0.0
 34
0.0
 15
0.0
 25
0.0
 35
0.0
146
0.0
 13
0.0
 23
0.0
 33
0.0
 16
1.0
 26
0.0
 36
0.0
 17
0.0
 27
1.0
 37
0.0
 76
0
330
21D
345
0
346
0
  0
ENDSEC
  0
EOF