999
DXF file: _cgs_temp_output.dxf
999
Pro/ENGINEER 2016360 by Parametric Technology Corporation
  0
SECTION
  2
HEADER
  9
$ACADVER
  1
AC1021
  9
$DWGCODEPAGE
  3
ANSI_1252
  9
$EXTMAX
 10
22.0
 20
17.0
 30
0.0
  9
$EXTMIN
 10
0.0
 20
0.0
 30
0.0
  9
$LIMMIN
 10
0.0
 20
0.0
  9
$LIMMAX
 10
22.0
 20
17.0
  9
$VIEWCTR
 10
11.0
 20
8.5
  9
$VIEWSIZE
 40
17.0
  9
$CLAYER
  8
0
  9
$LTSCALE
 40
1.21
  9
$CELTYPE
  6
BYLAYER
  9
$DIMSCALE
 40
1.0
  9
$DIMASZ
 40
0.1875
  9
$DIMEXO
 40
0.0625
  9
$DIMDLI
 40
0.836
  9
$DIMEXE
 40
0.125
  9
$DIMCEN
 40
0.198
  9
$DIMLFAC
 40
1.0
  9
$DIMBLK
  1
_CLOSED
  9
$DIMALT
 70
0
  9
$DIMALTF
 40
25.4
  9
$DIMTXT
 40
0.15625
  9
$DIMTOL
 70
0
  9
$DIMLIM
 70
0
  9
$DIMTFAC
 40
1.0
  9
$DIMGAP
 40
0.09
  9
$DIMDSEP
 70
46
  9
$AUNITS
 70
0
  9
$PDMODE
 70
3
  9
$PDSIZE
 40
0.3125
  9
$HANDSEED
  5
2E3
  9
$TILEMODE
 70
1
  9
$MEASUREMENT
 70
0
  9
$INSUNITS
 70
1
  0
ENDSEC
  0
SECTION
  2
CLASSES
  0
CLASS
  1
ACDBDICTIONARYWDFLT
  2
AcDbDictionaryWithDefault
  3
AutoCAD 2000
 90
0
 91
1
280
0
281
0
  0
CLASS
  1
ACDBPLACEHOLDER
  2
AcDbPlaceHolder
  3
AutoCAD 2000
 90
0
 91
1
280
0
281
0
  0
CLASS
  1
LAYOUT
  2
AcDbLayout
  3
AutoCAD 2000
 90
0
 91
0
280
0
281
0
  0
ENDSEC
  0
SECTION
  2
TABLES
  0
TABLE
  2
VPORT
  5
8
100
AcDbSymbolTable
 70
2
  0
VPORT
  5
1F4
100
AcDbSymbolTableRecord
100
AcDbViewportTableRecord
  2
*ACTIVE
 70
0
 10
0.0
 20
0.0
 11
1.0
 21
1.0
 12
11.0
 22
8.5
 13
0.0
 23
0.0
 14
1.0
 24
1.0
 15
0.0
 25
0.0
 16
0.0
 26
0.0
 36
1.0
 17
0.0
 27
0.0
 37
0.0
 40
17.0
 41
1.2941176471
 42
50.0
 43
0.0
 44
0.0
 50
0.0
 51
0.0
 71
0
 72
100
 73
1
 74
1
 75
0
 76
0
 77
0
 78
0
  0
ENDTAB
  0
TABLE
  2
LTYPE
  5
5
100
AcDbSymbolTable
 70
6
  0
LTYPE
  5
14
100
AcDbSymbolTableRecord
100
AcDbLinetypeTableRecord
  2
BYBLOCK
 70
0
  3

 72
65
 73
0
 40
0.0
  0
LTYPE
  5
15
100
AcDbSymbolTableRecord
100
AcDbLinetypeTableRecord
  2
BYLAYER
 70
0
  3

 72
65
 73
0
 40
0.0
  0
LTYPE
  5
16
100
AcDbSymbolTableRecord
100
AcDbLinetypeTableRecord
  2
CONTINUOUS
 70
64
  3
Solid line
 72
65
 73
0
 40
0.0
  0
LTYPE
  5
1F5
100
AcDbSymbolTableRecord
100
AcDbLinetypeTableRecord
  2
CENTER
 70
64
  3
____ _ ____ _ ____ _ ____ _ ____ _ ____ _ ____
 72
65
 73
4
 40
0.6
 49
0.375
 74
0
 49
-0.075
 74
0
 49
0.075
 74
0
 49
-0.075
 74
0
  0
LTYPE
  5
1F6
100
AcDbSymbolTableRecord
100
AcDbLinetypeTableRecord
  2
HIDDEN
 70
64
  3
- - - - - - - - - - - - - - - - - - - -
 72
65
 73
2
 40
0.2
 49
0.1
 74
0
 49
-0.1
 74
0
  0
LTYPE
  5
1F7
100
AcDbSymbolTableRecord
100
AcDbLinetypeTableRecord
  2
PHANTOM
 70
64
  3
_____ _ _ _____ _ _ _____ _ _ _____
 72
65
 73
6
 40
0.8
 49
0.45
 74
0
 49
-0.05
 74
0
 49
0.1
 74
0
 49
-0.05
 74
0
 49
0.1
 74
0
 49
-0.05
 74
0
  0
LTYPE
  5
1F8
100
AcDbSymbolTableRecord
100
AcDbLinetypeTableRecord
  2
DOT
 70
64
  3
. . . . . . . . . . . . . . . . . . . .
 72
65
 73
2
 40
0.2
 49
0.1
 74
0
 49
-0.1
 74
0
  0
LTYPE
  5
1F9
100
AcDbSymbolTableRecord
100
AcDbLinetypeTableRecord
  2
DASHED
 70
64
  3
- - - - - - - - - - - - - - - - - - - -
 72
65
 73
2
 40
0.2
 49
0.1
 74
0
 49
-0.1
 74
0
  0
ENDTAB
  0
TABLE
  2
LAYER
  5
2
100
AcDbSymbolTable
 70
36
  0
LAYER
  5
10
100
AcDbSymbolTableRecord
100
AcDbLayerTableRecord
  2
0
 70
0
 62
7
  6
CONTINUOUS
370
-3
390
F
  0
LAYER
  5
1FA
100
AcDbSymbolTableRecord
100
AcDbLayerTableRecord
  2
DEFAULT_1
 70
0
 62
7
  6
CENTER
370
-3
390
F
  0
LAYER
  5
1FB
100
AcDbSymbolTableRecord
100
AcDbLayerTableRecord
  2
DEFAULT_2
 70
0
 62
8
  6
HIDDEN
370
-3
390
F
  0
LAYER
  5
1FC
100
AcDbSymbolTableRecord
100
AcDbLayerTableRecord
  2
DEFAULT_3
 70
0
 62
7
  6
PHANTOM
370
-3
390
F
  0
LAYER
  5
1FD
100
AcDbSymbolTableRecord
100
AcDbLayerTableRecord
  2
01_ALL_DTM_PLN
 70
0
 62
7
  6
CONTINUOUS
370
-3
390
F
  0
LAYER
  5
1FE
100
AcDbSymbolTableRecord
100
AcDbLayerTableRecord
  2
01__ASM_ALL_DTM_PLN
 70
0
 62
7
  6
CONTINUOUS
370
-3
390
F
  0
LAYER
  5
1FF
100
AcDbSymbolTableRecord
100
AcDbLayerTableRecord
  2
01__ASM_DEF_DTM_PLN
 70
0
 62
7
  6
CONTINUOUS
370
-3
390
F
  0
LAYER
  5
200
100
AcDbSymbolTableRecord
100
AcDbLayerTableRecord
  2
01___PRT_ALL_DTM_PLN
 70
0
 62
7
  6
CONTINUOUS
370
-3
390
F
  0
LAYER
  5
201
100
AcDbSymbolTableRecord
100
AcDbLayerTableRecord
  2
01___PRT_DEF_DTM_PLN
 70
0
 62
7
  6
CONTINUOUS
370
-3
390
F
  0
LAYER
  5
202
100
AcDbSymbolTableRecord
100
AcDbLayerTableRecord
  2
02_ALL_AXES
 70
0
 62
7
  6
CONTINUOUS
370
-3
390
F
  0
LAYER
  5
203
100
AcDbSymbolTableRecord
100
AcDbLayerTableRecord
  2
02__ASM_ALL_AXES
 70
0
 62
7
  6
CONTINUOUS
370
-3
390
F
  0
LAYER
  5
204
100
AcDbSymbolTableRecord
100
AcDbLayerTableRecord
  2
02___PRT_ALL_AXES
 70
0
 62
7
  6
CONTINUOUS
370
-3
390
F
  0
LAYER
  5
205
100
AcDbSymbolTableRecord
100
AcDbLayerTableRecord
  2
03_ALL_CURVES
 70
0
 62
7
  6
CONTINUOUS
370
-3
390
F
  0
LAYER
  5
206
100
AcDbSymbolTableRecord
100
AcDbLayerTableRecord
  2
03__ASM_ALL_CURVES
 70
0
 62
7
  6
CONTINUOUS
370
-3
390
F
  0
LAYER
  5
207
100
AcDbSymbolTableRecord
100
AcDbLayerTableRecord
  2
03___PRT_ALL_CURVES
 70
0
 62
7
  6
CONTINUOUS
370
-3
390
F
  0
LAYER
  5
208
100
AcDbSymbolTableRecord
100
AcDbLayerTableRecord
  2
04_ALL_DTM_PNT
 70
0
 62
7
  6
CONTINUOUS
370
-3
390
F
  0
LAYER
  5
209
100
AcDbSymbolTableRecord
100
AcDbLayerTableRecord
  2
04__ASM_ALL_DTM_PNT
 70
0
 62
7
  6
CONTINUOUS
370
-3
390
F
  0
LAYER
  5
20A
100
AcDbSymbolTableRecord
100
AcDbLayerTableRecord
  2
04___PRT_ALL_DTM_PNT
 70
0
 62
7
  6
CONTINUOUS
370
-3
390
F
  0
LAYER
  5
20B
100
AcDbSymbolTableRecord
100
AcDbLayerTableRecord
  2
05_ALL_DTM_CSYS
 70
0
 62
7
  6
CONTINUOUS
370
-3
390
F
  0
LAYER
  5
20C
100
AcDbSymbolTableRecord
100
AcDbLayerTableRecord
  2
05__ASM_ALL_DTM_CSYS
 70
0
 62
7
  6
CONTINUOUS
370
-3
390
F
  0
LAYER
  5
20D
100
AcDbSymbolTableRecord
100
AcDbLayerTableRecord
  2
05__ASM_DEF_DTM_CSYS
 70
0
 62
7
  6
CONTINUOUS
370
-3
390
F
  0
LAYER
  5
20E
100
AcDbSymbolTableRecord
100
AcDbLayerTableRecord
  2
05___PRT_ALL_DTM_CSYS
 70
0
 62
7
  6
CONTINUOUS
370
-3
390
F
  0
LAYER
  5
20F
100
AcDbSymbolTableRecord
100
AcDbLayerTableRecord
  2
05___PRT_DEF_DTM_CSYS
 70
0
 62
7
  6
CONTINUOUS
370
-3
390
F
  0
LAYER
  5
210
100
AcDbSymbolTableRecord
100
AcDbLayerTableRecord
  2
06_ALL_SURFS
 70
0
 62
7
  6
CONTINUOUS
370
-3
390
F
  0
LAYER
  5
211
100
AcDbSymbolTableRecord
100
AcDbLayerTableRecord
  2
06__ASM_ALL_SURFS
 70
0
 62
7
  6
CONTINUOUS
370
-3
390
F
  0
LAYER
  5
212
100
AcDbSymbolTableRecord
100
AcDbLayerTableRecord
  2
06___PRT_ALL_SURFS
 70
0
 62
7
  6
CONTINUOUS
370
-3
390
F
  0
LAYER
  5
213
100
AcDbSymbolTableRecord
100
AcDbLayerTableRecord
  2
07__ASM_ALL_SKELETONS
 70
0
 62
7
  6
CONTINUOUS
370
-3
390
F
  0
LAYER
  5
214
100
AcDbSymbolTableRecord
100
AcDbLayerTableRecord
  2
LAYER_AXIS
 70
0
 62
7
  6
CONTINUOUS
370
-3
390
F
  0
LAYER
  5
215
100
AcDbSymbolTableRecord
100
AcDbLayerTableRecord
  2
LAYER_CHAMFER_FEAT
 70
0
 62
7
  6
CONTINUOUS
370
-3
390
F
  0
LAYER
  5
216
100
AcDbSymbolTableRecord
100
AcDbLayerTableRecord
  2
LAYER_CUT_FEAT
 70
0
 62
7
  6
CONTINUOUS
370
-3
390
F
  0
LAYER
  5
217
100
AcDbSymbolTableRecord
100
AcDbLayerTableRecord
  2
LAYER_DATUM
 70
0
 62
7
  6
CONTINUOUS
370
-3
390
F
  0
LAYER
  5
218
100
AcDbSymbolTableRecord
100
AcDbLayerTableRecord
  2
LAYER_DIM
 70
0
 62
7
  6
CONTINUOUS
370
-3
390
F
  0
LAYER
  5
219
100
AcDbSymbolTableRecord
100
AcDbLayerTableRecord
  2
LAYER_FEATURE
 70
0
 62
7
  6
CONTINUOUS
370
-3
390
F
  0
LAYER
  5
21A
100
AcDbSymbolTableRecord
100
AcDbLayerTableRecord
  2
LAYER_GEOM_FEAT
 70
0
 62
7
  6
CONTINUOUS
370
-3
390
F
  0
LAYER
  5
21B
100
AcDbSymbolTableRecord
100
AcDbLayerTableRecord
  2
LAYER_NOGEOM_FEAT
 70
0
 62
7
  6
CONTINUOUS
370
-3
390
F
  0
LAYER
  5
21C
100
AcDbSymbolTableRecord
100
AcDbLayerTableRecord
  2
LAYER_PARAMETER_DIM
 70
0
 62
7
  6
CONTINUOUS
370
-3
390
F
  0
LAYER
  5
21D
100
AcDbSymbolTableRecord
100
AcDbLayerTableRecord
  2
LAYER_PROTRUSION_FEAT
 70
0
 62
7
  6
CONTINUOUS
370
-3
390
F
  0
LAYER
  5
21E
100
AcDbSymbolTableRecord
100
AcDbLayerTableRecord
  2
LAYER_QUILT
 70
0
 62
7
  6
CONTINUOUS
370
-3
390
F
  0
LAYER
  5
21F
100
AcDbSymbolTableRecord
100
AcDbLayerTableRecord
  2
LAYER_ROUND_FEAT
 70
0
 62
7
  6
CONTINUOUS
370
-3
390
F
  0
ENDTAB
  0
TABLE
  2
STYLE
  5
3
100
AcDbSymbolTable
 70
1
  0
STYLE
  5
11
100
AcDbSymbolTableRecord
100
AcDbTextStyleTableRecord
  2
STANDARD
 70
0
 40
0.0
 41
0.8
 50
0.0
 71
0
 42
0.2
  3
txt
  4

  0
STYLE
  5
220
100
AcDbSymbolTableRecord
100
AcDbTextStyleTableRecord
  2
TEXTSTYLE_1
 70
0
 40
0.0
 41
0.8
 50
0.0
 71
0
 42
0.2
  3
gdt
  4

  0
ENDTAB
  0
TABLE
  2
VIEW
  5
6
100
AcDbSymbolTable
 70
0
  0
ENDTAB
  0
TABLE
  2
UCS
  5
7
100
AcDbSymbolTable
 70
0
  0
ENDTAB
  0
TABLE
  2
APPID
  5
9
100
AcDbSymbolTable
 70
1
  0
APPID
  5
221
100
AcDbSymbolTableRecord
100
AcDbRegAppTableRecord
  2
ACAD
 70
0
  0
ENDTAB
  0
TABLE
  2
BLOCK_RECORD
  5
1
100
AcDbSymbolTable
 70
0
  0
BLOCK_RECORD
  5
222
100
AcDbSymbolTableRecord
100
AcDbBlockTableRecord
  2
*Model_Space
  0
BLOCK_RECORD
  5
223
100
AcDbSymbolTableRecord
100
AcDbBlockTableRecord
  2
*Paper_Space
  0
ENDTAB
  0
TABLE
  2
DIMSTYLE
  5
A
100
AcDbSymbolTable
 70
1
100
AcDbDimStyleTable
 71
0
  0
DIMSTYLE
105
224
100
AcDbSymbolTableRecord
100
AcDbDimStyleTableRecord
  2
STANDARD
 70
0
  3

  4

 40
1.0
 41
0.1875
 42
0.0625
 43
0.38
 44
0.125
 45
0.0
 46
0.0
 47
0.0001
 48
0.0001
140
0.15625
141
0.09
142
0.0
143
25.4
144
1.0
145
0.0
146
1.0
147
0.09
 71
0.0
 72
0.0
 73
1
 74
1
 75
0
 76
0
 77
0
 78
4
 79
1
170
0
171
3
172
0
173
0
174
0
175
0
176
0
177
0
178
0
270
2
179
4
271
4
272
4
273
2
274
2
275
0
280
0
281
0
282
0
283
1
284
4
285
0
286
0
287
3
288
0
340
11
278
46
  0
ENDTAB
  0
ENDSEC
  0
SECTION
  2
BLOCKS
  0
BLOCK
  5
20
100
AcDbEntity
  8
0
100
AcDbBlockBegin
  2
*Model_Space
 70
0
 10
0.0
 20
0.0
 30
0.0
  3
*Model_Space
  1

  0
ENDBLK
  5
21
100
AcDbEntity
  8
0
100
AcDbBlockEnd
  0
BLOCK
  5
1C
100
AcDbEntity
  8
0
100
AcDbBlockBegin
  2
*Paper_Space
 70
0
 10
0.0
 20
0.0
 30
0.0
  3
*Paper_Space
  1

  0
ENDBLK
  5
1D
100
AcDbEntity
  8
0
100
AcDbBlockEnd
  0
ENDSEC
  0
SECTION
  2
ENTITIES
  0
MTEXT
  5
225
100
AcDbEntity
  8
0
100
AcDbMText
 62
7
  6
CONTINUOUS
  7
STANDARD
 71
1
 72
1
 10
15.9560215477
 20
0.9479130325
 30
0.0
 11
1.0
 21
0.0
 31
0.0
 44
0.9
  1
SCALE: 1:0.500
 40
0.3
 41
3.36
  0
LINE
  5
226
100
AcDbEntity
  8
0
100
AcDbLine
 62
7
  6
CONTINUOUS
 10
0.0
 20
0.0
 11
0.0
 21
17.0
  0
LINE
  5
227
100
AcDbEntity
  8
0
100
AcDbLine
 62
7
  6
CONTINUOUS
 10
0.0
 20
0.0
 11
22.0
 21
0.0
  0
LINE
  5
228
100
AcDbEntity
  8
0
100
AcDbLine
 62
7
  6
CONTINUOUS
 10
0.0
 20
17.0
 11
22.0
 21
17.0
  0
LINE
  5
229
100
AcDbEntity
  8
0
100
AcDbLine
 62
7
  6
CONTINUOUS
 10
22.0
 20
0.0
 11
22.0
 21
17.0
  0
LINE
  5
22A
100
AcDbEntity
  8
LAYER_FEATURE
100
AcDbLine
 62
7
  6
CONTINUOUS
 10
6.8493672762
 20
3.5401198968
 11
6.8033619494
 21
3.5401198968
  0
LINE
  5
22B
100
AcDbEntity
  8
LAYER_FEATURE
100
AcDbLine
 62
7
  6
CONTINUOUS
 10
5.4113672762
 20
3.5401198968
 11
5.4573726029
 21
3.5401198968
  0
LINE
  5
22C
100
AcDbEntity
  8
02___PRT_ALL_AXES
100
AcDbLine
 62
7
  6
CONTINUOUS
 10
5.4728672762
 20
3.6561198968
 11
6.7878672762
 21
3.6561198968
  0
LINE
  5
22D
100
AcDbEntity
  8
LAYER_FEATURE
100
AcDbLine
 62
7
  6
CONTINUOUS
 10
6.8493672762
 20
7.2924627161
 11
6.8578672762
 21
7.2951198968
  0
LINE
  5
22E
100
AcDbEntity
  8
LAYER_FEATURE
100
AcDbLine
 62
7
  6
CONTINUOUS
 10
6.8493672762
 20
3.7477770775
 11
6.8578672762
 21
3.7451198968
  0
LINE
  5
22F
100
AcDbEntity
  8
02___PRT_ALL_AXES
100
AcDbLine
 62
7
  6
CONTINUOUS
 10
5.4028672762
 20
3.7451198968
 11
5.4028672762
 21
7.2951198968
  0
LINE
  5
230
100
AcDbEntity
  8
LAYER_FEATURE
100
AcDbLine
 62
7
  6
CONTINUOUS
 10
5.4113672762
 20
7.5001198968
 11
5.4113672762
 21
3.5401198968
  0
LINE
  5
231
100
AcDbEntity
  8
LAYER_FEATURE
100
AcDbLine
 62
7
  6
CONTINUOUS
 10
5.4573726029
 20
7.5001198968
 11
5.4573726029
 21
3.5401198968
  0
LINE
  5
232
100
AcDbEntity
  8
LAYER_FEATURE
100
AcDbLine
 62
7
  6
CONTINUOUS
 10
5.4728672762
 20
7.4272231905
 11
5.4728672762
 21
3.613016603
  0
LINE
  5
233
100
AcDbEntity
  8
LAYER_FEATURE
100
AcDbLine
 62
7
  6
CONTINUOUS
 10
5.4573726029
 20
3.5401198968
 11
5.4728672762
 21
3.613016603
  0
LINE
  5
234
100
AcDbEntity
  8
LAYER_FEATURE
100
AcDbLine
 62
7
  6
CONTINUOUS
 10
5.4573726029
 20
7.5001198968
 11
5.4728672762
 21
7.4272231905
  0
LINE
  5
235
100
AcDbEntity
  8
LAYER_FEATURE
100
AcDbLine
 62
7
  6
CONTINUOUS
 10
6.8033619494
 20
7.5001198968
 11
6.7878672762
 21
7.4272231905
  0
LINE
  5
236
100
AcDbEntity
  8
LAYER_FEATURE
100
AcDbLine
 62
7
  6
CONTINUOUS
 10
6.8033619494
 20
3.5401198968
 11
6.7878672762
 21
3.613016603
  0
LINE
  5
237
100
AcDbEntity
  8
LAYER_FEATURE
100
AcDbLine
 62
7
  6
CONTINUOUS
 10
6.7878672762
 20
7.4272231905
 11
6.7878672762
 21
3.613016603
  0
LINE
  5
238
100
AcDbEntity
  8
LAYER_FEATURE
100
AcDbLine
 62
7
  6
CONTINUOUS
 10
6.8033619494
 20
7.5001198968
 11
6.8033619494
 21
3.5401198968
  0
LINE
  5
239
100
AcDbEntity
  8
LAYER_FEATURE
100
AcDbLine
 62
7
  6
CONTINUOUS
 10
6.8493672762
 20
7.5001198968
 11
6.8493672762
 21
3.5401198968
  0
LINE
  5
23A
100
AcDbEntity
  8
02___PRT_ALL_AXES
100
AcDbLine
 62
7
  6
CONTINUOUS
 10
6.8578672762
 20
3.7451198968
 11
6.8578672762
 21
7.2951198968
  0
LINE
  5
23B
100
AcDbEntity
  8
LAYER_FEATURE
100
AcDbLine
 62
7
  6
CONTINUOUS
 10
5.4028672762
 20
3.7451198968
 11
5.4113672762
 21
3.7477770775
  0
LINE
  5
23C
100
AcDbEntity
  8
LAYER_FEATURE
100
AcDbLine
 62
7
  6
CONTINUOUS
 10
5.4028672762
 20
7.2951198968
 11
5.4113672762
 21
7.2924627161
  0
LINE
  5
23D
100
AcDbEntity
  8
LAYER_FEATURE
100
AcDbLine
 62
7
  6
CONTINUOUS
 10
5.4728672762
 20
7.308331329
 11
6.7878672762
 21
7.308331329
  0
LINE
  5
23E
100
AcDbEntity
  8
0
100
AcDbLine
 62
7
  6
CONTINUOUS
 10
5.4728672762
 20
7.3087515118
 11
6.7878672762
 21
7.3087515118
  0
LINE
  5
23F
100
AcDbEntity
  8
LAYER_FEATURE
100
AcDbLine
 62
7
  6
CONTINUOUS
 10
5.4728672762
 20
7.3405988418
 11
6.7878672762
 21
7.3405988418
  0
LINE
  5
240
100
AcDbEntity
  8
LAYER_FEATURE
100
AcDbLine
 62
7
  6
CONTINUOUS
 10
5.4728672762
 20
7.3460838993
 11
6.7878672762
 21
7.3460838993
  0
LINE
  5
241
100
AcDbEntity
  8
0
100
AcDbLine
 62
7
  6
CONTINUOUS
 10
5.4728672762
 20
7.3462711945
 11
6.7878672762
 21
7.3462711945
  0
LINE
  5
242
100
AcDbEntity
  8
LAYER_FEATURE
100
AcDbLine
 62
7
  6
CONTINUOUS
 10
5.4728672762
 20
7.3677221442
 11
6.7878672762
 21
7.3677221442
  0
LINE
  5
243
100
AcDbEntity
  8
LAYER_FEATURE
100
AcDbLine
 62
7
  6
CONTINUOUS
 10
5.4728672762
 20
7.3710286441
 11
6.7878672762
 21
7.3710286441
  0
LINE
  5
244
100
AcDbEntity
  8
0
100
AcDbLine
 62
7
  6
CONTINUOUS
 10
5.4728672762
 20
7.3710755502
 11
6.7878672762
 21
7.3710755502
  0
LINE
  5
245
100
AcDbEntity
  8
LAYER_FEATURE
100
AcDbLine
 62
7
  6
CONTINUOUS
 10
5.4728672762
 20
7.3818858443
 11
6.7878672762
 21
7.3818858443
  0
LINE
  5
246
100
AcDbEntity
  8
LAYER_FEATURE
100
AcDbLine
 62
7
  6
CONTINUOUS
 10
5.4728672762
 20
7.3829905939
 11
6.7878672762
 21
7.3829905939
  0
LINE
  5
247
100
AcDbEntity
  8
LAYER_FEATURE
100
AcDbLine
 62
7
  6
CONTINUOUS
 10
6.8493672762
 20
7.5001198968
 11
6.8033619494
 21
7.5001198968
  0
LINE
  5
248
100
AcDbEntity
  8
LAYER_FEATURE
100
AcDbLine
 62
7
  6
CONTINUOUS
 10
5.4113672762
 20
7.5001198968
 11
5.4573726029
 21
7.5001198968
  0
LINE
  5
249
100
AcDbEntity
  8
LAYER_FEATURE
100
AcDbLine
 62
7
  6
CONTINUOUS
 10
5.3518720839
 20
10.6200477814
 11
5.3978774106
 21
10.6200477814
  0
LINE
  5
24A
100
AcDbEntity
  8
LAYER_FEATURE
100
AcDbLine
 62
7
  6
CONTINUOUS
 10
6.7438667571
 20
10.6200477814
 11
6.7898720839
 21
10.6200477814
  0
LINE
  5
24B
100
AcDbEntity
  8
02___PRT_ALL_AXES
100
AcDbLine
 62
7
  6
CONTINUOUS
 10
5.4133720839
 20
10.7360477814
 11
6.7283720839
 21
10.7360477814
  0
LINE
  5
24C
100
AcDbEntity
  8
02___PRT_ALL_AXES
100
AcDbLine
 62
7
  6
CONTINUOUS
 10
6.7983720839
 20
14.3750477814
 11
6.7898720839
 21
14.3723906007
  0
LINE
  5
24D
100
AcDbEntity
  8
02___PRT_ALL_AXES
100
AcDbLine
 62
7
  6
CONTINUOUS
 10
6.7983720839
 20
10.8250477814
 11
6.7898720839
 21
10.8277049621
  0
LINE
  5
24E
100
AcDbEntity
  8
02___PRT_ALL_AXES
100
AcDbLine
 62
7
  6
CONTINUOUS
 10
5.3433720839
 20
10.8250477814
 11
5.3433720839
 21
14.3750477814
  0
LINE
  5
24F
100
AcDbEntity
  8
LAYER_FEATURE
100
AcDbLine
 62
7
  6
CONTINUOUS
 10
5.3518720839
 20
10.6200477814
 11
5.3518720839
 21
14.5800477814
  0
LINE
  5
250
100
AcDbEntity
  8
LAYER_FEATURE
100
AcDbLine
 62
7
  6
CONTINUOUS
 10
5.3978774106
 20
10.6200477814
 11
5.3978774106
 21
14.5800477814
  0
LINE
  5
251
100
AcDbEntity
  8
LAYER_FEATURE
100
AcDbLine
 62
7
  6
CONTINUOUS
 10
5.4133720839
 20
10.6929446114
 11
5.4133720839
 21
14.5071509513
  0
LINE
  5
252
100
AcDbEntity
  8
LAYER_FEATURE
100
AcDbLine
 62
7
  6
CONTINUOUS
 10
5.4133720839
 20
12.0739338453
 11
6.7283720839
 21
12.0739338453
  0
LINE
  5
253
100
AcDbEntity
  8
LAYER_FEATURE
100
AcDbLine
 62
7
  6
CONTINUOUS
 10
6.7283720839
 20
12.1368039412
 11
5.4133720839
 21
12.1368039412
  0
LINE
  5
254
100
AcDbEntity
  8
LAYER_FEATURE
100
AcDbLine
 62
7
  6
CONTINUOUS
 10
6.7283720839
 20
12.1692514771
 11
5.4133720839
 21
12.1692514771
  0
LINE
  5
255
100
AcDbEntity
  8
LAYER_FEATURE
100
AcDbLine
 62
7
  6
CONTINUOUS
 10
5.4133720839
 20
12.1996075105
 11
6.7283720839
 21
12.1996075105
  0
LINE
  5
256
100
AcDbEntity
  8
LAYER_FEATURE
100
AcDbLine
 62
7
  6
CONTINUOUS
 10
5.4133720839
 20
12.225412677
 11
6.7283720839
 21
12.225412677
  0
LINE
  5
257
100
AcDbEntity
  8
LAYER_FEATURE
100
AcDbLine
 62
7
  6
CONTINUOUS
 10
6.7283720839
 20
12.2837655255
 11
5.4133720839
 21
12.2837655255
  0
LINE
  5
258
100
AcDbEntity
  8
LAYER_FEATURE
100
AcDbLine
 62
7
  6
CONTINUOUS
 10
6.7283720839
 20
12.3167963928
 11
5.4133720839
 21
12.3167963928
  0
LINE
  5
259
100
AcDbEntity
  8
LAYER_FEATURE
100
AcDbLine
 62
7
  6
CONTINUOUS
 10
5.3978774106
 20
10.6200477814
 11
5.4133720839
 21
10.6929444876
  0
LINE
  5
25A
100
AcDbEntity
  8
LAYER_FEATURE
100
AcDbLine
 62
7
  6
CONTINUOUS
 10
5.4133720839
 20
12.3533456628
 11
6.7283720839
 21
12.3533456628
  0
LINE
  5
25B
100
AcDbEntity
  8
LAYER_FEATURE
100
AcDbLine
 62
7
  6
CONTINUOUS
 10
5.4133720839
 20
12.3795193048
 11
6.7283720839
 21
12.3795193048
  0
LINE
  5
25C
100
AcDbEntity
  8
LAYER_FEATURE
100
AcDbLine
 62
7
  6
CONTINUOUS
 10
6.7283720839
 20
12.4329456026
 11
5.4133720839
 21
12.4329456026
  0
LINE
  5
25D
100
AcDbEntity
  8
LAYER_FEATURE
100
AcDbLine
 62
7
  6
CONTINUOUS
 10
6.7283720839
 20
12.4663281134
 11
5.4133720839
 21
12.4663281134
  0
LINE
  5
25E
100
AcDbEntity
  8
LAYER_FEATURE
100
AcDbLine
 62
7
  6
CONTINUOUS
 10
5.3978774106
 20
14.5800477814
 11
5.4133720839
 21
14.5071510751
  0
LINE
  5
25F
100
AcDbEntity
  8
LAYER_FEATURE
100
AcDbLine
 62
7
  6
CONTINUOUS
 10
5.4133720839
 20
12.5088142533
 11
6.7283720839
 21
12.5088142533
  0
LINE
  5
260
100
AcDbEntity
  8
LAYER_FEATURE
100
AcDbLine
 62
7
  6
CONTINUOUS
 10
5.4133720839
 20
12.5351727814
 11
6.7283720839
 21
12.5351727814
  0
LINE
  5
261
100
AcDbEntity
  8
LAYER_FEATURE
100
AcDbLine
 62
7
  6
CONTINUOUS
 10
6.7283720839
 20
12.5832977814
 11
5.4133720839
 21
12.5832977814
  0
LINE
  5
262
100
AcDbEntity
  8
LAYER_FEATURE
100
AcDbLine
 62
7
  6
CONTINUOUS
 10
6.7283720839
 20
12.6167977814
 11
5.4133720839
 21
12.6167977814
  0
LINE
  5
263
100
AcDbEntity
  8
LAYER_FEATURE
100
AcDbLine
 62
7
  6
CONTINUOUS
 10
5.4133720839
 20
12.6649227814
 11
6.7283720839
 21
12.6649227814
  0
LINE
  5
264
100
AcDbEntity
  8
LAYER_FEATURE
100
AcDbLine
 62
7
  6
CONTINUOUS
 10
6.7283720839
 20
14.5071510751
 11
6.7438667571
 21
14.5800477814
  0
LINE
  5
265
100
AcDbEntity
  8
LAYER_FEATURE
100
AcDbLine
 62
7
  6
CONTINUOUS
 10
6.7283720839
 20
10.6929444876
 11
6.7438667571
 21
10.6200477814
  0
LINE
  5
266
100
AcDbEntity
  8
LAYER_FEATURE
100
AcDbLine
 62
7
  6
CONTINUOUS
 10
6.7283720839
 20
10.6929444876
 11
6.7283720839
 21
14.5071510751
  0
LINE
  5
267
100
AcDbEntity
  8
LAYER_FEATURE
100
AcDbLine
 62
7
  6
CONTINUOUS
 10
6.7438667571
 20
10.6200477814
 11
6.7438667571
 21
14.5800477814
  0
LINE
  5
268
100
AcDbEntity
  8
LAYER_FEATURE
100
AcDbLine
 62
7
  6
CONTINUOUS
 10
6.7898720839
 20
10.6200477814
 11
6.7898720839
 21
14.5800477814
  0
LINE
  5
269
100
AcDbEntity
  8
02___PRT_ALL_AXES
100
AcDbLine
 62
7
  6
CONTINUOUS
 10
6.7983720839
 20
10.8250477814
 11
6.7983720839
 21
14.3750477814
  0
LINE
  5
26A
100
AcDbEntity
  8
02___PRT_ALL_AXES
100
AcDbLine
 62
7
  6
CONTINUOUS
 10
5.3518720839
 20
10.8277049621
 11
5.3433720839
 21
10.8250477814
  0
LINE
  5
26B
100
AcDbEntity
  8
02___PRT_ALL_AXES
100
AcDbLine
 62
7
  6
CONTINUOUS
 10
5.3518720839
 20
14.3723906007
 11
5.3433720839
 21
14.3750477814
  0
LINE
  5
26C
100
AcDbEntity
  8
02___PRT_ALL_AXES
100
AcDbLine
 62
7
  6
CONTINUOUS
 10
5.4133720839
 20
14.4640477814
 11
6.7283720839
 21
14.4640477814
  0
LINE
  5
26D
100
AcDbEntity
  8
LAYER_FEATURE
100
AcDbLine
 62
7
  6
CONTINUOUS
 10
5.3518720839
 20
14.5800477814
 11
5.3978774106
 21
14.5800477814
  0
LINE
  5
26E
100
AcDbEntity
  8
LAYER_FEATURE
100
AcDbLine
 62
7
  6
CONTINUOUS
 10
6.7438667571
 20
14.5800477814
 11
6.7898720839
 21
14.5800477814
  0
LINE
  5
26F
100
AcDbEntity
  8
LAYER_FEATURE
100
AcDbLine
 62
7
  6
CONTINUOUS
 10
14.8088376165
 20
10.5308049929
 11
14.8512113285
 21
10.5308049929
  0
LINE
  5
270
100
AcDbEntity
  8
LAYER_FEATURE
100
AcDbLine
 62
7
  6
CONTINUOUS
 10
16.0909496139
 20
10.5308049929
 11
16.1333233259
 21
10.5308049929
  0
LINE
  5
271
100
AcDbEntity
  8
02___PRT_ALL_AXES
100
AcDbLine
 62
7
  6
CONTINUOUS
 10
14.8654828676
 20
10.6468049929
 11
15.8312689531
 21
10.6468049929
  0
LINE
  5
272
100
AcDbEntity
  8
02___PRT_ALL_AXES
100
AcDbLine
 62
7
  6
CONTINUOUS
 10
16.0497946906
 20
14.2702332258
 11
16.0280802008
 21
14.2627980678
  0
LINE
  5
273
100
AcDbEntity
  8
02___PRT_ALL_AXES
100
AcDbLine
 62
7
  6
CONTINUOUS
 10
16.0497946906
 20
10.75137676
 11
16.0280802008
 21
10.758811918
  0
LINE
  5
274
100
AcDbEntity
  8
LAYER_FEATURE
100
AcDbLine
 62
7
  6
CONTINUOUS
 10
14.2235313015
 20
13.2275847805
 11
14.2288444195
 21
13.2581805103
  0
LINE
  5
275
100
AcDbEntity
  8
LAYER_FEATURE
100
AcDbLine
 62
7
  6
CONTINUOUS
 10
14.2491394778
 20
13.3630128753
 11
14.2554309448
 21
13.3923596239
  0
LINE
  5
276
100
AcDbEntity
  8
LAYER_FEATURE
100
AcDbLine
 62
7
  6
CONTINUOUS
 10
14.279616352
 20
13.4945690009
 11
14.2862965461
 21
13.5203552651
  0
LINE
  5
277
100
AcDbEntity
  8
LAYER_FEATURE
100
AcDbLine
 62
7
  6
CONTINUOUS
 10
14.3155871403
 20
13.6230264114
 11
14.3212247233
 21
13.6412696366
  0
LINE
  5
278
100
AcDbEntity
  8
LAYER_FEATURE
100
AcDbLine
 62
7
  6
CONTINUOUS
 10
14.2226032456
 20
13.2951641629
 11
14.2145549978
 21
13.3132437933
  0
LINE
  5
279
100
AcDbEntity
  8
LAYER_FEATURE
100
AcDbLine
 62
7
  6
CONTINUOUS
 10
14.2504167974
 20
13.4305546671
 11
14.2429859131
 21
13.4503002896
  0
LINE
  5
27A
100
AcDbEntity
  8
LAYER_FEATURE
100
AcDbLine
 62
7
  6
CONTINUOUS
 10
14.2825445957
 20
13.5594937883
 11
14.2757831972
 21
13.5807669014
  0
LINE
  5
27B
100
AcDbEntity
  8
LAYER_FEATURE
100
AcDbLine
 62
7
  6
CONTINUOUS
 10
14.3187612872
 20
13.681077111
 11
14.3127168009
 21
13.7037284992
  0
LINE
  5
27C
100
AcDbEntity
  8
LAYER_FEATURE
100
AcDbLine
 62
7
  6
CONTINUOUS
 10
14.1926490482
 20
13.2102558409
 11
15.369722882
 21
13.2102558409
  0
LINE
  5
27D
100
AcDbEntity
  8
0
100
AcDbLine
 62
7
  6
CONTINUOUS
 10
14.1974057749
 20
13.2181832028
 11
15.3709292823
 21
13.2181832028
  0
LINE
  5
27E
100
AcDbEntity
  8
LAYER_FEATURE
100
AcDbLine
 62
7
  6
CONTINUOUS
 10
15.3723600314
 20
13.2275847805
 11
14.2235313015
 21
13.2275847805
  0
LINE
  5
27F
100
AcDbEntity
  8
LAYER_FEATURE
100
AcDbLine
 62
7
  6
CONTINUOUS
 10
15.3770161449
 20
13.2581805103
 11
14.2288444195
 21
13.2581805103
  0
LINE
  5
280
100
AcDbEntity
  8
LAYER_FEATURE
100
AcDbLine
 62
7
  6
CONTINUOUS
 10
14.2132274679
 20
13.3287572123
 11
15.3888585409
 21
13.3287572123
  0
LINE
  5
281
100
AcDbEntity
  8
LAYER_FEATURE
100
AcDbLine
 62
7
  6
CONTINUOUS
 10
14.2178008576
 20
13.35238066
 11
15.3931118216
 21
13.35238066
  0
LINE
  5
282
100
AcDbEntity
  8
0
100
AcDbLine
 62
7
  6
CONTINUOUS
 10
14.2223634048
 20
13.3593050048
 11
15.3944212808
 21
13.3593050048
  0
LINE
  5
283
100
AcDbEntity
  8
LAYER_FEATURE
100
AcDbLine
 62
7
  6
CONTINUOUS
 10
15.3951224742
 20
13.3630128753
 11
14.2491394778
 21
13.3630128753
  0
LINE
  5
284
100
AcDbEntity
  8
LAYER_FEATURE
100
AcDbLine
 62
7
  6
CONTINUOUS
 10
15.4006722223
 20
13.3923596239
 11
14.2554309448
 21
13.3923596239
  0
LINE
  5
285
100
AcDbEntity
  8
LAYER_FEATURE
100
AcDbLine
 62
7
  6
CONTINUOUS
 10
14.2421685545
 20
13.4660445592
 11
15.415681888
 21
13.4660445592
  0
LINE
  5
286
100
AcDbEntity
  8
LAYER_FEATURE
100
AcDbLine
 62
7
  6
CONTINUOUS
 10
14.2474956908
 20
13.4886024306
 11
15.4205557627
 21
13.4886024306
  0
LINE
  5
287
100
AcDbEntity
  8
0
100
AcDbLine
 62
7
  6
CONTINUOUS
 10
14.2518320556
 20
13.4945690009
 11
15.4219221717
 21
13.4945690009
  0
LINE
  5
288
100
AcDbEntity
  8
LAYER_CUT_FEAT
100
AcDbLine
 62
7
  6
CONTINUOUS
 10
15.6960917482
 20
13.5712087428
 11
15.7098370402
 21
13.5728404995
  0
LINE
  5
289
100
AcDbEntity
  8
LAYER_FEATURE
100
AcDbLine
 62
7
  6
CONTINUOUS
 10
15.4278275046
 20
13.5203552651
 11
14.2862965461
 21
13.5203552651
  0
LINE
  5
28A
100
AcDbEntity
  8
LAYER_FEATURE
100
AcDbLine
 62
7
  6
CONTINUOUS
 10
14.2754817431
 20
13.5966315868
 11
15.4463286933
 21
13.5966315869
  0
LINE
  5
28B
100
AcDbEntity
  8
LAYER_FEATURE
100
AcDbLine
 62
7
  6
CONTINUOUS
 10
14.2815252601
 20
13.6179656546
 11
15.4517483858
 21
13.6179656546
  0
LINE
  5
28C
100
AcDbEntity
  8
0
100
AcDbLine
 62
7
  6
CONTINUOUS
 10
14.2856050259
 20
13.6230264114
 11
15.4531291452
 21
13.6230264114
  0
LINE
  5
28D
100
AcDbEntity
  8
LAYER_FEATURE
100
AcDbLine
 62
7
  6
CONTINUOUS
 10
15.4581065635
 20
13.6412696366
 11
14.3212247233
 21
13.6412696366
  0
LINE
  5
28E
100
AcDbEntity
  8
LAYER_FEATURE
100
AcDbLine
 62
7
  6
CONTINUOUS
 10
14.3129333656
 20
13.7196023211
 11
15.4804443884
 21
13.7196023211
  0
LINE
  5
28F
100
AcDbEntity
  8
02___PRT_ALL_AXES
100
AcDbLine
 62
7
  6
CONTINUOUS
 10
14.8654828676
 20
14.3748049929
 11
15.8309425896
 21
14.3748049929
  0
LINE
  5
290
100
AcDbEntity
  8
LAYER_FEATURE
100
AcDbLine
 62
7
  6
CONTINUOUS
 10
14.8088376165
 20
14.4908049929
 11
14.8512113285
 21
14.4908049929
  0
LINE
  5
291
100
AcDbEntity
  8
LAYER_FEATURE
100
AcDbLine
 62
7
  6
CONTINUOUS
 10
16.0909496139
 20
14.4908049929
 11
16.1333233259
 21
14.4908049929
  0
CIRCLE
  5
292
100
AcDbEntity
  8
LAYER_FEATURE
100
AcDbCircle
 62
7
  6
CONTINUOUS
 10
15.5603552569
 20
5.4606247044
 40
1.98
  0
CIRCLE
  5
293
100
AcDbEntity
  8
LAYER_FEATURE
100
AcDbCircle
 62
7
  6
CONTINUOUS
 10
15.5603552569
 20
5.4606247044
 40
1.9071032938
  0
CIRCLE
  5
294
100
AcDbEntity
  8
02___PRT_ALL_AXES
100
AcDbCircle
 62
7
  6
CONTINUOUS
 10
15.5603552569
 20
5.4606247044
 40
1.775
  0
CIRCLE
  5
295
100
AcDbEntity
  8
LAYER_CHAMFER_FEAT
100
AcDbCircle
 62
7
  6
CONTINUOUS
 10
15.5603552569
 20
5.4606247044
 40
1.7565
  0
CIRCLE
  5
296
100
AcDbEntity
  8
LAYER_CHAMFER_FEAT
100
AcDbCircle
 62
7
  6
CONTINUOUS
 10
15.5603552569
 20
5.4606247044
 40
1.725
  0
ARC
  5
297
100
AcDbEntity
  8
02___PRT_ALL_AXES
100
AcDbCircle
 62
7
  6
CONTINUOUS
 10
15.5603552569
 20
5.4606247044
 40
1.0625
100
AcDbArc
 50
152.9665029899
 51
232.0334970101
  0
ARC
  5
298
100
AcDbEntity
  8
02___PRT_ALL_AXES
100
AcDbCircle
 62
7
  6
CONTINUOUS
 10
15.5603552569
 20
5.4606247044
 40
1.0625
100
AcDbArc
 50
57.9665029899
 51
137.0334970101
  0
ARC
  5
299
100
AcDbEntity
  8
LAYER_CUT_FEAT
100
AcDbCircle
 62
7
  6
CONTINUOUS
 10
15.5603552569
 20
5.4606247044
 40
1.0625
100
AcDbArc
 50
247.9665029899
 51
42.0334970101
  0
ARC
  5
29A
100
AcDbEntity
  8
02___PRT_ALL_AXES
100
AcDbCircle
 62
7
  6
CONTINUOUS
 10
15.5603552569
 20
5.4606247044
 40
1.027536594
100
AcDbArc
 50
136.2981765847
 51
153.7018234153
  0
ARC
  5
29B
100
AcDbEntity
  8
LAYER_CUT_FEAT
100
AcDbCircle
 62
7
  6
CONTINUOUS
 10
15.5603552569
 20
5.4606247044
 40
0.9925731881
100
AcDbArc
 50
58.9849431335
 51
231.0150568665
  0
ARC
  5
29C
100
AcDbEntity
  8
LAYER_CUT_FEAT
100
AcDbCircle
 62
7
  6
CONTINUOUS
 10
15.5603552569
 20
5.4606247044
 40
0.9925731881
100
AcDbArc
 50
248.9849431335
 51
41.0150568665
  0
ARC
  5
29D
100
AcDbEntity
  8
LAYER_CUT_FEAT
100
AcDbCircle
 62
7
  6
CONTINUOUS
 10
16.2031428666
 20
6.2266691476
 40
0.15625
100
AcDbArc
 50
312.7915186562
 51
147.2084813438
  0
ARC
  5
29E
100
AcDbEntity
  8
02___PRT_ALL_AXES
100
AcDbCircle
 62
7
  6
CONTINUOUS
 10
15.0603552569
 20
4.5945993007
 40
0.15625
100
AcDbArc
 50
142.7915186562
 51
337.2084813438
  0
ARC
  5
29F
100
AcDbEntity
  8
02___PRT_ALL_AXES
100
AcDbCircle
 62
7
  6
CONTINUOUS
 10
14.7412032126
 20
6.0342011408
 40
0.15625
100
AcDbArc
 50
60.7700162156
 51
229.2299837844
  0
ARC
  5
2A0
100
AcDbEntity
  8
02___PRT_ALL_AXES
100
AcDbCircle
 62
7
  6
CONTINUOUS
 10
20.6202615548
 20
87.5188810962
 40
76.1921898642
100
AcDbArc
 50
266.2259086693
 51
266.3873752543
  0
ARC
  5
2A1
100
AcDbEntity
  8
02___PRT_ALL_AXES
100
AcDbCircle
 62
7
  6
CONTINUOUS
 10
12.2427607841
 20
-31.5992763879
 40
43.3424132975
100
AcDbArc
 50
85.1250990216
 51
85.6203308078
  0
ARC
  5
2A2
100
AcDbEntity
  8
LAYER_FEATURE
100
AcDbCircle
 62
7
  6
CONTINUOUS
 10
17.7759128458
 20
12.6512923097
 40
3.6265253061
100
AcDbArc
 50
168.8532641247
 51
169.2334234858
  0
ARC
  5
2A3
100
AcDbEntity
  8
LAYER_FEATURE
100
AcDbCircle
 62
7
  6
CONTINUOUS
 10
17.3985861529
 20
12.7325511926
 40
3.2405222688
100
AcDbArc
 50
166.5078853413
 51
166.9177033875
  0
ARC
  5
2A4
100
AcDbEntity
  8
LAYER_FEATURE
100
AcDbCircle
 62
7
  6
CONTINUOUS
 10
18.3890380823
 20
12.8592901005
 40
2.9927125811
100
AcDbArc
 50
162.8534340866
 51
165.206049643
  0
ARC
  5
2A5
100
AcDbEntity
  8
LAYER_FEATURE
100
AcDbCircle
 62
7
  6
CONTINUOUS
 10
17.007349871
 20
12.8342707168
 40
2.8362470916
100
AcDbArc
 50
163.9596613666
 51
164.4075963732
  0
ARC
  5
2A6
100
AcDbEntity
  8
LAYER_FEATURE
100
AcDbCircle
 62
7
  6
CONTINUOUS
 10
16.968741248
 20
12.8669125925
 40
2.8101778794
100
AcDbArc
 50
162.834687993
 51
164.5766633772
  0
ARC
  5
2A7
100
AcDbEntity
  8
LAYER_CHAMFER_FEAT
100
AcDbCircle
 62
7
  6
CONTINUOUS
 10
16.3479420826
 20
11.3800329217
 40
0.676178197
100
AcDbArc
 50
221.2776893549
 51
222.9244478087
  0
ARC
  5
2A8
100
AcDbEntity
  8
LAYER_CHAMFER_FEAT
100
AcDbCircle
 62
7
  6
CONTINUOUS
 10
16.3414409174
 20
13.6474659315
 40
0.6674072105
100
AcDbArc
 50
137.0742482953
 51
138.6336289007
  0
ARC
  5
2A9
100
AcDbEntity
  8
LAYER_CUT_FEAT
100
AcDbCircle
 62
7
  6
CONTINUOUS
 10
15.9605610348
 20
13.4917728362
 40
0.3773800014
100
AcDbArc
 50
173.2982130345
 51
176.9033649491
  0
ARC
  5
2AA
100
AcDbEntity
  8
02___PRT_ALL_AXES
100
AcDbCircle
 62
7
  6
CONTINUOUS
 10
15.8152967586
 20
13.2580500508
 40
0.3437928855
100
AcDbArc
 50
132.3423253618
 51
133.7093689813
  0
SPLINE
  5
2AB
100
AcDbEntity
  8
02___PRT_ALL_AXES
100
AcDbSpline
 62
7
  6
CONTINUOUS
 70
0
 71
3
 72
39
 73
35
 74
0
 42
0.0000001
 43
0.0000001
 44
0.0000000001
 40
0.0
 40
0.0
 40
0.0
 40
0.0
 40
0.0461531089
 40
0.0913512749
 40
0.1355640855
 40
0.1787654562
 40
0.220930575
 40
0.2620376493
 40
0.30206766
 40
0.3410046826
 40
0.3788361678
 40
0.4155532338
 40
0.4511510238
 40
0.4856291057
 40
0.5189918995
 40
0.5512491625
 40
0.582416531
 40
0.6125161206
 40
0.6415771815
 40
0.6696367708
 40
0.6967404435
 40
0.7229429274
 40
0.7483087272
 40
0.7729125889
 40
0.7968397132
 40
0.8201856374
 40
0.8430556832
 40
0.8655638891
 40
0.8878313923
 40
0.9099842909
 40
0.9321511157
 40
0.9544600998
 40
0.9770364726
 40
1.0
 40
1.0
 40
1.0
 40
1.0
 10
16.6826016576
 20
11.4074472992
 30
0.0
 10
16.678026676
 20
11.3926426533
 30
0.0
 10
16.668700138
 20
11.3634225838
 30
0.0
 10
16.6540189067
 20
11.3203381844
 30
0.0
 10
16.6388042922
 20
11.2784918208
 30
0.0
 10
16.6230723317
 20
11.2379273342
 30
0.0
 10
16.6068392264
 20
11.1986866051
 30
0.0
 10
16.5901218705
 20
11.1608104246
 30
0.0
 10
16.5729375861
 20
11.1243380371
 30
0.0
 10
16.5553041695
 20
11.0893072348
 30
0.0
 10
16.5372398518
 20
11.0557542954
 30
0.0
 10
16.5187632702
 20
11.0237139492
 30
0.0
 10
16.4998934401
 20
10.9932193445
 30
0.0
 10
16.4806497423
 20
10.9643020042
 30
0.0
 10
16.4610518741
 20
10.9369918118
 30
0.0
 10
16.441119817
 20
10.9113169997
 30
0.0
 10
16.4208738052
 20
10.88730414
 30
0.0
 10
16.400334289
 20
10.8649781422
 30
0.0
 10
16.3795219281
 20
10.8443622439
 30
0.0
 10
16.3584575562
 20
10.8254780462
 30
0.0
 10
16.3371621789
 20
10.8083455538
 30
0.0
 10
16.3156569956
 20
10.7929832133
 30
0.0
 10
16.2939634454
 20
10.7794079538
 30
0.0
 10
16.2721033085
 20
10.7676351786
 30
0.0
 10
16.2500988072
 20
10.7576787703
 30
0.0
 10
16.2279727425
 20
10.7495510257
 30
0.0
 10
16.2057486217
 20
10.7432625032
 30
0.0
 10
16.1834507244
 20
10.7388218014
 30
0.0
 10
16.1611040935
 20
10.7362352388
 30
0.0
 10
16.1387343181
 20
10.7355066247
 30
0.0
 10
16.1163674373
 20
10.7366370119
 30
0.0
 10
16.0940289205
 20
10.7396248573
 30
0.0
 10
16.0717458723
 20
10.744465271
 30
0.0
 10
16.0570887213
 20
10.7488792618
 30
0.0
 10
16.0497946911
 20
10.7513767703
 30
0.0
  0
SPLINE
  5
2AC
100
AcDbEntity
  8
02___PRT_ALL_AXES
100
AcDbSpline
 62
7
  6
CONTINUOUS
 70
0
 71
3
 72
24
 73
20
 74
0
 42
0.0000001
 43
0.0000001
 44
0.0000000001
 40
0.0
 40
0.0
 40
0.0
 40
0.0
 40
0.0873278552
 40
0.1713688979
 40
0.2519852235
 40
0.3290831927
 40
0.4025888984
 40
0.4724628625
 40
0.5387042797
 40
0.6013563606
 40
0.6605152189
 40
0.716338269
 40
0.7690539576
 40
0.7943480367
 40
0.8189889421
 40
0.8665084756
 40
0.9121204885
 40
0.9564023359
 40
1.0
 40
1.0
 40
1.0
 40
1.0
 10
15.819359169
 20
11.4780951154
 30
0.0
 10
15.8200575285
 20
11.4760394245
 30
0.0
 10
15.8214929443
 20
11.4720270587
 30
0.0
 10
15.8238099853
 20
11.4662051957
 30
0.0
 10
15.8262445065
 20
11.4607082534
 30
0.0
 10
15.8287895016
 20
11.4555519019
 30
0.0
 10
15.8314379582
 20
11.4507504788
 30
0.0
 10
15.8341825064
 20
11.4463174453
 30
0.0
 10
15.8370156348
 20
11.4422651622
 30
0.0
 10
15.8399297214
 20
11.4386049659
 30
0.0
 10
15.8429171276
 20
11.435347046
 30
0.0
 10
15.8459698791
 20
11.4325008394
 30
0.0
 10
15.8485976794
 20
11.4304512381
 30
0.0
 10
15.8507227099
 20
11.4290361794
 30
0.0
 10
15.8528072077
 20
11.4277995273
 30
0.0
 10
15.855444355
 20
11.4265116641
 30
0.0
 10
15.8586802451
 20
11.4253888186
 30
0.0
 10
15.8619388893
 20
11.4247125111
 30
0.0
 10
15.8641265454
 20
11.4245615243
 30
0.0
 10
15.8652104361
 20
11.4245615267
 30
0.0
  0
SPLINE
  5
2AD
100
AcDbEntity
  8
LAYER_CHAMFER_FEAT
100
AcDbSpline
 62
7
  6
CONTINUOUS
 70
0
 71
3
 72
15
 73
11
 74
0
 42
0.0000001
 43
0.0000001
 44
0.0000000001
 40
0.0
 40
0.0
 40
0.0
 40
0.0
 40
0.1375063382
 40
0.2714666545
 40
0.40184853
 40
0.5286397273
 40
0.6518352955
 40
0.7714433709
 40
0.8874860432
 40
1.0
 40
1.0
 40
1.0
 40
1.0
 10
15.7159628473
 20
11.1348912761
 30
0.0
 10
15.7211266048
 20
11.1243686447
 30
0.0
 10
15.7315651882
 20
11.1037133657
 30
0.0
 10
15.7477770026
 20
11.0735339994
 30
0.0
 10
15.764326248
 20
11.0445853112
 30
0.0
 10
15.7811985447
 20
11.0168924211
 30
0.0
 10
15.7983797234
 20
10.990478743
 30
0.0
 10
15.8158552958
 20
10.9653667268
 30
0.0
 10
15.8336101368
 20
10.9415782119
 30
0.0
 10
15.8458102913
 20
10.926381772
 30
0.0
 10
15.8519561535
 20
10.9190187124
 30
0.0
  0
SPLINE
  5
2AE
100
AcDbEntity
  8
02___PRT_ALL_AXES
100
AcDbSpline
 62
7
  6
CONTINUOUS
 70
0
 71
3
 72
73
 73
69
 74
0
 42
0.0000001
 43
0.0000001
 44
0.0000000001
 40
0.0
 40
0.0
 40
0.0
 40
0.0
 40
0.0041182883
 40
0.0081918068
 40
0.012227355
 40
0.0162319849
 40
0.020212951
 40
0.0241776737
 40
0.0281336853
 40
0.0320885811
 40
0.0360499635
 40
0.0400253895
 40
0.0440223162
 40
0.0480480541
 40
0.0521097152
 40
0.0562141815
 40
0.0645757589
 40
0.0731839869
 40
0.0820826473
 40
0.0866537542
 40
0.0913112857
 40
0.100899584
 40
0.1108760594
 40
0.1212627677
 40
0.1320771306
 40
0.1433323683
 40
0.1550379215
 40
0.1671998436
 40
0.1798211578
 40
0.1929021749
 40
0.206440773
 40
0.2204326442
 40
0.2348715087
 40
0.2497493029
 40
0.2650563448
 40
0.2807814782
 40
0.2969122019
 40
0.3134347841
 40
0.330334365
 40
0.3475950507
 40
0.3651999975
 40
0.3831314908
 40
0.4013710169
 40
0.4198993317
 40
0.4386965237
 40
0.4577420753
 40
0.4770149206
 40
0.496493501
 40
0.5161558192
 40
0.5359794915
 40
0.5760186317
 40
0.6164271793
 40
0.6570172425
 40
0.6975994698
 40
0.7379845723
 40
0.7779848471
 40
0.7977834002
 40
0.8174168738
 40
0.8368629447
 40
0.8560996843
 40
0.875105612
 40
0.893859748
 40
0.9123416727
 40
0.9305315748
 40
0.9484103437
 40
0.9659595469
 40
0.983161711
 40
1.0
 40
1.0
 40
1.0
 40
1.0
 10
16.0497946906
 20
14.2702332253
 30
0.0
 10
16.0540053087
 20
14.2716749608
 30
0.0
 10
16.0624438771
 20
14.2743624572
 30
0.0
 10
16.075204572
 20
14.2778102308
 30
0.0
 10
16.0879889357
 20
14.2806493199
 30
0.0
 10
16.1007921305
 20
14.2828786526
 30
0.0
 10
16.1136097302
 20
14.2844972785
 30
0.0
 10
16.1264371444
 20
14.2855046517
 30
0.0
 10
16.1392698157
 20
14.2859003097
 30
0.0
 10
16.1521031575
 20
14.2856841352
 30
0.0
 10
16.1649325918
 20
14.284856206
 30
0.0
 10
16.1777535344
 20
14.2834168247
 30
0.0
 10
16.1905614521
 20
14.2813666015
 30
0.0
 10
16.2033517259
 20
14.2787062869
 30
0.0
 10
16.2161201154
 20
14.2754368738
 30
0.0
 10
16.2332126914
 20
14.2702359296
 30
0.0
 10
16.254544884
 20
14.2621721748
 30
0.0
 10
16.2798112827
 20
14.2501411137
 30
0.0
 10
16.3005110133
 20
14.2382263153
 30
0.0
 10
16.3169402132
 20
14.2275502098
 30
0.0
 10
16.3335966898
 20
14.2158780363
 30
0.0
 10
16.3542563777
 20
14.199770143
 30
0.0
 10
16.3785093967
 20
14.1783060369
 30
0.0
 10
16.402429687
 20
14.1545526183
 30
0.0
 10
16.4259851502
 20
14.1285434956
 30
0.0
 10
16.4491450478
 20
14.1003142363
 30
0.0
 10
16.4718786192
 20
14.0699034885
 30
0.0
 10
16.4941555475
 20
14.0373527159
 30
0.0
 10
16.5159459169
 20
14.002706287
 30
0.0
 10
16.5372203204
 20
13.9660114309
 30
0.0
 10
16.5579499223
 20
13.9273182049
 30
0.0
 10
16.5781065284
 20
13.8866794382
 30
0.0
 10
16.5976626476
 20
13.8441506684
 30
0.0
 10
16.616591549
 20
13.799790067
 30
0.0
 10
16.6348673137
 20
13.7536583604
 30
0.0
 10
16.6524648829
 20
13.7058187447
 30
0.0
 10
16.6693601014
 20
13.6563367967
 30
0.0
 10
16.6855297594
 20
13.6052803811
 30
0.0
 10
16.7009516288
 20
13.552719554
 30
0.0
 10
16.7156044988
 20
13.4987264631
 30
0.0
 10
16.7294682078
 20
13.443375246
 30
0.0
 10
16.7425236741
 20
13.3867419257
 30
0.0
 10
16.7547529239
 20
13.3289043038
 30
0.0
 10
16.7661391176
 20
13.269941852
 30
0.0
 10
16.7766665743
 20
13.2099355996
 30
0.0
 10
16.7863207926
 20
13.1489680256
 30
0.0
 10
16.7950884782
 20
13.0871229251
 30
0.0
 10
16.8029575353
 20
13.0244853635
 30
0.0
 10
16.8099171886
 20
12.9611412918
 30
0.0
 10
16.8179975631
 20
12.8755769503
 30
0.0
 10
16.8257441917
 20
12.7674740747
 30
0.0
 10
16.8312612589
 20
12.6367677603
 30
0.0
 10
16.8329991073
 20
12.5053692778
 30
0.0
 10
16.8309481852
 20
12.3740006374
 30
0.0
 10
16.8251197759
 20
12.2433836895
 30
0.0
 10
16.8171149465
 20
12.1353943143
 30
0.0
 10
16.8088296619
 20
12.0499503488
 30
0.0
 10
16.8017189428
 20
11.9867170852
 30
0.0
 10
16.7937005276
 20
11.9242046407
 30
0.0
 10
16.7847853963
 20
11.8624987931
 30
0.0
 10
16.7749858476
 20
11.8016844155
 30
0.0
 10
16.7643153763
 20
11.741845089
 30
0.0
 10
16.7527886788
 20
11.6830630688
 30
0.0
 10
16.7404216311
 20
11.6254191118
 30
0.0
 10
16.7272312632
 20
11.5689924865
 30
0.0
 10
16.7132357132
 20
11.5138605327
 30
0.0
 10
16.6984543301
 20
11.4600994026
 30
0.0
 10
16.6879742826
 20
11.4248331202
 30
0.0
 10
16.6826016576
 20
11.4074472992
 30
0.0
  0
SPLINE
  5
2AF
100
AcDbEntity
  8
LAYER_CUT_FEAT
100
AcDbSpline
 62
7
  6
CONTINUOUS
 70
0
 71
3
 72
17
 73
13
 74
0
 42
0.0000001
 43
0.0000001
 44
0.0000000001
 40
0.0
 40
0.0
 40
0.0
 40
0.0
 40
0.0510357571
 40
0.1024113771
 40
0.154458414
 40
0.2074928259
 40
0.3175937225
 40
0.4348330813
 40
0.5607706635
 40
0.696518103
 40
0.8427960557
 40
1.0
 40
1.0
 40
1.0
 40
1.0
 10
15.6439911986
 20
13.6467486813
 30
0.0
 10
15.643288783
 20
13.6467486873
 30
0.0
 10
15.641878477
 20
13.6466858094
 30
0.0
 10
15.6397688745
 20
13.6464034156
 30
0.0
 10
15.6376646844
 20
13.6459332487
 30
0.0
 10
15.6348358597
 20
13.6450464735
 30
0.0
 10
15.6313068334
 20
13.6434445833
 30
0.0
 10
15.6272017478
 20
13.6408128353
 30
0.0
 10
15.6231874789
 20
13.6374650904
 30
0.0
 10
15.6192804206
 20
13.6334195895
 30
0.0
 10
15.6154960204
 20
13.6286963015
 30
0.0
 10
15.6131500926
 20
13.6252350283
 30
0.0
 10
15.6119968732
 20
13.6234043509
 30
0.0
  0
SPLINE
  5
2B0
100
AcDbEntity
  8
02___PRT_ALL_AXES
100
AcDbSpline
 62
7
  6
CONTINUOUS
 70
0
 71
3
 72
17
 73
13
 74
0
 42
0.0000001
 43
0.0000001
 44
0.0000000001
 40
0.0
 40
0.0
 40
0.0
 40
0.0
 40
0.0563020858
 40
0.1129214442
 40
0.1699839486
 40
0.2276118855
 40
0.3449962883
 40
0.4659875794
 40
0.5913641583
 40
0.721798342
 40
0.8578558117
 40
1.0
 40
1.0
 40
1.0
 40
1.0
 10
15.7098370397
 20
11.448769446
 30
0.0
 10
15.7070163343
 20
11.4489836817
 30
0.0
 10
15.7013691836
 20
11.4495615161
 30
0.0
 10
15.6929257736
 20
11.4508698705
 30
0.0
 10
15.6844946213
 20
11.4526211619
 30
0.0
 10
15.6732073001
 20
11.45556299
 30
0.0
 10
15.6591094007
 20
11.4603778102
 30
0.0
 10
15.6424164696
 20
11.467877546
 30
0.0
 10
15.6258677199
 20
11.4771189981
 30
0.0
 10
15.6094906593
 20
11.488083697
 30
0.0
 10
15.593311251
 20
11.5007505657
 30
0.0
 10
15.5829083814
 20
11.5101039251
 30
0.0
 10
15.5777454051
 20
11.5150384822
 30
0.0
  0
SPLINE
  5
2B1
100
AcDbEntity
  8
LAYER_FEATURE
100
AcDbSpline
 62
7
  6
CONTINUOUS
 70
0
 71
3
 72
20
 73
16
 74
0
 42
0.0000001
 43
0.0000001
 44
0.0000000001
 40
0.0
 40
0.0
 40
0.0
 40
0.0
 40
0.0568922866
 40
0.1139311499
 40
0.1712617617
 40
0.2290265886
 40
0.2873640794
 40
0.3464076795
 40
0.406284756
 40
0.4671160272
 40
0.5920542148
 40
0.722072352
 40
0.7892192556
 40
0.8578832593
 40
1.0
 40
1.0
 40
1.0
 40
1.0
 10
14.8512113285
 20
14.4908049818
 30
0.0
 10
14.856734969
 20
14.4908049764
 30
0.0
 10
14.867798901
 20
14.4904994158
 30
0.0
 10
14.8843776887
 20
14.4891250836
 30
0.0
 10
14.9009409471
 20
14.4868354605
 30
0.0
 10
14.917480013
 20
14.4836316551
 30
0.0
 10
14.9339872128
 20
14.4795155247
 30
0.0
 10
14.9504545509
 20
14.4744891563
 30
0.0
 10
14.9668746512
 20
14.4685551218
 30
0.0
 10
14.9888877928
 20
14.4593564479
 30
0.0
 10
15.0162977374
 20
14.4455153091
 30
0.0
 10
15.042898155
 20
14.4289986036
 30
0.0
 10
15.0639731856
 20
14.4140906374
 30
0.0
 10
15.0853872781
 20
14.3976636161
 30
0.0
 10
15.1009179277
 20
14.3843022831
 30
0.0
 10
15.1110761528
 20
14.3749643904
 30
0.0
  0
SPLINE
  5
2B2
100
AcDbEntity
  8
LAYER_FEATURE
100
AcDbSpline
 62
7
  6
CONTINUOUS
 70
0
 71
3
 72
20
 73
16
 74
0
 42
0.0000001
 43
0.0000001
 44
0.0000000001
 40
0.0
 40
0.0
 40
0.0
 40
0.0
 40
0.0568951274
 40
0.1139367487
 40
0.1712699599
 40
0.229037134
 40
0.2873766773
 40
0.3464219197
 40
0.406300233
 40
0.4671321997
 40
0.5920701733
 40
0.7220856464
 40
0.7892302515
 40
0.8578912553
 40
1.0
 40
1.0
 40
1.0
 40
1.0
 10
14.8512113285
 20
10.530805004
 30
0.0
 10
14.8567332721
 20
10.5308049986
 30
0.0
 10
14.8677937945
 20
10.5311103949
 30
0.0
 10
14.8843674873
 20
10.5324838543
 30
0.0
 10
14.9009256577
 20
10.5347721025
 30
0.0
 10
14.9174596729
 20
10.5379738968
 30
0.0
 10
14.9339618295
 20
10.5420875474
 30
0.0
 10
14.950424193
 20
10.5471107787
 30
0.0
 10
14.966839325
 20
10.5530412273
 30
0.0
 10
14.9888458016
 20
10.5622341729
 30
0.0
 10
15.0162475027
 20
10.5760668002
 30
0.0
 10
15.0428403626
 20
10.5925735012
 30
0.0
 10
15.0639094895
 20
10.6074725092
 30
0.0
 10
15.0853174965
 20
10.6238895038
 30
0.0
 10
15.10084398
 20
10.6372428178
 30
0.0
 10
15.1109995389
 20
10.6465751829
 30
0.0
  0
SPLINE
  5
2B3
100
AcDbEntity
  8
LAYER_FEATURE
100
AcDbSpline
 62
7
  6
CONTINUOUS
 70
0
 71
3
 72
67
 73
63
 74
0
 42
0.0000001
 43
0.0000001
 44
0.0000000001
 40
0.0
 40
0.0
 40
0.0
 40
0.0
 40
0.0163581078
 40
0.0330510655
 40
0.0500642502
 40
0.0673826922
 40
0.0849905209
 40
0.1028713411
 40
0.1210081568
 40
0.139383461
 40
0.1579792696
 40
0.1767771678
 40
0.1957583524
 40
0.2149036733
 40
0.2536076562
 40
0.2927314909
 40
0.3321134766
 40
0.3715900539
 40
0.4109969873
 40
0.4501705398
 40
0.4889486508
 40
0.5081400232
 40
0.5271731428
 40
0.5460287624
 40
0.5646879696
 40
0.5831322271
 40
0.6013434157
 40
0.6193038766
 40
0.6369964578
 40
0.654404561
 40
0.6715121917
 40
0.6883040118
 40
0.7047653949
 40
0.7208824873
 40
0.7366422726
 40
0.7520326423
 40
0.7670424743
 40
0.7816617188
 40
0.7958814944
 40
0.8096941947
 40
0.8230936089
 40
0.8360750573
 40
0.8486355459
 40
0.8607739416
 40
0.872491171
 40
0.8837904452
 40
0.8946775129
 40
0.9051609415
 40
0.9152524227
 40
0.9249670997
 40
0.9343239019
 40
0.9433458673
 40
0.9520604224
 40
0.9604995766
 40
0.9686999789
 40
0.9767027772
 40
0.9806449751
 40
0.9845550531
 40
0.9884391972
 40
0.9923037473
 40
0.996155167
 40
1.0
 40
1.0
 40
1.0
 40
1.0
 10
15.4869667179
 20
13.7415927301
 30
0.0
 10
15.4813116706
 20
13.7232929901
 30
0.0
 10
15.4702643615
 20
13.6862008947
 30
0.0
 10
15.4546262536
 20
13.6297019438
 30
0.0
 10
15.4397674911
 20
13.57183133
 30
0.0
 10
15.4257063792
 20
13.5126603982
 30
0.0
 10
15.4124601542
 20
13.4522613963
 30
0.0
 10
15.4000450736
 20
13.3907084017
 30
0.0
 10
15.3884763806
 20
13.3280767968
 30
0.0
 10
15.3777682776
 20
13.2644433383
 30
0.0
 10
15.3679339098
 20
13.1998859936
 30
0.0
 10
15.3589853687
 20
13.1344839258
 30
0.0
 10
15.350933577
 20
13.0683171407
 30
0.0
 10
15.3413727863
 20
12.9788637193
 30
0.0
 10
15.3317494957
 20
12.8657103352
 30
0.0
 10
15.323950417
 20
12.7286748883
 30
0.0
 10
15.3198976537
 20
12.5905722109
 30
0.0
 10
15.3196111458
 20
12.4520792378
 30
0.0
 10
15.323092297
 20
12.3138735505
 30
0.0
 10
15.3303239834
 20
12.1766325879
 30
0.0
 10
15.3394771621
 20
12.0632407291
 30
0.0
 10
15.3486652457
 20
11.9735456952
 30
0.0
 10
15.3564424162
 20
11.9071625219
 30
0.0
 10
15.3651194592
 20
11.8415195064
 30
0.0
 10
15.3746857819
 20
11.77669695
 30
0.0
 10
15.3851296215
 20
11.7127743416
 30
0.0
 10
15.3964381599
 20
11.6498300085
 30
0.0
 10
15.4085975132
 20
11.5879410859
 30
0.0
 10
15.4215927564
 20
11.5271834029
 30
0.0
 10
15.4354079393
 20
11.4676313926
 30
0.0
 10
15.4500261059
 20
11.4093579973
 30
0.0
 10
15.4654293199
 20
11.352434579
 30
0.0
 10
15.4815986869
 20
11.2969308308
 30
0.0
 10
15.4985143796
 20
11.2429146898
 30
0.0
 10
15.5161556649
 20
11.190452252
 30
0.0
 10
15.5345009318
 20
11.1396076893
 30
0.0
 10
15.5535277227
 20
11.0904431684
 30
0.0
 10
15.5732127654
 20
11.0430187716
 30
0.0
 10
15.5935320054
 20
10.9973924189
 30
0.0
 10
15.6144606469
 20
10.9536197976
 30
0.0
 10
15.6359731935
 20
10.9117542943
 30
0.0
 10
15.6580434918
 20
10.8718469309
 30
0.0
 10
15.6806447796
 20
10.833946306
 30
0.0
 10
15.7037497372
 20
10.7980985427
 30
0.0
 10
15.7273305425
 20
10.7643472461
 30
0.0
 10
15.7513589313
 20
10.7327334709
 30
0.0
 10
15.7758062523
 20
10.703295702
 30
0.0
 10
15.8006435271
 20
10.6760698564
 30
0.0
 10
15.8258414989
 20
10.6510893104
 30
0.0
 10
15.8513706669
 20
10.628384947
 30
0.0
 10
15.8772012691
 20
10.6079852293
 30
0.0
 10
15.9033032856
 20
10.5899162756
 30
0.0
 10
15.9296461316
 20
10.5742019663
 30
0.0
 10
15.9561991421
 20
10.5608638677
 30
0.0
 10
15.9829289099
 20
10.5499215585
 30
0.0
 10
16.0054403559
 20
10.5427770711
 30
0.0
 10
16.0234624931
 20
10.5383021768
 30
0.0
 10
16.0369344193
 20
10.5355679349
 30
0.0
 10
16.0504231918
 20
10.5334403609
 30
0.0
 10
16.0639249303
 20
10.5319201768
 30
0.0
 10
16.0774349268
 20
10.5310078079
 30
0.0
 10
16.0864477266
 20
10.5308050004
 30
0.0
 10
16.0909496139
 20
10.5308050041
 30
0.0
  0
SPLINE
  5
2B4
100
AcDbEntity
  8
LAYER_FEATURE
100
AcDbSpline
 62
7
  6
CONTINUOUS
 70
0
 71
3
 72
67
 73
63
 74
0
 42
0.0000001
 43
0.0000001
 44
0.0000000001
 40
0.0
 40
0.0
 40
0.0
 40
0.0
 40
0.003844833
 40
0.0076962527
 40
0.0115608028
 40
0.0154449469
 40
0.0193550249
 40
0.0232972228
 40
0.0313000211
 40
0.0395004234
 40
0.0479395776
 40
0.0566541327
 40
0.0656760981
 40
0.0750329003
 40
0.0847475773
 40
0.0948390585
 40
0.1053224871
 40
0.1162095548
 40
0.127508829
 40
0.1392260584
 40
0.1513644541
 40
0.1639249427
 40
0.1769063911
 40
0.1903058053
 40
0.2041185056
 40
0.2183382812
 40
0.2329575257
 40
0.2479673577
 40
0.2633577274
 40
0.2791175127
 40
0.2952346051
 40
0.3116959882
 40
0.3284878083
 40
0.345595439
 40
0.3630035422
 40
0.3806961234
 40
0.3986565843
 40
0.4168677729
 40
0.4353120304
 40
0.4539712376
 40
0.4728268572
 40
0.4918599768
 40
0.5110513492
 40
0.5498294602
 40
0.5890030127
 40
0.6284099461
 40
0.6678865234
 40
0.7072685091
 40
0.7463923438
 40
0.7850963267
 40
0.8042416476
 40
0.8232228322
 40
0.8420207304
 40
0.860616539
 40
0.8789918432
 40
0.8971286589
 40
0.9150094791
 40
0.9326173078
 40
0.9499357498
 40
0.9669489345
 40
0.9836418922
 40
1.0
 40
1.0
 40
1.0
 40
1.0
 10
16.1333233259
 20
14.4908049817
 30
0.0
 10
16.1378252132
 20
14.4908049855
 30
0.0
 10
16.146838013
 20
14.4906021779
 30
0.0
 10
16.1603480094
 20
14.489689809
 30
0.0
 10
16.1738497479
 20
14.4881696249
 30
0.0
 10
16.1873385205
 20
14.4860420509
 30
0.0
 10
16.2008104467
 20
14.483307809
 30
0.0
 10
16.2188325838
 20
14.4788329147
 30
0.0
 10
16.2413440299
 20
14.4716884273
 30
0.0
 10
16.2680737976
 20
14.4607461181
 30
0.0
 10
16.2946268081
 20
14.4474080195
 30
0.0
 10
16.3209696541
 20
14.4316937102
 30
0.0
 10
16.3470716706
 20
14.4136247565
 30
0.0
 10
16.3729022728
 20
14.3932250388
 30
0.0
 10
16.3984314408
 20
14.3705206754
 30
0.0
 10
16.4236294127
 20
14.3455401294
 30
0.0
 10
16.4484666874
 20
14.3183142838
 30
0.0
 10
16.4729140084
 20
14.2888765149
 30
0.0
 10
16.4969423972
 20
14.2572627397
 30
0.0
 10
16.5205232026
 20
14.2235114431
 30
0.0
 10
16.5436281602
 20
14.1876636799
 30
0.0
 10
16.566229448
 20
14.1497630549
 30
0.0
 10
16.5882997463
 20
14.1098556915
 30
0.0
 10
16.6098122928
 20
14.0679901882
 30
0.0
 10
16.6307409343
 20
14.0242175669
 30
0.0
 10
16.6510601743
 20
13.9785912142
 30
0.0
 10
16.6707452171
 20
13.9311668174
 30
0.0
 10
16.6897720079
 20
13.8820022965
 30
0.0
 10
16.7081172749
 20
13.8311577338
 30
0.0
 10
16.7257585602
 20
13.778695296
 30
0.0
 10
16.7426742529
 20
13.724679155
 30
0.0
 10
16.7588436198
 20
13.6691754068
 30
0.0
 10
16.7742468338
 20
13.6122519885
 30
0.0
 10
16.7888650005
 20
13.5539785932
 30
0.0
 10
16.8026801833
 20
13.4944265829
 30
0.0
 10
16.8156754266
 20
13.4336688999
 30
0.0
 10
16.8278347798
 20
13.3717799773
 30
0.0
 10
16.8391433183
 20
13.3088356442
 30
0.0
 10
16.8495871579
 20
13.2449130358
 30
0.0
 10
16.8591534806
 20
13.1800904794
 30
0.0
 10
16.8678305236
 20
13.1144474639
 30
0.0
 10
16.875607694
 20
13.0480642907
 30
0.0
 10
16.8847957777
 20
12.9583692567
 30
0.0
 10
16.8939489564
 20
12.8449773979
 30
0.0
 10
16.9011806428
 20
12.7077364353
 30
0.0
 10
16.9046617939
 20
12.5695307481
 30
0.0
 10
16.904375286
 20
12.4310377749
 30
0.0
 10
16.9003225228
 20
12.2929350975
 30
0.0
 10
16.8925234441
 20
12.1558996506
 30
0.0
 10
16.8829001535
 20
12.0427462665
 30
0.0
 10
16.8733393627
 20
11.9532928451
 30
0.0
 10
16.8652875711
 20
11.88712606
 30
0.0
 10
16.85633903
 20
11.8217239922
 30
0.0
 10
16.8465046622
 20
11.7571666475
 30
0.0
 10
16.8357965592
 20
11.693533189
 30
0.0
 10
16.8242278661
 20
11.6309015841
 30
0.0
 10
16.8118127855
 20
11.5693485895
 30
0.0
 10
16.7985665606
 20
11.5089495876
 30
0.0
 10
16.7845054486
 20
11.4497786558
 30
0.0
 10
16.7696466862
 20
11.391908042
 30
0.0
 10
16.7540085783
 20
11.3354090911
 30
0.0
 10
16.7429612692
 20
11.2983169957
 30
0.0
 10
16.7373062218
 20
11.2800172557
 30
0.0
  0
SPLINE
  5
2B5
100
AcDbEntity
  8
LAYER_FEATURE
100
AcDbSpline
 62
7
  6
CONTINUOUS
 70
0
 71
3
 72
39
 73
35
 74
0
 42
0.0000001
 43
0.0000001
 44
0.0000000001
 40
0.0
 40
0.0
 40
0.0
 40
0.0
 40
0.02127698
 40
0.0426477422
 40
0.0642045501
 40
0.0860367276
 40
0.1082294289
 40
0.13086263
 40
0.1540103821
 40
0.1777403583
 40
0.2021136209
 40
0.227184563
 40
0.2530010579
 40
0.2796047152
 40
0.3070311728
 40
0.3353104595
 40
0.3644674098
 40
0.3945220365
 40
0.4254898723
 40
0.4573823633
 40
0.4902072054
 40
0.5239686104
 40
0.558667601
 40
0.5943022909
 40
0.6308680905
 40
0.6683578916
 40
0.706762302
 40
0.7460698023
 40
0.7862668438
 40
0.8273381185
 40
0.8692664962
 40
0.9120330786
 40
0.9556187218
 40
1.0
 40
1.0
 40
1.0
 40
1.0
 10
16.1333233259
 20
10.5308050041
 30
0.0
 10
16.1405556624
 20
10.53080501
 30
0.0
 10
16.1550576292
 20
10.5313297891
 30
0.0
 10
16.1767716106
 20
10.5336888602
 30
0.0
 10
16.1984495768
 20
10.5376178953
 30
0.0
 10
16.2200718014
 20
10.5431128701
 30
0.0
 10
16.2416208076
 20
10.5501683687
 30
0.0
 10
16.263078992
 20
10.5587776482
 30
0.0
 10
16.2844293013
 20
10.5689327082
 30
0.0
 10
16.3056549757
 20
10.5806244809
 30
0.0
 10
16.3267395392
 20
10.5938428632
 30
0.0
 10
16.3476667873
 20
10.6085766543
 30
0.0
 10
16.3684207004
 20
10.6248136526
 30
0.0
 10
16.3889853907
 20
10.6425406622
 30
0.0
 10
16.4093451235
 20
10.6617434152
 30
0.0
 10
16.4294843104
 20
10.6824065669
 30
0.0
 10
16.4493874624
 20
10.704513738
 30
0.0
 10
16.4690392118
 20
10.7280474759
 30
0.0
 10
16.4884243795
 20
10.7529892041
 30
0.0
 10
16.5075279249
 20
10.7793192846
 30
0.0
 10
16.5263349591
 20
10.8070170199
 30
0.0
 10
16.5448308181
 20
10.8360606132
 30
0.0
 10
16.5630010536
 20
10.8664272043
 30
0.0
 10
16.5808314165
 20
10.8980929082
 30
0.0
 10
16.5983079012
 20
10.9310328042
 30
0.0
 10
16.6154167964
 20
10.9652209372
 30
0.0
 10
16.6321446378
 20
11.0006303759
 30
0.0
 10
16.6484782244
 20
11.0372332203
 30
0.0
 10
16.6644047076
 20
11.0750006127
 30
0.0
 10
16.6799115202
 20
11.1139027624
 30
0.0
 10
16.6949863815
 20
11.1539089074
 30
0.0
 10
16.7096175142
 20
11.1949877545
 30
0.0
 10
16.7237931384
 20
11.2371064286
 30
0.0
 10
16.732852178
 20
11.2656039645
 30
0.0
 10
16.7373062218
 20
11.2800172557
 30
0.0
  0
SPLINE
  5
2B6
100
AcDbEntity
  8
LAYER_CHAMFER_FEAT
100
AcDbSpline
 62
7
  6
CONTINUOUS
 70
0
 71
3
 72
56
 73
52
 74
0
 42
0.0000001
 43
0.0000001
 44
0.0000000001
 40
0.0
 40
0.0
 40
0.0
 40
0.0
 40
0.0101614304
 40
0.0206686623
 40
0.0315253987
 40
0.0427336531
 40
0.0542938964
 40
0.0662051966
 40
0.0784653468
 40
0.091070975
 40
0.1040176376
 40
0.1172999037
 40
0.1309114401
 40
0.144845081
 40
0.1590928902
 40
0.1736462113
 40
0.1884957263
 40
0.2036315043
 40
0.2190430443
 40
0.234719311
 40
0.2506487743
 40
0.2668194483
 40
0.2998334759
 40
0.3336585507
 40
0.3681854763
 40
0.4033005756
 40
0.4388865166
 40
0.4748231041
 40
0.5109880398
 40
0.5472576727
 40
0.583507734
 40
0.6196140695
 40
0.6554533755
 40
0.6909039328
 40
0.7258463661
 40
0.7601644057
 40
0.7937456954
 40
0.8102266852
 40
0.8264835706
 40
0.8425037929
 40
0.8582752064
 40
0.8737861092
 40
0.889025277
 40
0.9039820055
 40
0.9186461502
 40
0.9330081573
 40
0.9470591241
 40
0.9607908531
 40
0.9741957959
 40
0.9872675776
 40
1.0
 40
1.0
 40
1.0
 40
1.0
 10
15.8519561528
 20
14.1025912774
 30
0.0
 10
15.8452764233
 20
14.0945886382
 30
0.0
 10
15.8320258762
 20
14.0780277672
 30
0.0
 10
15.8127938353
 20
14.0520189071
 30
0.0
 10
15.7938939655
 20
14.0244554034
 30
0.0
 10
15.775345495
 20
13.9953654682
 30
0.0
 10
15.7571667547
 20
13.9647781299
 30
0.0
 10
15.7393759196
 20
13.9327241433
 30
0.0
 10
15.7219907817
 20
13.8992356844
 30
0.0
 10
15.7050287806
 20
13.8643463972
 30
0.0
 10
15.6885069546
 20
13.8280913543
 30
0.0
 10
15.6724419048
 20
13.7905070349
 30
0.0
 10
15.6568498016
 20
13.7516312674
 30
0.0
 10
15.6417463564
 20
13.7115031906
 30
0.0
 10
15.627146808
 20
13.6701632194
 30
0.0
 10
15.6130658741
 20
13.6276530161
 30
0.0
 10
15.5995177621
 20
13.5840154336
 30
0.0
 10
15.5865161531
 20
13.5392944685
 30
0.0
 10
15.5740741837
 20
13.4935352077
 30
0.0
 10
15.5622044397
 20
13.4467838378
 30
0.0
 10
15.5509188316
 20
13.3990874196
 30
0.0
 10
15.5365670432
 20
13.3338479807
 30
0.0
 10
15.5201995474
 20
13.2502662962
 30
0.0
 10
15.5031896181
 20
13.1476673328
 30
0.0
 10
15.4887468276
 20
13.0424998547
 30
0.0
 10
15.4769297498
 20
12.9351883985
 30
0.0
 10
15.4677862786
 20
12.8261653523
 30
0.0
 10
15.4613535271
 20
12.715870377
 30
0.0
 10
15.4576575437
 20
12.6047482725
 30
0.0
 10
15.4567133697
 20
12.4932472411
 30
0.0
 10
15.4585247786
 20
12.3818170296
 30
0.0
 10
15.4630844822
 20
12.2709071018
 30
0.0
 10
15.4703739281
 20
12.1609647729
 30
0.0
 10
15.4803636056
 20
12.052433467
 30
0.0
 10
15.4930129597
 20
11.9457505839
 30
0.0
 10
15.5082707258
 20
11.8413468299
 30
0.0
 10
15.5231991133
 20
11.7560691758
 30
0.0
 10
15.5364229071
 20
11.6893312839
 30
0.0
 10
15.5468895378
 20
11.6404182604
 30
0.0
 10
15.5579557917
 20
11.5923841029
 30
0.0
 10
15.5696105482
 20
11.5452771685
 30
0.0
 10
15.5818420132
 20
11.4991450139
 30
0.0
 10
15.594637845
 20
11.4540341732
 30
0.0
 10
15.6079851133
 20
11.4099901425
 30
0.0
 10
15.6218703343
 20
11.3670573296
 30
0.0
 10
15.6362794885
 20
11.3252790125
 30
0.0
 10
15.6511980517
 20
11.2846972792
 30
0.0
 10
15.6666109639
 20
11.2453531188
 30
0.0
 10
15.682502746
 20
11.2072858452
 30
0.0
 10
15.6988572382
 20
11.1705343728
 30
0.0
 10
15.7102086983
 20
11.1466169988
 30
0.0
 10
15.7159628473
 20
11.1348912761
 30
0.0
  0
SPLINE
  5
2B7
100
AcDbEntity
  8
LAYER_CHAMFER_FEAT
100
AcDbSpline
 62
7
  6
CONTINUOUS
 70
0
 71
3
 72
22
 73
18
 74
0
 42
0.0000001
 43
0.0000001
 44
0.0000000001
 40
0.0
 40
0.0
 40
0.0
 40
0.0
 40
0.0740434593
 40
0.1461161591
 40
0.2162758643
 40
0.2845901622
 40
0.3511368346
 40
0.4160046773
 40
0.5410767437
 40
0.6015553799
 40
0.6608260013
 40
0.719035554
 40
0.7763417546
 40
0.8329121515
 40
0.8889227577
 40
0.9445562511
 40
1.0
 40
1.0
 40
1.0
 40
1.0
 10
15.8528089939
 20
10.9195329992
 30
0.0
 10
15.8578571879
 20
10.9141078471
 30
0.0
 10
15.8680033412
 20
10.9035712317
 30
0.0
 10
15.8835814081
 20
10.8885354837
 30
0.0
 10
15.8993013278
 20
10.8744938973
 30
0.0
 10
15.9151531329
 20
10.8614555282
 30
0.0
 10
15.9311284789
 20
10.8494279614
 30
0.0
 10
15.9523183849
 20
10.8349279706
 30
0.0
 10
15.9739917179
 20
10.8222421526
 30
0.0
 10
15.9960612797
 20
10.811574887
 30
0.0
 10
16.0125047265
 20
10.8047061074
 30
0.0
 10
16.0290116003
 20
10.7988858178
 30
0.0
 10
16.0455721816
 20
10.7941178439
 30
0.0
 10
16.0621758217
 20
10.7904057523
 30
0.0
 10
16.0788121723
 20
10.7877521913
 30
0.0
 10
16.0954696011
 20
10.786159294
 30
0.0
 10
16.106589888
 20
10.7858049914
 30
0.0
 10
16.112138923
 20
10.7858049994
 30
0.0
  0
SPLINE
  5
2B8
100
AcDbEntity
  8
LAYER_FEATURE
100
AcDbSpline
 62
7
  6
CONTINUOUS
 70
0
 71
3
 72
39
 73
35
 74
0
 42
0.0000001
 43
0.0000001
 44
0.0000000001
 40
0.0
 40
0.0
 40
0.0
 40
0.0
 40
0.0443812782
 40
0.0879669214
 40
0.1307335038
 40
0.1726618815
 40
0.2137331562
 40
0.2539301977
 40
0.293237698
 40
0.3316421084
 40
0.3691319095
 40
0.4056977091
 40
0.441332399
 40
0.4760313896
 40
0.5097927946
 40
0.5426176367
 40
0.5745101277
 40
0.6054779635
 40
0.6355325902
 40
0.6646895405
 40
0.6929688272
 40
0.7203952848
 40
0.7469989421
 40
0.772815437
 40
0.7978863791
 40
0.8222596417
 40
0.8459896179
 40
0.86913737
 40
0.8917705711
 40
0.9139632724
 40
0.9357954499
 40
0.9573522578
 40
0.97872302
 40
1.0
 40
1.0
 40
1.0
 40
1.0
 10
15.4869667179
 20
13.7415927301
 30
0.0
 10
15.4914207618
 20
13.7560060213
 30
0.0
 10
15.5004798014
 20
13.7845035572
 30
0.0
 10
15.5146554256
 20
13.8266222313
 30
0.0
 10
15.5292865582
 20
13.8677010784
 30
0.0
 10
15.5443614195
 20
13.9077072234
 30
0.0
 10
15.5598682321
 20
13.9466093731
 30
0.0
 10
15.5757947154
 20
13.9843767655
 30
0.0
 10
15.592128302
 20
14.0209796099
 30
0.0
 10
15.6088561434
 20
14.0563890486
 30
0.0
 10
15.6259650386
 20
14.0905771816
 30
0.0
 10
15.6434415233
 20
14.1235170776
 30
0.0
 10
15.6612718862
 20
14.1551827815
 30
0.0
 10
15.6794421216
 20
14.1855493726
 30
0.0
 10
15.6979379807
 20
14.214592966
 30
0.0
 10
15.7167450148
 20
14.2422907012
 30
0.0
 10
15.7358485603
 20
14.2686207818
 30
0.0
 10
15.7552337279
 20
14.2935625099
 30
0.0
 10
15.7748854773
 20
14.3170962478
 30
0.0
 10
15.7947886294
 20
14.3392034189
 30
0.0
 10
15.8149278163
 20
14.3598665706
 30
0.0
 10
15.8352875491
 20
14.3790693236
 30
0.0
 10
15.8558522393
 20
14.3967963332
 30
0.0
 10
15.8766061525
 20
14.4130333315
 30
0.0
 10
15.8975334005
 20
14.4277671227
 30
0.0
 10
15.918617964
 20
14.4409855049
 30
0.0
 10
15.9398436385
 20
14.4526772776
 30
0.0
 10
15.9611939478
 20
14.4628323376
 30
0.0
 10
15.9826521322
 20
14.4714416171
 30
0.0
 10
16.0042011384
 20
14.4784971157
 30
0.0
 10
16.0258233629
 20
14.4839920905
 30
0.0
 10
16.0475013292
 20
14.4879211256
 30
0.0
 10
16.0692153106
 20
14.4902801967
 30
0.0
 10
16.0837172773
 20
14.4908049758
 30
0.0
 10
16.0909496139
 20
14.4908049817
 30
0.0
  0
SPLINE
  5
2B9
100
AcDbEntity
  8
LAYER_CHAMFER_FEAT
100
AcDbSpline
 62
7
  6
CONTINUOUS
 70
0
 71
3
 72
22
 73
18
 74
0
 42
0.0000001
 43
0.0000001
 44
0.0000000001
 40
0.0
 40
0.0
 40
0.0
 40
0.0
 40
0.0554406744
 40
0.1110711922
 40
0.1670789939
 40
0.223646884
 40
0.2809509128
 40
0.339158722
 40
0.3984281149
 40
0.4589060155
 40
0.5839784669
 40
0.6488474463
 40
0.715395955
 40
0.7837126866
 40
0.8538755768
 40
0.9259520759
 40
1.0
 40
1.0
 40
1.0
 40
1.0
 10
16.112138923
 20
14.2358049864
 30
0.0
 10
16.1065883448
 20
14.2358049784
 30
0.0
 10
16.0954649511
 20
14.2354505226
 30
0.0
 10
16.078802891
 20
14.2338566754
 30
0.0
 10
16.0621619109
 20
14.2312017
 30
0.0
 10
16.0455536899
 20
14.227487492
 30
0.0
 10
16.0289885503
 20
14.2227168868
 30
0.0
 10
16.0124771611
 20
14.216893378
 30
0.0
 10
15.9960292781
 20
14.210020752
 30
0.0
 10
15.9739536578
 20
14.1993475869
 30
0.0
 10
15.95227464
 20
14.1866547074
 30
0.0
 10
15.9310793399
 20
14.1721468368
 30
0.0
 10
15.915099956
 20
14.1601126408
 30
0.0
 10
15.8992441528
 20
14.1470671783
 30
0.0
 10
15.8835204086
 20
14.1330179017
 30
0.0
 10
15.8679385842
 20
14.1179739967
 30
0.0
 10
15.8577901009
 20
14.107431702
 30
0.0
 10
15.8527407483
 20
14.1020036409
 30
0.0
  0
SPLINE
  5
2BA
100
AcDbEntity
  8
LAYER_FEATURE
100
AcDbSpline
 62
7
  6
CONTINUOUS
 70
0
 71
3
 72
67
 73
63
 74
0
 42
0.0000001
 43
0.0000001
 44
0.0000000001
 40
0.0
 40
0.0
 40
0.0
 40
0.0
 40
0.0163581013
 40
0.0330510694
 40
0.0500642491
 40
0.0673826926
 40
0.0849905208
 40
0.1028713409
 40
0.1210081566
 40
0.1393834611
 40
0.15797927
 40
0.1767771682
 40
0.1957583526
 40
0.2149036734
 40
0.2536076561
 40
0.292731491
 40
0.3321134768
 40
0.371590054
 40
0.4109969877
 40
0.45017054
 40
0.4889486503
 40
0.5081400228
 40
0.5271731428
 40
0.546028763
 40
0.5646879707
 40
0.5831322282
 40
0.601343416
 40
0.6193038759
 40
0.6369964566
 40
0.65440456
 40
0.6715121917
 40
0.6883040129
 40
0.7047653969
 40
0.720882489
 40
0.7366422729
 40
0.7520326412
 40
0.7670424724
 40
0.7816617173
 40
0.7958814943
 40
0.8096941963
 40
0.8230936114
 40
0.8360750592
 40
0.8486355463
 40
0.8607739405
 40
0.872491169
 40
0.8837904436
 40
0.8946775128
 40
0.905160943
 40
0.9152524249
 40
0.9249671014
 40
0.9343239024
 40
0.9433458667
 40
0.9520604213
 40
0.9604995757
 40
0.9686999787
 40
0.9767027777
 40
0.9806449746
 40
0.9845550535
 40
0.9884391969
 40
0.9923037475
 40
0.9961551669
 40
1.0
 40
1.0
 40
1.0
 40
1.0
 10
14.2048547206
 20
13.7415927301
 30
0.0
 10
14.1991996755
 20
13.7232929975
 30
0.0
 10
14.1881523663
 20
13.6862008974
 30
0.0
 10
14.1725142567
 20
13.6297019483
 30
0.0
 10
14.1576554944
 20
13.571831326
 30
0.0
 10
14.143594382
 20
13.5126603993
 30
0.0
 10
14.1303481567
 20
13.4522613963
 30
0.0
 10
14.1179330754
 20
13.3907084027
 30
0.0
 10
14.106364382
 20
13.3280767976
 30
0.0
 10
14.0956562801
 20
13.2644433383
 30
0.0
 10
14.085821914
 20
13.1998859926
 30
0.0
 10
14.0768733732
 20
13.1344839245
 30
0.0
 10
14.0688215811
 20
13.0683171399
 30
0.0
 10
14.0592607889
 20
12.9788637194
 30
0.0
 10
14.0496374949
 20
12.8657103357
 30
0.0
 10
14.0418384193
 20
12.7286748885
 30
0.0
 10
14.037785661
 20
12.5905722108
 30
0.0
 10
14.037499149
 20
12.4520792376
 30
0.0
 10
14.0409802946
 20
12.3138735502
 30
0.0
 10
14.0482119855
 20
12.1766325884
 30
0.0
 10
14.0573651699
 20
12.0632407309
 30
0.0
 10
14.0665532514
 20
11.9735456971
 30
0.0
 10
14.0743304192
 20
11.9071625223
 30
0.0
 10
14.0830074593
 20
11.8415195047
 30
0.0
 10
14.09257378
 20
11.7766969466
 30
0.0
 10
14.1030176203
 20
11.7127743387
 30
0.0
 10
14.1143261624
 20
11.6498300085
 30
0.0
 10
14.1264855194
 20
11.5879410895
 30
0.0
 10
14.1394807641
 20
11.5271834084
 30
0.0
 10
14.1532959453
 20
11.467631397
 30
0.0
 10
14.1679141089
 20
11.409357998
 30
0.0
 10
14.1833173198
 20
11.3524345753
 30
0.0
 10
14.1994866846
 20
11.2969308244
 30
0.0
 10
14.2164023785
 20
11.2429146847
 30
0.0
 10
14.2340436673
 20
11.1904522519
 30
0.0
 10
14.2523889377
 20
11.1396076949
 30
0.0
 10
14.2714157302
 20
11.0904431771
 30
0.0
 10
14.2911007714
 20
11.0430187784
 30
0.0
 10
14.3114200084
 20
10.9973924199
 30
0.0
 10
14.3323486468
 20
10.953619792
 30
0.0
 10
14.3538611914
 20
10.911754285
 30
0.0
 10
14.3759314914
 20
10.871846924
 30
0.0
 10
14.3985327821
 20
10.8339463057
 30
0.0
 10
14.4216377422
 20
10.7980985497
 30
0.0
 10
14.4452185493
 20
10.7643472572
 30
0.0
 10
14.4692469369
 20
10.7327334798
 30
0.0
 10
14.4936942552
 20
10.7032957033
 30
0.0
 10
14.5185315271
 20
10.6760698492
 30
0.0
 10
14.543729498
 20
10.6510892991
 30
0.0
 10
14.5692586677
 20
10.6283849392
 30
0.0
 10
14.5950892718
 20
10.607985229
 30
0.0
 10
14.6211912897
 20
10.5899162829
 30
0.0
 10
14.6475341366
 20
10.574201979
 30
0.0
 10
14.6740871458
 20
10.5608638762
 30
0.0
 10
14.7008169138
 20
10.5499215669
 30
0.0
 10
14.7233283517
 20
10.5427770444
 30
0.0
 10
14.7413505013
 20
10.538302201
 30
0.0
 10
14.7548224163
 20
10.5355679067
 30
0.0
 10
14.7683111986
 20
10.5334403888
 30
0.0
 10
14.7818129305
 20
10.531920157
 30
0.0
 10
14.7953229303
 20
10.5310078194
 30
0.0
 10
14.8043357291
 20
10.5308050084
 30
0.0
 10
14.8088376165
 20
10.530805004
 30
0.0
  0
SPLINE
  5
2BB
100
AcDbEntity
  8
LAYER_FEATURE
100
AcDbSpline
 62
7
  6
CONTINUOUS
 70
0
 71
3
 72
39
 73
35
 74
0
 42
0.0000001
 43
0.0000001
 44
0.0000000001
 40
0.0
 40
0.0
 40
0.0
 40
0.0
 40
0.0443812481
 40
0.0879669295
 40
0.1307335086
 40
0.172661876
 40
0.2137331571
 40
0.2539301992
 40
0.2932376968
 40
0.3316421073
 40
0.369131911
 40
0.4056977099
 40
0.4413323968
 40
0.4760313903
 40
0.5097927974
 40
0.5426176342
 40
0.5745101269
 40
0.6054779669
 40
0.6355325892
 40
0.664689538
 40
0.6929688298
 40
0.7203952869
 40
0.7469989387
 40
0.7728154376
 40
0.7978863828
 40
0.8222596394
 40
0.8459896168
 40
0.869137373
 40
0.8917705712
 40
0.9139632708
 40
0.935795451
 40
0.9573522592
 40
0.9787230199
 40
1.0
 40
1.0
 40
1.0
 40
1.0
 10
14.2048547206
 20
13.7415927301
 30
0.0
 10
14.2093087614
 20
13.7560060115
 30
0.0
 10
14.2183678032
 20
13.7845035496
 30
0.0
 10
14.2325434259
 20
13.8266222259
 30
0.0
 10
14.2471745605
 20
13.8677010812
 30
0.0
 10
14.2622494241
 20
13.9077072226
 30
0.0
 10
14.2777562348
 20
13.9466093718
 30
0.0
 10
14.2936827162
 20
13.9843767666
 30
0.0
 10
14.3100163058
 20
14.0209796089
 30
0.0
 10
14.3267441476
 20
14.0563890473
 30
0.0
 10
14.3438530396
 20
14.0905771827
 30
0.0
 10
14.3613295246
 20
14.1235170781
 30
0.0
 10
14.3791598923
 20
14.155182779
 30
0.0
 10
14.3973301239
 20
14.185549373
 30
0.0
 10
14.4158259791
 20
14.2145929688
 30
0.0
 10
14.4346330217
 20
14.2422906977
 30
0.0
 10
14.4537365645
 20
14.2686207802
 30
0.0
 10
14.4731217255
 20
14.2935625143
 30
0.0
 10
14.4927734819
 20
14.3170962457
 30
0.0
 10
14.5126766361
 20
14.3392034141
 30
0.0
 10
14.5328158157
 20
14.3598665744
 30
0.0
 10
14.5531755485
 20
14.3790693275
 30
0.0
 10
14.5737402483
 20
14.3967963248
 30
0.0
 10
14.5944941547
 20
14.413033332
 30
0.0
 10
14.6154213969
 20
14.4277671328
 30
0.0
 10
14.636505972
 20
14.4409854954
 30
0.0
 10
14.6577316431
 20
14.4526772723
 30
0.0
 10
14.6790819454
 20
14.4628323496
 30
0.0
 10
14.7005401359
 20
14.471441615
 30
0.0
 10
14.7220891443
 20
14.478497103
 30
0.0
 10
14.7437113636
 20
14.4839920979
 30
0.0
 10
14.7653893309
 20
14.4879211386
 30
0.0
 10
14.7871033147
 20
14.4902801697
 30
0.0
 10
14.8016052799
 20
14.4908049889
 30
0.0
 10
14.8088376165
 20
14.4908049818
 30
0.0
  0
LINE
  5
2BC
100
AcDbEntity
  8
LAYER_CUT_FEAT
100
AcDbLine
 62
7
  6
CONTINUOUS
 10
15.6960917482
 20
13.5712087428
 11
15.5938785037
 21
13.5635702834
  0
SPLINE
  5
2BD
100
AcDbEntity
  8
02___PRT_ALL_AXES
100
AcDbSpline
 62
7
  6
CONTINUOUS
 70
0
 71
3
 72
32
 73
28
 74
0
 42
0.0000001
 43
0.0000001
 44
0.0000000001
 40
0.0
 40
0.0
 40
0.0
 40
0.0
 40
0.0165942224
 40
0.0334194343
 40
0.0506951052
 40
0.068619825
 40
0.0873655171
 40
0.1070749005
 40
0.1278618346
 40
0.1498135438
 40
0.1729932386
 40
0.1974431238
 40
0.2231874779
 40
0.2502349448
 40
0.278580663
 40
0.3082083415
 40
0.3390915599
 40
0.3711949751
 40
0.4044756476
 40
0.4388837551
 40
0.5108462461
 40
0.5865814068
 40
0.6655112151
 40
0.7470038849
 40
0.8303869813
 40
0.9149579983
 40
1.0
 40
1.0
 40
1.0
 40
1.0
 10
15.8652104361
 20
11.4245615267
 30
0.0
 10
15.8662301957
 20
11.4245615289
 30
0.0
 10
15.8682863104
 20
11.4246949343
 30
0.0
 10
15.8713516539
 20
11.4252929429
 30
0.0
 10
15.8743985248
 20
11.4262864294
 30
0.0
 10
15.8774179442
 20
11.4276711851
 30
0.0
 10
15.8804025793
 20
11.4294422317
 30
0.0
 10
15.8833454321
 20
11.4315939554
 30
0.0
 10
15.8862398895
 20
11.4341202139
 30
0.0
 10
15.889079382
 20
11.4370143457
 30
0.0
 10
15.8918574047
 20
11.4402689728
 30
0.0
 10
15.8945674968
 20
11.4438759438
 30
0.0
 10
15.8972031887
 20
11.4478263375
 30
0.0
 10
15.8997581143
 20
11.452110374
 30
0.0
 10
15.9022260583
 20
11.4567174211
 30
0.0
 10
15.904600913
 20
11.4616360503
 30
0.0
 10
15.9068767801
 20
11.4668540218
 30
0.0
 10
15.9090479977
 20
11.4723583008
 30
0.0
 10
15.9111091636
 20
11.4781351683
 30
0.0
 10
15.9137429571
 20
11.4863041534
 30
0.0
 10
15.9167083316
 20
11.4971014297
 30
0.0
 10
15.9197028347
 20
11.5107080009
 30
0.0
 10
15.9221543703
 20
11.5250170409
 30
0.0
 10
15.9240380892
 20
11.539885151
 30
0.0
 10
15.925334811
 20
11.5551636509
 30
0.0
 10
15.9260314204
 20
11.5706991588
 30
0.0
 10
15.9260909904
 20
11.5811252988
 30
0.0
 10
15.9260188031
 20
11.5863508603
 30
0.0
  0
SPLINE
  5
2BE
100
AcDbEntity
  8
LAYER_CUT_FEAT
100
AcDbSpline
 62
7
  6
CONTINUOUS
 70
0
 71
3
 72
69
 73
65
 74
0
 42
0.0000001
 43
0.0000001
 44
0.0000000001
 40
0.0
 40
0.0
 40
0.0
 40
0.0
 40
0.0039270333
 40
0.0078499535
 40
0.0117782672
 40
0.0157214237
 40
0.0196886707
 40
0.0236890459
 40
0.0277313197
 40
0.0318239339
 40
0.0401896188
 40
0.048847597
 40
0.0578492246
 40
0.0672379957
 40
0.0770497612
 40
0.0873132182
 40
0.0980505372
 40
0.1092780329
 40
0.1210068163
 40
0.1332433969
 40
0.1459902214
 40
0.1592461447
 40
0.1730068382
 40
0.1872651409
 40
0.2020113622
 40
0.2172335438
 40
0.2329176864
 40
0.2490479473
 40
0.2656068145
 40
0.2825752613
 40
0.2999328851
 40
0.3176580332
 40
0.3357279184
 40
0.3541187245
 40
0.3728057077
 40
0.3917632903
 40
0.4109651502
 40
0.4303843067
 40
0.4697623785
 40
0.5096730354
 40
0.5498848587
 40
0.5901633872
 40
0.6302734912
 40
0.6699817351
 40
0.6896139701
 40
0.7090602023
 40
0.7282928038
 40
0.7472847119
 40
0.7660095114
 40
0.7844415199
 40
0.8025558768
 40
0.8203286364
 40
0.837736867
 40
0.8547587564
 40
0.8713737266
 40
0.8875625578
 40
0.9033075266
 40
0.9185925565
 40
0.9334033925
 40
0.9477277833
 40
0.9615557426
 40
0.9748796924
 40
0.9876950414
 40
1.0
 40
1.0
 40
1.0
 40
1.0
 10
15.7098370399
 20
13.5728405221
 30
0.0
 10
15.7126932976
 20
13.5730574738
 30
0.0
 10
15.7184154937
 20
13.5733399376
 30
0.0
 10
15.7270106915
 20
13.5733055777
 30
0.0
 10
15.7356038336
 20
13.5728128114
 30
0.0
 10
15.7441908072
 20
13.5718617917
 30
0.0
 10
15.7527678949
 20
13.570453118
 30
0.0
 10
15.7613311494
 20
13.5685873744
 30
0.0
 10
15.7698769838
 20
13.566265496
 30
0.0
 10
15.7813250515
 20
13.5625364439
 30
0.0
 10
15.7956063912
 20
13.5567004398
 30
0.0
 10
15.8124764365
 20
13.5479444199
 30
0.0
 10
15.829179467
 20
13.5374024851
 30
0.0
 10
15.8456871584
 20
13.5250957368
 30
0.0
 10
15.8619734788
 20
13.5110469854
 30
0.0
 10
15.8780122757
 20
13.4952813634
 30
0.0
 10
15.8937777438
 20
13.4778263477
 30
0.0
 10
15.9092442229
 20
13.4587119455
 30
0.0
 10
15.9243862843
 20
13.4379707835
 30
0.0
 10
15.9391787893
 20
13.4156381653
 30
0.0
 10
15.9535969777
 20
13.3917520824
 30
0.0
 10
15.967616553
 20
13.3663531954
 30
0.0
 10
15.9812137631
 20
13.3394847896
 30
0.0
 10
15.994365476
 20
13.311192716
 30
0.0
 10
16.0070492457
 20
13.281525317
 30
0.0
 10
16.0192433701
 20
13.2505333426
 30
0.0
 10
16.0309269451
 20
13.2182698608
 30
0.0
 10
16.0420799125
 20
13.1847901635
 30
0.0
 10
16.0526831035
 20
13.1501516673
 30
0.0
 10
16.0627182788
 20
13.1144138114
 30
0.0
 10
16.0721681647
 20
13.0776379513
 30
0.0
 10
16.0810164867
 20
13.0398872509
 30
0.0
 10
16.0892480008
 20
13.00122657
 30
0.0
 10
16.0968485223
 20
12.9617223542
 30
0.0
 10
16.1038049562
 20
12.921442503
 30
0.0
 10
16.1101052934
 20
12.8804563067
 30
0.0
 10
16.1157387391
 20
12.8388341088
 30
0.0
 10
16.1223780964
 20
12.7823257396
 30
0.0
 10
16.128926759
 20
12.7106088187
 30
0.0
 10
16.1339656842
 20
12.6235723722
 30
0.0
 10
16.1361859408
 20
12.5357612297
 30
0.0
 10
16.1355722127
 20
12.4477787648
 30
0.0
 10
16.1321286886
 20
12.3602295045
 30
0.0
 10
16.1269014676
 20
12.2878614168
 30
0.0
 10
16.1213087024
 20
12.2306626962
 30
0.0
 10
16.1164434015
 20
12.1884059571
 30
0.0
 10
16.1109002741
 20
12.1467039567
 30
0.0
 10
16.104688818
 20
12.1056282776
 30
0.0
 10
16.0978197588
 20
12.0652495903
 30
0.0
 10
16.0903049341
 20
12.0256373104
 30
0.0
 10
16.0821572976
 20
11.9868595355
 30
0.0
 10
16.0733908896
 20
11.9489829111
 30
0.0
 10
16.0640208126
 20
11.9120725172
 30
0.0
 10
16.0540632033
 20
11.8761917532
 30
0.0
 10
16.0435352015
 20
11.841402226
 30
0.0
 10
16.032454919
 20
11.8077636387
 30
0.0
 10
16.0208414028
 20
11.775333686
 30
0.0
 10
16.0087145954
 20
11.7441679464
 30
0.0
 10
15.9960952903
 20
11.7143198008
 30
0.0
 10
15.9830050819
 20
11.6858402824
 30
0.0
 10
15.9694663472
 20
11.6587781546
 30
0.0
 10
15.9555020125
 20
11.6331793351
 30
0.0
 10
15.9411361752
 20
11.6090882228
 30
0.0
 10
15.931103115
 20
11.5937475269
 30
0.0
 10
15.9260188031
 20
11.5863508603
 30
0.0
  0
SPLINE
  5
2BF
100
AcDbEntity
  8
LAYER_FEATURE
100
AcDbSpline
 62
7
  6
CONTINUOUS
 70
0
 71
3
 72
58
 73
54
 74
0
 42
0.0000001
 43
0.0000001
 44
0.0000000001
 40
0.0
 40
0.0
 40
0.0
 40
0.0
 40
0.0078997821
 40
0.0160074672
 40
0.0243557073
 40
0.0329734243
 40
0.0418858029
 40
0.0511143994
 40
0.0606773304
 40
0.0705895045
 40
0.080862874
 40
0.0915066878
 40
0.1025277332
 40
0.1139305683
 40
0.1257177324
 40
0.1378899356
 40
0.1504462286
 40
0.1633841513
 40
0.1766998673
 40
0.1903882855
 40
0.2044431662
 40
0.2188572153
 40
0.2336221672
 40
0.2487288586
 40
0.2641672994
 40
0.2799267349
 40
0.2959957032
 40
0.3123620861
 40
0.3290131556
 40
0.345935619
 40
0.3631156629
 40
0.3805389929
 40
0.416055162
 40
0.4523625636
 40
0.4893331061
 40
0.5268342573
 40
0.5647300019
 40
0.6028817821
 40
0.6411494078
 40
0.6793919535
 40
0.7174686536
 40
0.7552397934
 40
0.7925676166
 40
0.8293172372
 40
0.865357588
 40
0.8830726112
 40
0.9005634185
 40
0.9178151474
 40
0.934813366
 40
0.9515441479
 40
0.9679939464
 40
0.9841501227
 40
1.0
 40
1.0
 40
1.0
 40
1.0
 10
16.0280802013
 20
10.7588119283
 30
0.0
 10
16.0204993075
 20
10.7614076603
 30
0.0
 10
16.0053377858
 20
10.7672691976
 30
0.0
 10
15.9829941327
 20
10.7778553032
 30
0.0
 10
15.9608053431
 20
10.7903248158
 30
0.0
 10
15.9387966933
 20
10.8046618758
 30
0.0
 10
15.9169906035
 20
10.8208497913
 30
0.0
 10
15.8954098316
 20
10.8388700212
 30
0.0
 10
15.8740767064
 20
10.858702443
 30
0.0
 10
15.8530134121
 20
10.880325223
 30
0.0
 10
15.8322419361
 20
10.9037147951
 30
0.0
 10
15.81178408
 20
10.9288458159
 30
0.0
 10
15.791661416
 20
10.9556911336
 30
0.0
 10
15.7718952694
 20
10.9842217943
 30
0.0
 10
15.7525066799
 20
11.0144070488
 30
0.0
 10
15.7335163636
 20
11.0462143664
 30
0.0
 10
15.7149446799
 20
11.0796094569
 30
0.0
 10
15.6968115868
 20
11.1145562905
 30
0.0
 10
15.6791366092
 20
11.1510171344
 30
0.0
 10
15.6619388168
 20
11.1889525993
 30
0.0
 10
15.645236792
 20
11.2283216811
 30
0.0
 10
15.629048605
 20
11.2690818052
 30
0.0
 10
15.6133917896
 20
11.3111888694
 30
0.0
 10
15.5982833072
 20
11.3545972876
 30
0.0
 10
15.5837395381
 20
11.3992600471
 30
0.0
 10
15.5697762601
 20
11.4451287633
 30
0.0
 10
15.5564086282
 20
11.4921537344
 30
0.0
 10
15.5436511609
 20
11.5402839911
 30
0.0
 10
15.5315177067
 20
11.5894673616
 30
0.0
 10
15.5200214595
 20
11.6396504804
 30
0.0
 10
15.5091748321
 20
11.6907790422
 30
0.0
 10
15.4955080137
 20
11.7605803484
 30
0.0
 10
15.4801619446
 20
11.8498107926
 30
0.0
 10
15.4646243051
 20
11.9590790374
 30
0.0
 10
15.451916698
 20
12.0707389253
 30
0.0
 10
15.4420945596
 20
12.1843059845
 30
0.0
 10
15.4352006953
 20
12.2992883138
 30
0.0
 10
15.4312651589
 20
12.4151875064
 30
0.0
 10
15.4303051415
 20
12.5315011954
 30
0.0
 10
15.4323248006
 20
12.6477251642
 30
0.0
 10
15.4373153369
 20
12.7633556141
 30
0.0
 10
15.4452550057
 20
12.8778912893
 30
0.0
 10
15.4561091557
 20
12.9908360088
 30
0.0
 10
15.4698304862
 20
13.1016996778
 30
0.0
 10
15.4836823582
 20
13.1924646948
 30
0.0
 10
15.4961755105
 20
13.2636459945
 30
0.0
 10
15.5061677173
 20
13.3159107701
 30
0.0
 10
15.516824608
 20
13.3673017344
 30
0.0
 10
15.5281346701
 20
13.4177632928
 30
0.0
 10
15.540085593
 20
13.4672405892
 30
0.0
 10
15.5526644164
 20
13.5156802372
 30
0.0
 10
15.5658574262
 20
13.5630292496
 30
0.0
 10
15.5751438935
 20
13.5941397268
 30
0.0
 10
15.5798905811
 20
13.6095000134
 30
0.0
  0
SPLINE
  5
2C0
100
AcDbEntity
  8
LAYER_CHAMFER_FEAT
100
AcDbSpline
 62
7
  6
CONTINUOUS
 70
0
 71
3
 72
41
 73
37
 74
0
 42
0.0000001
 43
0.0000001
 44
0.0000000001
 40
0.0
 40
0.0
 40
0.0
 40
0.0
 40
0.0439502214
 40
0.0865552114
 40
0.1278035014
 40
0.1676910365
 40
0.2062191616
 40
0.2433966276
 40
0.279239888
 40
0.3137740893
 40
0.3470339791
 40
0.3790649059
 40
0.4099238617
 40
0.4249368993
 40
0.4396842157
 40
0.4684217824
 40
0.4962378031
 40
0.523244415
 40
0.5495681361
 40
0.5753489218
 40
0.6007383756
 40
0.6258970832
 40
0.6509911746
 40
0.6761883661
 40
0.7016538486
 40
0.727546422
 40
0.7540152187
 40
0.7811972338
 40
0.8092157337
 40
0.8235752909
 40
0.838183515
 40
0.8681867204
 40
0.8993094245
 40
0.9316182891
 40
0.965167541
 40
1.0
 40
1.0
 40
1.0
 40
1.0
 10
16.5663418414
 20
13.8867187097
 30
0.0
 10
16.5602542949
 20
13.8991238252
 30
0.0
 10
16.5479269061
 20
13.9233902541
 30
0.0
 10
16.5286644721
 20
13.9586616783
 30
0.0
 10
16.5089379054
 20
13.9922029309
 30
0.0
 10
16.4887708641
 20
14.0239736868
 30
0.0
 10
16.4681868961
 20
14.0539364034
 30
0.0
 10
16.4472102028
 20
14.0820554339
 30
0.0
 10
16.4258651983
 20
14.1082973911
 30
0.0
 10
16.4041766942
 20
14.1326309961
 30
0.0
 10
16.3821695099
 20
14.1550273207
 30
0.0
 10
16.3598694948
 20
14.1754589018
 30
0.0
 10
16.3408915326
 20
14.1909675525
 30
0.0
 10
16.3255909285
 20
14.2023364615
 30
0.0
 10
16.3104868105
 20
14.2128355727
 30
0.0
 10
16.2914633095
 20
14.224730025
 30
0.0
 10
16.2682470263
 20
14.2370752284
 30
0.0
 10
16.2448675972
 20
14.2473514981
 30
0.0
 10
16.2213534946
 20
14.2555434437
 30
0.0
 10
16.1977336082
 20
14.2616383932
 30
0.0
 10
16.1740381494
 20
14.265626264
 30
0.0
 10
16.1502983388
 20
14.2675001466
 30
0.0
 10
16.1265461349
 20
14.2672566942
 30
0.0
 10
16.102813714
 20
14.2648963568
 30
0.0
 10
16.0791328935
 20
14.2604233245
 30
0.0
 10
16.0555347202
 20
14.2538452896
 30
0.0
 10
16.0320489594
 20
14.2451728769
 30
0.0
 10
16.0087049513
 20
14.2344197397
 30
0.0
 10
15.9895498314
 20
14.2238245559
 30
0.0
 10
15.9743346037
 20
14.2143582209
 30
0.0
 10
15.9589246143
 20
14.2040425786
 30
0.0
 10
15.9397924565
 20
14.1898387841
 30
0.0
 10
15.9172839448
 20
14.1709370243
 30
0.0
 10
15.8950485304
 20
14.1500510591
 30
0.0
 10
15.8731128234
 20
14.1272073566
 30
0.0
 10
15.858973926
 20
14.1109989093
 30
0.0
 10
15.8519561528
 20
14.1025912774
 30
0.0
  0
SPLINE
  5
2C1
100
AcDbEntity
  8
LAYER_FEATURE
100
AcDbSpline
 62
7
  6
CONTINUOUS
 70
0
 71
3
 72
34
 73
30
 74
0
 42
0.0000001
 43
0.0000001
 44
0.0000000001
 40
0.0
 40
0.0
 40
0.0
 40
0.0
 40
0.0837373032
 40
0.1648451855
 40
0.2432134449
 40
0.3187453115
 40
0.3554235243
 40
0.3913641416
 40
0.4265600499
 40
0.4610054967
 40
0.4946960716
 40
0.5276288942
 40
0.5598026825
 40
0.5912178379
 40
0.6218766579
 40
0.6517833601
 40
0.6809443282
 40
0.7093682188
 40
0.7370661185
 40
0.764051795
 40
0.7903417818
 40
0.8159556692
 40
0.8409162381
 40
0.8652496527
 40
0.9121455798
 40
0.9347911043
 40
0.956951276
 40
0.9786712397
 40
1.0
 40
1.0
 40
1.0
 40
1.0
 10
15.5798905811
 20
13.6095000134
 30
0.0
 10
15.5866285107
 20
13.6313039614
 30
0.0
 10
15.6004802489
 20
13.6740487615
 30
0.0
 10
15.6227677525
 20
13.7364840142
 30
0.0
 10
15.646193576
 20
13.7961058591
 30
0.0
 10
15.6668158855
 20
13.8437884471
 30
0.0
 10
15.683863196
 20
13.8803915709
 30
0.0
 10
15.6967740216
 20
13.9067884843
 30
0.0
 10
15.7099275755
 20
13.9323830392
 30
0.0
 10
15.7233163471
 20
13.9571606503
 30
0.0
 10
15.7369326993
 20
13.9811070771
 30
0.0
 10
15.7507688329
 20
14.0042086075
 30
0.0
 10
15.7648168283
 20
14.0264520121
 30
0.0
 10
15.779068717
 20
14.0478245229
 30
0.0
 10
15.7935163198
 20
14.0683139299
 30
0.0
 10
15.8081514706
 20
14.0879084646
 30
0.0
 10
15.8229658304
 20
14.1065969153
 30
0.0
 10
15.8379509924
 20
14.1243685738
 30
0.0
 10
15.8530985233
 20
14.141213213
 30
0.0
 10
15.8683997932
 20
14.1571211868
 30
0.0
 10
15.8838462992
 20
14.1720833277
 30
0.0
 10
15.8994290877
 20
14.1860908629
 30
0.0
 10
15.9151402259
 20
14.1991362221
 30
0.0
 10
15.9359874171
 20
14.2150385861
 30
0.0
 10
15.9573206141
 20
14.229238316
 30
0.0
 10
15.9790819501
 20
14.241544771
 30
0.0
 10
15.9952978586
 20
14.2496727134
 30
0.0
 10
16.0115865211
 20
14.2567994836
 30
0.0
 10
16.022580822
 20
14.260915054
 30
0.0
 10
16.0280802008
 20
14.2627980673
 30
0.0
  0
SPLINE
  5
2C2
100
AcDbEntity
  8
LAYER_FEATURE
100
AcDbSpline
 62
7
  6
CONTINUOUS
 70
0
 71
3
 72
99
 73
95
 74
0
 42
0.0000001
 43
0.0000001
 44
0.0000000001
 40
0.0
 40
0.0
 40
0.0
 40
0.0
 40
0.0178412071
 40
0.0361831519
 40
0.0549943238
 40
0.0742409385
 40
0.0938874902
 40
0.1138968377
 40
0.1342304219
 40
0.1548484491
 40
0.1757100653
 40
0.1967735239
 40
0.2179963484
 40
0.2393354938
 40
0.2607475032
 40
0.2821886636
 40
0.3036151592
 40
0.3249832258
 40
0.3462493049
 40
0.367370198
 40
0.388303223
 40
0.4090063738
 40
0.4294384831
 40
0.4495593875
 40
0.4693300999
 40
0.4887129906
 40
0.5076719791
 40
0.526172735
 40
0.5441828959
 40
0.5616723064
 40
0.5786132867
 40
0.5949809318
 40
0.6107534497
 40
0.6184110076
 40
0.6259132495
 40
0.6332585109
 40
0.6404454203
 40
0.6474728993
 40
0.6543401936
 40
0.6610469005
 40
0.6675929778
 40
0.673978793
 40
0.6802051366
 40
0.686273259
 40
0.6921849161
 40
0.6979423874
 40
0.7035485368
 40
0.7090068425
 40
0.7143214394
 40
0.7245373784
 40
0.7294529549
 40
0.7342488484
 40
0.738933111
 40
0.7435146696
 40
0.7480033129
 40
0.7524096819
 40
0.7567452282
 40
0.7610221427
 40
0.7652532713
 40
0.7694519891
 40
0.7736320618
 40
0.7778074851
 40
0.781992312
 40
0.7862004788
 40
0.7904456363
 40
0.7947409961
 40
0.799099192
 40
0.8035321769
 40
0.8080511314
 40
0.8126664113
 40
0.8173875178
 40
0.822223075
 40
0.8322653857
 40
0.837487551
 40
0.8428503033
 40
0.8483582374
 40
0.8540152668
 40
0.8598246554
 40
0.8657890608
 40
0.8719105884
 40
0.8781908109
 40
0.8846308237
 40
0.8912312714
 40
0.8979923736
 40
0.9049139714
 40
0.9119955335
 40
0.9192361955
 40
0.9266347807
 40
0.9341898098
 40
0.9418995372
 40
0.9497619477
 40
0.9659350457
 40
0.9826889852
 40
1.0
 40
1.0
 40
1.0
 40
1.0
 10
15.5373054382
 20
13.6962794108
 30
0.0
 10
15.529640139
 20
13.6714744938
 30
0.0
 10
15.5148185406
 20
13.6209420824
 30
0.0
 10
15.494358109
 20
13.5435659785
 30
0.0
 10
15.475398256
 20
13.4637050461
 30
0.0
 10
15.4579849584
 20
13.3815518225
 30
0.0
 10
15.4421601584
 20
13.2973035933
 30
0.0
 10
15.4279620644
 20
13.2111629379
 30
0.0
 10
15.4154249301
 20
13.1233369954
 30
0.0
 10
15.4045790214
 20
13.0340370231
 30
0.0
 10
15.3954505258
 20
12.9434778547
 30
0.0
 10
15.3880614932
 20
12.8518773863
 30
0.0
 10
15.382429759
 20
12.7594560462
 30
0.0
 10
15.378568918
 20
12.666436256
 30
0.0
 10
15.3764882936
 20
12.573041889
 30
0.0
 10
15.3761929162
 20
12.4794977274
 30
0.0
 10
15.3776835032
 20
12.3860289177
 30
0.0
 10
15.3809564462
 20
12.292860423
 30
0.0
 10
15.3860038401
 20
12.2002164773
 30
0.0
 10
15.3928134979
 20
12.1083200422
 30
0.0
 10
15.4013689852
 20
12.017392265
 30
0.0
 10
15.4116496401
 20
11.9276519385
 30
0.0
 10
15.423630635
 20
11.8393149678
 30
0.0
 10
15.4372830461
 20
11.7525938475
 30
0.0
 10
15.452573924
 20
11.6676971429
 30
0.0
 10
15.4694663751
 20
11.5848289764
 30
0.0
 10
15.4879196376
 20
11.5041885176
 30
0.0
 10
15.5078892083
 20
11.4259695041
 30
0.0
 10
15.5293269635
 20
11.3503597377
 30
0.0
 10
15.5521812733
 20
11.2775407112
 30
0.0
 10
15.5763972131
 20
11.2076867969
 30
0.0
 10
15.6019164393
 20
11.1409660338
 30
0.0
 10
15.6244340384
 20
11.0875953091
 30
0.0
 10
15.6430774315
 20
11.0466229122
 30
0.0
 10
15.6572090577
 20
11.0170773631
 30
0.0
 10
15.6716187014
 20
10.9884309779
 30
0.0
 10
15.686297755
 20
10.9607008622
 30
0.0
 10
15.7012374229
 20
10.9339036944
 30
0.0
 10
15.7164287739
 20
10.9080555593
 30
0.0
 10
15.7318626747
 20
10.8831719467
 30
0.0
 10
15.7475299616
 20
10.8592678158
 30
0.0
 10
15.7634212394
 20
10.8363574805
 30
0.0
 10
15.7795270523
 20
10.8144546903
 30
0.0
 10
15.795837853
 20
10.7935726021
 30
0.0
 10
15.8123438895
 20
10.7737237278
 30
0.0
 10
15.8290354983
 20
10.754919981
 30
0.0
 10
15.8459025726
 20
10.7371728414
 30
0.0
 10
15.8629358941
 20
10.7204923206
 30
0.0
 10
15.8855543782
 20
10.6999605665
 30
0.0
 10
15.9087592896
 20
10.6812713368
 30
0.0
 10
15.9325220365
 20
10.6646368593
 30
0.0
 10
15.9502316537
 20
10.653431713
 30
0.0
 10
15.9680452956
 20
10.6433455026
 30
0.0
 10
15.9859527825
 20
10.6343843776
 30
0.0
 10
16.003943352
 20
10.6265543419
 30
0.0
 10
16.0220061916
 20
10.6198606363
 30
0.0
 10
16.0401302735
 20
10.6143078109
 30
0.0
 10
16.0583044513
 20
10.6098998732
 30
0.0
 10
16.0765173471
 20
10.6066399131
 30
0.0
 10
16.0947574667
 20
10.60453037
 30
0.0
 10
16.1130131747
 20
10.6035728473
 30
0.0
 10
16.1312727618
 20
10.6037679842
 30
0.0
 10
16.1495244986
 20
10.6051157378
 30
0.0
 10
16.1677566979
 20
10.6076150146
 30
0.0
 10
16.1859577691
 20
10.6112639726
 30
0.0
 10
16.2041162375
 20
10.6160599933
 30
0.0
 10
16.2222208389
 20
10.6219995549
 30
0.0
 10
16.2402604181
 20
10.6290785905
 30
0.0
 10
16.2582240774
 20
10.6372922385
 30
0.0
 10
16.2761009278
 20
10.6466349471
 30
0.0
 10
16.2938807418
 20
10.6571009616
 30
0.0
 10
16.3177414825
 20
10.6727395229
 30
0.0
 10
16.3410664909
 20
10.6904616299
 30
0.0
 10
16.3638159145
 20
10.7100513457
 30
0.0
 10
16.3809533512
 20
10.726020461
 30
0.0
 10
16.3979311265
 20
10.7430629275
 30
0.0
 10
16.4147400043
 20
10.7611691632
 30
0.0
 10
16.4313698369
 20
10.7803280665
 30
0.0
 10
16.4478108881
 20
10.800528142
 30
0.0
 10
16.4640533347
 20
10.821757285
 30
0.0
 10
16.4800875865
 20
10.844002722
 30
0.0
 10
16.4959040788
 20
10.8672511215
 30
0.0
 10
16.5114933655
 20
10.8914885471
 30
0.0
 10
16.5268461885
 20
10.9167004336
 30
0.0
 10
16.5419533127
 20
10.9428716839
 30
0.0
 10
16.556805737
 20
10.9699865722
 30
0.0
 10
16.5713945573
 20
10.9980288241
 30
0.0
 10
16.5857109999
 20
11.0269816212
 30
0.0
 10
16.5997465045
 20
11.0568275345
 30
0.0
 10
16.6134926731
 20
11.0875487277
 30
0.0
 10
16.6315939845
 20
11.130052107
 30
0.0
 10
16.6534084943
 20
11.1852678327
 30
0.0
 10
16.6780618264
 20
11.2541029214
 30
0.0
 10
16.6933606281
 20
11.3012627928
 30
0.0
 10
16.7007981354
 20
11.325330575
 30
0.0
  0
SPLINE
  5
2C3
100
AcDbEntity
  8
LAYER_FEATURE
100
AcDbSpline
 62
7
  6
CONTINUOUS
 70
0
 71
3
 72
64
 73
60
 74
0
 42
0.0000001
 43
0.0000001
 44
0.0000000001
 40
0.0
 40
0.0
 40
0.0
 40
0.0
 40
0.0170781635
 40
0.0344508602
 40
0.0521031942
 40
0.0700197863
 40
0.088184713
 40
0.106581588
 40
0.1251935905
 40
0.1440035054
 40
0.1821455107
 40
0.2208644156
 40
0.2600120146
 40
0.2994371769
 40
0.3389869023
 40
0.3785073574
 40
0.4178449032
 40
0.4568471288
 40
0.4953638912
 40
0.5332483748
 40
0.5519093236
 40
0.5703592315
 40
0.58858118
 40
0.6065586734
 40
0.6242756778
 40
0.6417166639
 40
0.658866651
 40
0.6757112524
 40
0.692236724
 40
0.7084300172
 40
0.7242788349
 40
0.7397716929
 40
0.7548979888
 40
0.7696480753
 40
0.7840133414
 40
0.797986303
 40
0.8115607047
 40
0.8247316345
 40
0.8374956532
 40
0.8498509418
 40
0.8617974663
 40
0.8733371625
 40
0.8844741457
 40
0.8952149437
 40
0.9055687531
 40
0.9155477171
 40
0.9251672175
 40
0.9344461653
 40
0.9434072747
 40
0.9520772921
 40
0.9604871413
 40
0.9686719412
 40
0.9766708467
 40
0.9806146893
 40
0.9845283889
 40
0.9884177642
 40
0.9922887703
 40
0.9961474709
 40
1.0
 40
1.0
 40
1.0
 40
1.0
 10
15.4955328616
 20
13.6234603241
 30
0.0
 10
15.4905974973
 20
13.6048049589
 30
0.0
 10
15.4809832786
 20
13.5670812803
 30
0.0
 10
15.4674365649
 20
13.5097851828
 30
0.0
 10
15.4546525498
 20
13.4513438894
 30
0.0
 10
15.4426459594
 20
13.3918246411
 30
0.0
 10
15.4314305575
 20
13.3312955271
 30
0.0
 10
15.4210192399
 20
13.2698259634
 30
0.0
 10
15.4114238916
 20
13.2074862383
 30
0.0
 10
15.3996790381
 20
13.1229132281
 30
0.0
 10
15.3871383646
 20
13.015525548
 30
0.0
 10
15.3755660797
 20
12.8849395658
 30
0.0
 10
15.3674551262
 20
12.7526402605
 30
0.0
 10
15.3628428426
 20
12.6192339938
 30
0.0
 10
15.3617504723
 20
12.4853312775
 30
0.0
 10
15.3641830591
 20
12.351545185
 30
0.0
 10
15.3701294032
 20
12.2184882503
 30
0.0
 10
15.3795620884
 20
12.0867693505
 30
0.0
 10
15.3924376785
 20
11.9569921709
 30
0.0
 10
15.4060542494
 20
11.8504285228
 30
0.0
 10
15.4186480516
 20
11.7666273065
 30
0.0
 10
15.4288651798
 20
11.7049429496
 30
0.0
 10
15.4398892623
 20
11.6441824259
 30
0.0
 10
15.4517077183
 20
11.5844152141
 30
0.0
 10
15.4643069665
 20
11.525709829
 30
0.0
 10
15.4776725545
 20
11.468133512
 30
0.0
 10
15.491789142
 20
11.4117522111
 30
0.0
 10
15.5066405333
 20
11.3566304903
 30
0.0
 10
15.522209694
 20
11.30283146
 30
0.0
 10
15.5384787731
 20
11.2504167022
 30
0.0
 10
15.5554291241
 20
11.1994461993
 30
0.0
 10
15.5730413309
 20
11.1499782629
 30
0.0
 10
15.5912952281
 20
11.1020694618
 30
0.0
 10
15.6101699279
 20
11.0557745551
 30
0.0
 10
15.6296438538
 20
11.0111464303
 30
0.0
 10
15.6496947701
 20
10.9682360434
 30
0.0
 10
15.6702998151
 20
10.92709236
 30
0.0
 10
15.6914355363
 20
10.8877622991
 30
0.0
 10
15.7130779316
 20
10.8502906813
 30
0.0
 10
15.7352024823
 20
10.8147201759
 30
0.0
 10
15.757784203
 20
10.7810912626
 30
0.0
 10
15.7807976902
 20
10.7494422031
 30
0.0
 10
15.8042171703
 20
10.7198090195
 30
0.0
 10
15.8280165482
 20
10.6922254854
 30
0.0
 10
15.8521694525
 20
10.6667231321
 30
0.0
 10
15.8766492717
 20
10.6433312723
 30
0.0
 10
15.9014291679
 20
10.6220770329
 30
0.0
 10
15.9264820608
 20
10.602985424
 30
0.0
 10
15.9517806216
 20
10.5860793983
 30
0.0
 10
15.9772969955
 20
10.5713799314
 30
0.0
 10
16.0030032454
 20
10.5589059355
 30
0.0
 10
16.0288689768
 20
10.5486745338
 30
0.0
 10
16.0506379105
 20
10.5419974016
 30
0.0
 10
16.068063973
 20
10.5378145299
 30
0.0
 10
16.0810928344
 20
10.5352580459
 30
0.0
 10
16.0941368991
 20
10.5332688634
 30
0.0
 10
16.1071926637
 20
10.5318475932
 30
0.0
 10
16.1202558784
 20
10.530994602
 30
0.0
 10
16.1289702303
 20
10.5308050005
 30
0.0
 10
16.1333233259
 20
10.5308050041
 30
0.0
  0
SPLINE
  5
2C4
100
AcDbEntity
  8
LAYER_CHAMFER_FEAT
100
AcDbSpline
 62
7
  6
CONTINUOUS
 70
0
 71
3
 72
27
 73
23
 74
0
 42
0.0000001
 43
0.0000001
 44
0.0000000001
 40
0.0
 40
0.0
 40
0.0
 40
0.0
 40
0.0835111911
 40
0.1639083093
 40
0.2411671069
 40
0.3152835217
 40
0.3862766081
 40
0.4541914547
 40
0.5191027307
 40
0.5811185601
 40
0.6403847134
 40
0.6970888447
 40
0.7514643498
 40
0.803793172
 40
0.8292988661
 40
0.8544212659
 40
0.8792091161
 40
0.903713773
 40
0.9279888836
 40
0.9520900444
 40
0.976074365
 40
1.0
 40
1.0
 40
1.0
 40
1.0
 10
16.5297033309
 20
13.862043912
 30
0.0
 10
16.5224836232
 20
13.8767561295
 30
0.0
 10
16.5078300581
 20
13.9053984683
 30
0.0
 10
16.4847420269
 20
13.9467237991
 30
0.0
 10
16.460998815
 20
13.9855327634
 30
0.0
 10
16.4366414965
 20
14.0217573201
 30
0.0
 10
16.4117115486
 20
14.0553347327
 30
0.0
 10
16.3862511307
 20
14.0862066204
 30
0.0
 10
16.3603028662
 20
14.1143191571
 30
0.0
 10
16.3339096669
 20
14.1396229275
 30
0.0
 10
16.3071149553
 20
14.1620726554
 30
0.0
 10
16.2799618005
 20
14.1816272579
 30
0.0
 10
16.2524965329
 20
14.1982484272
 30
0.0
 10
16.2291847361
 20
14.2097249637
 30
0.0
 10
16.2104684025
 20
14.2173521495
 30
0.0
 10
16.1965047429
 20
14.2222739735
 30
0.0
 10
16.1825028948
 20
14.226442645
 30
0.0
 10
16.1684688573
 20
14.229856317
 30
0.0
 10
16.1544090612
 20
14.2325131827
 30
0.0
 10
16.1403297422
 20
14.2344119441
 30
0.0
 10
16.126237877
 20
14.2355515769
 30
0.0
 10
16.116834083
 20
14.2358049932
 30
0.0
 10
16.112138923
 20
14.2358049864
 30
0.0
  0
SPLINE
  5
2C5
100
AcDbEntity
  8
02___PRT_ALL_AXES
100
AcDbSpline
 62
7
  6
CONTINUOUS
 70
0
 71
3
 72
58
 73
54
 74
0
 42
0.0000001
 43
0.0000001
 44
0.0000000001
 40
0.0
 40
0.0
 40
0.0
 40
0.0
 40
0.0078997821
 40
0.0160074672
 40
0.0243557073
 40
0.0329734243
 40
0.0418858029
 40
0.0511143994
 40
0.0606773304
 40
0.0705895045
 40
0.080862874
 40
0.0915066878
 40
0.1025277332
 40
0.1139305683
 40
0.1257177324
 40
0.1378899356
 40
0.1504462286
 40
0.1633841513
 40
0.1766998673
 40
0.1903882855
 40
0.2044431662
 40
0.2188572153
 40
0.2336221672
 40
0.2487288586
 40
0.2641672994
 40
0.2799267349
 40
0.2959957032
 40
0.3123620861
 40
0.3290131556
 40
0.345935619
 40
0.3631156629
 40
0.3805389929
 40
0.416055162
 40
0.4523625636
 40
0.4893331061
 40
0.5268342573
 40
0.5647300019
 40
0.6028817821
 40
0.6411494078
 40
0.6793919535
 40
0.7174686536
 40
0.7552397934
 40
0.7925676166
 40
0.8293172372
 40
0.865357588
 40
0.8830726112
 40
0.9005634185
 40
0.9178151474
 40
0.934813366
 40
0.9515441479
 40
0.9679939464
 40
0.9841501227
 40
1.0
 40
1.0
 40
1.0
 40
1.0
 10
16.0497946911
 20
10.7513767703
 30
0.0
 10
16.0421816252
 20
10.7539835182
 30
0.0
 10
16.0269557607
 20
10.7598699308
 30
0.0
 10
16.0045172849
 20
10.7705009621
 30
0.0
 10
15.98223433
 20
10.7830233932
 30
0.0
 10
15.9601322791
 20
10.7974212971
 30
0.0
 10
15.9382336481
 20
10.8136779114
 30
0.0
 10
15.9165612911
 20
10.8317746161
 30
0.0
 10
15.8951376317
 20
10.8516912033
 30
0.0
 10
15.8739849485
 20
10.8734057466
 30
0.0
 10
15.8531253218
 20
10.8968945801
 30
0.0
 10
15.8325806462
 20
10.9221322526
 30
0.0
 10
15.812372585
 20
10.9490914972
 30
0.0
 10
15.7925225542
 20
10.9777432372
 30
0.0
 10
15.7730516829
 20
11.0080565926
 30
0.0
 10
15.753980775
 20
11.0399988951
 30
0.0
 10
15.7353302762
 20
11.0735357086
 30
0.0
 10
15.7171202294
 20
11.1086308505
 30
0.0
 10
15.6993702422
 20
11.1452464281
 30
0.0
 10
15.6820994653
 20
11.1833428845
 30
0.0
 10
15.66532656
 20
11.2228790419
 30
0.0
 10
15.6490696732
 20
11.263812145
 30
0.0
 10
15.6333464129
 20
11.3060979044
 30
0.0
 10
15.6181738127
 20
11.3496905405
 30
0.0
 10
15.6035683223
 20
11.3945428411
 30
0.0
 10
15.5895457866
 20
11.4406062162
 30
0.0
 10
15.5761214247
 20
11.4878307532
 30
0.0
 10
15.5633098169
 20
11.5361652665
 30
0.0
 10
15.5511248704
 20
11.5855573628
 30
0.0
 10
15.5395798352
 20
11.6359534501
 30
0.0
 10
15.5286871766
 20
11.6872989928
 30
0.0
 10
15.5149623585
 20
11.7573965237
 30
0.0
 10
15.4995511633
 20
11.8470056466
 30
0.0
 10
15.4839475848
 20
11.9567376071
 30
0.0
 10
15.4711860487
 20
12.0688713604
 30
0.0
 10
15.4613222269
 20
12.1829203788
 30
0.0
 10
15.4543991062
 20
12.2983906733
 30
0.0
 10
15.450446868
 20
12.4147817222
 30
0.0
 10
15.4494827765
 20
12.5315890266
 30
0.0
 10
15.4515110066
 20
12.6483062299
 30
0.0
 10
15.4565227219
 20
12.7644273956
 30
0.0
 10
15.4644960854
 20
12.8794491405
 30
0.0
 10
15.4753962985
 20
12.992873178
 30
0.0
 10
15.48917586
 20
13.1042073334
 30
0.0
 10
15.503086517
 20
13.1953575416
 30
0.0
 10
15.515632688
 20
13.2668409225
 30
0.0
 10
15.5256673001
 20
13.3193275008
 30
0.0
 10
15.5363694167
 20
13.3709365596
 30
0.0
 10
15.5477274769
 20
13.4216122682
 30
0.0
 10
15.5597291174
 20
13.4712995378
 30
0.0
 10
15.5723613232
 20
13.5199447554
 30
0.0
 10
15.5856103218
 20
13.5674947088
 30
0.0
 10
15.5949361993
 20
13.5987372135
 30
0.0
 10
15.5997030311
 20
13.6141626866
 30
0.0
  0
SPLINE
  5
2C6
100
AcDbEntity
  8
LAYER_FEATURE
100
AcDbSpline
 62
7
  6
CONTINUOUS
 70
0
 71
3
 72
11
 73
7
 74
0
 42
0.0000001
 43
0.0000001
 44
0.0000000001
 40
0.0
 40
0.0
 40
0.0
 40
0.0
 40
0.2174370412
 40
0.456565926
 40
0.7175913467
 40
1.0
 40
1.0
 40
1.0
 40
1.0
 10
14.2179483133
 20
13.2181418003
 30
0.0
 10
14.2184905993
 20
13.2187285652
 30
0.0
 10
14.2195477189
 20
13.2200370923
 30
0.0
 10
14.2209844296
 20
13.2222523618
 30
0.0
 10
14.2223358183
 20
13.2247940224
 30
0.0
 10
14.2231419679
 20
13.2266228658
 30
0.0
 10
14.2235313015
 20
13.2275847805
 30
0.0
  0
SPLINE
  5
2C7
100
AcDbEntity
  8
LAYER_FEATURE
100
AcDbSpline
 62
7
  6
CONTINUOUS
 70
0
 71
3
 72
17
 73
13
 74
0
 42
0.0000001
 43
0.0000001
 44
0.0000000001
 40
0.0
 40
0.0
 40
0.0
 40
0.0
 40
0.0382619136
 40
0.0775995136
 40
0.1189945248
 40
0.1632454175
 40
0.2623989291
 40
0.3780363984
 40
0.5107991839
 40
0.6599437961
 40
0.8237836634
 40
1.0
 40
1.0
 40
1.0
 40
1.0
 10
14.1974057749
 20
13.2181832003
 30
0.0
 10
14.1972804172
 20
13.2181832105
 30
0.0
 10
14.197025585
 20
13.2181593171
 30
0.0
 10
14.1966485679
 20
13.2180529102
 30
0.0
 10
14.196276823
 20
13.2178771404
 30
0.0
 10
14.1957718923
 20
13.2175397328
 30
0.0
 10
14.1951661309
 20
13.2169343223
 30
0.0
 10
14.1945178129
 20
13.2159933354
 30
0.0
 10
14.1939290018
 20
13.2148279711
 30
0.0
 10
14.1934107658
 20
13.2134603377
 30
0.0
 10
14.1929730095
 20
13.2119168356
 30
0.0
 10
14.1927478279
 20
13.2108246662
 30
0.0
 10
14.1926490482
 20
13.2102558409
 30
0.0
  0
LINE
  5
2C8
100
AcDbEntity
  8
LAYER_FEATURE
100
AcDbLine
 62
7
  6
CONTINUOUS
 10
14.2470597067
 20
13.3592577609
 11
14.2491394778
 21
13.3630128753
  0
SPLINE
  5
2C9
100
AcDbEntity
  8
LAYER_FEATURE
100
AcDbSpline
 62
7
  6
CONTINUOUS
 70
0
 71
3
 72
17
 73
13
 74
0
 42
0.0000001
 43
0.0000001
 44
0.0000000001
 40
0.0
 40
0.0
 40
0.0
 40
0.0
 40
0.039568807
 40
0.080103827
 40
0.1672412734
 40
0.2153832481
 40
0.2671215222
 40
0.3823149757
 40
0.5139341524
 40
0.6616611004
 40
0.8242898342
 40
1.0
 40
1.0
 40
1.0
 40
1.0
 10
14.2223634048
 20
13.3593050047
 30
0.0
 10
14.2222472373
 20
13.3593050049
 30
0.0
 10
14.2220115725
 20
13.3592845451
 30
0.0
 10
14.2215346129
 20
13.3591601375
 30
0.0
 10
14.2210735538
 20
13.3589103791
 30
0.0
 10
14.2206449148
 20
13.3585664682
 30
0.0
 10
14.2201963174
 20
13.3581204232
 30
0.0
 10
14.2196659831
 20
13.3574173127
 30
0.0
 10
14.219099842
 20
13.3564039241
 30
0.0
 10
14.2185908115
 20
13.3552081301
 30
0.0
 10
14.2181474887
 20
13.353850241
 30
0.0
 10
14.2179089916
 20
13.3528850549
 30
0.0
 10
14.2178008576
 20
13.35238066
 30
0.0
  0
SPLINE
  5
2CA
100
AcDbEntity
  8
LAYER_FEATURE
100
AcDbSpline
 62
7
  6
CONTINUOUS
 70
0
 71
3
 72
16
 73
12
 74
0
 42
0.0000001
 43
0.0000001
 44
0.0000000001
 40
0.0
 40
0.0
 40
0.0
 40
0.0
 40
0.0410354391
 40
0.0829226838
 40
0.1721051024
 40
0.2727178247
 40
0.387664516
 40
0.5181912939
 40
0.6643610871
 40
0.8254170242
 40
1.0
 40
1.0
 40
1.0
 40
1.0
 10
14.2518320556
 20
13.4945689917
 30
0.0
 10
14.2517250452
 20
13.4945689862
 30
0.0
 10
14.2515084203
 20
13.4945516973
 30
0.0
 10
14.2510704721
 20
13.4944466973
 30
0.0
 10
14.2505219747
 20
13.4941746209
 30
0.0
 10
14.2499092548
 20
13.4936602965
 30
0.0
 10
14.2493302757
 20
13.4929631315
 30
0.0
 10
14.2487907976
 20
13.4920930205
 30
0.0
 10
14.2482969899
 20
13.4910618048
 30
0.0
 10
14.2478557312
 20
13.4898840096
 30
0.0
 10
14.2476098641
 20
13.4890431516
 30
0.0
 10
14.2474956908
 20
13.4886024306
 30
0.0
  0
SPLINE
  5
2CB
100
AcDbEntity
  8
LAYER_FEATURE
100
AcDbSpline
 62
7
  6
CONTINUOUS
 70
0
 71
3
 72
15
 73
11
 74
0
 42
0.0000001
 43
0.0000001
 44
0.0000000001
 40
0.0
 40
0.0
 40
0.0
 40
0.0
 40
0.085851421
 40
0.1774222815
 40
0.2792243726
 40
0.3941408634
 40
0.523636591
 40
0.6681063001
 40
0.8272071201
 40
1.0
 40
1.0
 40
1.0
 40
1.0
 10
14.2856050259
 20
13.62302641
 30
0.0
 10
14.2854081007
 20
13.6230264181
 30
0.0
 10
14.2849990805
 20
13.6229651865
 30
0.0
 10
14.2844095843
 20
13.6226987795
 30
0.0
 10
14.2838429535
 20
13.6222677741
 30
0.0
 10
14.2833033693
 20
13.6216807968
 30
0.0
 10
14.2827946348
 20
13.6209453756
 30
0.0
 10
14.2823216705
 20
13.620070006
 30
0.0
 10
14.2818898224
 20
13.6190650149
 30
0.0
 10
14.2816422817
 20
13.6183443364
 30
0.0
 10
14.2815252601
 20
13.6179656546
 30
0.0
  0
SPLINE
  5
2CC
100
AcDbEntity
  8
02___PRT_ALL_AXES
100
AcDbSpline
 62
7
  6
CONTINUOUS
 70
0
 71
3
 72
34
 73
30
 74
0
 42
0.0000001
 43
0.0000001
 44
0.0000000001
 40
0.0
 40
0.0
 40
0.0
 40
0.0
 40
0.0837373032
 40
0.1648451855
 40
0.2432134449
 40
0.3187453115
 40
0.3554235243
 40
0.3913641416
 40
0.4265600499
 40
0.4610054967
 40
0.4946960716
 40
0.5276288942
 40
0.5598026825
 40
0.5912178379
 40
0.6218766579
 40
0.6517833601
 40
0.6809443282
 40
0.7093682188
 40
0.7370661185
 40
0.764051795
 40
0.7903417818
 40
0.8159556692
 40
0.8409162381
 40
0.8652496527
 40
0.9121455798
 40
0.9347911043
 40
0.956951276
 40
0.9786712397
 40
1.0
 40
1.0
 40
1.0
 40
1.0
 10
15.5997030311
 20
13.6141626866
 30
0.0
 10
15.6064695552
 20
13.6360591668
 30
0.0
 10
15.6203800779
 20
13.6789853685
 30
0.0
 10
15.6427621657
 20
13.7416855857
 30
0.0
 10
15.6662874045
 20
13.8015604555
 30
0.0
 10
15.6869972315
 20
13.8494454001
 30
0.0
 10
15.7041168879
 20
13.8862038614
 30
0.0
 10
15.7170825048
 20
13.9127127987
 30
0.0
 10
15.7302918801
 20
13.9384159725
 30
0.0
 10
15.7437374713
 20
13.9632987355
 30
0.0
 10
15.757411609
 20
13.9873467869
 30
0.0
 10
15.7713064609
 20
14.0105463562
 30
0.0
 10
15.7854140735
 20
14.032884158
 30
0.0
 10
15.7997264448
 20
14.0543473701
 30
0.0
 10
15.8142353607
 20
14.0749237306
 30
0.0
 10
15.8289326206
 20
14.0946014212
 30
0.0
 10
15.84380985
 20
14.1133691824
 30
0.0
 10
15.8588586064
 20
14.1312162607
 30
0.0
 10
15.8740704209
 20
14.1481323858
 30
0.0
 10
15.8894366267
 20
14.1641078702
 30
0.0
 10
15.904948685
 20
14.179133508
 30
0.0
 10
15.9205976042
 20
14.1932004887
 30
0.0
 10
15.9363754178
 20
14.2063012102
 30
0.0
 10
15.9573110809
 20
14.2222710611
 30
0.0
 10
15.9787348124
 20
14.2365310522
 30
0.0
 10
16.0005884997
 20
14.2488897336
 30
0.0
 10
16.0168732257
 20
14.2570521696
 30
0.0
 10
16.0332310146
 20
14.2642091847
 30
0.0
 10
16.0442719734
 20
14.2683422208
 30
0.0
 10
16.0497946906
 20
14.2702332253
 30
0.0
  0
SPLINE
  5
2CD
100
AcDbEntity
  8
LAYER_CHAMFER_FEAT
100
AcDbSpline
 62
7
  6
CONTINUOUS
 70
0
 71
3
 72
81
 73
77
 74
0
 42
0.0000001
 43
0.0000001
 44
0.0000000001
 40
0.0
 40
0.0
 40
0.0
 40
0.0
 40
0.0113884302
 40
0.0168761698
 40
0.0222298361
 40
0.0325483821
 40
0.0423818448
 40
0.0517763612
 40
0.0563276307
 40
0.0607913727
 40
0.0651763717
 40
0.0694920589
 40
0.0737484752
 40
0.0779562064
 40
0.0821263154
 40
0.0862702411
 40
0.0903996971
 40
0.0945265487
 40
0.0986626891
 40
0.1028199136
 40
0.1070097954
 40
0.1112435735
 40
0.1155320546
 40
0.1198855237
 40
0.1243136882
 40
0.1288256156
 40
0.1381312791
 40
0.1478643959
 40
0.1580733771
 40
0.1687965432
 40
0.1800630322
 40
0.1918938051
 40
0.2043026338
 40
0.2172970065
 40
0.2308789271
 40
0.2450456052
 40
0.2597900439
 40
0.2751015389
 40
0.2909661035
 40
0.3073668303
 40
0.3242842019
 40
0.3416963614
 40
0.3595793488
 40
0.3779073111
 40
0.3966526914
 40
0.4157864008
 40
0.4352779761
 40
0.4550957277
 40
0.4752068786
 40
0.495577696
 40
0.5161736183
 40
0.5369593769
 40
0.557899115
 40
0.5789565044
 40
0.6000948591
 40
0.6212772485
 40
0.6424666096
 40
0.6636258585
 40
0.6847180017
 40
0.7057062482
 40
0.7265541219
 40
0.7472255753
 40
0.7676851049
 40
0.7878978692
 40
0.8078298091
 40
0.8274477732
 40
0.8467196472
 40
0.8656144904
 40
0.8841026793
 40
0.9021560619
 40
0.9197481231
 40
0.9368541695
 40
0.9534515212
 40
0.9695197725
 40
0.9850409422
 40
1.0
 40
1.0
 40
1.0
 40
1.0
 10
15.8519561535
 20
10.9190187124
 30
0.0
 10
15.8611148355
 20
10.9080461397
 30
0.0
 10
15.875154311
 20
10.8921646448
 30
0.0
 10
15.8946323552
 20
10.8721852034
 30
0.0
 10
15.9138050604
 20
10.8538045432
 30
0.0
 10
15.9380675498
 20
10.832875841
 30
0.0
 10
15.9679842969
 20
10.810900164
 30
0.0
 10
15.9935037209
 20
10.7953418228
 30
0.0
 10
16.0140433574
 20
10.7847454496
 30
0.0
 10
16.0293544854
 20
10.7777720544
 30
0.0
 10
16.0447250348
 20
10.7716935915
 30
0.0
 10
16.0601473366
 20
10.7665133961
 30
0.0
 10
16.0756132143
 20
10.7622344798
 30
0.0
 10
16.0911145326
 20
10.7588594854
 30
0.0
 10
16.1066429747
 20
10.7563903388
 30
0.0
 10
16.1221901956
 20
10.754828704
 30
0.0
 10
16.1377477423
 20
10.7541754143
 30
0.0
 10
16.1533071473
 20
10.7544310049
 30
0.0
 10
16.1688599271
 20
10.7555952184
 30
0.0
 10
16.184397623
 20
10.7576673852
 30
0.0
 10
16.1999118328
 20
10.7606462033
 30
0.0
 10
16.2153942366
 20
10.7645298225
 30
0.0
 10
16.2308366067
 20
10.7693159821
 30
0.0
 10
16.2462307738
 20
10.7750017146
 30
0.0
 10
16.2615689743
 20
10.7815840297
 30
0.0
 10
16.2821439332
 20
10.7916528948
 30
0.0
 10
16.3077209084
 20
10.8065567842
 30
0.0
 10
16.3377268261
 20
10.8277707112
 30
0.0
 10
16.3673071444
 20
10.8524488345
 30
0.0
 10
16.3964036611
 20
10.8805363205
 30
0.0
 10
16.4249617563
 20
10.9119744506
 30
0.0
 10
16.4529262211
 20
10.9466983477
 30
0.0
 10
16.4802424953
 20
10.9846371407
 30
0.0
 10
16.5068565363
 20
11.0257136247
 30
0.0
 10
16.5327151581
 20
11.069844248
 30
0.0
 10
16.5577662458
 20
11.1169391465
 30
0.0
 10
16.5819589879
 20
11.166902264
 30
0.0
 10
16.6052440741
 20
11.2196315193
 30
0.0
 10
16.6275738681
 20
11.27501901
 30
0.0
 10
16.648902562
 20
11.3329512382
 30
0.0
 10
16.6691863119
 20
11.3933093536
 30
0.0
 10
16.6883833582
 20
11.45596941
 30
0.0
 10
16.706454134
 20
11.5208026328
 30
0.0
 10
16.7233613622
 20
11.5876756956
 30
0.0
 10
16.7390701445
 20
11.6564510051
 30
0.0
 10
16.7535480408
 20
11.7269869944
 30
0.0
 10
16.7667651435
 20
11.7991384215
 30
0.0
 10
16.7786941437
 20
11.8727566764
 30
0.0
 10
16.7893103894
 20
11.9476900937
 30
0.0
 10
16.7985919385
 20
12.0237842712
 30
0.0
 10
16.8065196054
 20
12.1008823923
 30
0.0
 10
16.8130770019
 20
12.1788255533
 30
0.0
 10
16.8182505716
 20
12.2574530945
 30
0.0
 10
16.8220296184
 20
12.3366029342
 30
0.0
 10
16.8244063286
 20
12.4161119058
 30
0.0
 10
16.8253757878
 20
12.4958160967
 30
0.0
 10
16.8249359911
 20
12.5755511888
 30
0.0
 10
16.8230878486
 20
12.6551527997
 30
0.0
 10
16.819835182
 20
12.7344568247
 30
0.0
 10
16.8151847166
 20
12.8132997768
 30
0.0
 10
16.8091460669
 20
12.8915191271
 30
0.0
 10
16.8017317172
 20
12.9689536418
 30
0.0
 10
16.7929569947
 20
13.045443718
 30
0.0
 10
16.7828400378
 20
13.1208317158
 30
0.0
 10
16.7714017573
 20
13.1949622872
 30
0.0
 10
16.7586657925
 20
13.2676827001
 30
0.0
 10
16.74465846
 20
13.3388431593
 30
0.0
 10
16.7294086991
 20
13.4082971212
 30
0.0
 10
16.7129480062
 20
13.4759016017
 30
0.0
 10
16.6953103633
 20
13.5415174804
 30
0.0
 10
16.6765321671
 20
13.6050097888
 30
0.0
 10
16.6566521215
 20
13.6662480228
 30
0.0
 10
16.6357112151
 20
13.7251063337
 30
0.0
 10
16.6137523862
 20
13.7814641438
 30
0.0
 10
16.5908212003
 20
13.8352050041
 30
0.0
 10
16.5746124991
 20
13.8698648813
 30
0.0
 10
16.5663418414
 20
13.8867187097
 30
0.0
  0
SPLINE
  5
2CE
100
AcDbEntity
  8
LAYER_CHAMFER_FEAT
100
AcDbSpline
 62
7
  6
CONTINUOUS
 70
0
 71
3
 72
72
 73
68
 74
0
 42
0.0000001
 43
0.0000001
 44
0.0000000001
 40
0.0
 40
0.0
 40
0.0
 40
0.0
 40
0.0038601716
 40
0.0077283743
 40
0.0116125786
 40
0.0155206314
 40
0.019460205
 40
0.0234387387
 40
0.0274634043
 40
0.0315410558
 40
0.0398791501
 40
0.0485027698
 40
0.0574534382
 40
0.0667664674
 40
0.0764711842
 40
0.0865913185
 40
0.0971454747
 40
0.1081476264
 40
0.1196075985
 40
0.1315315154
 40
0.1439222053
 40
0.1567795586
 40
0.1701008426
 40
0.1838809747
 40
0.1981127609
 40
0.2127871026
 40
0.2278931779
 40
0.2434186004
 40
0.2593495595
 40
0.2756709457
 40
0.2923664622
 40
0.3094187268
 40
0.3268093644
 40
0.3445190924
 40
0.3625278003
 40
0.3808146243
 40
0.3993580172
 40
0.4181358159
 40
0.4371253053
 40
0.4563032807
 40
0.4756461073
 40
0.4951297793
 40
0.5147299772
 40
0.5344221241
 40
0.5739818782
 40
0.613610515
 40
0.6531077597
 40
0.6727453644
 40
0.6922756411
 40
0.7116741672
 40
0.7309168124
 40
0.749979796
 40
0.7688397447
 40
0.7874737525
 40
0.8058594416
 40
0.8239750261
 40
0.8417993775
 40
0.8593120941
 40
0.8764935734
 40
0.8933250903
 40
0.909788879
 40
0.9258682253
 40
0.9415475572
 40
0.956812575
 40
0.9716503099
 40
0.9860494071
 40
1.0
 40
1.0
 40
1.0
 40
1.0
 10
16.112138923
 20
10.7858049994
 30
0.0
 10
16.1164622453
 20
10.7858050057
 30
0.0
 10
16.1251194137
 20
10.7860197827
 30
0.0
 10
16.1380944067
 20
10.7869857991
 30
0.0
 10
16.1510596681
 20
10.7885954082
 30
0.0
 10
16.1640097848
 20
10.7908478362
 30
0.0
 10
16.1769398901
 20
10.7937422443
 30
0.0
 10
16.189844984
 20
10.7972772586
 30
0.0
 10
16.2027203699
 20
10.8014516775
 30
0.0
 10
16.219967387
 20
10.8079145839
 30
0.0
 10
16.2414659774
 20
10.8176376621
 30
0.0
 10
16.2668619314
 20
10.8317444076
 30
0.0
 10
16.2920140456
 20
10.8483528153
 30
0.0
 10
16.3168853321
 20
10.8674349251
 30
0.0
 10
16.3414414831
 20
10.888960696
 30
0.0
 10
16.3656480093
 20
10.91289706
 30
0.0
 10
16.3894708708
 20
10.9392079998
 30
0.0
 10
16.4128762489
 20
10.9678543488
 30
0.0
 10
16.4358306496
 20
10.9987937177
 30
0.0
 10
16.4583009626
 20
11.0319804416
 30
0.0
 10
16.4802545552
 20
11.0673655724
 30
0.0
 10
16.501659363
 20
11.1048969021
 30
0.0
 10
16.5224839775
 20
11.14451901
 30
0.0
 10
16.5426977277
 20
11.1861733283
 30
0.0
 10
16.5622707543
 20
11.2297982212
 30
0.0
 10
16.5811740779
 20
11.2753290732
 30
0.0
 10
16.5993796602
 20
11.3226983868
 30
0.0
 10
16.6168604596
 20
11.371835885
 30
0.0
 10
16.6335904827
 20
11.4226686199
 30
0.0
 10
16.6495448314
 20
11.4751210851
 30
0.0
 10
16.6646997461
 20
11.5291153317
 30
0.0
 10
16.6790326465
 20
11.5845710881
 30
0.0
 10
16.6925221683
 20
11.6414058828
 30
0.0
 10
16.7051481984
 20
11.6995351699
 30
0.0
 10
16.7168919065
 20
11.7588724583
 30
0.0
 10
16.7277357752
 20
11.8193294421
 30
0.0
 10
16.7376636268
 20
11.8808161348
 30
0.0
 10
16.7466606485
 20
11.9432410046
 30
0.0
 10
16.7547134158
 20
12.0065111139
 30
0.0
 10
16.7618099105
 20
12.070532253
 30
0.0
 10
16.7679395466
 20
12.135209104
 30
0.0
 10
16.7730931611
 20
12.2004453013
 30
0.0
 10
16.7772631222
 20
12.2661438868
 30
0.0
 10
16.7815092132
 20
12.3543574731
 30
0.0
 10
16.7843153189
 20
12.4650848179
 30
0.0
 10
16.7836926336
 20
12.5980280295
 30
0.0
 10
16.7798487514
 20
12.7085931372
 30
0.0
 10
16.7747740905
 20
12.7965532177
 30
0.0
 10
16.7699888419
 20
12.8619744993
 30
0.0
 10
16.7642245752
 20
12.9268726184
 30
0.0
 10
16.7574898305
 20
12.9911511215
 30
0.0
 10
16.7497946744
 20
13.0547142404
 30
0.0
 10
16.7411505856
 20
13.117467343
 30
0.0
 10
16.7315704641
 20
13.1793169951
 30
0.0
 10
16.7210686039
 20
13.2401711215
 30
0.0
 10
16.7096606732
 20
13.2999391393
 30
0.0
 10
16.6973636898
 20
13.3585320962
 30
0.0
 10
16.6841959945
 20
13.4158628043
 30
0.0
 10
16.6701772226
 20
13.4718459726
 30
0.0
 10
16.6553282726
 20
13.5263983355
 30
0.0
 10
16.639671273
 20
13.5794387835
 30
0.0
 10
16.623229545
 20
13.6308884737
 30
0.0
 10
16.606027562
 20
13.6806709945
 30
0.0
 10
16.5880909282
 20
13.7287123475
 30
0.0
 10
16.5694462236
 20
13.7749414687
 30
0.0
 10
16.5501213894
 20
13.8192891401
 30
0.0
 10
16.5365865515
 20
13.8480173831
 30
0.0
 10
16.5297033309
 20
13.862043912
 30
0.0
  0
SPLINE
  5
2CF
100
AcDbEntity
  8
LAYER_FEATURE
100
AcDbSpline
 62
7
  6
CONTINUOUS
 70
0
 71
3
 72
99
 73
95
 74
0
 42
0.0000001
 43
0.0000001
 44
0.0000000001
 40
0.0
 40
0.0
 40
0.0
 40
0.0
 40
0.0173110148
 40
0.0340649543
 40
0.0502380523
 40
0.0581004628
 40
0.0658101902
 40
0.0733652193
 40
0.0807638045
 40
0.0880044665
 40
0.0950860286
 40
0.1020076264
 40
0.1087687286
 40
0.1153691763
 40
0.1218091891
 40
0.1280894116
 40
0.1342109392
 40
0.1401753446
 40
0.1459847332
 40
0.1516417626
 40
0.1571496967
 40
0.162512449
 40
0.1677346143
 40
0.177776925
 40
0.1826124822
 40
0.1873335887
 40
0.1919488686
 40
0.1964678231
 40
0.200900808
 40
0.2052590039
 40
0.2095543637
 40
0.2137995212
 40
0.218007688
 40
0.2221925149
 40
0.2263679382
 40
0.2305480109
 40
0.2347467287
 40
0.2389778573
 40
0.2432547718
 40
0.2475903181
 40
0.2519966871
 40
0.2564853304
 40
0.261066889
 40
0.2657511516
 40
0.2705470451
 40
0.2754626216
 40
0.2856785606
 40
0.2909931575
 40
0.2964514632
 40
0.3020576126
 40
0.3078150839
 40
0.313726741
 40
0.3197948634
 40
0.326021207
 40
0.3324070222
 40
0.3389530995
 40
0.3456598064
 40
0.3525271007
 40
0.3595545797
 40
0.3667414891
 40
0.3740867505
 40
0.3815889924
 40
0.3892465503
 40
0.4050190682
 40
0.4213867133
 40
0.4383276936
 40
0.4558171041
 40
0.473827265
 40
0.4923280209
 40
0.5112870094
 40
0.5306699001
 40
0.5504406125
 40
0.5705615169
 40
0.5909936262
 40
0.611696777
 40
0.632629802
 40
0.6537506951
 40
0.6750167742
 40
0.6963848408
 40
0.7178113364
 40
0.7392524968
 40
0.7606645062
 40
0.7820036516
 40
0.8032264761
 40
0.8242899347
 40
0.8451515509
 40
0.8657695781
 40
0.8861031623
 40
0.9061125098
 40
0.9257590615
 40
0.9450056762
 40
0.9638168481
 40
0.9821587929
 40
1.0
 40
1.0
 40
1.0
 40
1.0
 10
15.5373054382
 20
13.6962794108
 30
0.0
 10
15.5447429454
 20
13.720347193
 30
0.0
 10
15.5600417471
 20
13.7675070644
 30
0.0
 10
15.5846950792
 20
13.8363421532
 30
0.0
 10
15.606509589
 20
13.8915578788
 30
0.0
 10
15.6246109005
 20
13.9340612581
 30
0.0
 10
15.638357069
 20
13.9647824513
 30
0.0
 10
15.6523925736
 20
13.9946283646
 30
0.0
 10
15.6667090162
 20
14.0235811618
 30
0.0
 10
15.6812978365
 20
14.0516234136
 30
0.0
 10
15.6961502608
 20
14.0787383019
 30
0.0
 10
15.711257385
 20
14.1049095522
 30
0.0
 10
15.726610208
 20
14.1301214387
 30
0.0
 10
15.7421994947
 20
14.1543588643
 30
0.0
 10
15.758015987
 20
14.1776072638
 30
0.0
 10
15.7740502388
 20
14.1998527008
 30
0.0
 10
15.7902926855
 20
14.2210818438
 30
0.0
 10
15.8067337366
 20
14.2412819193
 30
0.0
 10
15.8233635692
 20
14.2604408226
 30
0.0
 10
15.840172447
 20
14.2785470584
 30
0.0
 10
15.8571502223
 20
14.2955895248
 30
0.0
 10
15.874287659
 20
14.3115586401
 30
0.0
 10
15.8970370826
 20
14.3311483559
 30
0.0
 10
15.920362091
 20
14.3488704629
 30
0.0
 10
15.9442228317
 20
14.3645090242
 30
0.0
 10
15.9620026457
 20
14.3749750387
 30
0.0
 10
15.9798794961
 20
14.3843177473
 30
0.0
 10
15.9978431554
 20
14.3925313953
 30
0.0
 10
16.0158827346
 20
14.399610431
 30
0.0
 10
16.033987336
 20
14.4055499925
 30
0.0
 10
16.0521458045
 20
14.4103460132
 30
0.0
 10
16.0703468757
 20
14.4139949712
 30
0.0
 10
16.0885790749
 20
14.416494248
 30
0.0
 10
16.1068308117
 20
14.4178420017
 30
0.0
 10
16.1250903988
 20
14.4180371385
 30
0.0
 10
16.1433461068
 20
14.4170796158
 30
0.0
 10
16.1615862264
 20
14.4149700727
 30
0.0
 10
16.1797991222
 20
14.4117101126
 30
0.0
 10
16.1979733
 20
14.407302175
 30
0.0
 10
16.2160973819
 20
14.4017493495
 30
0.0
 10
16.2341602215
 20
14.3950556439
 30
0.0
 10
16.252150791
 20
14.3872256082
 30
0.0
 10
16.2700582779
 20
14.3782644832
 30
0.0
 10
16.2878719198
 20
14.3681782728
 30
0.0
 10
16.305581537
 20
14.3569731265
 30
0.0
 10
16.3293442839
 20
14.340338649
 30
0.0
 10
16.3525491953
 20
14.3216494193
 30
0.0
 10
16.3751676794
 20
14.3011176652
 30
0.0
 10
16.3922010009
 20
14.2844371445
 30
0.0
 10
16.4090680752
 20
14.2666900048
 30
0.0
 10
16.4257596841
 20
14.247886258
 30
0.0
 10
16.4422657205
 20
14.2280373837
 30
0.0
 10
16.4585765212
 20
14.2071552955
 30
0.0
 10
16.4746823341
 20
14.1852525053
 30
0.0
 10
16.4905736119
 20
14.16234217
 30
0.0
 10
16.5062408989
 20
14.1384380391
 30
0.0
 10
16.5216747996
 20
14.1135544265
 30
0.0
 10
16.5368661506
 20
14.0877062914
 30
0.0
 10
16.5518058185
 20
14.0609091236
 30
0.0
 10
16.5664848721
 20
14.0331790079
 30
0.0
 10
16.5808945159
 20
14.0045326227
 30
0.0
 10
16.595026142
 20
13.9749870736
 30
0.0
 10
16.6136695351
 20
13.9340146767
 30
0.0
 10
16.6361871342
 20
13.880643952
 30
0.0
 10
16.6617063604
 20
13.8139231889
 30
0.0
 10
16.6859223002
 20
13.7440692746
 30
0.0
 10
16.70877661
 20
13.6712502481
 30
0.0
 10
16.7302143652
 20
13.5956404817
 30
0.0
 10
16.7501839359
 20
13.5174214682
 30
0.0
 10
16.7686371984
 20
13.4367810094
 30
0.0
 10
16.7855296495
 20
13.3539128429
 30
0.0
 10
16.8008205275
 20
13.2690161383
 30
0.0
 10
16.8144729385
 20
13.182295018
 30
0.0
 10
16.8264539335
 20
13.0939580473
 30
0.0
 10
16.8367345884
 20
13.0042177208
 30
0.0
 10
16.8452900756
 20
12.9132899437
 30
0.0
 10
16.8520997334
 20
12.8213935085
 30
0.0
 10
16.8571471273
 20
12.7287495628
 30
0.0
 10
16.8604200703
 20
12.6355810681
 30
0.0
 10
16.8619106573
 20
12.5421122584
 30
0.0
 10
16.8616152799
 20
12.4485680968
 30
0.0
 10
16.8595346555
 20
12.3551737298
 30
0.0
 10
16.8556738145
 20
12.2621539396
 30
0.0
 10
16.8500420803
 20
12.1697325995
 30
0.0
 10
16.8426530477
 20
12.0781321311
 30
0.0
 10
16.8335245521
 20
11.9875729627
 30
0.0
 10
16.8226786435
 20
11.8982729904
 30
0.0
 10
16.8101415091
 20
11.8104470479
 30
0.0
 10
16.7959434151
 20
11.7243063925
 30
0.0
 10
16.7801186151
 20
11.6400581634
 30
0.0
 10
16.7627053175
 20
11.5579049397
 30
0.0
 10
16.7437454645
 20
11.4780440073
 30
0.0
 10
16.7232850329
 20
11.4006679034
 30
0.0
 10
16.7084634345
 20
11.350135492
 30
0.0
 10
16.7007981354
 20
11.325330575
 30
0.0
  0
SPLINE
  5
2D0
100
AcDbEntity
  8
LAYER_FEATURE
100
AcDbSpline
 62
7
  6
CONTINUOUS
 70
0
 71
3
 72
39
 73
35
 74
0
 42
0.0000001
 43
0.0000001
 44
0.0000000001
 40
0.0
 40
0.0
 40
0.0
 40
0.0
 40
0.0443812782
 40
0.0879669214
 40
0.1307335038
 40
0.1726618815
 40
0.2137331562
 40
0.2539301977
 40
0.293237698
 40
0.3316421084
 40
0.3691319095
 40
0.4056977091
 40
0.441332399
 40
0.4760313896
 40
0.5097927946
 40
0.5426176367
 40
0.5745101277
 40
0.6054779635
 40
0.6355325902
 40
0.6646895405
 40
0.6929688272
 40
0.7203952848
 40
0.7469989421
 40
0.772815437
 40
0.7978863791
 40
0.8222596417
 40
0.8459896179
 40
0.86913737
 40
0.8917705711
 40
0.9139632724
 40
0.9357954499
 40
0.9573522578
 40
0.97872302
 40
1.0
 40
1.0
 40
1.0
 40
1.0
 10
15.5293404299
 20
13.7415927301
 30
0.0
 10
15.5337944738
 20
13.7560060213
 30
0.0
 10
15.5428535134
 20
13.7845035572
 30
0.0
 10
15.5570291376
 20
13.8266222313
 30
0.0
 10
15.5716602702
 20
13.8677010784
 30
0.0
 10
15.5867351316
 20
13.9077072234
 30
0.0
 10
15.6022419441
 20
13.9466093731
 30
0.0
 10
15.6181684274
 20
13.9843767655
 30
0.0
 10
15.634502014
 20
14.0209796099
 30
0.0
 10
15.6512298554
 20
14.0563890486
 30
0.0
 10
15.6683387506
 20
14.0905771816
 30
0.0
 10
15.6858152353
 20
14.1235170776
 30
0.0
 10
15.7036455982
 20
14.1551827815
 30
0.0
 10
15.7218158336
 20
14.1855493726
 30
0.0
 10
15.7403116927
 20
14.214592966
 30
0.0
 10
15.7591187268
 20
14.2422907012
 30
0.0
 10
15.7782222723
 20
14.2686207818
 30
0.0
 10
15.79760744
 20
14.2935625099
 30
0.0
 10
15.8172591893
 20
14.3170962478
 30
0.0
 10
15.8371623414
 20
14.3392034189
 30
0.0
 10
15.8573015283
 20
14.3598665706
 30
0.0
 10
15.8776612611
 20
14.3790693236
 30
0.0
 10
15.8982259513
 20
14.3967963332
 30
0.0
 10
15.9189798645
 20
14.4130333315
 30
0.0
 10
15.9399071125
 20
14.4277671227
 30
0.0
 10
15.960991676
 20
14.4409855049
 30
0.0
 10
15.9822173505
 20
14.4526772776
 30
0.0
 10
16.0035676598
 20
14.4628323376
 30
0.0
 10
16.0250258442
 20
14.4714416171
 30
0.0
 10
16.0465748504
 20
14.4784971157
 30
0.0
 10
16.0681970749
 20
14.4839920905
 30
0.0
 10
16.0898750412
 20
14.4879211256
 30
0.0
 10
16.1115890226
 20
14.4902801967
 30
0.0
 10
16.1260909893
 20
14.4908049758
 30
0.0
 10
16.1333233259
 20
14.4908049817
 30
0.0
  0
SPLINE
  5
2D1
100
AcDbEntity
  8
LAYER_FEATURE
100
AcDbSpline
 62
7
  6
CONTINUOUS
 70
0
 71
3
 72
67
 73
63
 74
0
 42
0.0000001
 43
0.0000001
 44
0.0000000001
 40
0.0
 40
0.0
 40
0.0
 40
0.0
 40
0.0163581013
 40
0.0330510694
 40
0.0500642491
 40
0.0673826926
 40
0.0849905208
 40
0.1028713409
 40
0.1210081566
 40
0.1393834611
 40
0.15797927
 40
0.1767771682
 40
0.1957583526
 40
0.2149036734
 40
0.2536076561
 40
0.292731491
 40
0.3321134768
 40
0.371590054
 40
0.4109969877
 40
0.45017054
 40
0.4889486503
 40
0.5081400228
 40
0.5271731428
 40
0.546028763
 40
0.5646879707
 40
0.5831322282
 40
0.601343416
 40
0.6193038759
 40
0.6369964566
 40
0.65440456
 40
0.6715121917
 40
0.6883040129
 40
0.7047653969
 40
0.720882489
 40
0.7366422729
 40
0.7520326412
 40
0.7670424724
 40
0.7816617173
 40
0.7958814943
 40
0.8096941963
 40
0.8230936114
 40
0.8360750592
 40
0.8486355463
 40
0.8607739405
 40
0.872491169
 40
0.8837904436
 40
0.8946775128
 40
0.905160943
 40
0.9152524249
 40
0.9249671014
 40
0.9343239024
 40
0.9433458667
 40
0.9520604213
 40
0.9604995757
 40
0.9686999787
 40
0.9767027777
 40
0.9806449746
 40
0.9845550535
 40
0.9884391969
 40
0.9923037475
 40
0.9961551669
 40
1.0
 40
1.0
 40
1.0
 40
1.0
 10
14.2472284326
 20
13.7415927301
 30
0.0
 10
14.2415733875
 20
13.7232929975
 30
0.0
 10
14.2305260783
 20
13.6862008974
 30
0.0
 10
14.2148879687
 20
13.6297019483
 30
0.0
 10
14.2000292064
 20
13.571831326
 30
0.0
 10
14.185968094
 20
13.5126603993
 30
0.0
 10
14.1727218687
 20
13.4522613963
 30
0.0
 10
14.1603067874
 20
13.3907084027
 30
0.0
 10
14.148738094
 20
13.3280767976
 30
0.0
 10
14.1380299921
 20
13.2644433383
 30
0.0
 10
14.128195626
 20
13.1998859926
 30
0.0
 10
14.1192470852
 20
13.1344839245
 30
0.0
 10
14.1111952931
 20
13.0683171399
 30
0.0
 10
14.1016345009
 20
12.9788637194
 30
0.0
 10
14.0920112069
 20
12.8657103357
 30
0.0
 10
14.0842121313
 20
12.7286748885
 30
0.0
 10
14.080159373
 20
12.5905722108
 30
0.0
 10
14.079872861
 20
12.4520792376
 30
0.0
 10
14.0833540066
 20
12.3138735502
 30
0.0
 10
14.0905856975
 20
12.1766325884
 30
0.0
 10
14.0997388819
 20
12.0632407309
 30
0.0
 10
14.1089269634
 20
11.9735456971
 30
0.0
 10
14.1167041312
 20
11.9071625223
 30
0.0
 10
14.1253811713
 20
11.8415195047
 30
0.0
 10
14.134947492
 20
11.7766969466
 30
0.0
 10
14.1453913323
 20
11.7127743387
 30
0.0
 10
14.1566998744
 20
11.6498300085
 30
0.0
 10
14.1688592314
 20
11.5879410895
 30
0.0
 10
14.1818544761
 20
11.5271834084
 30
0.0
 10
14.1956696573
 20
11.467631397
 30
0.0
 10
14.2102878209
 20
11.409357998
 30
0.0
 10
14.2256910318
 20
11.3524345753
 30
0.0
 10
14.2418603966
 20
11.2969308244
 30
0.0
 10
14.2587760905
 20
11.2429146847
 30
0.0
 10
14.2764173793
 20
11.1904522519
 30
0.0
 10
14.2947626497
 20
11.1396076949
 30
0.0
 10
14.3137894422
 20
11.0904431771
 30
0.0
 10
14.3334744834
 20
11.0430187784
 30
0.0
 10
14.3537937204
 20
10.9973924199
 30
0.0
 10
14.3747223588
 20
10.953619792
 30
0.0
 10
14.3962349034
 20
10.911754285
 30
0.0
 10
14.4183052034
 20
10.871846924
 30
0.0
 10
14.4409064941
 20
10.8339463057
 30
0.0
 10
14.4640114543
 20
10.7980985497
 30
0.0
 10
14.4875922613
 20
10.7643472572
 30
0.0
 10
14.5116206489
 20
10.7327334798
 30
0.0
 10
14.5360679672
 20
10.7032957033
 30
0.0
 10
14.5609052391
 20
10.6760698492
 30
0.0
 10
14.58610321
 20
10.6510892991
 30
0.0
 10
14.6116323797
 20
10.6283849392
 30
0.0
 10
14.6374629838
 20
10.607985229
 30
0.0
 10
14.6635650017
 20
10.5899162829
 30
0.0
 10
14.6899078486
 20
10.574201979
 30
0.0
 10
14.7164608578
 20
10.5608638762
 30
0.0
 10
14.7431906258
 20
10.5499215669
 30
0.0
 10
14.7657020637
 20
10.5427770444
 30
0.0
 10
14.7837242133
 20
10.538302201
 30
0.0
 10
14.7971961283
 20
10.5355679067
 30
0.0
 10
14.8106849106
 20
10.5334403888
 30
0.0
 10
14.8241866425
 20
10.531920157
 30
0.0
 10
14.8376966423
 20
10.5310078194
 30
0.0
 10
14.8467094411
 20
10.5308050084
 30
0.0
 10
14.8512113285
 20
10.530805004
 30
0.0
  0
SPLINE
  5
2D2
100
AcDbEntity
  8
LAYER_FEATURE
100
AcDbSpline
 62
7
  6
CONTINUOUS
 70
0
 71
3
 72
39
 73
35
 74
0
 42
0.0000001
 43
0.0000001
 44
0.0000000001
 40
0.0
 40
0.0
 40
0.0
 40
0.0
 40
0.046906162
 40
0.0927632697
 40
0.1375362963
 40
0.1811946398
 40
0.2237099443
 40
0.2650576311
 40
0.3052167469
 40
0.3441704586
 40
0.3819064235
 40
0.4184172415
 40
0.4537009677
 40
0.4877616932
 40
0.5206102012
 40
0.5522647025
 40
0.5827516534
 40
0.6121066411
 40
0.6403753159
 40
0.6676143409
 40
0.6938922948
 40
0.7192904349
 40
0.7439031976
 40
0.7678382861
 40
0.7912161723
 40
0.8141688779
 40
0.8368379532
 40
0.8593716813
 40
0.8819216715
 40
0.9046391301
 40
0.9276711702
 40
0.9511575134
 40
0.9752278517
 40
1.0
 40
1.0
 40
1.0
 40
1.0
 10
14.283736519
 20
13.6962794108
 30
0.0
 10
14.2890272577
 20
13.7134002474
 30
0.0
 10
14.2998277269
 20
13.7471560121
 30
0.0
 10
14.3168894432
 20
13.7968561934
 30
0.0
 10
14.3346130197
 20
13.8450047085
 30
0.0
 10
14.3529768626
 20
13.8915431593
 30
0.0
 10
14.3719589898
 20
13.9364157509
 30
0.0
 10
14.3915365039
 20
13.9795684347
 30
0.0
 10
14.41168591
 20
14.0209493657
 30
0.0
 10
14.4323830374
 20
14.060508835
 30
0.0
 10
14.4536031145
 20
14.09819937
 30
0.0
 10
14.4753208119
 20
14.1339757737
 30
0.0
 10
14.4975102903
 20
14.1677951713
 30
0.0
 10
14.5201452525
 20
14.1996170471
 30
0.0
 10
14.543198997
 20
14.2294032713
 30
0.0
 10
14.5666444754
 20
14.2571181124
 30
0.0
 10
14.5904543382
 20
14.2827282387
 30
0.0
 10
14.6146009775
 20
14.3062026941
 30
0.0
 10
14.6390565566
 20
14.3275128432
 30
0.0
 10
14.6637929995
 20
14.3466323044
 30
0.0
 10
14.6887819358
 20
14.3635368715
 30
0.0
 10
14.7139945831
 20
14.3782044504
 30
0.0
 10
14.7394015639
 20
14.3906150371
 30
0.0
 10
14.7649726603
 20
14.4007508059
 30
0.0
 10
14.7906765725
 20
14.4085963119
 30
0.0
 10
14.8164807463
 20
14.4141388484
 30
0.0
 10
14.8423513643
 20
14.4173689316
 30
0.0
 10
14.8682535854
 20
14.4182807992
 30
0.0
 10
14.8941520077
 20
14.4168727901
 30
0.0
 10
14.9200113322
 20
14.4131474388
 30
0.0
 10
14.9457967933
 20
14.407111404
 30
0.0
 10
14.9714752488
 20
14.3987746891
 30
0.0
 10
14.9970128168
 20
14.3881514781
 30
0.0
 10
15.0136642962
 20
14.3796872031
 30
0.0
 10
15.021944587
 20
14.3751046632
 30
0.0
  0
SPLINE
  5
2D3
100
AcDbEntity
  8
LAYER_FEATURE
100
AcDbSpline
 62
7
  6
CONTINUOUS
 70
0
 71
3
 72
75
 73
71
 74
0
 42
0.0000001
 43
0.0000001
 44
0.0000000001
 40
0.0
 40
0.0
 40
0.0
 40
0.0
 40
0.0176615797
 40
0.0356720198
 40
0.0540125357
 40
0.0726636564
 40
0.0916051363
 40
0.1108160542
 40
0.1302748721
 40
0.1499594965
 40
0.1698473366
 40
0.1899153612
 40
0.2101401536
 40
0.2304979657
 40
0.2715151896
 40
0.3127735535
 40
0.3540764292
 40
0.3952268232
 40
0.4156841443
 40
0.4360301384
 40
0.4562408033
 40
0.4762924206
 40
0.4961616085
 40
0.5158253761
 40
0.535261178
 40
0.5544469718
 40
0.5733612765
 40
0.5919832334
 40
0.6102926705
 40
0.6282701688
 40
0.6458971339
 40
0.6631558721
 40
0.6800296719
 40
0.6965028929
 40
0.7125610639
 40
0.7281909895
 40
0.7433808709
 40
0.7581204396
 40
0.7724011098
 40
0.7862161509
 40
0.7995608847
 40
0.8124329112
 40
0.8248323665
 40
0.8367622181
 40
0.8482286005
 40
0.8592411918
 40
0.8698136303
 40
0.8799639613
 40
0.8897150974
 40
0.8944502819
 40
0.8990967307
 40
0.9081398215
 40
0.9168856624
 40
0.9253800077
 40
0.9295497711
 40
0.9336763738
 40
0.9377670009
 40
0.9418290817
 40
0.9458702425
 40
0.9498982582
 40
0.9539209987
 40
0.9579463721
 40
0.9619822669
 40
0.9660364969
 40
0.9701167424
 40
0.9742305055
 40
0.9783850559
 40
0.9825873995
 40
0.9911600139
 40
1.0
 40
1.0
 40
1.0
 40
1.0
 10
14.2597658464
 20
13.6142759497
 30
0.0
 10
14.2543383649
 20
13.5946299286
 30
0.0
 10
14.2437845098
 20
13.5548359112
 30
0.0
 10
14.2289869871
 20
13.4942821761
 30
0.0
 10
14.215083202
 20
13.4323460119
 30
0.0
 10
14.2020928181
 20
13.3691148347
 30
0.0
 10
14.1900340986
 20
13.30467734
 30
0.0
 10
14.1789240257
 20
13.2391240796
 30
0.0
 10
14.1687782401
 20
13.1725471464
 30
0.0
 10
14.1596110297
 20
13.1050400952
 30
0.0
 10
14.1514352987
 20
13.0366977781
 30
0.0
 10
14.1442625783
 20
12.9676162909
 30
0.0
 10
14.1381029042
 20
12.8978925389
 30
0.0
 10
14.1312357485
 20
12.8039718772
 30
0.0
 10
14.1252526446
 20
12.6856623979
 30
0.0
 10
14.1222334278
 20
12.5430615281
 30
0.0
 10
14.1233744396
 20
12.4002796242
 30
0.0
 10
14.1277949824
 20
12.2815815667
 30
0.0
 10
14.1334170531
 20
12.187169098
 30
0.0
 10
14.1386540982
 20
12.1169495415
 30
0.0
 10
14.1449120918
 20
12.0472837645
 30
0.0
 10
14.1521822818
 20
11.9782694967
 30
0.0
 10
14.1604544133
 20
11.9100037841
 30
0.0
 10
14.1697168412
 20
11.8425825518
 30
0.0
 10
14.1799565214
 20
11.7761005474
 30
0.0
 10
14.1911590358
 20
11.7106511854
 30
0.0
 10
14.2033086119
 20
11.6463264202
 30
0.0
 10
14.2163881454
 20
11.5832166135
 30
0.0
 10
14.2303792247
 20
11.5214104053
 30
0.0
 10
14.2452621591
 20
11.4609945878
 30
0.0
 10
14.2610160079
 20
11.4020539813
 30
0.0
 10
14.277618612
 20
11.3446713124
 30
0.0
 10
14.2950466278
 20
11.2889270949
 30
0.0
 10
14.3132755639
 20
11.2348995137
 30
0.0
 10
14.3322798202
 20
11.1826643117
 30
0.0
 10
14.3520327305
 20
11.13229468
 30
0.0
 10
14.3725066075
 20
11.0838611513
 30
0.0
 10
14.393672793
 20
11.0374314986
 30
0.0
 10
14.4155017116
 20
10.9930706371
 30
0.0
 10
14.4379629296
 20
10.9508405334
 30
0.0
 10
14.4610252186
 20
10.91080012
 30
0.0
 10
14.4846566262
 20
10.8730052222
 30
0.0
 10
14.5088245561
 20
10.8375084941
 30
0.0
 10
14.53349584
 20
10.8043593813
 30
0.0
 10
14.5586368592
 20
10.7736040705
 30
0.0
 10
14.5842134997
 20
10.7452855896
 30
0.0
 10
14.6101916744
 20
10.7194435128
 30
0.0
 10
14.6365357846
 20
10.6961152174
 30
0.0
 10
14.6589822286
 20
10.6786287483
 30
0.0
 10
14.6770805087
 20
10.6659736886
 30
0.0
 10
14.6949292782
 20
10.654411894
 30
0.0
 10
14.7174196109
 20
10.6415302479
 30
0.0
 10
14.7448752713
 20
10.6285635137
 30
0.0
 10
14.768056276
 20
10.619915053
 30
0.0
 10
14.7866285721
 20
10.614369818
 30
0.0
 10
14.8005022149
 20
10.6109035184
 30
0.0
 10
14.8143992616
 20
10.608106434
 30
0.0
 10
14.828314964
 20
10.6059795041
 30
0.0
 10
14.8422442042
 20
10.6045236011
 30
0.0
 10
14.8561819338
 20
10.6037393508
 30
0.0
 10
14.8701230591
 20
10.6036269871
 30
0.0
 10
14.8840624875
 20
10.6041866693
 30
0.0
 10
14.8979951377
 20
10.6054180353
 30
0.0
 10
14.9119159142
 20
10.6073207372
 30
0.0
 10
14.9258197991
 20
10.6098938705
 30
0.0
 10
14.9397016825
 20
10.6131365254
 30
0.0
 10
14.9535568146
 20
10.6170474232
 30
0.0
 10
14.9721087962
 20
10.6231907928
 30
0.0
 10
14.9952506694
 20
10.6325853571
 30
0.0
 10
15.0132052524
 20
10.6416627178
 30
0.0
 10
15.0221285198
 20
10.6466071737
 30
0.0
  0
SPLINE
  5
2D4
100
AcDbEntity
  8
LAYER_FEATURE
100
AcDbSpline
 62
7
  6
CONTINUOUS
 70
0
 71
3
 72
15
 73
11
 74
0
 42
0.0000001
 43
0.0000001
 44
0.0000000001
 40
0.0
 40
0.0
 40
0.0
 40
0.0
 40
0.1183510223
 40
0.243977946
 40
0.3743193266
 40
0.5066174849
 40
0.6380473398
 40
0.765815995
 40
0.8872642356
 40
1.0
 40
1.0
 40
1.0
 40
1.0
 10
14.2754817431
 20
13.5966315868
 30
0.0
 10
14.2753230049
 20
13.5960188405
 30
0.0
 10
14.2750499814
 20
13.5947412665
 30
0.0
 10
14.2747724759
 20
13.5927572048
 30
0.0
 10
14.2746192364
 20
13.5906848875
 30
0.0
 10
14.2745942735
 20
13.5885761232
 30
0.0
 10
14.2746982134
 20
13.586483529
 30
0.0
 10
14.2749283956
 20
13.58445926
 30
0.0
 10
14.2752788173
 20
13.5825538545
 30
0.0
 10
14.2756005626
 20
13.5813415174
 30
0.0
 10
14.2757831972
 20
13.5807669014
 30
0.0
  0
SPLINE
  5
2D5
100
AcDbEntity
  8
LAYER_FEATURE
100
AcDbSpline
 62
7
  6
CONTINUOUS
 70
0
 71
3
 72
15
 73
11
 74
0
 42
0.0000001
 43
0.0000001
 44
0.0000000001
 40
0.0
 40
0.0
 40
0.0
 40
0.0
 40
0.1304283527
 40
0.2619763693
 40
0.3932821406
 40
0.5229795969
 40
0.6497357882
 40
0.7722719813
 40
0.8893875725
 40
1.0
 40
1.0
 40
1.0
 40
1.0
 10
14.2862965461
 20
13.5203552651
 30
0.0
 10
14.2864330669
 20
13.5220689502
 30
0.0
 10
14.2866300497
 20
13.5255176313
 30
0.0
 10
14.2867015774
 20
13.530702317
 30
0.0
 10
14.2865506169
 20
13.5358757773
 30
0.0
 10
14.2861789991
 20
13.540974792
 30
0.0
 10
14.2855913669
 20
13.5459371772
 30
0.0
 10
14.2847949608
 20
13.5507025552
 30
0.0
 10
14.2837997301
 20
13.5552127999
 30
0.0
 10
14.2829862113
 20
13.558104351
 30
0.0
 10
14.2825445957
 20
13.5594937883
 30
0.0
  0
SPLINE
  5
2D6
100
AcDbEntity
  8
LAYER_FEATURE
100
AcDbSpline
 62
7
  6
CONTINUOUS
 70
0
 71
3
 72
39
 73
35
 74
0
 42
0.0000001
 43
0.0000001
 44
0.0000000001
 40
0.0
 40
0.0
 40
0.0
 40
0.0
 40
0.0216392775
 40
0.0433667234
 40
0.0652691901
 40
0.0874309614
 40
0.1099326684
 40
0.1328503966
 40
0.1562549759
 40
0.1802115517
 40
0.2047793374
 40
0.2300114992
 40
0.2559552685
 40
0.2826521236
 40
0.3101379929
 40
0.3384436091
 40
0.3675948387
 40
0.3976129595
 40
0.4285150511
 40
0.4603143138
 40
0.493020308
 40
0.5266392977
 40
0.5611745075
 40
0.5966262975
 40
0.6329924417
 40
0.6702683232
 40
0.7084470562
 40
0.7475196878
 40
0.7874753639
 40
0.8283014812
 40
0.8699835504
 40
0.9125056154
 40
0.9558514005
 40
1.0
 40
1.0
 40
1.0
 40
1.0
 10
14.8654828676
 20
14.3748049826
 30
0.0
 10
14.8589378533
 20
14.3748049896
 30
0.0
 10
14.845816627
 20
14.3743485774
 30
0.0
 10
14.8261672836
 20
14.3722968646
 30
0.0
 10
14.8065478927
 20
14.3688794367
 30
0.0
 10
14.7869749037
 20
14.3640995402
 30
0.0
 10
14.7674629133
 20
14.3579614964
 30
0.0
 10
14.7480266819
 20
14.3504706424
 30
0.0
 10
14.728680518
 20
14.3416334104
 30
0.0
 10
14.7094385075
 20
14.3314570881
 30
0.0
 10
14.6903145246
 20
14.3199497917
 30
0.0
 10
14.6713221946
 20
14.3071205794
 30
0.0
 10
14.6524750067
 20
14.2929792893
 30
0.0
 10
14.6337863506
 20
14.2775365607
 30
0.0
 10
14.6152694364
 20
14.2608039557
 30
0.0
 10
14.5969374006
 20
14.2427938425
 30
0.0
 10
14.5788033099
 20
14.223519423
 30
0.0
 10
14.5608800573
 20
14.2029948331
 30
0.0
 10
14.5431804564
 20
14.1812350439
 30
0.0
 10
14.5257172294
 20
14.1582558788
 30
0.0
 10
14.5085028948
 20
14.1340740859
 30
0.0
 10
14.4915498582
 20
14.1087072507
 30
0.0
 10
14.474870395
 20
14.0821738011
 30
0.0
 10
14.4584765404
 20
14.0544930583
 30
0.0
 10
14.4423801774
 20
14.0256851596
 30
0.0
 10
14.42659302
 20
13.9957710526
 30
0.0
 10
14.4111265107
 20
13.9647725347
 30
0.0
 10
14.3959919024
 20
13.9327121841
 30
0.0
 10
14.3812002351
 20
13.8996133294
 30
0.0
 10
14.3667622783
 20
13.8655001221
 30
0.0
 10
14.3526885643
 20
13.8303974901
 30
0.0
 10
14.3389892738
 20
13.7943307445
 30
0.0
 10
14.3256746102
 20
13.7573266364
 30
0.0
 10
14.3171379844
 20
13.7322762573
 30
0.0
 10
14.3129333656
 20
13.7196023211
 30
0.0
  0
SPLINE
  5
2D7
100
AcDbEntity
  8
LAYER_FEATURE
100
AcDbSpline
 62
7
  6
CONTINUOUS
 70
0
 71
3
 72
15
 73
11
 74
0
 42
0.0000001
 43
0.0000001
 44
0.0000000001
 40
0.0
 40
0.0
 40
0.0
 40
0.0
 40
0.1232478191
 40
0.2524824044
 40
0.3850164116
 40
0.5180229795
 40
0.6486635437
 40
0.7741879867
 40
0.8920402837
 40
1.0
 40
1.0
 40
1.0
 40
1.0
 10
14.2421685545
 20
13.4660445592
 30
0.0
 10
14.2420312252
 20
13.4654039824
 30
0.0
 10
14.2418015679
 20
13.4640802752
 30
0.0
 10
14.2415888863
 20
13.4620434326
 30
0.0
 10
14.2415029677
 20
13.4599453653
 30
0.0
 10
14.24154608
 20
13.457838553
 30
0.0
 10
14.2417170919
 20
13.4557755754
 30
0.0
 10
14.2420116223
 20
13.453807755
 30
0.0
 10
14.2424220054
 20
13.4519841222
 30
0.0
 10
14.2427837884
 20
13.4508373827
 30
0.0
 10
14.2429859131
 20
13.4503002896
 30
0.0
  0
SPLINE
  5
2D8
100
AcDbEntity
  8
LAYER_FEATURE
100
AcDbSpline
 62
7
  6
CONTINUOUS
 70
0
 71
3
 72
15
 73
11
 74
0
 42
0.0000001
 43
0.0000001
 44
0.0000000001
 40
0.0
 40
0.0
 40
0.0
 40
0.0
 40
0.1340475619
 40
0.2681831359
 40
0.4010185453
 40
0.5311802691
 40
0.6573481181
 40
0.7782776727
 40
0.8928269496
 40
1.0
 40
1.0
 40
1.0
 40
1.0
 10
14.2554309448
 20
13.3923596239
 30
0.0
 10
14.2555108269
 20
13.394089741
 30
0.0
 10
14.2555950058
 20
13.397555055
 30
0.0
 10
14.2554982109
 20
13.4027370272
 30
0.0
 10
14.2551800884
 20
13.4078599771
 30
0.0
 10
14.254644544
 20
13.4128613368
 30
0.0
 10
14.2538982532
 20
13.4176801643
 30
0.0
 10
14.2529504026
 20
13.4222579492
 30
0.0
 10
14.2518128157
 20
13.4265389468
 30
0.0
 10
14.2509045196
 20
13.4292586734
 30
0.0
 10
14.2504167974
 20
13.4305546671
 30
0.0
  0
SPLINE
  5
2D9
100
AcDbEntity
  8
LAYER_FEATURE
100
AcDbSpline
 62
7
  6
CONTINUOUS
 70
0
 71
3
 72
15
 73
11
 74
0
 42
0.0000001
 43
0.0000001
 44
0.0000000001
 40
0.0
 40
0.0
 40
0.0
 40
0.0
 40
0.1282384697
 40
0.261118499
 40
0.3958410943
 40
0.529522905
 40
0.6593252517
 40
0.7825569447
 40
0.8967870763
 40
1.0
 40
1.0
 40
1.0
 40
1.0
 10
14.2132274679
 20
13.3287572123
 30
0.0
 10
14.2131122104
 20
13.3280934986
 30
0.0
 10
14.2129270079
 20
13.3267330994
 30
0.0
 10
14.2127806775
 20
13.3246575814
 30
0.0
 10
14.2127626962
 20
13.3225483289
 30
0.0
 10
14.2128735743
 20
13.3204581008
 30
0.0
 10
14.2131104298
 20
13.3184390409
 30
0.0
 10
14.2134672051
 20
13.3165412328
 30
0.0
 10
14.2139346338
 20
13.3148118162
 30
0.0
 10
14.2143345012
 20
13.3137391181
 30
0.0
 10
14.2145549978
 20
13.3132437933
 30
0.0
  0
SPLINE
  5
2DA
100
AcDbEntity
  8
LAYER_FEATURE
100
AcDbSpline
 62
7
  6
CONTINUOUS
 70
0
 71
3
 72
15
 73
11
 74
0
 42
0.0000001
 43
0.0000001
 44
0.0000000001
 40
0.0
 40
0.0
 40
0.0
 40
0.0
 40
0.1377817112
 40
0.274570858
 40
0.4089585588
 40
0.5395707448
 40
0.6651088748
 40
0.7843746012
 40
0.8963005802
 40
1.0
 40
1.0
 40
1.0
 40
1.0
 10
14.2288444195
 20
13.2581805103
 30
0.0
 10
14.2288675529
 20
13.2599148711
 30
0.0
 10
14.2288392163
 20
13.2633725547
 30
0.0
 10
14.2285747855
 20
13.2685156374
 30
0.0
 10
14.228091759
 20
13.2735523339
 30
0.0
 10
14.2273960858
 20
13.2784211846
 30
0.0
 10
14.2264964229
 20
13.2830629418
 30
0.0
 10
14.2254038164
 20
13.2874214166
 30
0.0
 10
14.2241318642
 20
13.2914436693
 30
0.0
 10
14.2231341503
 20
13.2939715354
 30
0.0
 10
14.2226032456
 20
13.2951641629
 30
0.0
  0
SPLINE
  5
2DB
100
AcDbEntity
  8
LAYER_FEATURE
100
AcDbSpline
 62
7
  6
CONTINUOUS
 70
0
 71
3
 72
56
 73
52
 74
0
 42
0.0000001
 43
0.0000001
 44
0.0000000001
 40
0.0
 40
0.0
 40
0.0
 40
0.0
 40
0.0380603487
 40
0.0767768016
 40
0.1160304562
 40
0.1556990851
 40
0.195658222
 40
0.235781805
 40
0.2759428761
 40
0.3160142727
 40
0.3558693193
 40
0.3953825266
 40
0.4344302881
 40
0.4728916072
 40
0.5106488217
 40
0.5475883869
 40
0.5836016644
 40
0.6012290799
 40
0.6185868818
 40
0.6356632704
 40
0.6524469329
 40
0.6689270795
 40
0.6850934752
 40
0.7009364802
 40
0.7164471008
 40
0.731617038
 40
0.7464387334
 40
0.7609054267
 40
0.7750112261
 40
0.7887511806
 40
0.8021213516
 40
0.8151188998
 40
0.8277421904
 40
0.8399909047
 40
0.8518661547
 40
0.8633706186
 40
0.874508697
 40
0.8852866818
 40
0.8957129259
 40
0.9057980333
 40
0.9155550608
 40
0.9249997178
 40
0.9341505434
 40
0.9430290631
 40
0.9516599037
 40
0.9600708342
 40
0.968292701
 40
0.9763592458
 40
0.9843067838
 40
0.9921737328
 40
1.0
 40
1.0
 40
1.0
 40
1.0
 10
14.1926490482
 20
13.2102558409
 30
0.0
 10
14.1870470266
 20
13.1747203284
 30
0.0
 10
14.1767228288
 20
13.1028794046
 30
0.0
 10
14.163946937
 20
12.9939435721
 30
0.0
 10
14.1537808863
 20
12.8832062863
 30
0.0
 10
14.1462628615
 20
12.7710811096
 30
0.0
 10
14.1414210512
 20
12.6579856948
 30
0.0
 10
14.1392735481
 20
12.5443416694
 30
0.0
 10
14.1398284549
 20
12.4305726268
 30
0.0
 10
14.1430836343
 20
12.3171026615
 30
0.0
 10
14.1490269479
 20
12.2043547309
 30
0.0
 10
14.1576360702
 20
12.09274907
 30
0.0
 10
14.1688788055
 20
11.9827015808
 30
0.0
 10
14.1827129795
 20
11.8746223393
 30
0.0
 10
14.1990868437
 20
11.7689137172
 30
0.0
 10
14.2179390019
 20
11.6659700332
 30
0.0
 10
14.2357803572
 20
11.5822197228
 30
0.0
 10
14.251266063
 20
11.5169212983
 30
0.0
 10
14.263370675
 20
11.4692228379
 30
0.0
 10
14.2760366776
 20
11.4224961603
 30
0.0
 10
14.2892523214
 20
11.3767847155
 30
0.0
 10
14.3030052429
 20
11.3321311278
 30
0.0
 10
14.3172826151
 20
11.2885769978
 30
0.0
 10
14.3320711316
 20
11.2461629084
 30
0.0
 10
14.3473570046
 20
11.2049283612
 30
0.0
 10
14.3631259785
 20
11.1649117398
 30
0.0
 10
14.379363367
 20
11.1261502877
 30
0.0
 10
14.3960540699
 20
11.0886800752
 30
0.0
 10
14.41318257
 20
11.0525359495
 30
0.0
 10
14.4307329463
 20
11.0177514976
 30
0.0
 10
14.4486889191
 20
10.984359034
 30
0.0
 10
14.4670338696
 20
10.9523895755
 30
0.0
 10
14.4857508446
 20
10.9218727961
 30
0.0
 10
14.5048225695
 20
10.8928369947
 30
0.0
 10
14.5242315017
 20
10.8653090988
 30
0.0
 10
14.543959854
 20
10.8393146522
 30
0.0
 10
14.5639896057
 20
10.8148777862
 30
0.0
 10
14.5843025122
 20
10.7920211975
 30
0.0
 10
14.6048801609
 20
10.7707661833
 30
0.0
 10
14.6257039835
 20
10.7511326563
 30
0.0
 10
14.6467552552
 20
10.7331391451
 30
0.0
 10
14.6680150718
 20
10.7168027902
 30
0.0
 10
14.6894643636
 20
10.7021394157
 30
0.0
 10
14.7110838436
 20
10.6891635555
 30
0.0
 10
14.7328539371
 20
10.6778884443
 30
0.0
 10
14.7547546602
 20
10.6683259523
 30
0.0
 10
14.776765616
 20
10.6604865782
 30
0.0
 10
14.7988656825
 20
10.6543793326
 30
0.0
 10
14.8210337638
 20
10.6500115483
 30
0.0
 10
14.8432458902
 20
10.6473886422
 30
0.0
 10
14.8580855357
 20
10.6468049886
 30
0.0
 10
14.8654828676
 20
10.6468049988
 30
0.0
  0
SPLINE
  5
2DC
100
AcDbEntity
  8
LAYER_FEATURE
100
AcDbSpline
 62
7
  6
CONTINUOUS
 70
0
 71
3
 72
15
 73
11
 74
0
 42
0.0000001
 43
0.0000001
 44
0.0000000001
 40
0.0
 40
0.0
 40
0.0
 40
0.0
 40
0.1135225319
 40
0.2355592166
 40
0.3636923714
 40
0.4952476134
 40
0.6274264102
 40
0.7574071313
 40
0.8824447333
 40
1.0
 40
1.0
 40
1.0
 40
1.0
 10
14.3129333656
 20
13.7196023211
 30
0.0
 10
14.312754023
 20
13.7190219681
 30
0.0
 10
14.3124390116
 20
13.7177997066
 30
0.0
 10
14.3120986719
 20
13.7158821268
 30
0.0
 10
14.3118792103
 20
13.713849928
 30
0.0
 10
14.3117863522
 20
13.7117538594
 30
0.0
 10
14.3118224729
 20
13.7096461741
 30
0.0
 10
14.3119866587
 20
13.7075794568
 30
0.0
 10
14.3122746153
 20
13.7056053691
 30
0.0
 10
14.3125546254
 20
13.7043362431
 30
0.0
 10
14.3127168009
 20
13.7037284992
 30
0.0
  0
SPLINE
  5
2DD
100
AcDbEntity
  8
LAYER_FEATURE
100
AcDbSpline
 62
7
  6
CONTINUOUS
 70
0
 71
3
 72
15
 73
11
 74
0
 42
0.0000001
 43
0.0000001
 44
0.0000000001
 40
0.0
 40
0.0
 40
0.0
 40
0.0
 40
0.1268995675
 40
0.2559109795
 40
0.3857039222
 40
0.5149258142
 40
0.6422382048
 40
0.7663371714
 40
0.8859754231
 40
1.0
 40
1.0
 40
1.0
 40
1.0
 10
14.3212247233
 20
13.6412696366
 30
0.0
 10
14.3214173834
 20
13.6429547687
 30
0.0
 10
14.321726666
 20
13.6463625868
 30
0.0
 10
14.321966008
 20
13.6515137901
 30
0.0
 10
14.3219832813
 20
13.6567016498
 30
0.0
 10
14.3217782268
 20
13.6618627507
 30
0.0
 10
14.3213534205
 20
13.6669341244
 30
0.0
 10
14.3207140939
 20
13.6718539823
 30
0.0
 10
14.3198682445
 20
13.6765622492
 30
0.0
 10
14.3191542214
 20
13.6796046108
 30
0.0
 10
14.3187612872
 20
13.681077111
 30
0.0
  0
SPLINE
  5
2DE
100
AcDbEntity
  8
LAYER_FEATURE
100
AcDbSpline
 62
7
  6
CONTINUOUS
 70
0
 71
3
 72
39
 73
35
 74
0
 42
0.0000001
 43
0.0000001
 44
0.0000000001
 40
0.0
 40
0.0
 40
0.0
 40
0.0
 40
0.0443812481
 40
0.0879669295
 40
0.1307335086
 40
0.172661876
 40
0.2137331571
 40
0.2539301992
 40
0.2932376968
 40
0.3316421073
 40
0.369131911
 40
0.4056977099
 40
0.4413323968
 40
0.4760313903
 40
0.5097927974
 40
0.5426176342
 40
0.5745101269
 40
0.6054779669
 40
0.6355325892
 40
0.664689538
 40
0.6929688298
 40
0.7203952869
 40
0.7469989387
 40
0.7728154376
 40
0.7978863828
 40
0.8222596394
 40
0.8459896168
 40
0.869137373
 40
0.8917705712
 40
0.9139632708
 40
0.935795451
 40
0.9573522592
 40
0.9787230199
 40
1.0
 40
1.0
 40
1.0
 40
1.0
 10
14.2472284326
 20
13.7415927301
 30
0.0
 10
14.2516824734
 20
13.7560060115
 30
0.0
 10
14.2607415152
 20
13.7845035496
 30
0.0
 10
14.2749171379
 20
13.8266222259
 30
0.0
 10
14.2895482725
 20
13.8677010812
 30
0.0
 10
14.3046231361
 20
13.9077072226
 30
0.0
 10
14.3201299468
 20
13.9466093718
 30
0.0
 10
14.3360564282
 20
13.9843767666
 30
0.0
 10
14.3523900178
 20
14.0209796089
 30
0.0
 10
14.3691178597
 20
14.0563890473
 30
0.0
 10
14.3862267516
 20
14.0905771827
 30
0.0
 10
14.4037032366
 20
14.1235170781
 30
0.0
 10
14.4215336043
 20
14.155182779
 30
0.0
 10
14.4397038359
 20
14.185549373
 30
0.0
 10
14.4581996911
 20
14.2145929688
 30
0.0
 10
14.4770067337
 20
14.2422906977
 30
0.0
 10
14.4961102765
 20
14.2686207802
 30
0.0
 10
14.5154954375
 20
14.2935625143
 30
0.0
 10
14.5351471939
 20
14.3170962457
 30
0.0
 10
14.5550503481
 20
14.3392034141
 30
0.0
 10
14.5751895277
 20
14.3598665744
 30
0.0
 10
14.5955492605
 20
14.3790693275
 30
0.0
 10
14.6161139603
 20
14.3967963248
 30
0.0
 10
14.6368678667
 20
14.413033332
 30
0.0
 10
14.6577951089
 20
14.4277671328
 30
0.0
 10
14.678879684
 20
14.4409854954
 30
0.0
 10
14.7001053551
 20
14.4526772723
 30
0.0
 10
14.7214556575
 20
14.4628323496
 30
0.0
 10
14.7429138479
 20
14.471441615
 30
0.0
 10
14.7644628563
 20
14.478497103
 30
0.0
 10
14.7860850756
 20
14.4839920979
 30
0.0
 10
14.8077630429
 20
14.4879211386
 30
0.0
 10
14.8294770267
 20
14.4902801697
 30
0.0
 10
14.8439789919
 20
14.4908049889
 30
0.0
 10
14.8512113285
 20
14.4908049818
 30
0.0
  0
SPLINE
  5
2DF
100
AcDbEntity
  8
LAYER_CUT_FEAT
100
AcDbSpline
 62
7
  6
CONTINUOUS
 70
0
 71
3
 72
25
 73
21
 74
0
 42
0.0000001
 43
0.0000001
 44
0.0000000001
 40
0.0
 40
0.0
 40
0.0
 40
0.0
 40
0.0891340786
 40
0.1751808687
 40
0.2578907681
 40
0.3370508691
 40
0.4124752223
 40
0.4840176554
 40
0.5515756482
 40
0.6150995486
 40
0.674602908
 40
0.7301756714
 40
0.7820002749
 40
0.8303702878
 40
0.8757095024
 40
0.9185864307
 40
0.9393348996
 40
0.9597471095
 40
0.9799311792
 40
1.0
 40
1.0
 40
1.0
 40
1.0
 10
15.6960917482
 20
13.5712087428
 30
0.0
 10
15.6954294977
 20
13.5740278019
 30
0.0
 10
15.6940398295
 20
13.5795481133
 30
0.0
 10
15.6917152718
 20
13.5875993624
 30
0.0
 10
15.6891946987
 20
13.5952512902
 30
0.0
 10
15.6864885926
 20
13.6024724236
 30
0.0
 10
15.6836079493
 20
13.6092334097
 30
0.0
 10
15.6805645186
 20
13.6155067419
 30
0.0
 10
15.6773705336
 20
13.6212670492
 30
0.0
 10
15.674038657
 20
13.6264911353
 30
0.0
 10
15.6705818135
 20
13.6311580461
 30
0.0
 10
15.6670129759
 20
13.6352490368
 30
0.0
 10
15.6633451069
 20
13.638747378
 30
0.0
 10
15.6595907024
 20
13.6416380437
 30
0.0
 10
15.6557634173
 20
13.6439069535
 30
0.0
 10
15.652487153
 20
13.645283714
 30
0.0
 10
15.649863153
 20
13.6460464503
 30
0.0
 10
15.6479095021
 20
13.6464514134
 30
0.0
 10
15.6459515778
 20
13.646694552
 30
0.0
 10
15.6446431977
 20
13.6467486757
 30
0.0
 10
15.6439911986
 20
13.6467486813
 30
0.0
  0
SPLINE
  5
2E0
100
AcDbEntity
  8
02___PRT_ALL_AXES
100
AcDbSpline
 62
7
  6
CONTINUOUS
 70
0
 71
3
 72
15
 73
11
 74
0
 42
0.0000001
 43
0.0000001
 44
0.0000000001
 40
0.0
 40
0.0
 40
0.0
 40
0.0
 40
0.1348105065
 40
0.2656295663
 40
0.3929780436
 40
0.5174480111
 40
0.6396811766
 40
0.760366158
 40
0.8802254707
 40
1.0
 40
1.0
 40
1.0
 40
1.0
 10
15.819359169
 20
11.4780951154
 30
0.0
 10
15.814957689
 20
11.4753607667
 30
0.0
 10
15.8061082601
 20
11.4702503694
 30
0.0
 10
15.792522324
 20
11.4636206835
 30
0.0
 10
15.7788517207
 20
11.458158275
 30
0.0
 10
15.7651127144
 20
11.4538710394
 30
0.0
 10
15.7513210194
 20
11.4507651417
 30
0.0
 10
15.7374928709
 20
11.4488453723
 30
0.0
 10
15.7236465302
 20
11.4481146609
 30
0.0
 10
15.7144275539
 20
11.4484207915
 30
0.0
 10
15.7098370397
 20
11.448769446
 30
0.0
  0
ENDSEC
  0
SECTION
  2
OBJECTS
  0
DICTIONARY
  5
C
100
AcDbDictionary
280
0
281
1
  3
ACAD_GROUP
350
D
  3
ACAD_MLINESTYLE
350
17
  3
ACAD_LAYOUT
350
1A
  3
ACAD_PLOTSETTINGS
350
19
  3
ACAD_PLOTSTYLENAME
350
E
  0
DICTIONARY
  5
D
102
{ACAD_REACTORS
330
C
102
}
100
AcDbDictionary
280
0
281
1
  0
ACDBDICTIONARYWDFLT
  5
E
102
{ACAD_REACTORS
330
C
102
}
100
AcDbDictionary
281
1
  3
Normal
350
F
100
AcDbDictionaryWithDefault
340
F
  0
DICTIONARY
  5
17
102
{ACAD_REACTORS
330
C
102
}
100
AcDbDictionary
280
0
281
1
  3
Standard
350
18
  0
DICTIONARY
  5
19
102
{ACAD_REACTORS
330
C
102
}
100
AcDbDictionary
281
1
  0
DICTIONARY
  5
1A
102
{ACAD_REACTORS
330
C
102
}
100
AcDbDictionary
281
1
  3
Model
350
2E1
  3
Layout1
350
2E2
  0
ACDBPLACEHOLDER
  5
F
102
{ACAD_REACTORS
330
E
102
}
  0
MLINESTYLE
  5
18
102
{ACAD_REACTORS
330
17
102
}
100
AcDbMlineStyle
  2
STANDARD
 70
0
  3

 62
256
 51
90.0
 52
90.0
 71
2
 49
0.5
 62
256
  6
BYLAYER
 49
-0.5
 62
256
  6
BYLAYER
  0
LAYOUT
  5
2E1
102
{ACAD_REACTORS
330
1A
102
}
100
AcDbPlotSettings
  1

  2
none_device
  4
ANSI_C_(22.00_x_17.00_Inches)
  6

 40
0.0
 41
0.0
 42
0.0
 43
0.0
 44
558.8
 45
431.8
 46
0.0
 47
0.0
 48
0.0
 49
0.0
140
0.0
141
0.0
142
1.0
143
1.0
 70
1024
 72
0
 73
0
 74
0
  7

 75
0
147
1.0
148
0.0
149
0.0
100
AcDbLayout
  1
Model
 70
0
 71
0
 10
0.0
 20
0.0
 11
22.0
 21
17.0
 12
0.0
 22
0.0
 32
0.0
 14
0.0
 24
0.0
 34
0.0
 15
0.0
 25
0.0
 35
0.0
146
0.0
 13
0.0
 23
0.0
 33
0.0
 16
1.0
 26
0.0
 36
0.0
 17
0.0
 27
1.0
 37
0.0
 76
0
330
222
345
0
346
0
  0
LAYOUT
  5
2E2
102
{ACAD_REACTORS
330
1A
102
}
100
AcDbPlotSettings
  1

  2
none_device
  4
ANSI_C_(22.00_x_17.00_Inches)
  6

 40
0.0
 41
0.0
 42
0.0
 43
0.0
 44
558.8
 45
431.8
 46
0.0
 47
0.0
 48
0.0
 49
0.0
140
0.0
141
0.0
142
1.0
143
1.0
 70
0
 72
0
 73
0
 74
0
  7

 75
0
147
1.0
148
0.0
149
0.0
100
AcDbLayout
  1
Layout1
 70
0
 71
1
 10
0.0
 20
0.0
 11
22.0
 21
17.0
 12
0.0
 22
0.0
 32
0.0
 14
0.0
 24
0.0
 34
0.0
 15
0.0
 25
0.0
 35
0.0
146
0.0
 13
0.0
 23
0.0
 33
0.0
 16
1.0
 26
0.0
 36
0.0
 17
0.0
 27
1.0
 37
0.0
 76
0
330
223
345
0
346
0
  0
ENDSEC
  0
EOF