999
DXF file: _cgs_temp_output.dxf
999
Pro/ENGINEER 2016360 by Parametric Technology Corporation
  0
SECTION
  2
HEADER
  9
$ACADVER
  1
AC1021
  9
$DWGCODEPAGE
  3
ANSI_1252
  9
$EXTMAX
 10
22.0
 20
17.0
 30
0.0
  9
$EXTMIN
 10
0.0
 20
0.0
 30
0.0
  9
$LIMMIN
 10
0.0
 20
0.0
  9
$LIMMAX
 10
22.0
 20
17.0
  9
$VIEWCTR
 10
11.0
 20
8.5
  9
$VIEWSIZE
 40
17.0
  9
$CLAYER
  8
0
  9
$LTSCALE
 40
1.21
  9
$CELTYPE
  6
BYLAYER
  9
$DIMSCALE
 40
1.0
  9
$DIMASZ
 40
0.1875
  9
$DIMEXO
 40
0.0625
  9
$DIMDLI
 40
0.836
  9
$DIMEXE
 40
0.125
  9
$DIMCEN
 40
0.198
  9
$DIMLFAC
 40
1.0
  9
$DIMBLK
  1
_CLOSED
  9
$DIMALT
 70
0
  9
$DIMALTF
 40
25.4
  9
$DIMTXT
 40
0.15625
  9
$DIMTOL
 70
0
  9
$DIMLIM
 70
0
  9
$DIMTFAC
 40
1.0
  9
$DIMGAP
 40
0.09
  9
$DIMDSEP
 70
46
  9
$AUNITS
 70
0
  9
$PDMODE
 70
3
  9
$PDSIZE
 40
0.3125
  9
$HANDSEED
  5
2DA
  9
$TILEMODE
 70
1
  9
$MEASUREMENT
 70
0
  9
$INSUNITS
 70
1
  0
ENDSEC
  0
SECTION
  2
CLASSES
  0
CLASS
  1
ACDBDICTIONARYWDFLT
  2
AcDbDictionaryWithDefault
  3
AutoCAD 2000
 90
0
 91
1
280
0
281
0
  0
CLASS
  1
ACDBPLACEHOLDER
  2
AcDbPlaceHolder
  3
AutoCAD 2000
 90
0
 91
1
280
0
281
0
  0
CLASS
  1
LAYOUT
  2
AcDbLayout
  3
AutoCAD 2000
 90
0
 91
0
280
0
281
0
  0
ENDSEC
  0
SECTION
  2
TABLES
  0
TABLE
  2
VPORT
  5
8
100
AcDbSymbolTable
 70
2
  0
VPORT
  5
1F4
100
AcDbSymbolTableRecord
100
AcDbViewportTableRecord
  2
*ACTIVE
 70
0
 10
0.0
 20
0.0
 11
1.0
 21
1.0
 12
11.0
 22
8.5
 13
0.0
 23
0.0
 14
1.0
 24
1.0
 15
0.0
 25
0.0
 16
0.0
 26
0.0
 36
1.0
 17
0.0
 27
0.0
 37
0.0
 40
17.0
 41
1.2941176471
 42
50.0
 43
0.0
 44
0.0
 50
0.0
 51
0.0
 71
0
 72
100
 73
1
 74
1
 75
0
 76
0
 77
0
 78
0
  0
ENDTAB
  0
TABLE
  2
LTYPE
  5
5
100
AcDbSymbolTable
 70
6
  0
LTYPE
  5
14
100
AcDbSymbolTableRecord
100
AcDbLinetypeTableRecord
  2
BYBLOCK
 70
0
  3

 72
65
 73
0
 40
0.0
  0
LTYPE
  5
15
100
AcDbSymbolTableRecord
100
AcDbLinetypeTableRecord
  2
BYLAYER
 70
0
  3

 72
65
 73
0
 40
0.0
  0
LTYPE
  5
16
100
AcDbSymbolTableRecord
100
AcDbLinetypeTableRecord
  2
CONTINUOUS
 70
64
  3
Solid line
 72
65
 73
0
 40
0.0
  0
LTYPE
  5
1F5
100
AcDbSymbolTableRecord
100
AcDbLinetypeTableRecord
  2
CENTER
 70
64
  3
____ _ ____ _ ____ _ ____ _ ____ _ ____ _ ____
 72
65
 73
4
 40
0.6
 49
0.375
 74
0
 49
-0.075
 74
0
 49
0.075
 74
0
 49
-0.075
 74
0
  0
LTYPE
  5
1F6
100
AcDbSymbolTableRecord
100
AcDbLinetypeTableRecord
  2
HIDDEN
 70
64
  3
- - - - - - - - - - - - - - - - - - - -
 72
65
 73
2
 40
0.2
 49
0.1
 74
0
 49
-0.1
 74
0
  0
LTYPE
  5
1F7
100
AcDbSymbolTableRecord
100
AcDbLinetypeTableRecord
  2
PHANTOM
 70
64
  3
_____ _ _ _____ _ _ _____ _ _ _____
 72
65
 73
6
 40
0.8
 49
0.45
 74
0
 49
-0.05
 74
0
 49
0.1
 74
0
 49
-0.05
 74
0
 49
0.1
 74
0
 49
-0.05
 74
0
  0
LTYPE
  5
1F8
100
AcDbSymbolTableRecord
100
AcDbLinetypeTableRecord
  2
DOT
 70
64
  3
. . . . . . . . . . . . . . . . . . . .
 72
65
 73
2
 40
0.2
 49
0.1
 74
0
 49
-0.1
 74
0
  0
LTYPE
  5
1F9
100
AcDbSymbolTableRecord
100
AcDbLinetypeTableRecord
  2
DASHED
 70
64
  3
- - - - - - - - - - - - - - - - - - - -
 72
65
 73
2
 40
0.2
 49
0.1
 74
0
 49
-0.1
 74
0
  0
ENDTAB
  0
TABLE
  2
LAYER
  5
2
100
AcDbSymbolTable
 70
36
  0
LAYER
  5
10
100
AcDbSymbolTableRecord
100
AcDbLayerTableRecord
  2
0
 70
0
 62
7
  6
CONTINUOUS
370
-3
390
F
  0
LAYER
  5
1FA
100
AcDbSymbolTableRecord
100
AcDbLayerTableRecord
  2
DEFAULT_1
 70
0
 62
7
  6
CENTER
370
-3
390
F
  0
LAYER
  5
1FB
100
AcDbSymbolTableRecord
100
AcDbLayerTableRecord
  2
DEFAULT_2
 70
0
 62
8
  6
HIDDEN
370
-3
390
F
  0
LAYER
  5
1FC
100
AcDbSymbolTableRecord
100
AcDbLayerTableRecord
  2
DEFAULT_3
 70
0
 62
7
  6
PHANTOM
370
-3
390
F
  0
LAYER
  5
1FD
100
AcDbSymbolTableRecord
100
AcDbLayerTableRecord
  2
01_ALL_DTM_PLN
 70
0
 62
7
  6
CONTINUOUS
370
-3
390
F
  0
LAYER
  5
1FE
100
AcDbSymbolTableRecord
100
AcDbLayerTableRecord
  2
01__ASM_ALL_DTM_PLN
 70
0
 62
7
  6
CONTINUOUS
370
-3
390
F
  0
LAYER
  5
1FF
100
AcDbSymbolTableRecord
100
AcDbLayerTableRecord
  2
01__ASM_DEF_DTM_PLN
 70
0
 62
7
  6
CONTINUOUS
370
-3
390
F
  0
LAYER
  5
200
100
AcDbSymbolTableRecord
100
AcDbLayerTableRecord
  2
01___PRT_ALL_DTM_PLN
 70
0
 62
7
  6
CONTINUOUS
370
-3
390
F
  0
LAYER
  5
201
100
AcDbSymbolTableRecord
100
AcDbLayerTableRecord
  2
01___PRT_DEF_DTM_PLN
 70
0
 62
7
  6
CONTINUOUS
370
-3
390
F
  0
LAYER
  5
202
100
AcDbSymbolTableRecord
100
AcDbLayerTableRecord
  2
02_ALL_AXES
 70
0
 62
7
  6
CONTINUOUS
370
-3
390
F
  0
LAYER
  5
203
100
AcDbSymbolTableRecord
100
AcDbLayerTableRecord
  2
02__ASM_ALL_AXES
 70
0
 62
7
  6
CONTINUOUS
370
-3
390
F
  0
LAYER
  5
204
100
AcDbSymbolTableRecord
100
AcDbLayerTableRecord
  2
02___PRT_ALL_AXES
 70
0
 62
7
  6
CONTINUOUS
370
-3
390
F
  0
LAYER
  5
205
100
AcDbSymbolTableRecord
100
AcDbLayerTableRecord
  2
03_ALL_CURVES
 70
0
 62
7
  6
CONTINUOUS
370
-3
390
F
  0
LAYER
  5
206
100
AcDbSymbolTableRecord
100
AcDbLayerTableRecord
  2
03__ASM_ALL_CURVES
 70
0
 62
7
  6
CONTINUOUS
370
-3
390
F
  0
LAYER
  5
207
100
AcDbSymbolTableRecord
100
AcDbLayerTableRecord
  2
03___PRT_ALL_CURVES
 70
0
 62
7
  6
CONTINUOUS
370
-3
390
F
  0
LAYER
  5
208
100
AcDbSymbolTableRecord
100
AcDbLayerTableRecord
  2
04_ALL_DTM_PNT
 70
0
 62
7
  6
CONTINUOUS
370
-3
390
F
  0
LAYER
  5
209
100
AcDbSymbolTableRecord
100
AcDbLayerTableRecord
  2
04__ASM_ALL_DTM_PNT
 70
0
 62
7
  6
CONTINUOUS
370
-3
390
F
  0
LAYER
  5
20A
100
AcDbSymbolTableRecord
100
AcDbLayerTableRecord
  2
04___PRT_ALL_DTM_PNT
 70
0
 62
7
  6
CONTINUOUS
370
-3
390
F
  0
LAYER
  5
20B
100
AcDbSymbolTableRecord
100
AcDbLayerTableRecord
  2
05_ALL_DTM_CSYS
 70
0
 62
7
  6
CONTINUOUS
370
-3
390
F
  0
LAYER
  5
20C
100
AcDbSymbolTableRecord
100
AcDbLayerTableRecord
  2
05__ASM_ALL_DTM_CSYS
 70
0
 62
7
  6
CONTINUOUS
370
-3
390
F
  0
LAYER
  5
20D
100
AcDbSymbolTableRecord
100
AcDbLayerTableRecord
  2
05__ASM_DEF_DTM_CSYS
 70
0
 62
7
  6
CONTINUOUS
370
-3
390
F
  0
LAYER
  5
20E
100
AcDbSymbolTableRecord
100
AcDbLayerTableRecord
  2
05___PRT_ALL_DTM_CSYS
 70
0
 62
7
  6
CONTINUOUS
370
-3
390
F
  0
LAYER
  5
20F
100
AcDbSymbolTableRecord
100
AcDbLayerTableRecord
  2
05___PRT_DEF_DTM_CSYS
 70
0
 62
7
  6
CONTINUOUS
370
-3
390
F
  0
LAYER
  5
210
100
AcDbSymbolTableRecord
100
AcDbLayerTableRecord
  2
06_ALL_SURFS
 70
0
 62
7
  6
CONTINUOUS
370
-3
390
F
  0
LAYER
  5
211
100
AcDbSymbolTableRecord
100
AcDbLayerTableRecord
  2
06__ASM_ALL_SURFS
 70
0
 62
7
  6
CONTINUOUS
370
-3
390
F
  0
LAYER
  5
212
100
AcDbSymbolTableRecord
100
AcDbLayerTableRecord
  2
06___PRT_ALL_SURFS
 70
0
 62
7
  6
CONTINUOUS
370
-3
390
F
  0
LAYER
  5
213
100
AcDbSymbolTableRecord
100
AcDbLayerTableRecord
  2
07__ASM_ALL_SKELETONS
 70
0
 62
7
  6
CONTINUOUS
370
-3
390
F
  0
LAYER
  5
214
100
AcDbSymbolTableRecord
100
AcDbLayerTableRecord
  2
LAYER_AXIS
 70
0
 62
7
  6
CONTINUOUS
370
-3
390
F
  0
LAYER
  5
215
100
AcDbSymbolTableRecord
100
AcDbLayerTableRecord
  2
LAYER_CHAMFER_FEAT
 70
0
 62
7
  6
CONTINUOUS
370
-3
390
F
  0
LAYER
  5
216
100
AcDbSymbolTableRecord
100
AcDbLayerTableRecord
  2
LAYER_CUT_FEAT
 70
0
 62
7
  6
CONTINUOUS
370
-3
390
F
  0
LAYER
  5
217
100
AcDbSymbolTableRecord
100
AcDbLayerTableRecord
  2
LAYER_DATUM
 70
0
 62
7
  6
CONTINUOUS
370
-3
390
F
  0
LAYER
  5
218
100
AcDbSymbolTableRecord
100
AcDbLayerTableRecord
  2
LAYER_DIM
 70
0
 62
7
  6
CONTINUOUS
370
-3
390
F
  0
LAYER
  5
219
100
AcDbSymbolTableRecord
100
AcDbLayerTableRecord
  2
LAYER_FEATURE
 70
0
 62
7
  6
CONTINUOUS
370
-3
390
F
  0
LAYER
  5
21A
100
AcDbSymbolTableRecord
100
AcDbLayerTableRecord
  2
LAYER_GEOM_FEAT
 70
0
 62
7
  6
CONTINUOUS
370
-3
390
F
  0
LAYER
  5
21B
100
AcDbSymbolTableRecord
100
AcDbLayerTableRecord
  2
LAYER_NOGEOM_FEAT
 70
0
 62
7
  6
CONTINUOUS
370
-3
390
F
  0
LAYER
  5
21C
100
AcDbSymbolTableRecord
100
AcDbLayerTableRecord
  2
LAYER_PARAMETER_DIM
 70
0
 62
7
  6
CONTINUOUS
370
-3
390
F
  0
LAYER
  5
21D
100
AcDbSymbolTableRecord
100
AcDbLayerTableRecord
  2
LAYER_PROTRUSION_FEAT
 70
0
 62
7
  6
CONTINUOUS
370
-3
390
F
  0
LAYER
  5
21E
100
AcDbSymbolTableRecord
100
AcDbLayerTableRecord
  2
LAYER_QUILT
 70
0
 62
7
  6
CONTINUOUS
370
-3
390
F
  0
LAYER
  5
21F
100
AcDbSymbolTableRecord
100
AcDbLayerTableRecord
  2
LAYER_ROUND_FEAT
 70
0
 62
7
  6
CONTINUOUS
370
-3
390
F
  0
ENDTAB
  0
TABLE
  2
STYLE
  5
3
100
AcDbSymbolTable
 70
1
  0
STYLE
  5
11
100
AcDbSymbolTableRecord
100
AcDbTextStyleTableRecord
  2
STANDARD
 70
0
 40
0.0
 41
0.8
 50
0.0
 71
0
 42
0.2
  3
txt
  4

  0
STYLE
  5
220
100
AcDbSymbolTableRecord
100
AcDbTextStyleTableRecord
  2
TEXTSTYLE_1
 70
0
 40
0.0
 41
0.8
 50
0.0
 71
0
 42
0.2
  3
gdt
  4

  0
ENDTAB
  0
TABLE
  2
VIEW
  5
6
100
AcDbSymbolTable
 70
0
  0
ENDTAB
  0
TABLE
  2
UCS
  5
7
100
AcDbSymbolTable
 70
0
  0
ENDTAB
  0
TABLE
  2
APPID
  5
9
100
AcDbSymbolTable
 70
1
  0
APPID
  5
221
100
AcDbSymbolTableRecord
100
AcDbRegAppTableRecord
  2
ACAD
 70
0
  0
ENDTAB
  0
TABLE
  2
BLOCK_RECORD
  5
1
100
AcDbSymbolTable
 70
0
  0
BLOCK_RECORD
  5
222
100
AcDbSymbolTableRecord
100
AcDbBlockTableRecord
  2
*Model_Space
  0
BLOCK_RECORD
  5
223
100
AcDbSymbolTableRecord
100
AcDbBlockTableRecord
  2
*Paper_Space
  0
ENDTAB
  0
TABLE
  2
DIMSTYLE
  5
A
100
AcDbSymbolTable
 70
1
100
AcDbDimStyleTable
 71
0
  0
DIMSTYLE
105
224
100
AcDbSymbolTableRecord
100
AcDbDimStyleTableRecord
  2
STANDARD
 70
0
  3

  4

 40
1.0
 41
0.1875
 42
0.0625
 43
0.38
 44
0.125
 45
0.0
 46
0.0
 47
0.0001
 48
0.0001
140
0.15625
141
0.09
142
0.0
143
25.4
144
1.0
145
0.0
146
1.0
147
0.09
 71
0.0
 72
0.0
 73
1
 74
1
 75
0
 76
0
 77
0
 78
4
 79
1
170
0
171
3
172
0
173
0
174
0
175
0
176
0
177
0
178
0
270
2
179
4
271
4
272
4
273
2
274
2
275
0
280
0
281
0
282
0
283
1
284
4
285
0
286
0
287
3
288
0
340
11
278
46
  0
ENDTAB
  0
ENDSEC
  0
SECTION
  2
BLOCKS
  0
BLOCK
  5
20
100
AcDbEntity
  8
0
100
AcDbBlockBegin
  2
*Model_Space
 70
0
 10
0.0
 20
0.0
 30
0.0
  3
*Model_Space
  1

  0
ENDBLK
  5
21
100
AcDbEntity
  8
0
100
AcDbBlockEnd
  0
BLOCK
  5
1C
100
AcDbEntity
  8
0
100
AcDbBlockBegin
  2
*Paper_Space
 70
0
 10
0.0
 20
0.0
 30
0.0
  3
*Paper_Space
  1

  0
ENDBLK
  5
1D
100
AcDbEntity
  8
0
100
AcDbBlockEnd
  0
ENDSEC
  0
SECTION
  2
ENTITIES
  0
MTEXT
  5
225
100
AcDbEntity
  8
0
100
AcDbMText
 62
7
  6
CONTINUOUS
  7
STANDARD
 71
1
 72
1
 10
15.9560215477
 20
0.9479130325
 30
0.0
 11
1.0
 21
0.0
 31
0.0
 44
0.9
  1
SCALE: 1:0.500
 40
0.3
 41
3.36
  0
LINE
  5
226
100
AcDbEntity
  8
0
100
AcDbLine
 62
7
  6
CONTINUOUS
 10
0.0
 20
0.0
 11
0.0
 21
17.0
  0
LINE
  5
227
100
AcDbEntity
  8
0
100
AcDbLine
 62
7
  6
CONTINUOUS
 10
0.0
 20
0.0
 11
22.0
 21
0.0
  0
LINE
  5
228
100
AcDbEntity
  8
0
100
AcDbLine
 62
7
  6
CONTINUOUS
 10
0.0
 20
17.0
 11
22.0
 21
17.0
  0
LINE
  5
229
100
AcDbEntity
  8
0
100
AcDbLine
 62
7
  6
CONTINUOUS
 10
22.0
 20
0.0
 11
22.0
 21
17.0
  0
LINE
  5
22A
100
AcDbEntity
  8
LAYER_FEATURE
100
AcDbLine
 62
7
  6
CONTINUOUS
 10
6.4368672762
 20
4.0176198968
 11
6.3908619494
 21
4.0176198968
  0
LINE
  5
22B
100
AcDbEntity
  8
LAYER_FEATURE
100
AcDbLine
 62
7
  6
CONTINUOUS
 10
5.8238672762
 20
4.0176198968
 11
5.8698726029
 21
4.0176198968
  0
LINE
  5
22C
100
AcDbEntity
  8
02___PRT_ALL_AXES
100
AcDbLine
 62
7
  6
CONTINUOUS
 10
5.8878672762
 20
4.1323698968
 11
6.3728672762
 21
4.1323698968
  0
LINE
  5
22D
100
AcDbEntity
  8
02___PRT_ALL_AXES
100
AcDbLine
 62
7
  6
CONTINUOUS
 10
6.4368672762
 20
6.8007442398
 11
6.4428672762
 21
6.8026198968
  0
LINE
  5
22E
100
AcDbEntity
  8
02___PRT_ALL_AXES
100
AcDbLine
 62
7
  6
CONTINUOUS
 10
6.4368672762
 20
4.2394955537
 11
6.4428672762
 21
4.2376198968
  0
LINE
  5
22F
100
AcDbEntity
  8
02___PRT_ALL_AXES
100
AcDbLine
 62
7
  6
CONTINUOUS
 10
5.8178672762
 20
4.2376198968
 11
5.8178672762
 21
6.8026198968
  0
LINE
  5
230
100
AcDbEntity
  8
LAYER_FEATURE
100
AcDbLine
 62
7
  6
CONTINUOUS
 10
5.8238672762
 20
7.0226198968
 11
5.8238672762
 21
4.0176198968
  0
LINE
  5
231
100
AcDbEntity
  8
LAYER_FEATURE
100
AcDbLine
 62
7
  6
CONTINUOUS
 10
5.8698726029
 20
7.0226198968
 11
5.8698726029
 21
4.0176198968
  0
LINE
  5
232
100
AcDbEntity
  8
LAYER_FEATURE
100
AcDbLine
 62
7
  6
CONTINUOUS
 10
5.8878672762
 20
6.9379616153
 11
5.8878672762
 21
4.1022781782
  0
LINE
  5
233
100
AcDbEntity
  8
LAYER_FEATURE
100
AcDbLine
 62
7
  6
CONTINUOUS
 10
6.3908619494
 20
7.0226198968
 11
6.3728672762
 21
6.9379616153
  0
LINE
  5
234
100
AcDbEntity
  8
LAYER_FEATURE
100
AcDbLine
 62
7
  6
CONTINUOUS
 10
6.3908619494
 20
4.0176198968
 11
6.3728672762
 21
4.1022781782
  0
LINE
  5
235
100
AcDbEntity
  8
LAYER_FEATURE
100
AcDbLine
 62
7
  6
CONTINUOUS
 10
5.8698726029
 20
4.0176198968
 11
5.8878672762
 21
4.1022781782
  0
LINE
  5
236
100
AcDbEntity
  8
LAYER_FEATURE
100
AcDbLine
 62
7
  6
CONTINUOUS
 10
5.8698726029
 20
7.0226198968
 11
5.8878672762
 21
6.9379616153
  0
LINE
  5
237
100
AcDbEntity
  8
LAYER_FEATURE
100
AcDbLine
 62
7
  6
CONTINUOUS
 10
6.3728672762
 20
6.9379616153
 11
6.3728672762
 21
4.1022781782
  0
LINE
  5
238
100
AcDbEntity
  8
LAYER_FEATURE
100
AcDbLine
 62
7
  6
CONTINUOUS
 10
6.3908619494
 20
7.0226198968
 11
6.3908619494
 21
4.0176198968
  0
LINE
  5
239
100
AcDbEntity
  8
LAYER_FEATURE
100
AcDbLine
 62
7
  6
CONTINUOUS
 10
6.4368672762
 20
7.0226198968
 11
6.4368672762
 21
4.0176198968
  0
LINE
  5
23A
100
AcDbEntity
  8
02___PRT_ALL_AXES
100
AcDbLine
 62
7
  6
CONTINUOUS
 10
6.4428672762
 20
4.2376198968
 11
6.4428672762
 21
6.8026198968
  0
LINE
  5
23B
100
AcDbEntity
  8
02___PRT_ALL_AXES
100
AcDbLine
 62
7
  6
CONTINUOUS
 10
5.8178672762
 20
4.2376198968
 11
5.8238672762
 21
4.2394955537
  0
LINE
  5
23C
100
AcDbEntity
  8
02___PRT_ALL_AXES
100
AcDbLine
 62
7
  6
CONTINUOUS
 10
5.8178672762
 20
6.8026198968
 11
5.8238672762
 21
6.8007442398
  0
LINE
  5
23D
100
AcDbEntity
  8
LAYER_FEATURE
100
AcDbLine
 62
7
  6
CONTINUOUS
 10
5.8878672762
 20
6.8071350476
 11
6.3728672762
 21
6.8071350476
  0
LINE
  5
23E
100
AcDbEntity
  8
0
100
AcDbLine
 62
7
  6
CONTINUOUS
 10
5.8878672762
 20
6.8078946771
 11
6.3728672762
 21
6.8078946771
  0
LINE
  5
23F
100
AcDbEntity
  8
LAYER_FEATURE
100
AcDbLine
 62
7
  6
CONTINUOUS
 10
5.8878672762
 20
6.8499887559
 11
6.3728672762
 21
6.8499887559
  0
LINE
  5
240
100
AcDbEntity
  8
LAYER_FEATURE
100
AcDbLine
 62
7
  6
CONTINUOUS
 10
5.8878672762
 20
6.8571608729
 11
6.3728672762
 21
6.8571608729
  0
LINE
  5
241
100
AcDbEntity
  8
0
100
AcDbLine
 62
7
  6
CONTINUOUS
 10
5.8878672762
 20
6.857500264
 11
6.3728672762
 21
6.857500264
  0
LINE
  5
242
100
AcDbEntity
  8
LAYER_FEATURE
100
AcDbLine
 62
7
  6
CONTINUOUS
 10
5.8878672762
 20
6.8860329641
 11
6.3728672762
 21
6.8860329641
  0
LINE
  5
243
100
AcDbEntity
  8
LAYER_FEATURE
100
AcDbLine
 62
7
  6
CONTINUOUS
 10
5.8878672762
 20
6.8903726322
 11
6.3728672762
 21
6.8903726322
  0
LINE
  5
244
100
AcDbEntity
  8
0
100
AcDbLine
 62
7
  6
CONTINUOUS
 10
5.8878672762
 20
6.8904577476
 11
6.3728672762
 21
6.8904577476
  0
LINE
  5
245
100
AcDbEntity
  8
LAYER_FEATURE
100
AcDbLine
 62
7
  6
CONTINUOUS
 10
5.8878672762
 20
6.904900023
 11
6.3728672762
 21
6.904900023
  0
LINE
  5
246
100
AcDbEntity
  8
LAYER_FEATURE
100
AcDbLine
 62
7
  6
CONTINUOUS
 10
5.8878672762
 20
6.9063526683
 11
6.3728672762
 21
6.9063526683
  0
LINE
  5
247
100
AcDbEntity
  8
LAYER_FEATURE
100
AcDbLine
 62
7
  6
CONTINUOUS
 10
6.4368672762
 20
7.0226198968
 11
6.3908619494
 21
7.0226198968
  0
LINE
  5
248
100
AcDbEntity
  8
LAYER_FEATURE
100
AcDbLine
 62
7
  6
CONTINUOUS
 10
5.8238672762
 20
7.0226198968
 11
5.8698726029
 21
7.0226198968
  0
LINE
  5
249
100
AcDbEntity
  8
LAYER_FEATURE
100
AcDbLine
 62
7
  6
CONTINUOUS
 10
5.7643720839
 20
11.0975477814
 11
5.8103774106
 21
11.0975477814
  0
LINE
  5
24A
100
AcDbEntity
  8
LAYER_FEATURE
100
AcDbLine
 62
7
  6
CONTINUOUS
 10
6.3313667571
 20
11.0975477814
 11
6.3773720839
 21
11.0975477814
  0
LINE
  5
24B
100
AcDbEntity
  8
02___PRT_ALL_AXES
100
AcDbLine
 62
7
  6
CONTINUOUS
 10
5.8283720839
 20
11.2122977814
 11
6.3133720839
 21
11.2122977814
  0
LINE
  5
24C
100
AcDbEntity
  8
02___PRT_ALL_AXES
100
AcDbLine
 62
7
  6
CONTINUOUS
 10
6.3833720839
 20
13.8825477814
 11
6.3773720839
 21
13.8806721244
  0
LINE
  5
24D
100
AcDbEntity
  8
02___PRT_ALL_AXES
100
AcDbLine
 62
7
  6
CONTINUOUS
 10
6.3833720839
 20
11.3175477814
 11
6.3773720839
 21
11.3194234383
  0
LINE
  5
24E
100
AcDbEntity
  8
LAYER_FEATURE
100
AcDbLine
 62
7
  6
CONTINUOUS
 10
5.8283720839
 20
12.0809696909
 11
6.3133720839
 21
12.0809696909
  0
LINE
  5
24F
100
AcDbEntity
  8
LAYER_FEATURE
100
AcDbLine
 62
7
  6
CONTINUOUS
 10
6.3133720839
 20
12.147856525
 11
5.8283720839
 21
12.147856525
  0
LINE
  5
250
100
AcDbEntity
  8
LAYER_FEATURE
100
AcDbLine
 62
7
  6
CONTINUOUS
 10
6.3133720839
 20
12.1794766165
 11
5.8283720839
 21
12.1794766165
  0
LINE
  5
251
100
AcDbEntity
  8
0
100
AcDbLine
 62
7
  6
CONTINUOUS
 10
5.8283720839
 20
12.1943728015
 11
6.3133720839
 21
12.1943728015
  0
LINE
  5
252
100
AcDbEntity
  8
LAYER_FEATURE
100
AcDbLine
 62
7
  6
CONTINUOUS
 10
5.8283720839
 20
12.203438553
 11
6.3133720839
 21
12.203438553
  0
LINE
  5
253
100
AcDbEntity
  8
02___PRT_ALL_AXES
100
AcDbLine
 62
7
  6
CONTINUOUS
 10
5.7583720839
 20
11.3175477814
 11
5.7583720839
 21
13.8825477814
  0
LINE
  5
254
100
AcDbEntity
  8
LAYER_FEATURE
100
AcDbLine
 62
7
  6
CONTINUOUS
 10
5.7643720839
 20
11.0975477814
 11
5.7643720839
 21
14.1025477814
  0
LINE
  5
255
100
AcDbEntity
  8
LAYER_FEATURE
100
AcDbLine
 62
7
  6
CONTINUOUS
 10
5.8283720839
 20
12.2283335221
 11
6.3133720839
 21
12.2283335221
  0
LINE
  5
256
100
AcDbEntity
  8
LAYER_FEATURE
100
AcDbLine
 62
7
  6
CONTINUOUS
 10
6.3133720839
 20
12.2897119548
 11
5.8283720839
 21
12.2897119548
  0
LINE
  5
257
100
AcDbEntity
  8
LAYER_FEATURE
100
AcDbLine
 62
7
  6
CONTINUOUS
 10
5.8103774106
 20
11.0975477814
 11
5.8103774106
 21
14.1025477814
  0
LINE
  5
258
100
AcDbEntity
  8
LAYER_FEATURE
100
AcDbLine
 62
7
  6
CONTINUOUS
 10
5.8283720839
 20
11.1822061549
 11
5.8283720839
 21
14.0178894078
  0
LINE
  5
259
100
AcDbEntity
  8
LAYER_FEATURE
100
AcDbLine
 62
7
  6
CONTINUOUS
 10
6.3133720839
 20
12.3223720399
 11
5.8283720839
 21
12.3223720399
  0
LINE
  5
25A
100
AcDbEntity
  8
LAYER_FEATURE
100
AcDbLine
 62
7
  6
CONTINUOUS
 10
5.8283720839
 20
12.3548304187
 11
6.3133720839
 21
12.3548304187
  0
LINE
  5
25B
100
AcDbEntity
  8
LAYER_FEATURE
100
AcDbLine
 62
7
  6
CONTINUOUS
 10
5.8283720839
 20
12.3803718757
 11
6.3133720839
 21
12.3803718757
  0
LINE
  5
25C
100
AcDbEntity
  8
LAYER_FEATURE
100
AcDbLine
 62
7
  6
CONTINUOUS
 10
6.3133720839
 20
12.4354700378
 11
5.8283720839
 21
12.4354700378
  0
LINE
  5
25D
100
AcDbEntity
  8
LAYER_FEATURE
100
AcDbLine
 62
7
  6
CONTINUOUS
 10
6.3133720839
 20
12.4687593968
 11
5.8283720839
 21
12.4687593968
  0
LINE
  5
25E
100
AcDbEntity
  8
LAYER_FEATURE
100
AcDbLine
 62
7
  6
CONTINUOUS
 10
5.8283720839
 20
12.509306035
 11
6.3133720839
 21
12.509306035
  0
LINE
  5
25F
100
AcDbEntity
  8
LAYER_FEATURE
100
AcDbLine
 62
7
  6
CONTINUOUS
 10
6.3133720839
 20
14.0178894999
 11
6.3313667571
 21
14.1025477814
  0
LINE
  5
260
100
AcDbEntity
  8
LAYER_FEATURE
100
AcDbLine
 62
7
  6
CONTINUOUS
 10
5.8283720839
 20
12.5351727814
 11
6.3133720839
 21
12.5351727814
  0
LINE
  5
261
100
AcDbEntity
  8
LAYER_FEATURE
100
AcDbLine
 62
7
  6
CONTINUOUS
 10
6.3133720839
 20
12.5832977814
 11
5.8283720839
 21
12.5832977814
  0
LINE
  5
262
100
AcDbEntity
  8
LAYER_FEATURE
100
AcDbLine
 62
7
  6
CONTINUOUS
 10
6.3133720839
 20
11.1822060629
 11
6.3313667571
 21
11.0975477814
  0
LINE
  5
263
100
AcDbEntity
  8
LAYER_FEATURE
100
AcDbLine
 62
7
  6
CONTINUOUS
 10
5.8103774106
 20
11.0975477814
 11
5.8283720839
 21
11.1822060629
  0
LINE
  5
264
100
AcDbEntity
  8
LAYER_FEATURE
100
AcDbLine
 62
7
  6
CONTINUOUS
 10
6.3133720839
 20
12.6167977814
 11
5.8283720839
 21
12.6167977814
  0
LINE
  5
265
100
AcDbEntity
  8
LAYER_FEATURE
100
AcDbLine
 62
7
  6
CONTINUOUS
 10
5.8283720839
 20
12.6649227814
 11
6.3133720839
 21
12.6649227814
  0
LINE
  5
266
100
AcDbEntity
  8
LAYER_FEATURE
100
AcDbLine
 62
7
  6
CONTINUOUS
 10
5.8103774106
 20
14.1025477814
 11
5.8283720839
 21
14.0178894999
  0
LINE
  5
267
100
AcDbEntity
  8
LAYER_FEATURE
100
AcDbLine
 62
7
  6
CONTINUOUS
 10
6.3133720839
 20
11.182206146
 11
6.3133720839
 21
14.0178894168
  0
LINE
  5
268
100
AcDbEntity
  8
LAYER_FEATURE
100
AcDbLine
 62
7
  6
CONTINUOUS
 10
6.3313667571
 20
11.0975477814
 11
6.3313667571
 21
14.1025477814
  0
LINE
  5
269
100
AcDbEntity
  8
LAYER_FEATURE
100
AcDbLine
 62
7
  6
CONTINUOUS
 10
6.3773720839
 20
11.0975477814
 11
6.3773720839
 21
14.1025477814
  0
LINE
  5
26A
100
AcDbEntity
  8
02___PRT_ALL_AXES
100
AcDbLine
 62
7
  6
CONTINUOUS
 10
6.3833720839
 20
11.3175477814
 11
6.3833720839
 21
13.8825477814
  0
LINE
  5
26B
100
AcDbEntity
  8
02___PRT_ALL_AXES
100
AcDbLine
 62
7
  6
CONTINUOUS
 10
5.7643720839
 20
11.3194234383
 11
5.7583720839
 21
11.3175477814
  0
LINE
  5
26C
100
AcDbEntity
  8
02___PRT_ALL_AXES
100
AcDbLine
 62
7
  6
CONTINUOUS
 10
5.7643720839
 20
13.8806721244
 11
5.7583720839
 21
13.8825477814
  0
LINE
  5
26D
100
AcDbEntity
  8
02___PRT_ALL_AXES
100
AcDbLine
 62
7
  6
CONTINUOUS
 10
5.8283720839
 20
13.9877977814
 11
6.3133720839
 21
13.9877977814
  0
LINE
  5
26E
100
AcDbEntity
  8
LAYER_FEATURE
100
AcDbLine
 62
7
  6
CONTINUOUS
 10
5.7643720839
 20
14.1025477814
 11
5.8103774106
 21
14.1025477814
  0
LINE
  5
26F
100
AcDbEntity
  8
LAYER_FEATURE
100
AcDbLine
 62
7
  6
CONTINUOUS
 10
6.3313667571
 20
14.1025477814
 11
6.3773720839
 21
14.1025477814
  0
LINE
  5
270
100
AcDbEntity
  8
LAYER_FEATURE
100
AcDbLine
 62
7
  6
CONTINUOUS
 10
15.188780478
 20
11.0083049929
 11
15.23115419
 21
11.0083049929
  0
LINE
  5
271
100
AcDbEntity
  8
LAYER_FEATURE
100
AcDbLine
 62
7
  6
CONTINUOUS
 10
15.7110171553
 20
11.0083049929
 11
15.7533908673
 21
11.0083049929
  0
LINE
  5
272
100
AcDbEntity
  8
02___PRT_ALL_AXES
100
AcDbLine
 62
7
  6
CONTINUOUS
 10
15.2477283816
 20
11.1230549929
 11
15.4868272188
 21
11.1230549929
  0
LINE
  5
273
100
AcDbEntity
  8
02___PRT_ALL_AXES
100
AcDbLine
 62
7
  6
CONTINUOUS
 10
15.6929081116
 20
13.7820538429
 11
15.6527246562
 21
13.7682948118
  0
LINE
  5
274
100
AcDbEntity
  8
02___PRT_ALL_AXES
100
AcDbLine
 62
7
  6
CONTINUOUS
 10
15.6929081116
 20
11.2395561429
 11
15.653383203
 21
11.2530896841
  0
LINE
  5
275
100
AcDbEntity
  8
LAYER_FEATURE
100
AcDbLine
 62
7
  6
CONTINUOUS
 10
14.8079593724
 20
13.1968590421
 11
14.814873451
 21
13.2252670337
  0
LINE
  5
276
100
AcDbEntity
  8
LAYER_FEATURE
100
AcDbLine
 62
7
  6
CONTINUOUS
 10
14.843053288
 20
13.3268048873
 11
14.8487464262
 21
13.3452278892
  0
LINE
  5
277
100
AcDbEntity
  8
LAYER_FEATURE
100
AcDbLine
 62
7
  6
CONTINUOUS
 10
14.759536155
 20
12.9283659867
 11
14.7638152248
 21
12.9600125647
  0
LINE
  5
278
100
AcDbEntity
  8
LAYER_FEATURE
100
AcDbLine
 62
7
  6
CONTINUOUS
 10
14.7808118908
 20
13.0661041188
 11
14.7864438778
 21
13.0963214035
  0
LINE
  5
279
100
AcDbEntity
  8
LAYER_FEATURE
100
AcDbLine
 62
7
  6
CONTINUOUS
 10
14.7563701215
 20
12.9954968514
 11
14.7479164682
 21
13.0114394428
  0
LINE
  5
27A
100
AcDbEntity
  8
LAYER_FEATURE
100
AcDbLine
 62
7
  6
CONTINUOUS
 10
14.7805927389
 20
13.1337231678
 11
14.7728873536
 21
13.1519960864
  0
LINE
  5
27B
100
AcDbEntity
  8
LAYER_FEATURE
100
AcDbLine
 62
7
  6
CONTINUOUS
 10
14.810689858
 20
13.2641159267
 11
14.8038296404
 21
13.2844893799
  0
LINE
  5
27C
100
AcDbEntity
  8
LAYER_FEATURE
100
AcDbLine
 62
7
  6
CONTINUOUS
 10
14.8462829901
 20
13.3850353636
 11
14.8403542115
 21
13.4072531434
  0
LINE
  5
27D
100
AcDbEntity
  8
02___PRT_ALL_AXES
100
AcDbLine
 62
7
  6
CONTINUOUS
 10
15.5139693282
 20
12.21431802
 11
15.5173049445
 21
12.2146539405
  0
LINE
  5
27E
100
AcDbEntity
  8
02___PRT_ALL_AXES
100
AcDbLine
 62
7
  6
CONTINUOUS
 10
15.5173049445
 20
12.2146539405
 11
15.5105114856
 21
12.2147000595
  0
LINE
  5
27F
100
AcDbEntity
  8
LAYER_FEATURE
100
AcDbLine
 62
7
  6
CONTINUOUS
 10
14.7294835527
 20
12.9042186035
 11
15.146433419
 21
12.9042186035
  0
LINE
  5
280
100
AcDbEntity
  8
0
100
AcDbLine
 62
7
  6
CONTINUOUS
 10
14.7344633112
 20
12.9133150594
 11
15.1473699241
 21
12.9133150594
  0
LINE
  5
281
100
AcDbEntity
  8
LAYER_FEATURE
100
AcDbLine
 62
7
  6
CONTINUOUS
 10
15.1490035708
 20
12.9283659867
 11
14.759536155
 21
12.9283659867
  0
LINE
  5
282
100
AcDbEntity
  8
LAYER_FEATURE
100
AcDbLine
 62
7
  6
CONTINUOUS
 10
15.1527851552
 20
12.9600125647
 11
14.7638152248
 21
12.9600125647
  0
LINE
  5
283
100
AcDbEntity
  8
LAYER_FEATURE
100
AcDbLine
 62
7
  6
CONTINUOUS
 10
14.7460569647
 20
13.026790051
 11
15.161562895
 21
13.026790051
  0
LINE
  5
284
100
AcDbEntity
  8
LAYER_FEATURE
100
AcDbLine
 62
7
  6
CONTINUOUS
 10
14.7498954023
 20
13.0507492097
 11
15.165099835
 21
13.0507492097
  0
LINE
  5
285
100
AcDbEntity
  8
0
100
AcDbLine
 62
7
  6
CONTINUOUS
 10
14.7546502539
 20
13.0584418181
 11
15.1662834027
 21
13.0584418181
  0
LINE
  5
286
100
AcDbEntity
  8
LAYER_FEATURE
100
AcDbLine
 62
7
  6
CONTINUOUS
 10
15.1674623074
 20
13.0661041188
 11
14.7808118908
 21
13.0661041188
  0
LINE
  5
287
100
AcDbEntity
  8
LAYER_FEATURE
100
AcDbLine
 62
7
  6
CONTINUOUS
 10
15.172220797
 20
13.0963214035
 11
14.7864438778
 21
13.0963214035
  0
LINE
  5
288
100
AcDbEntity
  8
LAYER_CUT_FEAT
100
AcDbLine
 62
7
  6
CONTINUOUS
 10
15.7466964589
 20
13.1975883739
 11
15.7510020536
 21
13.1980043525
  0
LINE
  5
289
100
AcDbEntity
  8
LAYER_FEATURE
100
AcDbLine
 62
7
  6
CONTINUOUS
 10
14.7717088444
 20
13.1677848124
 11
15.1849384584
 21
13.1677848124
  0
LINE
  5
28A
100
AcDbEntity
  8
LAYER_FEATURE
100
AcDbLine
 62
7
  6
CONTINUOUS
 10
14.7765677906
 20
13.190489704
 11
15.1892620819
 21
13.190489704
  0
LINE
  5
28B
100
AcDbEntity
  8
0
100
AcDbLine
 62
7
  6
CONTINUOUS
 10
14.7810379402
 20
13.1968519566
 11
15.1904736264
 21
13.1968519566
  0
LINE
  5
28C
100
AcDbEntity
  8
LAYER_FEATURE
100
AcDbLine
 62
7
  6
CONTINUOUS
 10
15.1964268457
 20
13.2252670337
 11
14.814873451
 21
13.2252670337
  0
LINE
  5
28D
100
AcDbEntity
  8
LAYER_FEATURE
100
AcDbLine
 62
7
  6
CONTINUOUS
 10
14.8033469461
 20
13.3005176714
 11
15.2132585923
 21
13.3005176714
  0
LINE
  5
28E
100
AcDbEntity
  8
LAYER_FEATURE
100
AcDbLine
 62
7
  6
CONTINUOUS
 10
14.8091652966
 20
13.3216827688
 11
15.21857204
 21
13.3216827688
  0
LINE
  5
28F
100
AcDbEntity
  8
0
100
AcDbLine
 62
7
  6
CONTINUOUS
 10
14.8132945296
 20
13.3268048873
 11
15.2198579358
 21
13.3268048873
  0
LINE
  5
290
100
AcDbEntity
  8
LAYER_FEATURE
100
AcDbLine
 62
7
  6
CONTINUOUS
 10
15.224482987
 20
13.3452278892
 11
14.8487464262
 21
13.3452278892
  0
LINE
  5
291
100
AcDbEntity
  8
LAYER_FEATURE
100
AcDbLine
 62
7
  6
CONTINUOUS
 10
14.8405734021
 20
13.4233194353
 11
15.2463250789
 21
13.4233194353
  0
LINE
  5
292
100
AcDbEntity
  8
02___PRT_ALL_AXES
100
AcDbLine
 62
7
  6
CONTINUOUS
 10
15.2477283816
 20
13.8985549929
 11
15.4868533576
 21
13.8985549929
  0
LINE
  5
293
100
AcDbEntity
  8
LAYER_FEATURE
100
AcDbLine
 62
7
  6
CONTINUOUS
 10
15.188780478
 20
14.0133049929
 11
15.23115419
 21
14.0133049929
  0
LINE
  5
294
100
AcDbEntity
  8
LAYER_FEATURE
100
AcDbLine
 62
7
  6
CONTINUOUS
 10
15.7110171553
 20
14.0133049929
 11
15.7533908673
 21
14.0133049929
  0
CIRCLE
  5
295
100
AcDbEntity
  8
LAYER_FEATURE
100
AcDbCircle
 62
7
  6
CONTINUOUS
 10
15.5603552569
 20
5.4606247044
 40
1.5025
  0
CIRCLE
  5
296
100
AcDbEntity
  8
LAYER_FEATURE
100
AcDbCircle
 62
7
  6
CONTINUOUS
 10
15.5603552569
 20
5.4606247044
 40
1.4178417185
  0
CIRCLE
  5
297
100
AcDbEntity
  8
02___PRT_ALL_AXES
100
AcDbCircle
 62
7
  6
CONTINUOUS
 10
15.5603552569
 20
5.4606247044
 40
1.2825
  0
ARC
  5
298
100
AcDbEntity
  8
02___PRT_ALL_AXES
100
AcDbCircle
 62
7
  6
CONTINUOUS
 10
15.5603552569
 20
5.4606247044
 40
0.6875
100
AcDbArc
 50
58.9499278124
 51
136.0500721876
  0
ARC
  5
299
100
AcDbEntity
  8
LAYER_CUT_FEAT
100
AcDbCircle
 62
7
  6
CONTINUOUS
 10
15.5603552569
 20
5.4606247044
 40
0.6875
100
AcDbArc
 50
248.9499278124
 51
41.0500721876
  0
ARC
  5
29A
100
AcDbEntity
  8
02___PRT_ALL_AXES
100
AcDbCircle
 62
7
  6
CONTINUOUS
 10
15.5603552569
 20
5.4606247044
 40
0.6875
100
AcDbArc
 50
153.9499278124
 51
231.0500721876
  0
ARC
  5
29B
100
AcDbEntity
  8
02___PRT_ALL_AXES
100
AcDbCircle
 62
7
  6
CONTINUOUS
 10
15.5603552569
 20
5.4606247044
 40
0.6656478713
100
AcDbArc
 50
135.5426864311
 51
154.4573135689
  0
ARC
  5
29C
100
AcDbEntity
  8
LAYER_CUT_FEAT
100
AcDbCircle
 62
7
  6
CONTINUOUS
 10
15.5603552569
 20
5.4606247044
 40
0.6437957425
100
AcDbArc
 50
59.5897023119
 51
230.4102976881
  0
ARC
  5
29D
100
AcDbEntity
  8
LAYER_CUT_FEAT
100
AcDbCircle
 62
7
  6
CONTINUOUS
 10
15.5603552569
 20
5.4606247044
 40
0.6437957425
100
AcDbArc
 50
249.5897023119
 51
40.4102976881
  0
ARC
  5
29E
100
AcDbEntity
  8
LAYER_CUT_FEAT
100
AcDbCircle
 62
7
  6
CONTINUOUS
 10
15.9821846258
 20
5.9633413702
 40
0.109375
100
AcDbArc
 50
308.6898214686
 51
151.3101785314
  0
ARC
  5
29F
100
AcDbEntity
  8
02___PRT_ALL_AXES
100
AcDbCircle
 62
7
  6
CONTINUOUS
 10
15.2322302569
 20
4.8922955332
 40
0.109375
100
AcDbArc
 50
138.6898214686
 51
341.3101785314
  0
ARC
  5
2A0
100
AcDbEntity
  8
02___PRT_ALL_AXES
100
AcDbCircle
 62
7
  6
CONTINUOUS
 10
15.0227867279
 20
5.8370342408
 40
0.109375
100
AcDbArc
 50
55.1836503003
 51
234.8163496997
  0
ARC
  5
2A1
100
AcDbEntity
  8
02___PRT_ALL_AXES
100
AcDbCircle
 62
7
  6
CONTINUOUS
 10
20.1442067221
 20
76.8510737878
 40
65.154995181
100
AcDbArc
 50
266.0772449768
 51
266.1922997506
  0
ARC
  5
2A2
100
AcDbEntity
  8
02___PRT_ALL_AXES
100
AcDbCircle
 62
7
  6
CONTINUOUS
 10
13.27126363
 20
-21.000709423
 40
33.0236249972
100
AcDbArc
 50
85.443269842
 51
85.9390441874
  0
ARC
  5
2A3
100
AcDbEntity
  8
LAYER_FEATURE
100
AcDbCircle
 62
7
  6
CONTINUOUS
 10
17.6342332671
 20
12.5763695071
 40
2.9230875834
100
AcDbArc
 50
170.6603214393
 51
171.1359376951
  0
ARC
  5
2A4
100
AcDbEntity
  8
LAYER_FEATURE
100
AcDbCircle
 62
7
  6
CONTINUOUS
 10
17.2773933039
 20
12.6434297377
 40
2.5599614948
100
AcDbArc
 50
167.6608168385
 51
168.1804944384
  0
ARC
  5
2A5
100
AcDbEntity
  8
LAYER_FEATURE
100
AcDbCircle
 62
7
  6
CONTINUOUS
 10
16.8906148474
 20
12.7381035751
 40
2.161711569
100
AcDbArc
 50
164.3380159643
 51
164.9198065723
  0
ARC
  5
2A6
100
AcDbEntity
  8
LAYER_FEATURE
100
AcDbCircle
 62
7
  6
CONTINUOUS
 10
16.8618486954
 20
12.7606882651
 40
2.1418222353
100
AcDbArc
 50
162.8529971638
 51
165.1855104943
  0
ARC
  5
2A7
100
AcDbEntity
  8
LAYER_FEATURE
100
AcDbCircle
 62
7
  6
CONTINUOUS
 10
15.7391377613
 20
11.4426869979
 40
0.2080906393
100
AcDbArc
 50
255.7483104783
 51
257.1913122139
  0
SPLINE
  5
2A8
100
AcDbEntity
  8
02___PRT_ALL_AXES
100
AcDbSpline
 62
7
  6
CONTINUOUS
 70
0
 71
3
 72
39
 73
35
 74
0
 42
0.0000001
 43
0.0000001
 44
0.0000000001
 40
0.0
 40
0.0
 40
0.0
 40
0.0
 40
0.0461531089
 40
0.0913512749
 40
0.1355640855
 40
0.1787654562
 40
0.220930575
 40
0.2620376493
 40
0.30206766
 40
0.3410046826
 40
0.3788361678
 40
0.4155532338
 40
0.4511510238
 40
0.4856291057
 40
0.5189918995
 40
0.5512491625
 40
0.582416531
 40
0.6125161206
 40
0.6415771815
 40
0.6696367708
 40
0.6967404435
 40
0.7229429274
 40
0.7483087272
 40
0.7729125889
 40
0.7968397132
 40
0.8201856374
 40
0.8430556832
 40
0.8655638891
 40
0.8878313923
 40
0.9099842909
 40
0.9321511157
 40
0.9544600998
 40
0.9770364726
 40
1.0
 40
1.0
 40
1.0
 40
1.0
 10
16.1501334272
 20
11.7135902086
 30
0.0
 10
16.1468278419
 20
11.7028933306
 30
0.0
 10
16.1400890898
 20
11.6817808015
 30
0.0
 10
16.1294813832
 20
11.6506508059
 30
0.0
 10
16.1184882885
 20
11.6204153348
 30
0.0
 10
16.1071213931
 20
11.5911060649
 30
0.0
 10
16.0953924029
 20
11.5627532563
 30
0.0
 10
16.0833135247
 20
11.5353863823
 30
0.0
 10
16.0708972741
 20
11.5090337981
 30
0.0
 10
16.0581565097
 20
11.4837228099
 30
0.0
 10
16.0451044041
 20
11.4594796298
 30
0.0
 10
16.0317544233
 20
11.4363293515
 30
0.0
 10
16.0181203067
 20
11.4142959258
 30
0.0
 10
16.0042160574
 20
11.3934021293
 30
0.0
 10
15.9900559076
 20
11.3736695536
 30
0.0
 10
15.9756542945
 20
11.3551185979
 30
0.0
 10
15.9610258381
 20
11.3377684611
 30
0.0
 10
15.9461853144
 20
11.3216371416
 30
0.0
 10
15.9311476508
 20
11.3067414292
 30
0.0
 10
15.9159279004
 20
11.2930969314
 30
0.0
 10
15.9005412405
 20
11.2807181024
 30
0.0
 10
15.8850029883
 20
11.2696182705
 30
0.0
 10
15.8693286345
 20
11.2598096675
 30
0.0
 10
15.8535339158
 20
11.2513034228
 30
0.0
 10
15.8376348888
 20
11.2441095673
 30
0.0
 10
15.821648028
 20
11.2382369856
 30
0.0
 10
15.8055903182
 20
11.2336933067
 30
0.0
 10
15.7894793022
 20
11.2304847433
 30
0.0
 10
15.7733330745
 20
11.2286158607
 30
0.0
 10
15.7571701242
 20
11.2280894114
 30
0.0
 10
15.7410092652
 20
11.2289061559
 30
0.0
 10
15.7248689002
 20
11.2310649794
 30
0.0
 10
15.7087686133
 20
11.2345623487
 30
0.0
 10
15.6981783056
 20
11.2377516125
 30
0.0
 10
15.692908112
 20
11.2395561504
 30
0.0
  0
SPLINE
  5
2A9
100
AcDbEntity
  8
02___PRT_ALL_AXES
100
AcDbSpline
 62
7
  6
CONTINUOUS
 70
0
 71
3
 72
42
 73
38
 74
0
 42
0.0000001
 43
0.0000001
 44
0.0000000001
 40
0.0
 40
0.0
 40
0.0
 40
0.0
 40
0.0246261644
 40
0.0512698422
 40
0.0798923797
 40
0.1104132576
 40
0.1427192596
 40
0.1766699935
 40
0.212102836
 40
0.2488367732
 40
0.2866757234
 40
0.3254114567
 40
0.3648262632
 40
0.4046954551
 40
0.4447897635
 40
0.4848776768
 40
0.5247277479
 40
0.564110902
 40
0.6028027749
 40
0.6405861138
 40
0.6772532865
 40
0.7126089609
 40
0.7464730451
 40
0.778684024
 40
0.8091028927
 40
0.8376179839
 40
0.8641511198
 40
0.8886657197
 40
0.9111776694
 40
0.9317697923
 40
0.9414004167
 40
0.9506226786
 40
0.9679846389
 40
0.9762386595
 40
0.9842806554
 40
0.99217717
 40
1.0
 40
1.0
 40
1.0
 40
1.0
 10
15.4935540111
 20
12.4196851727
 30
0.0
 10
15.4924817646
 20
12.4181813998
 30
0.0
 10
15.4903990636
 20
12.4149425078
 30
0.0
 10
15.4875593074
 20
12.4096610776
 30
0.0
 10
15.4848981494
 20
12.403798647
 30
0.0
 10
15.4824335798
 20
12.3973946031
 30
0.0
 10
15.4801819829
 20
12.3904914986
 30
0.0
 10
15.4781586424
 20
12.3831357044
 30
0.0
 10
15.4763773171
 20
12.375376775
 30
0.0
 10
15.4748501759
 20
12.3672671472
 30
0.0
 10
15.473587666
 20
12.358861729
 30
0.0
 10
15.4725984351
 20
12.3502175076
 30
0.0
 10
15.4718892627
 20
12.3413931407
 30
0.0
 10
15.4714650109
 20
12.3324485437
 30
0.0
 10
15.4713285881
 20
12.3234444691
 30
0.0
 10
15.4714809295
 20
12.3144420832
 30
0.0
 10
15.47192099
 20
12.3055025404
 30
0.0
 10
15.4726457522
 20
12.2966865576
 30
0.0
 10
15.4736502477
 20
12.2880539911
 30
0.0
 10
15.4749275927
 20
12.2796634173
 30
0.0
 10
15.4764690391
 20
12.271571719
 30
0.0
 10
15.4782640421
 20
12.2638336798
 30
0.0
 10
15.480300345
 20
12.2565015856
 30
0.0
 10
15.4825640922
 20
12.2496248347
 30
0.0
 10
15.4850399628
 20
12.2432495668
 30
0.0
 10
15.4877113854
 20
12.2374182757
 30
0.0
 10
15.4905607205
 20
12.2321695705
 30
0.0
 10
15.4935699127
 20
12.227537628
 30
0.0
 10
15.4967201023
 20
12.2235531116
 30
0.0
 10
15.499508331
 20
12.2207328359
 30
0.0
 10
15.5017933452
 20
12.2188500181
 30
0.0
 10
15.5040107275
 20
12.2172789637
 30
0.0
 10
15.5063176035
 20
12.2160196867
 30
0.0
 10
15.5086841366
 20
12.2151319236
 30
0.0
 10
15.5104401061
 20
12.2146627944
 30
0.0
 10
15.512202779
 20
12.2143808427
 30
0.0
 10
15.5133826353
 20
12.214318012
 30
0.0
 10
15.5139693282
 20
12.214318017
 30
0.0
  0
SPLINE
  5
2AA
100
AcDbEntity
  8
02___PRT_ALL_AXES
100
AcDbSpline
 62
7
  6
CONTINUOUS
 70
0
 71
3
 72
23
 73
19
 74
0
 42
0.0000001
 43
0.0000001
 44
0.0000000001
 40
0.0
 40
0.0
 40
0.0
 40
0.0
 40
0.0888373073
 40
0.1745056181
 40
0.2567846461
 40
0.3354943553
 40
0.4104786866
 40
0.4816207576
 40
0.5488460546
 40
0.6121310341
 40
0.6715128734
 40
0.7271015726
 40
0.7790945831
 40
0.8277932149
 40
0.8736186486
 40
0.9171227981
 40
0.9589869432
 40
1.0
 40
1.0
 40
1.0
 40
1.0
 10
15.817393865
 20
11.8399048432
 30
0.0
 10
15.8178692961
 20
11.8380701088
 30
0.0
 10
15.8188605342
 20
11.834480592
 30
0.0
 10
15.820500849
 20
11.8292522716
 30
0.0
 10
15.822262897
 20
11.8242922241
 30
0.0
 10
15.8241399482
 20
11.8196191512
 30
0.0
 10
15.8261250556
 20
11.8152504116
 30
0.0
 10
15.8282108237
 20
11.8112022828
 30
0.0
 10
15.8303896007
 20
11.8074897473
 30
0.0
 10
15.8326535042
 20
11.8041264941
 30
0.0
 10
15.8349945277
 20
11.8011248982
 30
0.0
 10
15.8374046399
 20
11.7984960596
 30
0.0
 10
15.8398758557
 20
11.7962499195
 30
0.0
 10
15.8424002708
 20
11.7943954752
 30
0.0
 10
15.8449697313
 20
11.7929410593
 30
0.0
 10
15.8475757335
 20
11.79189454
 30
0.0
 10
15.8502071751
 20
11.7912630402
 30
0.0
 10
15.8519784039
 20
11.7911217712
 30
0.0
 10
15.8528534121
 20
11.7911217726
 30
0.0
  0
SPLINE
  5
2AB
100
AcDbEntity
  8
LAYER_CUT_FEAT
100
AcDbSpline
 62
7
  6
CONTINUOUS
 70
0
 71
3
 72
31
 73
27
 74
0
 42
0.0000001
 43
0.0000001
 44
0.0000000001
 40
0.0
 40
0.0
 40
0.0
 40
0.0
 40
0.016764577
 40
0.033749967
 40
0.0511665081
 40
0.0692055922
 40
0.0880340921
 40
0.1077917619
 40
0.1285915736
 40
0.1505211949
 40
0.1736454024
 40
0.1980091273
 40
0.223639726
 40
0.2505494469
 40
0.2787377146
 40
0.3081924459
 40
0.3388917811
 40
0.3708053914
 40
0.4381081882
 40
0.5097299133
 40
0.5852038939
 40
0.6639953117
 40
0.745515462
 40
0.8291340353
 40
0.9141885839
 40
1.0
 40
1.0
 40
1.0
 40
1.0
 10
15.7076782875
 20
13.2631039722
 30
0.0
 10
15.7069842191
 20
13.2631039674
 30
0.0
 10
15.7055853932
 20
13.2630157551
 30
0.0
 10
15.703499211
 20
13.2626201738
 30
0.0
 10
15.7014248078
 20
13.2619628678
 30
0.0
 10
15.6993679873
 20
13.2610463897
 30
0.0
 10
15.6973335181
 20
13.2598738558
 30
0.0
 10
15.6953259306
 20
13.258448828
 30
0.0
 10
15.693349559
 20
13.2567751327
 30
0.0
 10
15.6914086549
 20
13.2548569931
 30
0.0
 10
15.6895074046
 20
13.2526990759
 30
0.0
 10
15.6876500349
 20
13.2503064718
 30
0.0
 10
15.6858407087
 20
13.2476848105
 30
0.0
 10
15.6840835334
 20
13.2448402442
 30
0.0
 10
15.6823825902
 20
13.2417794228
 30
0.0
 10
15.6807418303
 20
13.2385095497
 30
0.0
 10
15.6791650492
 20
13.2350383061
 30
0.0
 10
15.677116745
 20
13.2300639377
 30
0.0
 10
15.6747550926
 20
13.2233916507
 30
0.0
 10
15.6722791294
 20
13.2148633659
 30
0.0
 10
15.6701365212
 20
13.2057562877
 30
0.0
 10
15.6683477481
 20
13.1961565145
 30
0.0
 10
15.6669299506
 20
13.1861546037
 30
0.0
 10
15.6658967534
 20
13.1758452298
 30
0.0
 10
15.6652580369
 20
13.1653262153
 30
0.0
 10
15.6650996067
 20
13.1582519667
 30
0.0
 10
15.6650873325
 20
13.1546993189
 30
0.0
  0
SPLINE
  5
2AC
100
AcDbEntity
  8
02___PRT_ALL_AXES
100
AcDbSpline
 62
7
  6
CONTINUOUS
 70
0
 71
3
 72
37
 73
33
 74
0
 42
0.0000001
 43
0.0000001
 44
0.0000000001
 40
0.0
 40
0.0
 40
0.0
 40
0.0
 40
0.019166813
 40
0.0385630946
 40
0.0583055114
 40
0.0785031656
 40
0.0992559402
 40
0.1206534361
 40
0.1427745409
 40
0.1656874695
 40
0.1894500953
 40
0.2141105156
 40
0.2397078071
 40
0.2662727759
 40
0.2938286525
 40
0.3223918528
 40
0.3519726641
 40
0.3825758019
 40
0.4142009363
 40
0.4468432273
 40
0.4804937352
 40
0.5151397384
 40
0.5507651164
 40
0.5873506601
 40
0.6248742863
 40
0.6633112643
 40
0.7026344815
 40
0.7428146068
 40
0.783820186
 40
0.8256179954
 40
0.9114447278
 40
1.0
 40
1.0
 40
1.0
 40
1.0
 10
15.7510020523
 20
11.8236055219
 30
0.0
 10
15.7479362531
 20
11.8238383856
 30
0.0
 10
15.7417853329
 20
11.8245787553
 30
0.0
 10
15.7326195998
 20
11.8264941598
 30
0.0
 10
15.7234872745
 20
11.8292156991
 30
0.0
 10
15.7144005405
 20
11.8327390524
 30
0.0
 10
15.705369974
 20
11.8370590519
 30
0.0
 10
15.6964060988
 20
11.8421696384
 30
0.0
 10
15.6875190584
 20
11.8480640231
 30
0.0
 10
15.6787188297
 20
11.8547347248
 30
0.0
 10
15.6700152327
 20
11.8621735275
 30
0.0
 10
15.6614179634
 20
11.8703714495
 30
0.0
 10
15.6529366497
 20
11.8793187693
 30
0.0
 10
15.6445808546
 20
11.8890049882
 30
0.0
 10
15.6363600246
 20
11.8994187728
 30
0.0
 10
15.6282835146
 20
11.9105479848
 30
0.0
 10
15.6203605813
 20
11.9223796862
 30
0.0
 10
15.6126003386
 20
11.9349001156
 30
0.0
 10
15.60501173
 20
11.9480946935
 30
0.0
 10
15.5976035474
 20
11.9619480624
 30
0.0
 10
15.5903844092
 20
11.9764440923
 30
0.0
 10
15.5833627032
 20
11.9915658741
 30
0.0
 10
15.5765466111
 20
12.0072957623
 30
0.0
 10
15.5699441026
 20
12.0236154006
 30
0.0
 10
15.5635628969
 20
12.0405057259
 30
0.0
 10
15.5574104465
 20
12.0579469908
 30
0.0
 10
15.5514939552
 20
12.0759188081
 30
0.0
 10
15.5458203818
 20
12.0944001474
 30
0.0
 10
15.5403963098
 20
12.1133694283
 30
0.0
 10
15.5334443539
 20
12.1395129068
 30
0.0
 10
15.5254418961
 20
12.1732628523
 30
0.0
 10
15.519900968
 20
12.2006876344
 30
0.0
 10
15.5173049445
 20
12.2146539405
 30
0.0
  0
SPLINE
  5
2AD
100
AcDbEntity
  8
LAYER_FEATURE
100
AcDbSpline
 62
7
  6
CONTINUOUS
 70
0
 71
3
 72
22
 73
18
 74
0
 42
0.0000001
 43
0.0000001
 44
0.0000000001
 40
0.0
 40
0.0
 40
0.0
 40
0.0
 40
0.055532439
 40
0.1112519056
 40
0.167343095
 40
0.2239862018
 40
0.2813548973
 40
0.3396146359
 40
0.3989213684
 40
0.4594204206
 40
0.5844820429
 40
0.6493168951
 40
0.7158115404
 40
0.784054397
 40
0.8541232652
 40
0.9260858083
 40
1.0
 40
1.0
 40
1.0
 40
1.0
 10
15.23115419
 20
14.0133049845
 30
0.0
 10
15.235948689
 20
14.0133049798
 30
0.0
 10
15.2455565796
 20
14.0130013709
 30
0.0
 10
15.2599488597
 20
14.0116361103
 30
0.0
 10
15.2743232474
 20
14.0093618798
 30
0.0
 10
15.2886698367
 20
14.0061803068
 30
0.0
 10
15.3029798421
 20
14.002093703
 30
0.0
 10
15.3172442225
 20
13.9971050896
 30
0.0
 10
15.3314546699
 20
13.9912175847
 30
0.0
 10
15.350525964
 20
13.9820753884
 30
0.0
 10
15.3692600636
 20
13.9712015264
 30
0.0
 10
15.3875815608
 20
13.9587697432
 30
0.0
 10
15.4013939951
 20
13.9484587152
 30
0.0
 10
15.4151013953
 20
13.9372807105
 30
0.0
 10
15.4286966023
 20
13.9252420604
 30
0.0
 10
15.4421711455
 20
13.912350434
 30
0.0
 10
15.4509496123
 20
13.9033149611
 30
0.0
 10
15.4553176266
 20
13.8986626193
 30
0.0
  0
SPLINE
  5
2AE
100
AcDbEntity
  8
LAYER_FEATURE
100
AcDbSpline
 62
7
  6
CONTINUOUS
 70
0
 71
3
 72
23
 73
19
 74
0
 42
0.0000001
 43
0.0000001
 44
0.0000000001
 40
0.0
 40
0.0
 40
0.0
 40
0.0
 40
0.0555382664
 40
0.111263305
 40
0.1673595813
 40
0.2240070303
 40
0.2813791331
 40
0.3396411488
 40
0.3989488208
 40
0.4594473988
 40
0.521270884
 40
0.5845418588
 40
0.6493712683
 40
0.7158586352
 40
0.7840924556
 40
0.8541504404
 40
0.9261002703
 40
1.0
 40
1.0
 40
1.0
 40
1.0
 10
15.23115419
 20
11.0083050013
 30
0.0
 10
15.2359451991
 20
11.0083049966
 30
0.0
 10
15.2455460672
 20
11.0086081918
 30
0.0
 10
15.2599278637
 20
11.0099714199
 30
0.0
 10
15.2742917967
 20
11.0122423724
 30
0.0
 10
15.2886280111
 20
11.0154192893
 30
0.0
 10
15.3029276952
 20
11.0194999389
 30
0.0
 10
15.3171819392
 20
11.0244813703
 30
0.0
 10
15.3313820379
 20
11.0303601264
 30
0.0
 10
15.345519373
 20
11.0371322703
 30
0.0
 10
15.3595855126
 20
11.0447932529
 30
0.0
 10
15.3735720673
 20
11.053338164
 30
0.0
 10
15.3874707835
 20
11.0627615373
 30
0.0
 10
15.4012734959
 20
11.0730574499
 30
0.0
 10
15.4149720392
 20
11.0842195518
 30
0.0
 10
15.4285584592
 20
11.0962409923
 30
0.0
 10
15.4420245364
 20
11.1091142684
 30
0.0
 10
15.450797667
 20
11.1181370233
 30
0.0
 10
15.4551630653
 20
11.1227828198
 30
0.0
  0
SPLINE
  5
2AF
100
AcDbEntity
  8
LAYER_FEATURE
100
AcDbSpline
 62
7
  6
CONTINUOUS
 70
0
 71
3
 72
68
 73
64
 74
0
 42
0.0000001
 43
0.0000001
 44
0.0000000001
 40
0.0
 40
0.0
 40
0.0
 40
0.0
 40
0.0038448265
 40
0.0076962392
 40
0.0115607831
 40
0.0154449202
 40
0.0193549915
 40
0.0232971829
 40
0.0272774884
 40
0.0313016907
 40
0.0395020789
 40
0.0479412181
 40
0.0566557572
 40
0.0656777061
 40
0.0750344918
 40
0.0847491527
 40
0.0948406176
 40
0.1053240294
 40
0.1162110792
 40
0.1275103338
 40
0.1392275419
 40
0.1513659152
 40
0.163926381
 40
0.1769078068
 40
0.1903071987
 40
0.2041198767
 40
0.2183396291
 40
0.232958849
 40
0.2479686547
 40
0.2633589967
 40
0.2791187536
 40
0.2952358175
 40
0.3116971723
 40
0.3284889642
 40
0.3455965666
 40
0.3630046406
 40
0.3806971914
 40
0.3986576209
 40
0.4168687774
 40
0.4353130026
 40
0.4539721773
 40
0.4728277646
 40
0.4918608519
 40
0.5110521918
 40
0.549830236
 40
0.5890037206
 40
0.6284105861
 40
0.6678870956
 40
0.7072690133
 40
0.7463927805
 40
0.7850966971
 40
0.8042419852
 40
0.823223137
 40
0.8420210026
 40
0.8606167789
 40
0.8789920514
 40
0.8971288359
 40
0.9150096254
 40
0.9326174244
 40
0.9499358349
 40
0.9669489951
 40
0.9836419142
 40
1.0
 40
1.0
 40
1.0
 40
1.0
 10
15.7533908673
 20
14.0133049921
 30
0.0
 10
15.7568070723
 20
14.0133049948
 30
0.0
 10
15.7636463291
 20
14.0131510685
 30
0.0
 10
15.7738982378
 20
14.0124587657
 30
0.0
 10
15.7841438639
 20
14.0113051639
 30
0.0
 10
15.7943796948
 20
14.009690685
 30
0.0
 10
15.8046025968
 20
14.0076158862
 30
0.0
 10
15.8148092885
 20
14.005081456
 30
0.0
 10
15.8249967731
 20
14.0020882221
 30
0.0
 10
15.8386341296
 20
13.9974584277
 30
0.0
 10
15.8556453446
 20
13.9904950002
 30
0.0
 10
15.8757939579
 20
13.9803737428
 30
0.0
 10
15.8957841552
 20
13.9684490719
 30
0.0
 10
15.9155913028
 20
13.9547376776
 30
0.0
 10
15.9351925744
 20
13.9392575859
 30
0.0
 10
15.9545650812
 20
13.9220286422
 30
0.0
 10
15.9736862698
 20
13.9030724399
 30
0.0
 10
15.9925337453
 20
13.8824124181
 30
0.0
 10
16.0110853096
 20
13.8600739057
 30
0.0
 10
16.0293189731
 20
13.83608416
 30
0.0
 10
16.0472129949
 20
13.8104723847
 30
0.0
 10
16.0647459254
 20
13.7832697312
 30
0.0
 10
16.0818966519
 20
13.7545092862
 30
0.0
 10
16.098644442
 20
13.7242260479
 30
0.0
 10
16.1149689869
 20
13.6924568944
 30
0.0
 10
16.1308504415
 20
13.6592405448
 30
0.0
 10
16.1462694586
 20
13.6246175129
 30
0.0
 10
16.1612072233
 20
13.5886300583
 30
0.0
 10
16.1756454833
 20
13.5513221341
 30
0.0
 10
16.1895665779
 20
13.5127393316
 30
0.0
 10
16.2029534644
 20
13.4729288237
 30
0.0
 10
16.215789743
 20
13.4319393049
 30
0.0
 10
16.2280596797
 20
13.3898209304
 30
0.0
 10
16.2397482282
 20
13.3466252535
 30
0.0
 10
16.2508410517
 20
13.3024051612
 30
0.0
 10
16.2613245404
 20
13.2572148076
 30
0.0
 10
16.2711858292
 20
13.2111095452
 30
0.0
 10
16.2804128144
 20
13.1641458564
 30
0.0
 10
16.2889941693
 20
13.1163812824
 30
0.0
 10
16.2969193577
 20
13.0678743553
 30
0.0
 10
16.3041786519
 20
13.0186845121
 30
0.0
 10
16.3107631253
 20
12.9688720721
 30
0.0
 10
16.3166647392
 20
12.9184979709
 30
0.0
 10
16.3236370061
 20
12.850433935
 30
0.0
 10
16.330582788
 20
12.7643878399
 30
0.0
 10
16.336070473
 20
12.6602441302
 30
0.0
 10
16.3387121069
 20
12.5553683501
 30
0.0
 10
16.3384946917
 20
12.4502745662
 30
0.0
 10
16.3354192954
 20
12.3454769539
 30
0.0
 10
16.3295010574
 20
12.2414891967
 30
0.0
 10
16.3221985368
 20
12.155624065
 30
0.0
 10
16.3149434422
 20
12.0877433748
 30
0.0
 10
16.3088334334
 20
12.0375334786
 30
0.0
 10
16.3020429359
 20
11.9879038798
 30
0.0
 10
16.2945802391
 20
11.9389152893
 30
0.0
 10
16.2864545195
 20
11.8906277788
 30
0.0
 10
16.2776757515
 20
11.8431005128
 30
0.0
 10
16.2682547123
 20
11.7963917371
 30
0.0
 10
16.2582029686
 20
11.7505586569
 30
0.0
 10
16.2475328574
 20
11.7056574792
 30
0.0
 10
16.2362574579
 20
11.6617430422
 30
0.0
 10
16.2243906626
 20
11.6188694682
 30
0.0
 10
16.2160075405
 20
11.5907225658
 30
0.0
 10
16.2117162719
 20
11.5768360156
 30
0.0
  0
SPLINE
  5
2B0
100
AcDbEntity
  8
LAYER_FEATURE
100
AcDbSpline
 62
7
  6
CONTINUOUS
 70
0
 71
3
 72
39
 73
35
 74
0
 42
0.0000001
 43
0.0000001
 44
0.0000000001
 40
0.0
 40
0.0
 40
0.0
 40
0.0
 40
0.0212769805
 40
0.0426477427
 40
0.0642045486
 40
0.0860367268
 40
0.1082294314
 40
0.1308626295
 40
0.1540103791
 40
0.1777403604
 40
0.2021136227
 40
0.2271845602
 40
0.2530010567
 40
0.2796047186
 40
0.307031172
 40
0.3353104562
 40
0.3644674123
 40
0.3945220379
 40
0.4254898696
 40
0.4573823626
 40
0.4902072078
 40
0.5239686095
 40
0.5586675988
 40
0.5943022926
 40
0.630868091
 40
0.6683578902
 40
0.7067623015
 40
0.7460698034
 40
0.7862668444
 40
0.8273381134
 40
0.8692665
 40
0.9120330868
 40
0.9556186933
 40
1.0
 40
1.0
 40
1.0
 40
1.0
 10
15.7533908673
 20
11.0083049937
 30
0.0
 10
15.758879042
 20
11.0083049982
 30
0.0
 10
15.7698836908
 20
11.008703235
 30
0.0
 10
15.7863610922
 20
11.0104933894
 30
0.0
 10
15.8028111675
 20
11.0134748769
 30
0.0
 10
15.819218942
 20
11.0176446771
 30
0.0
 10
15.8355711499
 20
11.0229986758
 30
0.0
 10
15.8518544473
 20
11.0295317162
 30
0.0
 10
15.8680558856
 20
11.037237758
 30
0.0
 10
15.8841627351
 20
11.046109938
 30
0.0
 10
15.9001625119
 20
11.056140552
 30
0.0
 10
15.9160429161
 20
11.0673211095
 30
0.0
 10
15.9317917807
 20
11.07964237
 30
0.0
 10
15.9473970511
 20
11.0930943127
 30
0.0
 10
15.9628468029
 20
11.1076660924
 30
0.0
 10
15.9781291941
 20
11.123346082
 30
0.0
 10
15.9932324626
 20
11.1401218592
 30
0.0
 10
16.0081449664
 20
11.1579801612
 30
0.0
 10
16.0228551795
 20
11.1769068979
 30
0.0
 10
16.0373516811
 20
11.1968871755
 30
0.0
 10
16.0516231771
 20
11.217905283
 30
0.0
 10
16.0656585485
 20
11.2399446737
 30
0.0
 10
16.0794468221
 20
11.2629880076
 30
0.0
 10
16.0929771813
 20
11.2870171621
 30
0.0
 10
16.1062390106
 20
11.3120132187
 30
0.0
 10
16.1192218988
 20
11.3379564848
 30
0.0
 10
16.1319156254
 20
11.364826527
 30
0.0
 10
16.144310177
 20
11.3926021712
 30
0.0
 10
16.1563958048
 20
11.4212615165
 30
0.0
 10
16.1681629705
 20
11.4507819613
 30
0.0
 10
16.1796023524
 20
11.4811401623
 30
0.0
 10
16.1907050161
 20
11.5123123623
 30
0.0
 10
16.2014620249
 20
11.5442736275
 30
0.0
 10
16.2083363703
 20
11.5658986499
 30
0.0
 10
16.2117162719
 20
11.5768360156
 30
0.0
  0
SPLINE
  5
2B1
100
AcDbEntity
  8
LAYER_FEATURE
100
AcDbSpline
 62
7
  6
CONTINUOUS
 70
0
 71
3
 72
35
 73
31
 74
0
 42
0.0000001
 43
0.0000001
 44
0.0000000001
 40
0.0
 40
0.0
 40
0.0
 40
0.0
 40
0.084887471
 40
0.1669818985
 40
0.2461622162
 40
0.2846275323
 40
0.3223264981
 40
0.3592490046
 40
0.3953863736
 40
0.4307313379
 40
0.465278218
 40
0.4990230117
 40
0.5319634726
 40
0.564099341
 40
0.5954323894
 40
0.6259666378
 40
0.6557085445
 40
0.6846671162
 40
0.7128542132
 40
0.7402846886
 40
0.766976626
 40
0.7929516278
 40
0.8182349595
 40
0.8428558591
 40
0.8668477144
 40
0.9130848365
 40
0.9354337569
 40
0.9573314775
 40
0.9788336399
 40
1.0
 40
1.0
 40
1.0
 40
1.0
 10
15.3475832538
 20
13.3039793124
 30
0.0
 10
15.3526629905
 20
13.3204173462
 30
0.0
 10
15.3631174719
 20
13.3526124139
 30
0.0
 10
15.3799881587
 20
13.399574065
 30
0.0
 10
15.3949324777
 20
13.4372077671
 30
0.0
 10
15.4073404334
 20
13.4661466819
 30
0.0
 10
15.4167636086
 20
13.4870420582
 30
0.0
 10
15.4263876549
 20
13.5073246668
 30
0.0
 10
15.4362065686
 20
13.5269818716
 30
0.0
 10
15.4462142233
 20
13.5460013386
 30
0.0
 10
15.4564043581
 20
13.5643711709
 30
0.0
 10
15.4667705931
 20
13.5820798802
 30
0.0
 10
15.4773064993
 20
13.5991163697
 30
0.0
 10
15.4880054758
 20
13.6154700033
 30
0.0
 10
15.4988608892
 20
13.6311305436
 30
0.0
 10
15.5098660052
 20
13.6460881914
 30
0.0
 10
15.5210139725
 20
13.660333611
 30
0.0
 10
15.5322979367
 20
13.6738578592
 30
0.0
 10
15.5437109018
 20
13.6866524845
 30
0.0
 10
15.5552458495
 20
13.6987094601
 30
0.0
 10
15.5668956987
 20
13.7100211701
 30
0.0
 10
15.5786533282
 20
13.7205805438
 30
0.0
 10
15.5905113599
 20
13.7303807238
 30
0.0
 10
15.6024633013
 20
13.7394158963
 30
0.0
 10
15.6183157886
 20
13.7502989491
 30
0.0
 10
15.6345350164
 20
13.7598097269
 30
0.0
 10
15.6510543863
 20
13.7677915776
 30
0.0
 10
15.6633616393
 20
13.7729210959
 30
0.0
 10
15.6757163141
 20
13.777256526
 30
0.0
 10
15.6840381795
 20
13.7796321459
 30
0.0
 10
15.6881976644
 20
13.7806822997
 30
0.0
  0
SPLINE
  5
2B2
100
AcDbEntity
  8
LAYER_FEATURE
100
AcDbSpline
 62
7
  6
CONTINUOUS
 70
0
 71
3
 72
59
 73
55
 74
0
 42
0.0000001
 43
0.0000001
 44
0.0000000001
 40
0.0
 40
0.0
 40
0.0
 40
0.0
 40
0.0159804448
 40
0.0322744362
 40
0.0488687738
 40
0.0657502733
 40
0.0829048058
 40
0.1003178397
 40
0.1179743125
 40
0.1358587101
 40
0.1722462044
 40
0.2093495608
 40
0.2470319735
 40
0.2851526956
 40
0.3235680548
 40
0.3621324321
 40
0.4006992339
 40
0.4391218499
 40
0.4772546146
 40
0.5149537751
 40
0.5520784709
 40
0.5884917523
 40
0.606390654
 40
0.6240626693
 40
0.6414922569
 40
0.6586643293
 40
0.675564291
 40
0.6921780792
 40
0.7084922084
 40
0.7244938169
 40
0.7401707205
 40
0.7555114645
 40
0.7705053817
 40
0.785142657
 40
0.7994143982
 40
0.8133127171
 40
0.8268308183
 40
0.8399630946
 40
0.8527052377
 40
0.865054362
 40
0.8770091461
 40
0.8885699945
 40
0.8997392143
 40
0.9105212137
 40
0.9209227244
 40
0.9309530447
 40
0.9406243027
 40
0.94995173
 40
0.9589539299
 40
0.9676531281
 40
0.9760753768
 40
0.9842506766
 40
0.9922129759
 40
1.0
 40
1.0
 40
1.0
 40
1.0
 10
15.3475832538
 20
13.3039793124
 30
0.0
 10
15.3441007608
 20
13.2927099607
 30
0.0
 10
15.337290137
 20
13.2698807388
 30
0.0
 10
15.3276233974
 20
13.2351281902
 30
0.0
 10
15.3184147744
 20
13.1995639892
 30
0.0
 10
15.3096746331
 20
13.1632282964
 30
0.0
 10
15.3014127606
 20
13.1261615934
 30
0.0
 10
15.2936384413
 20
13.088405481
 30
0.0
 10
15.2863603471
 20
13.0500021295
 30
0.0
 10
15.2772769666
 20
12.9976928569
 30
0.0
 10
15.2672404107
 20
12.9309889746
 30
0.0
 10
15.2573608106
 20
12.8495182998
 30
0.0
 10
15.2496218986
 20
12.7665316137
 30
0.0
 10
15.244058495
 20
12.682400688
 30
0.0
 10
15.2406956713
 20
12.5975018054
 30
0.0
 10
15.2395485627
 20
12.5122149312
 30
0.0
 10
15.240622323
 20
12.4269217471
 30
0.0
 10
15.2439121395
 20
12.3420039632
 30
0.0
 10
15.2494031821
 20
12.2578416301
 30
0.0
 10
15.2570707228
 20
12.1748111747
 30
0.0
 10
15.2668802638
 20
12.0932845665
 30
0.0
 10
15.2768591207
 20
12.0265260568
 30
0.0
 10
15.2858971264
 20
11.974167109
 30
0.0
 10
15.2931421385
 20
11.9357225054
 30
0.0
 10
15.3008839321
 20
11.8979223165
 30
0.0
 10
15.3091138697
 20
11.860808783
 30
0.0
 10
15.3178227055
 20
11.8244234846
 30
0.0
 10
15.3270006762
 20
11.788807151
 30
0.0
 10
15.3366374911
 20
11.7539996537
 30
0.0
 10
15.3467223511
 20
11.7200399485
 30
0.0
 10
15.357243951
 20
11.68696603
 30
0.0
 10
15.3681905023
 20
11.65481489
 30
0.0
 10
15.3795497482
 20
11.6236224775
 30
0.0
 10
15.3913089779
 20
11.5934236586
 30
0.0
 10
15.403455046
 20
11.5642521755
 30
0.0
 10
15.4159743849
 20
11.5361406042
 30
0.0
 10
15.4288530216
 20
11.5091203151
 30
0.0
 10
15.4420766063
 20
11.4832214421
 30
0.0
 10
15.4556304316
 20
11.4584728519
 30
0.0
 10
15.4694994565
 20
11.4349021126
 30
0.0
 10
15.4836683347
 20
11.4125354658
 30
0.0
 10
15.4981214316
 20
11.3913977947
 30
0.0
 10
15.5128428598
 20
11.3715126097
 30
0.0
 10
15.5278165112
 20
11.3529020405
 30
0.0
 10
15.5430260839
 20
11.3355868331
 30
0.0
 10
15.5584551103
 20
11.319586355
 30
0.0
 10
15.5740869748
 20
11.304918608
 30
0.0
 10
15.5899049194
 20
11.2916002454
 30
0.0
 10
15.605892029
 20
11.2796466229
 30
0.0
 10
15.6220312476
 20
11.2690718242
 30
0.0
 10
15.638305114
 20
11.2598887374
 30
0.0
 10
15.654696361
 20
11.2521088886
 30
0.0
 10
15.6711852863
 20
11.2457429808
 30
0.0
 10
15.6823388805
 20
11.2424154934
 30
0.0
 10
15.6879096179
 20
11.2410006287
 30
0.0
  0
SPLINE
  5
2B3
100
AcDbEntity
  8
LAYER_FEATURE
100
AcDbSpline
 62
7
  6
CONTINUOUS
 70
0
 71
3
 72
68
 73
64
 74
0
 42
0.0000001
 43
0.0000001
 44
0.0000000001
 40
0.0
 40
0.0
 40
0.0
 40
0.0
 40
0.0163580858
 40
0.0330510049
 40
0.0500641651
 40
0.0673825756
 40
0.0849903746
 40
0.1028711641
 40
0.1210079486
 40
0.1393832211
 40
0.1579789974
 40
0.176776863
 40
0.1957580148
 40
0.2149033029
 40
0.2536072195
 40
0.2927309867
 40
0.3321129044
 40
0.3715894139
 40
0.4109962794
 40
0.450169764
 40
0.4889478082
 40
0.5081391481
 40
0.5271722354
 40
0.5460278227
 40
0.5646869974
 40
0.5831312226
 40
0.6013423791
 40
0.6193028086
 40
0.6369953594
 40
0.6544034334
 40
0.6715110358
 40
0.6883028277
 40
0.7047641825
 40
0.7208812464
 40
0.7366410033
 40
0.7520313453
 40
0.767041151
 40
0.7816603709
 40
0.7958801233
 40
0.8096928013
 40
0.8230921932
 40
0.836073619
 40
0.8486340848
 40
0.8607724581
 40
0.8724896662
 40
0.8837889208
 40
0.8946759706
 40
0.9051593824
 40
0.9152508473
 40
0.9249655082
 40
0.9343222939
 40
0.9433442428
 40
0.9520587819
 40
0.9604979211
 40
0.9686983093
 40
0.9727225116
 40
0.9767028171
 40
0.9806450085
 40
0.9845550798
 40
0.9884392169
 40
0.9923037608
 40
0.9961551735
 40
1.0
 40
1.0
 40
1.0
 40
1.0
 10
15.2526917507
 20
13.4447739702
 30
0.0
 10
15.2484004821
 20
13.43088742
 30
0.0
 10
15.24001736
 20
13.4027405176
 30
0.0
 10
15.2281505646
 20
13.3598669436
 30
0.0
 10
15.2168751652
 20
13.3159525066
 30
0.0
 10
15.2062050539
 20
13.2710513289
 30
0.0
 10
15.1961533102
 20
13.2252182487
 30
0.0
 10
15.186732271
 20
13.178509473
 30
0.0
 10
15.1779535031
 20
13.130982207
 30
0.0
 10
15.1698277835
 20
13.0826946965
 30
0.0
 10
15.1623650867
 20
13.033706106
 30
0.0
 10
15.1555745892
 20
12.9840765072
 30
0.0
 10
15.1494645804
 20
12.933866611
 30
0.0
 10
15.1422094858
 20
12.8659859209
 30
0.0
 10
15.1349069652
 20
12.7801207892
 30
0.0
 10
15.1289887272
 20
12.6761330319
 30
0.0
 10
15.1259133309
 20
12.5713354196
 30
0.0
 10
15.1256959156
 20
12.4662416357
 30
0.0
 10
15.1283375496
 20
12.3613658556
 30
0.0
 10
15.1338252345
 20
12.2572221459
 30
0.0
 10
15.1407710165
 20
12.1711760508
 30
0.0
 10
15.1477432834
 20
12.1031120149
 30
0.0
 10
15.1536448972
 20
12.0527379137
 30
0.0
 10
15.1602293707
 20
12.0029254737
 30
0.0
 10
15.1674886649
 20
11.9537356306
 30
0.0
 10
15.1754138532
 20
11.9052287034
 30
0.0
 10
15.1839952082
 20
11.8574641294
 30
0.0
 10
15.1932221933
 20
11.8105004406
 30
0.0
 10
15.2030834821
 20
11.7643951782
 30
0.0
 10
15.2135669708
 20
11.7192048246
 30
0.0
 10
15.2246597944
 20
11.6749847323
 30
0.0
 10
15.2363483428
 20
11.6317890554
 30
0.0
 10
15.2486182796
 20
11.5896706809
 30
0.0
 10
15.2614545582
 20
11.5486811621
 30
0.0
 10
15.2748414447
 20
11.5088706542
 30
0.0
 10
15.2887625393
 20
11.4702878517
 30
0.0
 10
15.3032007992
 20
11.4329799275
 30
0.0
 10
15.3181385639
 20
11.3969924729
 30
0.0
 10
15.3335575811
 20
11.362369441
 30
0.0
 10
15.3494390357
 20
11.3291530914
 30
0.0
 10
15.3657635806
 20
11.2973839379
 30
0.0
 10
15.3825113707
 20
11.2671006996
 30
0.0
 10
15.3996620971
 20
11.2383402547
 30
0.0
 10
15.4171950277
 20
11.2111376012
 30
0.0
 10
15.4350890495
 20
11.1855258258
 30
0.0
 10
15.4533227129
 20
11.1615360801
 30
0.0
 10
15.4718742772
 20
11.1391975677
 30
0.0
 10
15.4907217528
 20
11.1185375459
 30
0.0
 10
15.5098429414
 20
11.0995813436
 30
0.0
 10
15.5292154481
 20
11.0823523999
 30
0.0
 10
15.5488167198
 20
11.0668723082
 30
0.0
 10
15.5686238674
 20
11.053160914
 30
0.0
 10
15.5886140646
 20
11.041236243
 30
0.0
 10
15.608762678
 20
11.0311149856
 30
0.0
 10
15.6257738929
 20
11.0241515581
 30
0.0
 10
15.6394112495
 20
11.0195217637
 30
0.0
 10
15.6495987341
 20
11.0165285298
 30
0.0
 10
15.6598054258
 20
11.0139940996
 30
0.0
 10
15.6700283278
 20
11.0119193009
 30
0.0
 10
15.6802641587
 20
11.0103048219
 30
0.0
 10
15.6905097847
 20
11.0091512201
 30
0.0
 10
15.7007616935
 20
11.0084589173
 30
0.0
 10
15.7076009503
 20
11.008304991
 30
0.0
 10
15.7110171553
 20
11.0083049937
 30
0.0
  0
SPLINE
  5
2B4
100
AcDbEntity
  8
02___PRT_ALL_AXES
100
AcDbSpline
 62
7
  6
CONTINUOUS
 70
0
 71
3
 72
73
 73
69
 74
0
 42
0.0000001
 43
0.0000001
 44
0.0000000001
 40
0.0
 40
0.0
 40
0.0
 40
0.0
 40
0.0041182883
 40
0.0081918068
 40
0.012227355
 40
0.0162319849
 40
0.020212951
 40
0.0241776737
 40
0.0281336853
 40
0.0320885811
 40
0.0360499635
 40
0.0400253895
 40
0.0440223162
 40
0.0480480541
 40
0.0521097152
 40
0.0562141815
 40
0.0645757589
 40
0.0731839869
 40
0.0820826473
 40
0.0866537542
 40
0.0913112857
 40
0.100899584
 40
0.1108760594
 40
0.1212627677
 40
0.1320771306
 40
0.1433323683
 40
0.1550379215
 40
0.1671998436
 40
0.1798211578
 40
0.1929021749
 40
0.206440773
 40
0.2204326442
 40
0.2348715087
 40
0.2497493029
 40
0.2650563448
 40
0.2807814782
 40
0.2969122019
 40
0.3134347841
 40
0.330334365
 40
0.3475950507
 40
0.3651999975
 40
0.3831314908
 40
0.4013710169
 40
0.4198993317
 40
0.4386965237
 40
0.4577420753
 40
0.4770149206
 40
0.496493501
 40
0.5161558192
 40
0.5359794915
 40
0.5760186317
 40
0.6164271793
 40
0.6570172425
 40
0.6975994698
 40
0.7379845723
 40
0.7779848471
 40
0.7977834002
 40
0.8174168738
 40
0.8368629447
 40
0.8560996843
 40
0.875105612
 40
0.893859748
 40
0.9123416727
 40
0.9305315748
 40
0.9484103437
 40
0.9659595469
 40
0.983161711
 40
1.0
 40
1.0
 40
1.0
 40
1.0
 10
15.6929081116
 20
13.7820538425
 30
0.0
 10
15.6959504314
 20
13.7830955472
 30
0.0
 10
15.7020475942
 20
13.7850373579
 30
0.0
 10
15.7112676456
 20
13.7875284958
 30
0.0
 10
15.7205047985
 20
13.7895798376
 30
0.0
 10
15.7297555576
 20
13.791190609
 30
0.0
 10
15.7390167247
 20
13.7923601232
 30
0.0
 10
15.7482849831
 20
13.7930879858
 30
0.0
 10
15.75755704
 20
13.7933738626
 30
0.0
 10
15.7668295814
 20
13.7932176689
 30
0.0
 10
15.7760992994
 20
13.7926194609
 30
0.0
 10
15.7853628819
 20
13.7915794573
 30
0.0
 10
15.7946170534
 20
13.7900980988
 30
0.0
 10
15.8038584765
 20
13.7881759279
 30
0.0
 10
15.8130840875
 20
13.7858136618
 30
0.0
 10
15.8254340756
 20
13.7820557965
 30
0.0
 10
15.8408473358
 20
13.7762294497
 30
0.0
 10
15.8591031986
 20
13.7675365844
 30
0.0
 10
15.8740594828
 20
13.758927723
 30
0.0
 10
15.8859301582
 20
13.7512138609
 30
0.0
 10
15.897965049
 20
13.7427803045
 30
0.0
 10
15.912892401
 20
13.7311417844
 30
0.0
 10
15.9304160613
 20
13.715633212
 30
0.0
 10
15.9476993133
 20
13.6984705307
 30
0.0
 10
15.9647189648
 20
13.6796780238
 30
0.0
 10
15.9814528063
 20
13.6592813899
 30
0.0
 10
15.9978786122
 20
13.6373085538
 30
0.0
 10
16.0139744772
 20
13.6137894744
 30
0.0
 10
16.0297187864
 20
13.5887562096
 30
0.0
 10
16.045090292
 20
13.562242884
 30
0.0
 10
16.0600681593
 20
13.5342856658
 30
0.0
 10
16.0746320169
 20
13.5049227259
 30
0.0
 10
16.0887620017
 20
13.4741941922
 30
0.0
 10
16.1024387994
 20
13.4421420957
 30
0.0
 10
16.115643683
 20
13.4088103133
 30
0.0
 10
16.1283585464
 20
13.3742445065
 30
0.0
 10
16.1405659366
 20
13.3384920567
 30
0.0
 10
16.1522490838
 20
13.3016019987
 30
0.0
 10
16.1633919275
 20
13.2636249504
 30
0.0
 10
16.173979142
 20
13.2246130411
 30
0.0
 10
16.1839961599
 20
13.1846198377
 30
0.0
 10
16.1934291941
 20
13.1437002697
 30
0.0
 10
16.2022652577
 20
13.1019105513
 30
0.0
 10
16.2104921835
 20
13.0593081038
 30
0.0
 10
16.2180986417
 20
13.0159514735
 30
0.0
 10
16.2250741543
 20
12.9719002546
 30
0.0
 10
16.2314091159
 20
12.9272149918
 30
0.0
 10
16.2370947867
 20
12.881957148
 30
0.0
 10
16.2421233813
 20
12.8361888258
 30
0.0
 10
16.2479617364
 20
12.7743655762
 30
0.0
 10
16.2535589483
 20
12.6962574421
 30
0.0
 10
16.2575452236
 20
12.6018175277
 30
0.0
 10
16.2588008803
 20
12.5068774973
 30
0.0
 10
16.2573190169
 20
12.411959029
 30
0.0
 10
16.2531077859
 20
12.3175836849
 30
0.0
 10
16.2473240148
 20
12.239557559
 30
0.0
 10
16.241337605
 20
12.1778212853
 30
0.0
 10
16.23619986
 20
12.1321330258
 30
0.0
 10
16.2304062727
 20
12.0869655835
 30
0.0
 10
16.2239647764
 20
12.0423809358
 30
0.0
 10
16.2168842574
 20
11.9984404067
 30
0.0
 10
16.2091744662
 20
11.9552043863
 30
0.0
 10
16.2008460214
 20
11.9127323069
 30
0.0
 10
16.1919103939
 20
11.8710825182
 30
0.0
 10
16.1823798887
 20
11.8303122946
 30
0.0
 10
16.172267611
 20
11.7904775167
 30
0.0
 10
16.1615875413
 20
11.7516332072
 30
0.0
 10
16.154015338
 20
11.7261520765
 30
0.0
 10
16.1501334272
 20
11.7135902086
 30
0.0
  0
LINE
  5
2B5
100
AcDbEntity
  8
LAYER_CUT_FEAT
100
AcDbLine
 62
7
  6
CONTINUOUS
 10
15.7466964589
 20
13.1975883739
 11
15.6678588414
 21
13.1916321897
  0
SPLINE
  5
2B6
100
AcDbEntity
  8
LAYER_FEATURE
100
AcDbSpline
 62
7
  6
CONTINUOUS
 70
0
 71
3
 72
39
 73
35
 74
0
 42
0.0000001
 43
0.0000001
 44
0.0000000001
 40
0.0
 40
0.0
 40
0.0
 40
0.0
 40
0.0443813067
 40
0.0879669132
 40
0.1307335
 40
0.1726618866
 40
0.2137331556
 40
0.2539301966
 40
0.2932376985
 40
0.3316421098
 40
0.369131909
 40
0.4056977074
 40
0.4413324012
 40
0.4760313905
 40
0.5097927922
 40
0.5426176374
 40
0.5745101304
 40
0.6054779621
 40
0.6355325877
 40
0.6646895438
 40
0.692968828
 40
0.7203952814
 40
0.7469989433
 40
0.7728154398
 40
0.7978863773
 40
0.8222596396
 40
0.8459896209
 40
0.8691373705
 40
0.8917705686
 40
0.9139632732
 40
0.9357954514
 40
0.9573522573
 40
0.9787230195
 40
1.0
 40
1.0
 40
1.0
 40
1.0
 10
15.2526917507
 20
13.4447739702
 30
0.0
 10
15.2560716523
 20
13.4557113359
 30
0.0
 10
15.2629459976
 20
13.4773363583
 30
0.0
 10
15.2737030064
 20
13.5092976235
 30
0.0
 10
15.2848056701
 20
13.5404698235
 30
0.0
 10
15.2962450521
 20
13.5708280245
 30
0.0
 10
15.3080122178
 20
13.6003484693
 30
0.0
 10
15.3200978456
 20
13.6290078146
 30
0.0
 10
15.3324923971
 20
13.6567834589
 30
0.0
 10
15.3451861238
 20
13.683653501
 30
0.0
 10
15.358169012
 20
13.7095967671
 30
0.0
 10
15.3714308412
 20
13.7345928237
 30
0.0
 10
15.3849612005
 20
13.7586219782
 30
0.0
 10
15.398749474
 20
13.7816653122
 30
0.0
 10
15.4127848455
 20
13.8037047028
 30
0.0
 10
15.4270563415
 20
13.8247228103
 30
0.0
 10
15.441552843
 20
13.8447030879
 30
0.0
 10
15.4562630562
 20
13.8636298246
 30
0.0
 10
15.47117556
 20
13.8814881266
 30
0.0
 10
15.4862788285
 20
13.8982639038
 30
0.0
 10
15.5015612197
 20
13.9139438934
 30
0.0
 10
15.5170109715
 20
13.9285156731
 30
0.0
 10
15.5326162419
 20
13.9419676159
 30
0.0
 10
15.5483651064
 20
13.9542888763
 30
0.0
 10
15.5642455107
 20
13.9654694338
 30
0.0
 10
15.5802452875
 20
13.9755000478
 30
0.0
 10
15.596352137
 20
13.9843722278
 30
0.0
 10
15.6125535752
 20
13.9920782696
 30
0.0
 10
15.6288368727
 20
13.99861131
 30
0.0
 10
15.6451890806
 20
14.0039653087
 30
0.0
 10
15.661596855
 20
14.0081351089
 30
0.0
 10
15.6780469304
 20
14.0111165964
 30
0.0
 10
15.6945243317
 20
14.0129067508
 30
0.0
 10
15.7055289805
 20
14.0133049876
 30
0.0
 10
15.7110171553
 20
14.0133049921
 30
0.0
  0
SPLINE
  5
2B7
100
AcDbEntity
  8
02___PRT_ALL_AXES
100
AcDbSpline
 62
7
  6
CONTINUOUS
 70
0
 71
3
 72
34
 73
30
 74
0
 42
0.0000001
 43
0.0000001
 44
0.0000000001
 40
0.0
 40
0.0
 40
0.0
 40
0.0
 40
0.0746186072
 40
0.1494976381
 40
0.2241884002
 40
0.2982438448
 40
0.3712235684
 40
0.4071768008
 40
0.4427014173
 40
0.4777463766
 40
0.5122619751
 40
0.5462000182
 40
0.5795139985
 40
0.6121592855
 40
0.6440933293
 40
0.6752758754
 40
0.7056691992
 40
0.7352383641
 40
0.763951508
 40
0.791780165
 40
0.8186996289
 40
0.8446893711
 40
0.8697335219
 40
0.8938214287
 40
0.9169482817
 40
0.9391159381
 40
0.9603335731
 40
0.9806192583
 40
1.0
 40
1.0
 40
1.0
 40
1.0
 10
15.4935540111
 20
12.4196851727
 30
0.0
 10
15.4925555505
 20
12.4388597598
 30
0.0
 10
15.491195084
 20
12.4773120989
 30
0.0
 10
15.491043363
 20
12.5350088916
 30
0.0
 10
15.4927739138
 20
12.5925358037
 30
0.0
 10
15.4963744986
 20
12.649485994
 30
0.0
 10
15.5009342296
 20
12.6963608484
 30
0.0
 10
15.505510163
 20
12.7332510241
 30
0.0
 10
15.5093725762
 20
12.7603891444
 30
0.0
 10
15.5136754028
 20
12.7870862793
 30
0.0
 10
15.5184110718
 20
12.8132953782
 30
0.0
 10
15.5235711876
 20
12.8389701444
 30
0.0
 10
15.529146621
 20
12.8640652637
 30
0.0
 10
15.5351275064
 20
12.8885364492
 30
0.0
 10
15.5415032628
 20
12.9123405316
 30
0.0
 10
15.5482626158
 20
12.9354355346
 30
0.0
 10
15.5553936202
 20
12.9577807516
 30
0.0
 10
15.5628836837
 20
12.9793368189
 30
0.0
 10
15.5707195938
 20
13.0000657885
 30
0.0
 10
15.5788875463
 20
13.0199311971
 30
0.0
 10
15.5873731775
 20
13.038898134
 30
0.0
 10
15.5961616
 20
13.0569333037
 30
0.0
 10
15.6052374386
 20
13.0740050919
 30
0.0
 10
15.6145848761
 20
13.0900836029
 30
0.0
 10
15.6241877161
 20
13.1051407528
 30
0.0
 10
15.63402937
 20
13.1191501548
 30
0.0
 10
15.6440931954
 20
13.1320875844
 30
0.0
 10
15.6543615239
 20
13.143929692
 30
0.0
 10
15.6614914708
 20
13.1512439307
 30
0.0
 10
15.6650873325
 20
13.1546993189
 30
0.0
  0
SPLINE
  5
2B8
100
AcDbEntity
  8
LAYER_FEATURE
100
AcDbSpline
 62
7
  6
CONTINUOUS
 70
0
 71
3
 72
67
 73
63
 74
0
 42
0.0000001
 43
0.0000001
 44
0.0000000001
 40
0.0
 40
0.0
 40
0.0
 40
0.0
 40
0.0163581013
 40
0.0330510694
 40
0.0500642491
 40
0.0673826926
 40
0.0849905208
 40
0.1028713409
 40
0.1210081566
 40
0.1393834611
 40
0.15797927
 40
0.1767771682
 40
0.1957583526
 40
0.2149036734
 40
0.2536076561
 40
0.292731491
 40
0.3321134768
 40
0.371590054
 40
0.4109969877
 40
0.45017054
 40
0.4889486503
 40
0.5081400228
 40
0.5271731428
 40
0.546028763
 40
0.5646879707
 40
0.5831322282
 40
0.601343416
 40
0.6193038759
 40
0.6369964566
 40
0.65440456
 40
0.6715121917
 40
0.6883040129
 40
0.7047653969
 40
0.720882489
 40
0.7366422729
 40
0.7520326412
 40
0.7670424724
 40
0.7816617173
 40
0.7958814943
 40
0.8096941963
 40
0.8230936114
 40
0.8360750592
 40
0.8486355463
 40
0.8607739405
 40
0.872491169
 40
0.8837904436
 40
0.8946775128
 40
0.905160943
 40
0.9152524249
 40
0.9249671014
 40
0.9343239024
 40
0.9433458667
 40
0.9520604213
 40
0.9604995757
 40
0.9686999787
 40
0.9767027777
 40
0.9806449746
 40
0.9845550535
 40
0.9884391969
 40
0.9923037475
 40
0.9961551669
 40
1.0
 40
1.0
 40
1.0
 40
1.0
 10
14.7304550733
 20
13.4447739702
 30
0.0
 10
14.7261638081
 20
13.4308874307
 30
0.0
 10
14.7177806858
 20
13.4027405214
 30
0.0
 10
14.705913888
 20
13.3598669503
 30
0.0
 10
14.6946384888
 20
13.3159525007
 30
0.0
 10
14.683968377
 20
13.2710513303
 30
0.0
 10
14.6739166328
 20
13.2252182485
 30
0.0
 10
14.6644955926
 20
13.1785094743
 30
0.0
 10
14.655716824
 20
13.1309822083
 30
0.0
 10
14.6475911053
 20
13.0826946969
 30
0.0
 10
14.6401284107
 20
13.033706105
 30
0.0
 10
14.6333379145
 20
12.9840765054
 30
0.0
 10
14.6272279057
 20
12.9338666095
 30
0.0
 10
14.6199728095
 20
12.8659859204
 30
0.0
 10
14.6126702847
 20
12.7801207897
 30
0.0
 10
14.6067520467
 20
12.6761330324
 30
0.0
 10
14.6036766582
 20
12.5713354196
 30
0.0
 10
14.6034592419
 20
12.4662416357
 30
0.0
 10
14.6061008688
 20
12.3613658552
 30
0.0
 10
14.6115885534
 20
12.2572221455
 30
0.0
 10
14.6185343411
 20
12.1711760517
 30
0.0
 10
14.62550661
 20
12.1031120172
 30
0.0
 10
14.6314082234
 20
12.0527379161
 30
0.0
 10
14.6379926945
 20
12.0029254747
 30
0.0
 10
14.6452519858
 20
11.9537356295
 30
0.0
 10
14.6531771727
 20
11.905228701
 30
0.0
 10
14.6617585286
 20
11.8574641272
 30
0.0
 10
14.6709855154
 20
11.8105004399
 30
0.0
 10
14.6808468059
 20
11.7643951794
 30
0.0
 10
14.6913302956
 20
11.7192048273
 30
0.0
 10
14.7024231193
 20
11.6749847354
 30
0.0
 10
14.7141116669
 20
11.6317890573
 30
0.0
 10
14.7263816016
 20
11.5896706807
 30
0.0
 10
14.7392178794
 20
11.5486811605
 30
0.0
 10
14.7526047665
 20
11.5088706528
 30
0.0
 10
14.7665258618
 20
11.4702878514
 30
0.0
 10
14.7809641223
 20
11.4329799281
 30
0.0
 10
14.7959018872
 20
11.396992474
 30
0.0
 10
14.8113209041
 20
11.3623694419
 30
0.0
 10
14.8272023582
 20
11.3291530917
 30
0.0
 10
14.8435269028
 20
11.2973839381
 30
0.0
 10
14.8602746936
 20
11.2671007007
 30
0.0
 10
14.8774254205
 20
11.2383402568
 30
0.0
 10
14.8949583512
 20
11.2111376035
 30
0.0
 10
14.9128523726
 20
11.1855258273
 30
0.0
 10
14.9310860355
 20
11.1615360795
 30
0.0
 10
14.9496375989
 20
11.1391975648
 30
0.0
 10
14.9684850743
 20
11.1185375417
 30
0.0
 10
14.9876062617
 20
11.0995813414
 30
0.0
 10
15.0069787757
 20
11.0823524016
 30
0.0
 10
15.0265800295
 20
11.0668723185
 30
0.0
 10
15.0463872426
 20
11.0531609087
 30
0.0
 10
15.0663772059
 20
11.0412362917
 30
0.0
 10
15.0865266486
 20
11.0311148273
 30
0.0
 10
15.1068102225
 20
11.022811383
 30
0.0
 10
15.1238927656
 20
11.0173898451
 30
0.0
 10
15.1375686645
 20
11.0139941622
 30
0.0
 10
15.1477916707
 20
11.0119192747
 30
0.0
 10
15.1580274765
 20
11.0103048325
 30
0.0
 10
15.1682731089
 20
11.0091512222
 30
0.0
 10
15.1785250153
 20
11.0084589055
 30
0.0
 10
15.185364273
 20
11.0083050047
 30
0.0
 10
15.188780478
 20
11.0083050013
 30
0.0
  0
SPLINE
  5
2B9
100
AcDbEntity
  8
LAYER_FEATURE
100
AcDbSpline
 62
7
  6
CONTINUOUS
 70
0
 71
3
 72
39
 73
35
 74
0
 42
0.0000001
 43
0.0000001
 44
0.0000000001
 40
0.0
 40
0.0
 40
0.0
 40
0.0
 40
0.0443812481
 40
0.0879669295
 40
0.1307335086
 40
0.172661876
 40
0.2137331571
 40
0.2539301992
 40
0.2932376968
 40
0.3316421073
 40
0.369131911
 40
0.4056977099
 40
0.4413323968
 40
0.4760313903
 40
0.5097927974
 40
0.5426176342
 40
0.5745101269
 40
0.6054779669
 40
0.6355325892
 40
0.664689538
 40
0.6929688298
 40
0.7203952869
 40
0.7469989387
 40
0.7728154376
 40
0.7978863828
 40
0.8222596394
 40
0.8459896168
 40
0.869137373
 40
0.8917705712
 40
0.9139632708
 40
0.935795451
 40
0.9573522592
 40
0.9787230199
 40
1.0
 40
1.0
 40
1.0
 40
1.0
 10
14.7304550733
 20
13.4447739702
 30
0.0
 10
14.7338349705
 20
13.4557113214
 30
0.0
 10
14.7407093191
 20
13.4773363472
 30
0.0
 10
14.7514663257
 20
13.5092976154
 30
0.0
 10
14.7625689922
 20
13.5404698276
 30
0.0
 10
14.7740083774
 20
13.5708280233
 30
0.0
 10
14.7857755405
 20
13.6003484673
 30
0.0
 10
14.797861166
 20
13.6290078161
 30
0.0
 10
14.8102557207
 20
13.6567834578
 30
0.0
 10
14.8229494492
 20
13.6836534988
 30
0.0
 10
14.8359323331
 20
13.7095967683
 30
0.0
 10
14.8491941607
 20
13.7345928252
 30
0.0
 10
14.8627245281
 20
13.7586219745
 30
0.0
 10
14.8765127974
 20
13.7816653116
 30
0.0
 10
14.8905481622
 20
13.8037047069
 30
0.0
 10
14.904819668
 20
13.8247228068
 30
0.0
 10
14.9193161696
 20
13.844703084
 30
0.0
 10
14.9340263738
 20
13.8636298292
 30
0.0
 10
14.9489388809
 20
13.8814881279
 30
0.0
 10
14.9640421582
 20
13.8982638959
 30
0.0
 10
14.9793245407
 20
13.913943895
 30
0.0
 10
14.9947742874
 20
13.9285156811
 30
0.0
 10
15.010379571
 20
13.9419676071
 30
0.0
 10
15.0261284318
 20
13.9542888714
 30
0.0
 10
15.0420088264
 20
13.965469445
 30
0.0
 10
15.0580086114
 20
13.9755000459
 30
0.0
 10
15.0741154653
 20
13.984372215
 30
0.0
 10
15.0903168942
 20
13.9920782775
 30
0.0
 10
15.1066001928
 20
13.9986113185
 30
0.0
 10
15.1229524075
 20
14.0039652936
 30
0.0
 10
15.1393601774
 20
14.0081351066
 30
0.0
 10
15.1558102511
 20
14.0111166136
 30
0.0
 10
15.1722876555
 20
14.0129067369
 30
0.0
 10
15.1832923033
 20
14.0133049899
 30
0.0
 10
15.188780478
 20
14.0133049845
 30
0.0
  0
SPLINE
  5
2BA
100
AcDbEntity
  8
02___PRT_ALL_AXES
100
AcDbSpline
 62
7
  6
CONTINUOUS
 70
0
 71
3
 72
33
 73
29
 74
0
 42
0.0000001
 43
0.0000001
 44
0.0000000001
 40
0.0
 40
0.0
 40
0.0
 40
0.0
 40
0.0837375787
 40
0.1648457279
 40
0.2432142452
 40
0.3187463604
 40
0.3913621387
 40
0.4265581627
 40
0.4610037229
 40
0.4946944087
 40
0.5276273397
 40
0.5598012339
 40
0.5912164926
 40
0.6218754135
 40
0.6517822142
 40
0.6809432782
 40
0.7093672623
 40
0.7370652532
 40
0.7640510185
 40
0.7903410918
 40
0.8159550635
 40
0.8409157146
 40
0.8652492093
 40
0.9121452907
 40
0.9347908897
 40
0.9569511343
 40
0.9786711695
 40
1.0
 40
1.0
 40
1.0
 40
1.0
 10
15.3677010393
 20
13.3080197772
 30
0.0
 10
15.3725900913
 20
13.3238407552
 30
0.0
 10
15.3826409404
 20
13.354856473
 30
0.0
 10
15.3988127579
 20
13.4001594767
 30
0.0
 10
15.4158106726
 20
13.4434215645
 30
0.0
 10
15.4335955741
 20
13.4845430061
 30
0.0
 10
15.4491967342
 20
13.5172819057
 30
0.0
 10
15.4620560492
 20
13.5423041697
 30
0.0
 10
15.4717710023
 20
13.5602828723
 30
0.0
 10
15.4816510378
 20
13.5776584284
 30
0.0
 10
15.4916905602
 20
13.5944209361
 30
0.0
 10
15.5018838064
 20
13.6105607839
 30
0.0
 10
15.5122249988
 20
13.6260687106
 30
0.0
 10
15.5227082014
 20
13.6409358555
 30
0.0
 10
15.5333274892
 20
13.6551536798
 30
0.0
 10
15.5440768113
 20
13.6687140482
 30
0.0
 10
15.5549500677
 20
13.6816091907
 30
0.0
 10
15.5659411393
 20
13.6938316866
 30
0.0
 10
15.577043764
 20
13.7053745366
 30
0.0
 10
15.5882517724
 20
13.716231089
 30
0.0
 10
15.5995586675
 20
13.7263949779
 30
0.0
 10
15.6109586933
 20
13.7358607104
 30
0.0
 10
15.6260854471
 20
13.7473994901
 30
0.0
 10
15.6415648475
 20
13.7577028358
 30
0.0
 10
15.6573549061
 20
13.7666324182
 30
0.0
 10
15.669121194
 20
13.7725300657
 30
0.0
 10
15.6809402724
 20
13.777701261
 30
0.0
 10
15.6889177539
 20
13.7806875252
 30
0.0
 10
15.6929081116
 20
13.7820538425
 30
0.0
  0
SPLINE
  5
2BB
100
AcDbEntity
  8
02___PRT_ALL_AXES
100
AcDbSpline
 62
7
  6
CONTINUOUS
 70
0
 71
3
 72
33
 73
29
 74
0
 42
0.0000001
 43
0.0000001
 44
0.0000000001
 40
0.0
 40
0.0
 40
0.0
 40
0.0
 40
0.0161690722
 40
0.0326006242
 40
0.0495419553
 40
0.0672133579
 40
0.0763858183
 40
0.0858075986
 40
0.1054621802
 40
0.1262992983
 40
0.148403495
 40
0.1718318447
 40
0.1966179769
 40
0.222775654
 40
0.2503016329
 40
0.2791780709
 40
0.3093747541
 40
0.3408507558
 40
0.3735556576
 40
0.4074308293
 40
0.4424104989
 40
0.5153822335
 40
0.5918375424
 40
0.67106563
 40
0.7523037817
 40
0.8347532628
 40
0.917593556
 40
1.0
 40
1.0
 40
1.0
 40
1.0
 10
15.8528534121
 20
11.7911217726
 30
0.0
 10
15.8536253216
 20
11.7911217739
 30
0.0
 10
15.8551837816
 20
11.7912312317
 30
0.0
 10
15.857504567
 20
11.7917214187
 30
0.0
 10
15.8598084992
 20
11.7925350549
 30
0.0
 10
15.8616847591
 20
11.7934677608
 30
0.0
 10
15.8631673226
 20
11.7943631353
 30
0.0
 10
15.8646793323
 20
11.7953882532
 30
0.0
 10
15.8665481585
 20
11.796872855
 30
0.0
 10
15.8687171122
 20
11.7989333141
 30
0.0
 10
15.870837974
 20
11.8012912248
 30
0.0
 10
15.8729049067
 20
11.8039395159
 30
0.0
 10
15.8749123211
 20
11.8068705565
 30
0.0
 10
15.8768545907
 20
11.8100758901
 30
0.0
 10
15.8787262069
 20
11.8135462687
 30
0.0
 10
15.8805218135
 20
11.8172716352
 30
0.0
 10
15.882236213
 20
11.821241176
 30
0.0
 10
15.8838644032
 20
11.8254433451
 30
0.0
 10
15.8854016218
 20
11.8298658727
 30
0.0
 10
15.8868434073
 20
11.8344958536
 30
0.0
 10
15.8886583257
 20
11.8410197637
 30
0.0
 10
15.8906473615
 20
11.8496006439
 30
0.0
 10
15.8925625867
 20
11.8603515802
 30
0.0
 10
15.8940158852
 20
11.8715725052
 30
0.0
 10
15.8949900172
 20
11.883131971
 30
0.0
 10
15.8954733844
 20
11.8948948528
 30
0.0
 10
15.8954602509
 20
11.9067231412
 30
0.0
 10
15.8951185301
 20
11.9146074355
 30
0.0
 10
15.8948629309
 20
11.9185331968
 30
0.0
  0
SPLINE
  5
2BC
100
AcDbEntity
  8
LAYER_FEATURE
100
AcDbSpline
 62
7
  6
CONTINUOUS
 70
0
 71
3
 72
14
 73
10
 74
0
 42
0.0000001
 43
0.0000001
 44
0.0000000001
 40
0.0
 40
0.0
 40
0.0
 40
0.0
 40
0.1919853964
 40
0.3015751216
 40
0.4211018702
 40
0.550845165
 40
0.6907800095
 40
0.8406508718
 40
1.0
 40
1.0
 40
1.0
 40
1.0
 10
14.7494058857
 20
12.9132739764
 30
0.0
 10
14.750459029
 20
12.9138222495
 30
0.0
 10
14.7519571065
 20
12.9149903065
 30
0.0
 10
14.7537022308
 20
12.9169239643
 30
0.0
 10
14.7550168785
 20
12.9187174345
 30
0.0
 10
14.7562684682
 20
12.9207759861
 30
0.0
 10
14.7574509627
 20
12.9230879064
 30
0.0
 10
14.7585563873
 20
12.9256379206
 30
0.0
 10
14.7592179638
 20
12.9274332909
 30
0.0
 10
14.759536155
 20
12.9283659867
 30
0.0
  0
SPLINE
  5
2BD
100
AcDbEntity
  8
LAYER_FEATURE
100
AcDbSpline
 62
7
  6
CONTINUOUS
 70
0
 71
3
 72
20
 73
16
 74
0
 42
0.0000001
 43
0.0000001
 44
0.0000000001
 40
0.0
 40
0.0
 40
0.0
 40
0.0
 40
0.0370654179
 40
0.0753318297
 40
0.1158648733
 40
0.159525727
 40
0.2069315925
 40
0.258487711
 40
0.3144237845
 40
0.3748241651
 40
0.4396629816
 40
0.5088213143
 40
0.6592325347
 40
0.8239115406
 40
1.0
 40
1.0
 40
1.0
 40
1.0
 10
14.7344633112
 20
12.9133150471
 30
0.0
 10
14.7343269579
 20
12.9133150352
 30
0.0
 10
14.7340490972
 20
12.9132870252
 30
0.0
 10
14.7336390464
 20
12.9131623813
 30
0.0
 10
14.733235812
 20
12.91295691
 30
0.0
 10
14.7328417855
 20
12.9126728976
 30
0.0
 10
14.7324586766
 20
12.9123126005
 30
0.0
 10
14.7320882713
 20
12.9118783195
 30
0.0
 10
14.73173241
 20
12.9113725917
 30
0.0
 10
14.7313929412
 20
12.9107983368
 30
0.0
 10
14.7310717628
 20
12.9101588323
 30
0.0
 10
14.7306588159
 20
12.9091969596
 30
0.0
 10
14.7302072724
 20
12.9078549064
 30
0.0
 10
14.7297781857
 20
12.9060979993
 30
0.0
 10
14.7295703519
 20
12.904860542
 30
0.0
 10
14.7294835527
 20
12.9042186035
 30
0.0
  0
SPLINE
  5
2BE
100
AcDbEntity
  8
LAYER_FEATURE
100
AcDbSpline
 62
7
  6
CONTINUOUS
 70
0
 71
3
 72
11
 73
7
 74
0
 42
0.0000001
 43
0.0000001
 44
0.0000000001
 40
0.0
 40
0.0
 40
0.0
 40
0.0
 40
0.2240050941
 40
0.4653777468
 40
0.7241605222
 40
1.0
 40
1.0
 40
1.0
 40
1.0
 10
14.7763518108
 20
13.0584052704
 30
0.0
 10
14.7767736138
 20
13.0589211381
 30
0.0
 10
14.777598674
 20
13.0600353561
 30
0.0
 10
14.7787405434
 20
13.0618641334
 30
0.0
 10
14.7798268139
 20
13.0639027503
 30
0.0
 10
14.7804895346
 20
13.0653495338
 30
0.0
 10
14.7808118908
 20
13.0661041188
 30
0.0
  0
SPLINE
  5
2BF
100
AcDbEntity
  8
LAYER_FEATURE
100
AcDbSpline
 62
7
  6
CONTINUOUS
 70
0
 71
3
 72
18
 73
14
 74
0
 42
0.0000001
 43
0.0000001
 44
0.0000000001
 40
0.0
 40
0.0
 40
0.0
 40
0.0
 40
0.0386604652
 40
0.0783618665
 40
0.1200523492
 40
0.1645130658
 40
0.2638125241
 40
0.3194885035
 40
0.3793671738
 40
0.5117425733
 40
0.6604298857
 40
0.8239005662
 40
1.0
 40
1.0
 40
1.0
 40
1.0
 10
14.7546502539
 20
13.0584418208
 30
0.0
 10
14.7545263716
 20
13.058441821
 30
0.0
 10
14.7542747107
 20
13.0584188045
 30
0.0
 10
14.7539021166
 20
13.0583161719
 30
0.0
 10
14.7535344151
 20
13.0581465804
 30
0.0
 10
14.7530351401
 20
13.0578211874
 30
0.0
 10
14.7525726412
 20
13.0573713335
 30
0.0
 10
14.7521465799
 20
13.0568302393
 30
0.0
 10
14.7517061284
 20
13.0561680031
 30
0.0
 10
14.7511996432
 20
13.0551966325
 30
0.0
 10
14.7506774447
 20
13.0538692332
 30
0.0
 10
14.7502317077
 20
13.0523678317
 30
0.0
 10
14.7499987953
 20
13.0513039437
 30
0.0
 10
14.7498954023
 20
13.0507492097
 30
0.0
  0
SPLINE
  5
2C0
100
AcDbEntity
  8
LAYER_CUT_FEAT
100
AcDbSpline
 62
7
  6
CONTINUOUS
 70
0
 71
3
 72
67
 73
63
 74
0
 42
0.0000001
 43
0.0000001
 44
0.0000000001
 40
0.0
 40
0.0
 40
0.0
 40
0.0
 40
0.0039213869
 40
0.0078387564
 40
0.0117612853
 40
0.0156983018
 40
0.0196589984
 40
0.0236522926
 40
0.0317684605
 40
0.0401144709
 40
0.0487486996
 40
0.0577220375
 40
0.0670776813
 40
0.0768513251
 40
0.0870716287
 40
0.0977608203
 40
0.1089353501
 40
0.1206065288
 40
0.132781118
 40
0.1454618591
 40
0.1586479378
 40
0.1723353855
 40
0.1865174246
 40
0.2011847704
 40
0.2163258904
 40
0.231927228
 40
0.2479733981
 40
0.2644473594
 40
0.2813305658
 40
0.2986031023
 40
0.3162438119
 40
0.3342304095
 40
0.3525395871
 40
0.3711471111
 40
0.3900279154
 40
0.4091561875
 40
0.428505453
 40
0.4677568508
 40
0.5075615728
 40
0.5476919974
 40
0.5879172479
 40
0.6280055102
 40
0.6677263288
 40
0.7068529215
 40
0.7261248372
 40
0.7451660513
 40
0.7639503212
 40
0.7824520956
 40
0.800646599
 40
0.8185099233
 40
0.8360191221
 40
0.8531523095
 40
0.8698887685
 40
0.886209068
 40
0.902095191
 40
0.9175306777
 40
0.9325007894
 40
0.9469926754
 40
0.9609956267
 40
0.9745011467
 40
0.9875036664
 40
1.0
 40
1.0
 40
1.0
 40
1.0
 10
15.7510020525
 20
13.1980044512
 30
0.0
 10
15.7528382779
 20
13.1981439104
 30
0.0
 10
15.7565169343
 20
13.198326121
 30
0.0
 10
15.7620425509
 20
13.1983069277
 30
0.0
 10
15.7675668889
 20
13.1979948784
 30
0.0
 10
15.7730872605
 20
13.1973902066
 30
0.0
 10
15.7786014655
 20
13.1964930832
 30
0.0
 10
15.7859808222
 20
13.1948995778
 30
0.0
 10
15.7952052972
 20
13.1921580074
 30
0.0
 10
15.8061424756
 20
13.1877231988
 30
0.0
 10
15.8169916667
 20
13.1821355046
 30
0.0
 10
15.8277341402
 20
13.1754067952
 30
0.0
 10
15.838352948
 20
13.1675501658
 30
0.0
 10
15.8488312364
 20
13.1585800676
 30
0.0
 10
15.8591524674
 20
13.1485123397
 30
0.0
 10
15.8693002203
 20
13.1373643271
 30
0.0
 10
15.8792581984
 20
13.1251549617
 30
0.0
 10
15.8890102411
 20
13.1119048269
 30
0.0
 10
15.8985403714
 20
13.0976361911
 30
0.0
 10
15.907832847
 20
13.0823730177
 30
0.0
 10
15.9168722144
 20
13.0661409537
 30
0.0
 10
15.9256433585
 20
13.0489673052
 30
0.0
 10
15.9341315557
 20
13.0308810027
 30
0.0
 10
15.9423225089
 20
13.011912552
 30
0.0
 10
15.9502023866
 20
12.9920939819
 30
0.0
 10
15.9577578565
 20
12.9714587885
 30
0.0
 10
15.9649761157
 20
12.9500418772
 30
0.0
 10
15.9718449177
 20
12.927879501
 30
0.0
 10
15.978352599
 20
12.9050091987
 30
0.0
 10
15.9844881056
 20
12.8814697298
 30
0.0
 10
15.9902410092
 20
12.8573010041
 30
0.0
 10
15.9956015279
 20
12.8325440106
 30
0.0
 10
16.0005605432
 20
12.8072407489
 30
0.0
 10
16.0051096204
 20
12.7814341474
 30
0.0
 10
16.009241006
 20
12.7551680253
 30
0.0
 10
16.0129477114
 20
12.728486881
 30
0.0
 10
16.0173358898
 20
12.6922479465
 30
0.0
 10
16.0217049245
 20
12.6462333518
 30
0.0
 10
16.0251483185
 20
12.5903587418
 30
0.0
 10
16.0267931995
 20
12.5339446295
 30
0.0
 10
16.0266283503
 20
12.4773738283
 30
0.0
 10
16.0246549064
 20
12.4210294597
 30
0.0
 10
16.0208863317
 20
12.3652938614
 30
0.0
 10
16.0162484634
 20
12.3194405036
 30
0.0
 10
16.0116478907
 20
12.2833648107
 30
0.0
 10
16.0077858007
 20
12.2568295208
 30
0.0
 10
16.0035015115
 20
12.230725568
 30
0.0
 10
15.9988022679
 20
12.2050971743
 30
0.0
 10
15.9936960753
 20
12.1799878558
 30
0.0
 10
15.9881916181
 20
12.1554402094
 30
0.0
 10
15.9822982606
 20
12.1314958748
 30
0.0
 10
15.9760260233
 20
12.108195454
 30
0.0
 10
15.969385566
 20
12.0855784441
 30
0.0
 10
15.9623881676
 20
12.0636831676
 30
0.0
 10
15.9550457044
 20
12.0425467058
 30
0.0
 10
15.947370625
 20
12.0222048302
 30
0.0
 10
15.9393759296
 20
12.0026919473
 30
0.0
 10
15.931075136
 20
11.9840409998
 30
0.0
 10
15.9224822641
 20
11.9662835382
 30
0.0
 10
15.9136117055
 20
11.9494492969
 30
0.0
 10
15.904478573
 20
11.9335671305
 30
0.0
 10
15.8980977841
 20
11.9234294762
 30
0.0
 10
15.8948629309
 20
11.9185331968
 30
0.0
  0
SPLINE
  5
2C1
100
AcDbEntity
  8
LAYER_FEATURE
100
AcDbSpline
 62
7
  6
CONTINUOUS
 70
0
 71
3
 72
17
 73
13
 74
0
 42
0.0000001
 43
0.0000001
 44
0.0000000001
 40
0.0
 40
0.0
 40
0.0
 40
0.0
 40
0.0405168599
 40
0.0819236411
 40
0.1703673613
 40
0.2188742982
 40
0.2707799178
 40
0.3857775389
 40
0.5166576982
 40
0.6633594316
 40
0.824977187
 40
1.0
 40
1.0
 40
1.0
 40
1.0
 10
14.7810379402
 20
13.1968519556
 30
0.0
 10
14.7809264885
 20
13.1968519508
 30
0.0
 10
14.7807007095
 20
13.1968333746
 30
0.0
 10
14.780244124
 20
13.1967206826
 30
0.0
 10
14.7798008343
 20
13.1964940201
 30
0.0
 10
14.7793864245
 20
13.1961799282
 30
0.0
 10
14.7789534071
 20
13.1957738819
 30
0.0
 10
14.7784380803
 20
13.1951321379
 30
0.0
 10
14.7778824737
 20
13.1942033681
 30
0.0
 10
14.7773767848
 20
13.1931040146
 30
0.0
 10
14.776928621
 20
13.1918508456
 30
0.0
 10
14.7766816432
 20
13.1909574923
 30
0.0
 10
14.7765677906
 20
13.190489704
 30
0.0
  0
SPLINE
  5
2C2
100
AcDbEntity
  8
LAYER_FEATURE
100
AcDbSpline
 62
7
  6
CONTINUOUS
 70
0
 71
3
 72
101
 73
97
 74
0
 42
0.0000001
 43
0.0000001
 44
0.0000000001
 40
0.0
 40
0.0
 40
0.0
 40
0.0
 40
0.0178411556
 40
0.0361830484
 40
0.0549941649
 40
0.0742407246
 40
0.0938872201
 40
0.1138965098
 40
0.1342300352
 40
0.154848003
 40
0.1757095594
 40
0.1967729574
 40
0.2179957207
 40
0.2393348045
 40
0.2607467523
 40
0.282187851
 40
0.3036142849
 40
0.3249822902
 40
0.3462483081
 40
0.3673691399
 40
0.3883021044
 40
0.4090051962
 40
0.4294372472
 40
0.449558093
 40
0.4693287475
 40
0.488711583
 40
0.5076705182
 40
0.5261712207
 40
0.5441813279
 40
0.5616706878
 40
0.5786116212
 40
0.5949792201
 40
0.6029413741
 40
0.6107523059
 40
0.6184098434
 40
0.6259120607
 40
0.6332573039
 40
0.6404441912
 40
0.6474716491
 40
0.6543389264
 40
0.6610456106
 40
0.6675916713
 40
0.673977468
 40
0.6802037917
 40
0.6862718998
 40
0.6921835371
 40
0.6979409929
 40
0.7035471272
 40
0.7090054147
 40
0.7143199989
 40
0.7194957198
 40
0.724538171
 40
0.729453735
 40
0.7342496124
 40
0.7389338631
 40
0.7435154082
 40
0.7480040379
 40
0.7524103954
 40
0.7567459281
 40
0.7610228308
 40
0.7652539473
 40
0.7694526527
 40
0.7736327136
 40
0.7778081248
 40
0.7819929397
 40
0.786201094
 40
0.79044624
 40
0.7947415867
 40
0.7990997705
 40
0.8035327428
 40
0.8080516833
 40
0.8126669514
 40
0.8173880432
 40
0.8222235865
 40
0.8322658678
 40
0.8374880196
 40
0.8428507557
 40
0.8483586734
 40
0.8540156878
 40
0.8598250585
 40
0.8657894475
 40
0.8719109574
 40
0.878191161
 40
0.8846311565
 40
0.8912315843
 40
0.8979926672
 40
0.9049142455
 40
0.9119957864
 40
0.9192364285
 40
0.9266349919
 40
0.9341899989
 40
0.9418997047
 40
0.9497620925
 40
0.9659351431
 40
0.9826890352
 40
1.0
 40
1.0
 40
1.0
 40
1.0
 10
15.3043155913
 20
13.3921495386
 30
0.0
 10
15.2986168014
 20
13.3737082479
 30
0.0
 10
15.2875976393
 20
13.3361397729
 30
0.0
 10
15.2723862691
 20
13.2786142749
 30
0.0
 10
15.2582905088
 20
13.2192414229
 30
0.0
 10
15.2453445394
 20
13.1581643607
 30
0.0
 10
15.2335795462
 20
13.0955297584
 30
0.0
 10
15.2230239297
 20
13.0314882275
 30
0.0
 10
15.2137031578
 20
12.9661937653
 30
0.0
 10
15.2056397327
 20
12.8998034308
 30
0.0
 10
15.1988531279
 20
12.8324769421
 30
0.0
 10
15.1933597306
 20
12.7643762961
 30
0.0
 10
15.1891727986
 20
12.6956653713
 30
0.0
 10
15.1863024421
 20
12.6265095269
 30
0.0
 10
15.1847555966
 20
12.557075202
 30
0.0
 10
15.1845360022
 20
12.4875295117
 30
0.0
 10
15.1856441818
 20
12.4180398419
 30
0.0
 10
15.1880774578
 20
12.348773442
 30
0.0
 10
15.1918299562
 20
12.2798970201
 30
0.0
 10
15.196892623
 20
12.2115763382
 30
0.0
 10
15.203253227
 20
12.1439758071
 30
0.0
 10
15.2108964071
 20
12.0772580881
 30
0.0
 10
15.2198037101
 20
12.0115836987
 30
0.0
 10
15.2299536402
 20
11.9471106209
 30
0.0
 10
15.2413216952
 20
11.8839939112
 30
0.0
 10
15.2538804361
 20
11.8223853196
 30
0.0
 10
15.2675995641
 20
11.7624329255
 30
0.0
 10
15.2824460038
 20
11.704280755
 30
0.0
 10
15.2983839685
 20
11.6480684808
 30
0.0
 10
15.3153750984
 20
11.5939308445
 30
0.0
 10
15.3333784227
 20
11.5419981305
 30
0.0
 10
15.3493319233
 20
11.5002867003
 30
0.0
 10
15.3625850389
 20
11.4681378861
 30
0.0
 10
15.3726589983
 20
11.4448752799
 30
0.0
 10
15.3829521222
 20
11.4222543613
 30
0.0
 10
15.3934583039
 20
11.400288675
 30
0.0
 10
15.4041711868
 20
11.378991416
 30
0.0
 10
15.4150843813
 20
11.358375384
 30
0.0
 10
15.4261913285
 20
11.3384529505
 30
0.0
 10
15.4374853656
 20
11.3192360669
 30
0.0
 10
15.4489597692
 20
11.3007362822
 30
0.0
 10
15.4606076447
 20
11.2829646748
 30
0.0
 10
15.4724220647
 20
11.265931917
 30
0.0
 10
15.4843959945
 20
11.2496482302
 30
0.0
 10
15.4965222839
 20
11.2341233646
 30
0.0
 10
15.5087937747
 20
11.2193666672
 30
0.0
 10
15.5212031673
 20
11.2053869828
 30
0.0
 10
15.5337431303
 20
11.1921927238
 30
0.0
 10
15.5464062901
 20
11.1797918698
 30
0.0
 10
15.5591851532
 20
11.1681918879
 30
0.0
 10
15.5720722418
 20
11.1573998617
 30
0.0
 10
15.5850599763
 20
11.1474223843
 30
0.0
 10
15.5981407163
 20
11.1382655916
 30
0.0
 10
15.6113068054
 20
11.1299352439
 30
0.0
 10
15.6245504478
 20
11.122436565
 30
0.0
 10
15.6378638147
 20
11.1157744041
 30
0.0
 10
15.6512389668
 20
11.109953152
 30
0.0
 10
15.6646678277
 20
11.1049766676
 30
0.0
 10
15.6781422422
 20
11.1008484347
 30
0.0
 10
15.6916538838
 20
11.0975713221
 30
0.0
 10
15.7051943168
 20
11.0951476889
 30
0.0
 10
15.7187549911
 20
11.0935793682
 30
0.0
 10
15.7323272507
 20
11.0928674627
 30
0.0
 10
15.7459023966
 20
11.0930125634
 30
0.0
 10
15.7594717048
 20
11.0940145482
 30
0.0
 10
15.7730264919
 20
11.095872627
 30
0.0
 10
15.786558127
 20
11.0985854848
 30
0.0
 10
15.8000581022
 20
11.1021510751
 30
0.0
 10
15.8135180195
 20
11.1065668725
 30
0.0
 10
15.8269295965
 20
11.1118298072
 30
0.0
 10
15.8402847428
 20
11.1179362507
 30
0.0
 10
15.8535753289
 20
11.1248821382
 30
0.0
 10
15.8667937947
 20
11.1326631127
 30
0.0
 10
15.8845331296
 20
11.1442896539
 30
0.0
 10
15.901874186
 20
11.1574651991
 30
0.0
 10
15.9187873033
 20
11.1720292456
 30
0.0
 10
15.9315281869
 20
11.1839015279
 30
0.0
 10
15.9441503696
 20
11.1965717975
 30
0.0
 10
15.9566469705
 20
11.2100329418
 30
0.0
 10
15.9690104806
 20
11.2242766784
 30
0.0
 10
15.981233623
 20
11.2392944908
 30
0.0
 10
15.9933091196
 20
11.2550773607
 30
0.0
 10
16.0052298386
 20
11.2716157945
 30
0.0
 10
16.0169886488
 20
11.2888998929
 30
0.0
 10
16.0285785582
 20
11.3069192765
 30
0.0
 10
16.0399926588
 20
11.3256631309
 30
0.0
 10
16.0512240935
 20
11.3451202274
 30
0.0
 10
16.0622661787
 20
11.3652788708
 30
0.0
 10
16.0731122756
 20
11.3861269705
 30
0.0
 10
16.0837558815
 20
11.4076520136
 30
0.0
 10
16.0941906202
 20
11.429841048
 30
0.0
 10
16.1044102484
 20
11.4526808135
 30
0.0
 10
16.1178677262
 20
11.4842800778
 30
0.0
 10
16.1340857876
 20
11.525330377
 30
0.0
 10
16.152414382
 20
11.5765060319
 30
0.0
 10
16.1637883229
 20
11.6115671819
 30
0.0
 10
16.1693177601
 20
11.6294604473
 30
0.0
  0
SPLINE
  5
2C3
100
AcDbEntity
  8
LAYER_FEATURE
100
AcDbSpline
 62
7
  6
CONTINUOUS
 70
0
 71
3
 72
68
 73
64
 74
0
 42
0.0000001
 43
0.0000001
 44
0.0000000001
 40
0.0
 40
0.0
 40
0.0
 40
0.0
 40
0.0163580858
 40
0.0330510049
 40
0.0500641651
 40
0.0673825756
 40
0.0849903746
 40
0.1028711641
 40
0.1210079486
 40
0.1393832211
 40
0.1579789974
 40
0.176776863
 40
0.1957580148
 40
0.2149033029
 40
0.2536072195
 40
0.2927309867
 40
0.3321129044
 40
0.3715894139
 40
0.4109962794
 40
0.450169764
 40
0.4889478082
 40
0.5081391481
 40
0.5271722354
 40
0.5460278227
 40
0.5646869974
 40
0.5831312226
 40
0.6013423791
 40
0.6193028086
 40
0.6369953594
 40
0.6544034334
 40
0.6715110358
 40
0.6883028277
 40
0.7047641825
 40
0.7208812464
 40
0.7366410033
 40
0.7520313453
 40
0.767041151
 40
0.7816603709
 40
0.7958801233
 40
0.8096928013
 40
0.8230921932
 40
0.836073619
 40
0.8486340848
 40
0.8607724581
 40
0.8724896662
 40
0.8837889208
 40
0.8946759706
 40
0.9051593824
 40
0.9152508473
 40
0.9249655082
 40
0.9343222939
 40
0.9433442428
 40
0.9520587819
 40
0.9604979211
 40
0.9686983093
 40
0.9727225116
 40
0.9767028171
 40
0.9806450085
 40
0.9845550798
 40
0.9884392169
 40
0.9923037608
 40
0.9961551735
 40
1.0
 40
1.0
 40
1.0
 40
1.0
 10
15.2950654627
 20
13.4447739702
 30
0.0
 10
15.2907741941
 20
13.43088742
 30
0.0
 10
15.282391072
 20
13.4027405176
 30
0.0
 10
15.2705242766
 20
13.3598669436
 30
0.0
 10
15.2592488772
 20
13.3159525066
 30
0.0
 10
15.248578766
 20
13.2710513289
 30
0.0
 10
15.2385270222
 20
13.2252182487
 30
0.0
 10
15.229105983
 20
13.178509473
 30
0.0
 10
15.2203272151
 20
13.130982207
 30
0.0
 10
15.2122014955
 20
13.0826946965
 30
0.0
 10
15.2047387987
 20
13.033706106
 30
0.0
 10
15.1979483012
 20
12.9840765072
 30
0.0
 10
15.1918382924
 20
12.933866611
 30
0.0
 10
15.1845831978
 20
12.8659859209
 30
0.0
 10
15.1772806772
 20
12.7801207892
 30
0.0
 10
15.1713624392
 20
12.6761330319
 30
0.0
 10
15.1682870429
 20
12.5713354196
 30
0.0
 10
15.1680696276
 20
12.4662416357
 30
0.0
 10
15.1707112616
 20
12.3613658556
 30
0.0
 10
15.1761989465
 20
12.2572221459
 30
0.0
 10
15.1831447285
 20
12.1711760508
 30
0.0
 10
15.1901169954
 20
12.1031120149
 30
0.0
 10
15.1960186092
 20
12.0527379137
 30
0.0
 10
15.2026030827
 20
12.0029254737
 30
0.0
 10
15.2098623769
 20
11.9537356306
 30
0.0
 10
15.2177875653
 20
11.9052287034
 30
0.0
 10
15.2263689202
 20
11.8574641294
 30
0.0
 10
15.2355959053
 20
11.8105004406
 30
0.0
 10
15.2454571941
 20
11.7643951782
 30
0.0
 10
15.2559406828
 20
11.7192048246
 30
0.0
 10
15.2670335064
 20
11.6749847323
 30
0.0
 10
15.2787220548
 20
11.6317890554
 30
0.0
 10
15.2909919916
 20
11.5896706809
 30
0.0
 10
15.3038282702
 20
11.5486811621
 30
0.0
 10
15.3172151567
 20
11.5088706542
 30
0.0
 10
15.3311362513
 20
11.4702878517
 30
0.0
 10
15.3455745112
 20
11.4329799275
 30
0.0
 10
15.3605122759
 20
11.3969924729
 30
0.0
 10
15.3759312931
 20
11.362369441
 30
0.0
 10
15.3918127477
 20
11.3291530914
 30
0.0
 10
15.4081372926
 20
11.2973839379
 30
0.0
 10
15.4248850827
 20
11.2671006996
 30
0.0
 10
15.4420358091
 20
11.2383402547
 30
0.0
 10
15.4595687397
 20
11.2111376012
 30
0.0
 10
15.4774627615
 20
11.1855258258
 30
0.0
 10
15.4956964249
 20
11.1615360801
 30
0.0
 10
15.5142479892
 20
11.1391975677
 30
0.0
 10
15.5330954648
 20
11.1185375459
 30
0.0
 10
15.5522166534
 20
11.0995813436
 30
0.0
 10
15.5715891602
 20
11.0823523999
 30
0.0
 10
15.5911904318
 20
11.0668723082
 30
0.0
 10
15.6109975794
 20
11.053160914
 30
0.0
 10
15.6309877766
 20
11.041236243
 30
0.0
 10
15.65113639
 20
11.0311149856
 30
0.0
 10
15.6681476049
 20
11.0241515581
 30
0.0
 10
15.6817849615
 20
11.0195217637
 30
0.0
 10
15.6919724461
 20
11.0165285298
 30
0.0
 10
15.7021791378
 20
11.0139940996
 30
0.0
 10
15.7124020398
 20
11.0119193009
 30
0.0
 10
15.7226378707
 20
11.0103048219
 30
0.0
 10
15.7328834968
 20
11.0091512201
 30
0.0
 10
15.7431354055
 20
11.0084589173
 30
0.0
 10
15.7499746623
 20
11.008304991
 30
0.0
 10
15.7533908673
 20
11.0083049937
 30
0.0
  0
SPLINE
  5
2C4
100
AcDbEntity
  8
LAYER_FEATURE
100
AcDbSpline
 62
7
  6
CONTINUOUS
 70
0
 71
3
 72
16
 73
12
 74
0
 42
0.0000001
 43
0.0000001
 44
0.0000000001
 40
0.0
 40
0.0
 40
0.0
 40
0.0
 40
0.0426530477
 40
0.0860488065
 40
0.1775998948
 40
0.2793800045
 40
0.3942716821
 40
0.5237394487
 40
0.6681779635
 40
0.82724443
 40
1.0
 40
1.0
 40
1.0
 40
1.0
 10
14.8132945296
 20
13.3268048858
 30
0.0
 10
14.8131954847
 20
13.3268048899
 30
0.0
 10
14.8129953697
 20
13.3267902806
 30
0.0
 10
14.8125913382
 20
13.326701866
 30
0.0
 10
14.8120842854
 20
13.3264733078
 30
0.0
 10
14.8115111901
 20
13.3260370434
 30
0.0
 10
14.8109649339
 20
13.3254429596
 30
0.0
 10
14.8104500724
 20
13.3246986181
 30
0.0
 10
14.8099713603
 20
13.3238126357
 30
0.0
 10
14.8095342802
 20
13.3227954587
 30
0.0
 10
14.809283737
 20
13.3220660421
 30
0.0
 10
14.8091652966
 20
13.3216827688
 30
0.0
  0
SPLINE
  5
2C5
100
AcDbEntity
  8
02___PRT_ALL_AXES
100
AcDbSpline
 62
7
  6
CONTINUOUS
 70
0
 71
3
 72
58
 73
54
 74
0
 42
0.0000001
 43
0.0000001
 44
0.0000000001
 40
0.0
 40
0.0
 40
0.0
 40
0.0
 40
0.0078997821
 40
0.0160074672
 40
0.0243557073
 40
0.0329734243
 40
0.0418858029
 40
0.0511143994
 40
0.0606773304
 40
0.0705895045
 40
0.080862874
 40
0.0915066878
 40
0.1025277332
 40
0.1139305683
 40
0.1257177324
 40
0.1378899356
 40
0.1504462286
 40
0.1633841513
 40
0.1766998673
 40
0.1903882855
 40
0.2044431662
 40
0.2188572153
 40
0.2336221672
 40
0.2487288586
 40
0.2641672994
 40
0.2799267349
 40
0.2959957032
 40
0.3123620861
 40
0.3290131556
 40
0.345935619
 40
0.3631156629
 40
0.3805389929
 40
0.416055162
 40
0.4523625636
 40
0.4893331061
 40
0.5268342573
 40
0.5647300019
 40
0.6028817821
 40
0.6411494078
 40
0.6793919535
 40
0.7174686536
 40
0.7552397934
 40
0.7925676166
 40
0.8293172372
 40
0.865357588
 40
0.8830726112
 40
0.9005634185
 40
0.9178151474
 40
0.934813366
 40
0.9515441479
 40
0.9679939464
 40
0.9841501227
 40
1.0
 40
1.0
 40
1.0
 40
1.0
 10
15.692908112
 20
11.2395561504
 30
0.0
 10
15.6874074038
 20
11.2414396175
 30
0.0
 10
15.6764061806
 20
11.2456927579
 30
0.0
 10
15.6601935917
 20
11.2533740523
 30
0.0
 10
15.6440933722
 20
11.2624219497
 30
0.0
 10
15.6281238622
 20
11.2728249423
 30
0.0
 10
15.6123013302
 20
11.2845709185
 30
0.0
 10
15.5966422892
 20
11.2976464249
 30
0.0
 10
15.5811629409
 20
11.3120368604
 30
0.0
 10
15.5658793824
 20
11.3277263826
 30
0.0
 10
15.5508075677
 20
11.3446978918
 30
0.0
 10
15.5359633161
 20
11.3629329988
 30
0.0
 10
15.5213622804
 20
11.3824120023
 30
0.0
 10
15.5070199342
 20
11.4031138933
 30
0.0
 10
15.4929515441
 20
11.42501636
 30
0.0
 10
15.4791721416
 20
11.4480957983
 30
0.0
 10
15.4656964995
 20
11.4723273269
 30
0.0
 10
15.4525390995
 20
11.4976848027
 30
0.0
 10
15.4397141088
 20
11.5241408468
 30
0.0
 10
15.4272353643
 20
11.551666878
 30
0.0
 10
15.4151163497
 20
11.5802331438
 30
0.0
 10
15.4033701765
 20
11.6098087521
 30
0.0
 10
15.3920095673
 20
11.6403617022
 30
0.0
 10
15.3810468294
 20
11.6718589167
 30
0.0
 10
15.3704938483
 20
11.7042662832
 30
0.0
 10
15.3603620725
 20
11.7375486937
 30
0.0
 10
15.3506624984
 20
11.7716700845
 30
0.0
 10
15.3414056606
 20
11.8065934723
 30
0.0
 10
15.3326016077
 20
11.842281001
 30
0.0
 10
15.3242599133
 20
11.8786939486
 30
0.0
 10
15.3163895839
 20
11.9157929111
 30
0.0
 10
15.3064729195
 20
11.9664408454
 30
0.0
 10
15.2953377883
 20
12.031186592
 30
0.0
 10
15.2840636534
 20
12.1104717972
 30
0.0
 10
15.2748429943
 20
12.1914923824
 30
0.0
 10
15.2677160357
 20
12.273896814
 30
0.0
 10
15.2627138372
 20
12.3573281676
 30
0.0
 10
15.259858206
 20
12.4414247987
 30
0.0
 10
15.2591616159
 20
12.525822189
 30
0.0
 10
15.2606270836
 20
12.6101544782
 30
0.0
 10
15.2642482244
 20
12.6940561093
 30
0.0
 10
15.2700092602
 20
12.77716337
 30
0.0
 10
15.277885048
 20
12.8591162309
 30
0.0
 10
15.2878412664
 20
12.9395590784
 30
0.0
 10
15.2978922059
 20
13.0054183133
 30
0.0
 10
15.3069572562
 20
13.057067573
 30
0.0
 10
15.3142076168
 20
13.094990974
 30
0.0
 10
15.3219402729
 20
13.1322803362
 30
0.0
 10
15.3301468713
 20
13.16889532
 30
0.0
 10
15.3388184792
 20
13.2047961218
 30
0.0
 10
15.3479456926
 20
13.2399440044
 30
0.0
 10
15.3575185606
 20
13.27430052
 30
0.0
 10
15.3642568355
 20
13.2968743298
 30
0.0
 10
15.3677010393
 20
13.3080197772
 30
0.0
  0
SPLINE
  5
2C6
100
AcDbEntity
  8
LAYER_FEATURE
100
AcDbSpline
 62
7
  6
CONTINUOUS
 70
0
 71
3
 72
38
 73
34
 74
0
 42
0.0000001
 43
0.0000001
 44
0.0000000001
 40
0.0
 40
0.0
 40
0.0
 40
0.0
 40
0.0217670654
 40
0.0436203947
 40
0.0656449953
 40
0.0879234406
 40
0.1105348037
 40
0.133553813
 40
0.1570501901
 40
0.1810881681
 40
0.2057262782
 40
0.2310172472
 40
0.2570080201
 40
0.2837399744
 40
0.3112491216
 40
0.3395663655
 40
0.3687178747
 40
0.3987253525
 40
0.4296063444
 40
0.4613746069
 40
0.4940403357
 40
0.527610445
 40
0.5620888743
 40
0.5974767482
 40
0.6337726102
 40
0.6709726619
 40
0.7090708652
 40
0.7480591168
 40
0.7879274576
 40
0.8286641887
 40
0.8702557095
 40
0.9126870496
 40
1.0
 40
1.0
 40
1.0
 40
1.0
 10
15.2477283816
 20
13.8985549929
 30
0.0
 10
15.2429230008
 20
13.8985549923
 30
0.0
 10
15.2332899598
 20
13.898224563
 30
0.0
 10
15.2188635845
 20
13.8967391139
 30
0.0
 10
15.2044585478
 20
13.894264891
 30
0.0
 10
15.1900866001
 20
13.8908040724
 30
0.0
 10
15.1757581542
 20
13.886359746
 30
0.0
 10
15.1614837401
 20
13.8809356838
 30
0.0
 10
15.1472736165
 20
13.8745363359
 30
0.0
 10
15.1331378399
 20
13.8671668833
 30
0.0
 10
15.119086325
 20
13.8588330556
 30
0.0
 10
15.1051288566
 20
13.8495411834
 30
0.0
 10
15.0912750627
 20
13.8392982466
 30
0.0
 10
15.0775345179
 20
13.828111752
 30
0.0
 10
15.0639167089
 20
13.8159898165
 30
0.0
 10
15.0504310088
 20
13.8029411956
 30
0.0
 10
15.037086767
 20
13.7889751986
 30
0.0
 10
15.02389324
 20
13.7741017692
 30
0.0
 10
15.0108595752
 20
13.7583314881
 30
0.0
 10
14.9979948849
 20
13.7416755097
 30
0.0
 10
14.9853081581
 20
13.7241456291
 30
0.0
 10
14.972808262
 20
13.7057542634
 30
0.0
 10
14.9605040021
 20
13.6865144042
 30
0.0
 10
14.9484040254
 20
13.6664396702
 30
0.0
 10
14.9365168419
 20
13.6455442757
 30
0.0
 10
14.9248508693
 20
13.6238429945
 30
0.0
 10
14.9134143376
 20
13.6013512015
 30
0.0
 10
14.9022153256
 20
13.5780848372
 30
0.0
 10
14.8912617771
 20
13.5540603523
 30
0.0
 10
14.8805614772
 20
13.5292948363
 30
0.0
 10
14.8701219086
 20
13.5038057426
 30
0.0
 10
14.8564300895
 20
13.4685444423
 30
0.0
 10
14.8467761245
 20
13.4415697159
 30
0.0
 10
14.8405734021
 20
13.4233194353
 30
0.0
  0
SPLINE
  5
2C7
100
AcDbEntity
  8
LAYER_CUT_FEAT
100
AcDbSpline
 62
7
  6
CONTINUOUS
 70
0
 71
3
 72
25
 73
21
 74
0
 42
0.0000001
 43
0.0000001
 44
0.0000000001
 40
0.0
 40
0.0
 40
0.0
 40
0.0
 40
0.0894529808
 40
0.1761709046
 40
0.259808937
 40
0.3400533655
 40
0.4166232736
 40
0.4892787455
 40
0.5578276849
 40
0.6221356347
 40
0.6821378766
 40
0.7378552589
 40
0.7894145401
 40
0.8370737512
 40
0.8812511853
 40
0.9225523409
 40
0.9423863936
 40
0.9618192694
 40
0.9809788823
 40
1.0
 40
1.0
 40
1.0
 40
1.0
 10
15.7466964589
 20
13.1975883739
 30
0.0
 10
15.7462900311
 20
13.1999726407
 30
0.0
 10
15.745414085
 20
13.2046558388
 30
0.0
 10
15.7438851015
 20
13.2115136794
 30
0.0
 10
15.7421675809
 20
13.2180699259
 30
0.0
 10
15.7402705567
 20
13.2242903846
 30
0.0
 10
15.738203919
 20
13.2301428378
 30
0.0
 10
15.7359784178
 20
13.2355970283
 30
0.0
 10
15.7336055227
 20
13.240624903
 30
0.0
 10
15.7310973085
 20
13.2452007525
 30
0.0
 10
15.7284662836
 20
13.2493013395
 30
0.0
 10
15.7257251264
 20
13.2529059548
 30
0.0
 10
15.7228865362
 20
13.2559963014
 30
0.0
 10
15.719962574
 20
13.258556204
 30
0.0
 10
15.7169661226
 20
13.2605706581
 30
0.0
 10
15.7143828067
 20
13.2617993792
 30
0.0
 10
15.7123107055
 20
13.262479264
 30
0.0
 10
15.7107703254
 20
13.2628394284
 30
0.0
 10
15.7092255686
 20
13.263055805
 30
0.0
 10
15.7081925868
 20
13.2631039758
 30
0.0
 10
15.7076782875
 20
13.2631039722
 30
0.0
  0
SPLINE
  5
2C8
100
AcDbEntity
  8
02___PRT_ALL_AXES
100
AcDbSpline
 62
7
  6
CONTINUOUS
 70
0
 71
3
 72
15
 73
11
 74
0
 42
0.0000001
 43
0.0000001
 44
0.0000000001
 40
0.0
 40
0.0
 40
0.0
 40
0.0
 40
0.1336136089
 40
0.2636883504
 40
0.390701947
 40
0.5151945695
 40
0.6377451248
 40
0.7589671686
 40
0.8795009196
 40
1.0
 40
1.0
 40
1.0
 40
1.0
 10
15.817393865
 20
11.8399048432
 30
0.0
 10
15.8147140165
 20
11.8383645553
 30
0.0
 10
15.8093286223
 20
11.8354887716
 30
0.0
 10
15.8010824789
 20
11.8317717265
 30
0.0
 10
15.7927920856
 20
11.8287175402
 30
0.0
 10
15.7844662028
 20
11.8263301073
 30
0.0
 10
15.7761131865
 20
11.8246122834
 30
0.0
 10
15.7677415935
 20
11.8235663977
 30
0.0
 10
15.7593610445
 20
11.8231938268
 30
0.0
 10
15.753781626
 20
11.8233943986
 30
0.0
 10
15.7510020523
 20
11.8236055219
 30
0.0
  0
SPLINE
  5
2C9
100
AcDbEntity
  8
LAYER_FEATURE
100
AcDbSpline
 62
7
  6
CONTINUOUS
 70
0
 71
3
 72
101
 73
97
 74
0
 42
0.0000001
 43
0.0000001
 44
0.0000000001
 40
0.0
 40
0.0
 40
0.0
 40
0.0
 40
0.0173109648
 40
0.0340648569
 40
0.0502379075
 40
0.0581002953
 40
0.0658100011
 40
0.0733650081
 40
0.0807635715
 40
0.0880042136
 40
0.0950857545
 40
0.1020073328
 40
0.1087684157
 40
0.1153688435
 40
0.121808839
 40
0.1280890426
 40
0.1342105525
 40
0.1401749415
 40
0.1459843122
 40
0.1516413266
 40
0.1571492443
 40
0.1625119804
 40
0.1677341322
 40
0.1777764135
 40
0.1826119568
 40
0.1873330486
 40
0.1919483167
 40
0.1964672572
 40
0.2009002295
 40
0.2052584133
 40
0.20955376
 40
0.213798906
 40
0.2180070603
 40
0.2221918752
 40
0.2263672864
 40
0.2305473473
 40
0.2347460527
 40
0.2389771692
 40
0.2432540719
 40
0.2475896046
 40
0.2519959621
 40
0.2564845918
 40
0.2610661369
 40
0.2657503876
 40
0.270546265
 40
0.275461829
 40
0.2805042802
 40
0.2856800011
 40
0.2909945853
 40
0.2964528728
 40
0.3020590071
 40
0.3078164629
 40
0.3137281002
 40
0.3197962083
 40
0.326022532
 40
0.3324083287
 40
0.3389543894
 40
0.3456610736
 40
0.3525283509
 40
0.3595558088
 40
0.3667426961
 40
0.3740879393
 40
0.3815901566
 40
0.3892476941
 40
0.3970586259
 40
0.4050207799
 40
0.4213883788
 40
0.4383293122
 40
0.4558186721
 40
0.4738287793
 40
0.4923294818
 40
0.511288417
 40
0.5306712525
 40
0.550441907
 40
0.5705627528
 40
0.5909948038
 40
0.6116978956
 40
0.6326308601
 40
0.6537516919
 40
0.6750177098
 40
0.6963857151
 40
0.717812149
 40
0.7392532477
 40
0.7606651955
 40
0.7820042793
 40
0.8032270426
 40
0.8242904406
 40
0.845151997
 40
0.8657699648
 40
0.8861034902
 40
0.9061127799
 40
0.9257592754
 40
0.9450058351
 40
0.9638169516
 40
0.9821588444
 40
1.0
 40
1.0
 40
1.0
 40
1.0
 10
15.3043155913
 20
13.3921495386
 30
0.0
 10
15.3098450285
 20
13.410042804
 30
0.0
 10
15.3212189693
 20
13.4451039539
 30
0.0
 10
15.3395475638
 20
13.4962796088
 30
0.0
 10
15.3557656251
 20
13.537329908
 30
0.0
 10
15.3692231029
 20
13.5689291723
 30
0.0
 10
15.3794427311
 20
13.5917689378
 30
0.0
 10
15.3898774698
 20
13.6139579722
 30
0.0
 10
15.4005210758
 20
13.6354830153
 30
0.0
 10
15.4113671726
 20
13.656331115
 30
0.0
 10
15.4224092578
 20
13.6764897585
 30
0.0
 10
15.4336406926
 20
13.6959468549
 30
0.0
 10
15.4450547931
 20
13.7146907093
 30
0.0
 10
15.4566447025
 20
13.7327100929
 30
0.0
 10
15.4684035127
 20
13.7499941913
 30
0.0
 10
15.4803242317
 20
13.7665326251
 30
0.0
 10
15.4923997284
 20
13.782315495
 30
0.0
 10
15.5046228707
 20
13.7973333074
 30
0.0
 10
15.5169863808
 20
13.811577044
 30
0.0
 10
15.5294829817
 20
13.8250381884
 30
0.0
 10
15.5421051644
 20
13.837708458
 30
0.0
 10
15.554846048
 20
13.8495807403
 30
0.0
 10
15.5717591654
 20
13.8641447867
 30
0.0
 10
15.5891002217
 20
13.8773203319
 30
0.0
 10
15.6068395566
 20
13.8889468731
 30
0.0
 10
15.6200580224
 20
13.8967278476
 30
0.0
 10
15.6333486086
 20
13.9036737351
 30
0.0
 10
15.6467037549
 20
13.9097801786
 30
0.0
 10
15.6601153318
 20
13.9150431133
 30
0.0
 10
15.6735752492
 20
13.9194589107
 30
0.0
 10
15.6870752243
 20
13.923024501
 30
0.0
 10
15.7006068594
 20
13.9257373588
 30
0.0
 10
15.7141616466
 20
13.9275954376
 30
0.0
 10
15.7277309547
 20
13.9285974224
 30
0.0
 10
15.7413061006
 20
13.9287425231
 30
0.0
 10
15.7548783602
 20
13.9280306176
 30
0.0
 10
15.7684390346
 20
13.9264622969
 30
0.0
 10
15.7819794675
 20
13.9240386637
 30
0.0
 10
15.7954911091
 20
13.9207615511
 30
0.0
 10
15.8089655237
 20
13.9166333182
 30
0.0
 10
15.8223943845
 20
13.9116568339
 30
0.0
 10
15.8357695366
 20
13.9058355817
 30
0.0
 10
15.8490829035
 20
13.8991734208
 30
0.0
 10
15.8623265459
 20
13.891674742
 30
0.0
 10
15.875492635
 20
13.8833443942
 30
0.0
 10
15.8885733751
 20
13.8741876015
 30
0.0
 10
15.9015611096
 20
13.8642101241
 30
0.0
 10
15.9144481981
 20
13.8534180979
 30
0.0
 10
15.9272270612
 20
13.8418181161
 30
0.0
 10
15.9398902211
 20
13.829417262
 30
0.0
 10
15.952430184
 20
13.816223003
 30
0.0
 10
15.9648395766
 20
13.8022433186
 30
0.0
 10
15.9771110674
 20
13.7874866212
 30
0.0
 10
15.9892373568
 20
13.7719617556
 30
0.0
 10
16.0012112866
 20
13.7556780688
 30
0.0
 10
16.0130257066
 20
13.738645311
 30
0.0
 10
16.0246735822
 20
13.7208737036
 30
0.0
 10
16.0361479858
 20
13.7023739189
 30
0.0
 10
16.0474420228
 20
13.6831570353
 30
0.0
 10
16.0585489701
 20
13.6632346018
 30
0.0
 10
16.0694621646
 20
13.6426185698
 30
0.0
 10
16.0801750474
 20
13.6213213108
 30
0.0
 10
16.0906812291
 20
13.5993556245
 30
0.0
 10
16.1009743531
 20
13.5767347059
 30
0.0
 10
16.1110483125
 20
13.5534720997
 30
0.0
 10
16.124301428
 20
13.5213232855
 30
0.0
 10
16.1402549287
 20
13.4796118554
 30
0.0
 10
16.158258253
 20
13.4276791413
 30
0.0
 10
16.1752493829
 20
13.373541505
 30
0.0
 10
16.1911873475
 20
13.3173292308
 30
0.0
 10
16.2060337872
 20
13.2591770603
 30
0.0
 10
16.2197529152
 20
13.1992246662
 30
0.0
 10
16.2323116562
 20
13.1376160746
 30
0.0
 10
16.2436797111
 20
13.0744993649
 30
0.0
 10
16.2538296412
 20
13.0100262871
 30
0.0
 10
16.2627369443
 20
12.9443518977
 30
0.0
 10
16.2703801243
 20
12.8776341787
 30
0.0
 10
16.2767407283
 20
12.8100336476
 30
0.0
 10
16.2818033951
 20
12.7417129657
 30
0.0
 10
16.2855558936
 20
12.6728365438
 30
0.0
 10
16.2879891696
 20
12.6035701439
 30
0.0
 10
16.2890973491
 20
12.5340804741
 30
0.0
 10
16.2888777547
 20
12.4645347838
 30
0.0
 10
16.2873309092
 20
12.3951004589
 30
0.0
 10
16.2844605527
 20
12.3259446145
 30
0.0
 10
16.2802736208
 20
12.2572336897
 30
0.0
 10
16.2747802234
 20
12.1891330437
 30
0.0
 10
16.2679936187
 20
12.121806555
 30
0.0
 10
16.2599301936
 20
12.0554162205
 30
0.0
 10
16.2506094217
 20
11.9901217583
 30
0.0
 10
16.2400538052
 20
11.9260802274
 30
0.0
 10
16.2282888119
 20
11.8634456251
 30
0.0
 10
16.2153428425
 20
11.8023685629
 30
0.0
 10
16.2012470822
 20
11.7429957109
 30
0.0
 10
16.186035712
 20
11.6854702129
 30
0.0
 10
16.1750165499
 20
11.6479017379
 30
0.0
 10
16.1693177601
 20
11.6294604473
 30
0.0
  0
SPLINE
  5
2CA
100
AcDbEntity
  8
LAYER_FEATURE
100
AcDbSpline
 62
7
  6
CONTINUOUS
 70
0
 71
3
 72
39
 73
35
 74
0
 42
0.0000001
 43
0.0000001
 44
0.0000000001
 40
0.0
 40
0.0
 40
0.0
 40
0.0
 40
0.0443813067
 40
0.0879669132
 40
0.1307335
 40
0.1726618866
 40
0.2137331556
 40
0.2539301966
 40
0.2932376985
 40
0.3316421098
 40
0.369131909
 40
0.4056977074
 40
0.4413324012
 40
0.4760313905
 40
0.5097927922
 40
0.5426176374
 40
0.5745101304
 40
0.6054779621
 40
0.6355325877
 40
0.6646895438
 40
0.692968828
 40
0.7203952814
 40
0.7469989433
 40
0.7728154398
 40
0.7978863773
 40
0.8222596396
 40
0.8459896209
 40
0.8691373705
 40
0.8917705686
 40
0.9139632732
 40
0.9357954514
 40
0.9573522573
 40
0.9787230195
 40
1.0
 40
1.0
 40
1.0
 40
1.0
 10
15.2950654627
 20
13.4447739702
 30
0.0
 10
15.2984453643
 20
13.4557113359
 30
0.0
 10
15.3053197096
 20
13.4773363583
 30
0.0
 10
15.3160767184
 20
13.5092976235
 30
0.0
 10
15.3271793821
 20
13.5404698235
 30
0.0
 10
15.3386187641
 20
13.5708280245
 30
0.0
 10
15.3503859298
 20
13.6003484693
 30
0.0
 10
15.3624715576
 20
13.6290078146
 30
0.0
 10
15.3748661091
 20
13.6567834589
 30
0.0
 10
15.3875598358
 20
13.683653501
 30
0.0
 10
15.400542724
 20
13.7095967671
 30
0.0
 10
15.4138045532
 20
13.7345928237
 30
0.0
 10
15.4273349125
 20
13.7586219782
 30
0.0
 10
15.441123186
 20
13.7816653122
 30
0.0
 10
15.4551585575
 20
13.8037047028
 30
0.0
 10
15.4694300535
 20
13.8247228103
 30
0.0
 10
15.483926555
 20
13.8447030879
 30
0.0
 10
15.4986367682
 20
13.8636298246
 30
0.0
 10
15.513549272
 20
13.8814881266
 30
0.0
 10
15.5286525405
 20
13.8982639038
 30
0.0
 10
15.5439349317
 20
13.9139438934
 30
0.0
 10
15.5593846835
 20
13.9285156731
 30
0.0
 10
15.5749899539
 20
13.9419676159
 30
0.0
 10
15.5907388184
 20
13.9542888763
 30
0.0
 10
15.6066192227
 20
13.9654694338
 30
0.0
 10
15.6226189995
 20
13.9755000478
 30
0.0
 10
15.638725849
 20
13.9843722278
 30
0.0
 10
15.6549272872
 20
13.9920782696
 30
0.0
 10
15.6712105847
 20
13.99861131
 30
0.0
 10
15.6875627926
 20
14.0039653087
 30
0.0
 10
15.703970567
 20
14.0081351089
 30
0.0
 10
15.7204206424
 20
14.0111165964
 30
0.0
 10
15.7368980437
 20
14.0129067508
 30
0.0
 10
15.7479026926
 20
14.0133049876
 30
0.0
 10
15.7533908673
 20
14.0133049921
 30
0.0
  0
SPLINE
  5
2CB
100
AcDbEntity
  8
LAYER_FEATURE
100
AcDbSpline
 62
7
  6
CONTINUOUS
 70
0
 71
3
 72
67
 73
63
 74
0
 42
0.0000001
 43
0.0000001
 44
0.0000000001
 40
0.0
 40
0.0
 40
0.0
 40
0.0
 40
0.0163581013
 40
0.0330510694
 40
0.0500642491
 40
0.0673826926
 40
0.0849905208
 40
0.1028713409
 40
0.1210081566
 40
0.1393834611
 40
0.15797927
 40
0.1767771682
 40
0.1957583526
 40
0.2149036734
 40
0.2536076561
 40
0.292731491
 40
0.3321134768
 40
0.371590054
 40
0.4109969877
 40
0.45017054
 40
0.4889486503
 40
0.5081400228
 40
0.5271731428
 40
0.546028763
 40
0.5646879707
 40
0.5831322282
 40
0.601343416
 40
0.6193038759
 40
0.6369964566
 40
0.65440456
 40
0.6715121917
 40
0.6883040129
 40
0.7047653969
 40
0.720882489
 40
0.7366422729
 40
0.7520326412
 40
0.7670424724
 40
0.7816617173
 40
0.7958814943
 40
0.8096941963
 40
0.8230936114
 40
0.8360750592
 40
0.8486355463
 40
0.8607739405
 40
0.872491169
 40
0.8837904436
 40
0.8946775128
 40
0.905160943
 40
0.9152524249
 40
0.9249671014
 40
0.9343239024
 40
0.9433458667
 40
0.9520604213
 40
0.9604995757
 40
0.9686999787
 40
0.9767027777
 40
0.9806449746
 40
0.9845550535
 40
0.9884391969
 40
0.9923037475
 40
0.9961551669
 40
1.0
 40
1.0
 40
1.0
 40
1.0
 10
14.7728287853
 20
13.4447739702
 30
0.0
 10
14.7685375201
 20
13.4308874307
 30
0.0
 10
14.7601543978
 20
13.4027405214
 30
0.0
 10
14.7482876
 20
13.3598669503
 30
0.0
 10
14.7370122008
 20
13.3159525007
 30
0.0
 10
14.726342089
 20
13.2710513303
 30
0.0
 10
14.7162903448
 20
13.2252182485
 30
0.0
 10
14.7068693046
 20
13.1785094743
 30
0.0
 10
14.698090536
 20
13.1309822083
 30
0.0
 10
14.6899648173
 20
13.0826946969
 30
0.0
 10
14.6825021228
 20
13.033706105
 30
0.0
 10
14.6757116266
 20
12.9840765054
 30
0.0
 10
14.6696016177
 20
12.9338666095
 30
0.0
 10
14.6623465215
 20
12.8659859204
 30
0.0
 10
14.6550439967
 20
12.7801207897
 30
0.0
 10
14.6491257587
 20
12.6761330324
 30
0.0
 10
14.6460503702
 20
12.5713354196
 30
0.0
 10
14.6458329539
 20
12.4662416357
 30
0.0
 10
14.6484745808
 20
12.3613658552
 30
0.0
 10
14.6539622654
 20
12.2572221455
 30
0.0
 10
14.6609080531
 20
12.1711760517
 30
0.0
 10
14.667880322
 20
12.1031120172
 30
0.0
 10
14.6737819354
 20
12.0527379161
 30
0.0
 10
14.6803664065
 20
12.0029254747
 30
0.0
 10
14.6876256978
 20
11.9537356295
 30
0.0
 10
14.6955508847
 20
11.905228701
 30
0.0
 10
14.7041322406
 20
11.8574641272
 30
0.0
 10
14.7133592274
 20
11.8105004399
 30
0.0
 10
14.7232205179
 20
11.7643951794
 30
0.0
 10
14.7337040076
 20
11.7192048273
 30
0.0
 10
14.7447968313
 20
11.6749847354
 30
0.0
 10
14.7564853789
 20
11.6317890573
 30
0.0
 10
14.7687553136
 20
11.5896706807
 30
0.0
 10
14.7815915914
 20
11.5486811605
 30
0.0
 10
14.7949784785
 20
11.5088706528
 30
0.0
 10
14.8088995738
 20
11.4702878514
 30
0.0
 10
14.8233378343
 20
11.4329799281
 30
0.0
 10
14.8382755992
 20
11.396992474
 30
0.0
 10
14.8536946161
 20
11.3623694419
 30
0.0
 10
14.8695760702
 20
11.3291530917
 30
0.0
 10
14.8859006148
 20
11.2973839381
 30
0.0
 10
14.9026484056
 20
11.2671007007
 30
0.0
 10
14.9197991325
 20
11.2383402568
 30
0.0
 10
14.9373320632
 20
11.2111376035
 30
0.0
 10
14.9552260846
 20
11.1855258273
 30
0.0
 10
14.9734597475
 20
11.1615360795
 30
0.0
 10
14.992011311
 20
11.1391975648
 30
0.0
 10
15.0108587863
 20
11.1185375417
 30
0.0
 10
15.0299799737
 20
11.0995813414
 30
0.0
 10
15.0493524877
 20
11.0823524016
 30
0.0
 10
15.0689537415
 20
11.0668723185
 30
0.0
 10
15.0887609546
 20
11.0531609087
 30
0.0
 10
15.108750918
 20
11.0412362917
 30
0.0
 10
15.1289003606
 20
11.0311148273
 30
0.0
 10
15.1491839345
 20
11.022811383
 30
0.0
 10
15.1662664776
 20
11.0173898451
 30
0.0
 10
15.1799423765
 20
11.0139941622
 30
0.0
 10
15.1901653827
 20
11.0119192747
 30
0.0
 10
15.2004011885
 20
11.0103048325
 30
0.0
 10
15.2106468209
 20
11.0091512222
 30
0.0
 10
15.2208987273
 20
11.0084589055
 30
0.0
 10
15.227737985
 20
11.0083050047
 30
0.0
 10
15.23115419
 20
11.0083050013
 30
0.0
  0
SPLINE
  5
2CC
100
AcDbEntity
  8
LAYER_FEATURE
100
AcDbSpline
 62
7
  6
CONTINUOUS
 70
0
 71
3
 72
39
 73
35
 74
0
 42
0.0000001
 43
0.0000001
 44
0.0000000001
 40
0.0
 40
0.0
 40
0.0
 40
0.0
 40
0.0468567286
 40
0.0926716883
 40
0.137410214
 40
0.1810420697
 40
0.2235391739
 40
0.2648771629
 40
0.3050352218
 40
0.3439965706
 40
0.3817488236
 40
0.4182844263
 40
0.4536011552
 40
0.4877026801
 40
0.5205992012
 40
0.5523081626
 40
0.5828550477
 40
0.6122742346
 40
0.6406099052
 40
0.6679169741
 40
0.6942619778
 40
0.719723839
 40
0.7443943906
 40
0.7683785115
 40
0.7917937127
 40
0.8147690394
 40
0.8374431981
 40
0.8599619197
 40
0.8824747002
 40
0.9051311814
 40
0.9280775177
 40
0.9514530768
 40
0.9753877465
 40
1.0
 40
1.0
 40
1.0
 40
1.0
 10
14.8152272972
 20
13.3921495386
 30
0.0
 10
14.8191388254
 20
13.4048072485
 30
0.0
 10
14.8271229315
 20
13.4297655104
 30
0.0
 10
14.8397320875
 20
13.46651692
 30
0.0
 10
14.8528279648
 20
13.5021281544
 30
0.0
 10
14.8663947814
 20
13.5365564985
 30
0.0
 10
14.8804164822
 20
13.569761142
 30
0.0
 10
14.8948763407
 20
13.6017025341
 30
0.0
 10
14.9097571974
 20
13.6323427271
 30
0.0
 10
14.9250413984
 20
13.6616453248
 30
0.0
 10
14.9407108518
 20
13.6895755546
 30
0.0
 10
14.9567470588
 20
13.7161002955
 30
0.0
 10
14.9731311473
 20
13.7411881127
 30
0.0
 10
14.9898439093
 20
13.7648092841
 30
0.0
 10
15.0068658396
 20
13.7869358214
 30
0.0
 10
15.0241771772
 20
13.8075414803
 30
0.0
 10
15.0417579354
 20
13.8266017654
 30
0.0
 10
15.0595879393
 20
13.8440939089
 30
0.0
 10
15.0776468448
 20
13.8599968347
 30
0.0
 10
15.0959141349
 20
13.874291112
 30
0.0
 10
15.1143690834
 20
13.886958901
 30
0.0
 10
15.132990678
 20
13.897983903
 30
0.0
 10
15.1517574896
 20
13.9073513487
 30
0.0
 10
15.1706475048
 20
13.9150480463
 30
0.0
 10
15.1896379526
 20
13.9210625088
 30
0.0
 10
15.2087051682
 20
13.9253852022
 30
0.0
 10
15.2278245695
 20
13.9280088828
 30
0.0
 10
15.2469708042
 20
13.9289289587
 30
0.0
 10
15.2661180589
 20
13.9281437785
 30
0.0
 10
15.2852405288
 20
13.9256547429
 30
0.0
 10
15.3043127289
 20
13.9214662626
 30
0.0
 10
15.3233103206
 20
13.9155852247
 30
0.0
 10
15.3422083632
 20
13.9080216133
 30
0.0
 10
15.3545385518
 20
13.90195692
 30
0.0
 10
15.360670326
 20
13.8986664084
 30
0.0
  0
SPLINE
  5
2CD
100
AcDbEntity
  8
LAYER_FEATURE
100
AcDbSpline
 62
7
  6
CONTINUOUS
 70
0
 71
3
 72
75
 73
71
 74
0
 42
0.0000001
 43
0.0000001
 44
0.0000000001
 40
0.0
 40
0.0
 40
0.0
 40
0.0
 40
0.0178433313
 40
0.0360223507
 40
0.0545183046
 40
0.0733117664
 40
0.0923825896
 40
0.1117100088
 40
0.131272687
 40
0.1510487761
 40
0.1710159715
 40
0.1911515653
 40
0.2114324989
 40
0.2318354143
 40
0.272911465
 40
0.3141898715
 40
0.3554780304
 40
0.3965832597
 40
0.4170079797
 40
0.4373154731
 40
0.4574823276
 40
0.47748542
 40
0.4973019677
 40
0.5169095801
 40
0.5362863123
 40
0.5554107198
 40
0.5742619151
 40
0.5928196267
 40
0.611064261
 40
0.6289769668
 40
0.6465397054
 40
0.6637353237
 40
0.6805476333
 40
0.6969614978
 40
0.7129629264
 40
0.7285391793
 40
0.7436788838
 40
0.7583721649
 40
0.772610793
 40
0.7863883512
 40
0.7997004264
 40
0.8125448281
 40
0.8249218379
 40
0.8368344936
 40
0.8482889131
 40
0.8592946559
 40
0.8698651235
 40
0.8800179872
 40
0.8897756291
 40
0.8945153256
 40
0.8991670001
 40
0.9082222398
 40
0.916981518
 40
0.9254893198
 40
0.9296653516
 40
0.9337976836
 40
0.9378933092
 40
0.9419594623
 40
0.9460035774
 40
0.9500332393
 40
0.9540561366
 40
0.9580800047
 40
0.9621125723
 40
0.9661615072
 40
0.9702343607
 40
0.9743385216
 40
0.9784811669
 40
0.9826692242
 40
0.9912059299
 40
1.0
 40
1.0
 40
1.0
 40
1.0
 10
14.7912232911
 20
13.3083313264
 30
0.0
 10
14.7873445333
 20
13.2936906764
 30
0.0
 10
14.779808404
 20
13.2640551768
 30
0.0
 10
14.7692564985
 20
13.2189955499
 30
0.0
 10
14.7593621523
 20
13.172961687
 30
0.0
 10
14.750139048
 20
13.1260171386
 30
0.0
 10
14.7415998797
 20
13.0782263606
 30
0.0
 10
14.7337564155
 20
13.0296550851
 30
0.0
 10
14.7266194631
 20
12.9803700947
 30
0.0
 10
14.7201988591
 20
12.9304391718
 30
0.0
 10
14.7145034492
 20
12.8799309787
 30
0.0
 10
14.7095410955
 20
12.8289150223
 30
0.0
 10
14.7053185911
 20
12.7774613421
 30
0.0
 10
14.7006728277
 20
12.7082156441
 30
0.0
 10
14.6967600844
 20
12.6210675911
 30
0.0
 10
14.6950932935
 20
12.5161164522
 30
0.0
 10
14.696454107
 20
12.411136138
 30
0.0
 10
14.7001122872
 20
12.3239254629
 30
0.0
 10
14.7045551943
 20
12.254600507
 30
0.0
 10
14.70862734
 20
12.2030669181
 30
0.0
 10
14.7134405945
 20
12.1519567862
 30
0.0
 10
14.7189883686
 20
12.1013402801
 30
0.0
 10
14.7252630042
 20
12.0512870562
 30
0.0
 10
14.7322558568
 20
12.0018659467
 30
0.0
 10
14.7399572888
 20
11.9531449205
 30
0.0
 10
14.7483566881
 20
11.9051909745
 30
0.0
 10
14.7574424814
 20
11.8580700442
 30
0.0
 10
14.7672021515
 20
11.8118469108
 30
0.0
 10
14.7776222548
 20
11.7665851111
 30
0.0
 10
14.7886884406
 20
11.7223468484
 30
0.0
 10
14.8003854712
 20
11.6791929046
 30
0.0
 10
14.8126972459
 20
11.6371825556
 30
0.0
 10
14.8256068243
 20
11.5963734877
 30
0.0
 10
14.839096453
 20
11.5568217162
 30
0.0
 10
14.8531475933
 20
11.5185815064
 30
0.0
 10
14.8677409509
 20
11.4817052962
 30
0.0
 10
14.8828565089
 20
11.4462436221
 30
0.0
 10
14.8984735622
 20
11.4122450475
 30
0.0
 10
14.914570756
 20
11.3797560949
 30
0.0
 10
14.9311261272
 20
11.348821182
 30
0.0
 10
14.9481171504
 20
11.3194825621
 30
0.0
 10
14.9655207854
 20
11.2917802722
 30
0.0
 10
14.9833135349
 20
11.2657520884
 30
0.0
 10
15.0014714945
 20
11.2414335006
 30
0.0
 10
15.0199704381
 20
11.2188576766
 30
0.0
 10
15.0387857848
 20
11.1980555337
 30
0.0
 10
15.0578929698
 20
11.1790555254
 30
0.0
 10
15.0772663455
 20
11.1618845424
 30
0.0
 10
15.0937697856
 20
11.1489963583
 30
0.0
 10
15.1070756308
 20
11.1396558758
 30
0.0
 10
15.1201998207
 20
11.1311116289
 30
0.0
 10
15.1367356106
 20
11.121574148
 30
0.0
 10
15.1569200089
 20
11.1119399444
 30
0.0
 10
15.1739620882
 20
11.1054789655
 30
0.0
 10
15.1876174317
 20
11.1013091119
 30
0.0
 10
15.1978180595
 20
11.0986862265
 30
0.0
 10
15.2080362641
 20
11.0965500711
 30
0.0
 10
15.2182686431
 20
11.0949013973
 30
0.0
 10
15.2285115097
 20
11.0937408134
 30
0.0
 10
15.2387612424
 20
11.0930688517
 30
0.0
 10
15.2490141751
 20
11.0928856758
 30
0.0
 10
15.2592666481
 20
11.0931914695
 30
0.0
 10
15.2695150038
 20
11.0939860011
 30
0.0
 10
15.2797555782
 20
11.095269058
 30
0.0
 10
15.2899847517
 20
11.0970400614
 30
0.0
 10
15.3001988528
 20
11.0992983596
 30
0.0
 10
15.3103944462
 20
11.1020431388
 30
0.0
 10
15.324044376
 20
11.1063769808
 30
0.0
 10
15.3410753215
 20
11.1130422115
 30
0.0
 10
15.3543027319
 20
11.1195198814
 30
0.0
 10
15.3608772684
 20
11.1230547339
 30
0.0
  0
SPLINE
  5
2CE
100
AcDbEntity
  8
LAYER_FEATURE
100
AcDbSpline
 62
7
  6
CONTINUOUS
 70
0
 71
3
 72
15
 73
11
 74
0
 42
0.0000001
 43
0.0000001
 44
0.0000000001
 40
0.0
 40
0.0
 40
0.0
 40
0.0
 40
0.1200035582
 40
0.2468515211
 40
0.3779379406
 40
0.5104801776
 40
0.6416471188
 40
0.7686587288
 40
0.888888669
 40
1.0
 40
1.0
 40
1.0
 40
1.0
 10
14.8033469461
 20
13.3005176714
 30
0.0
 10
14.8031935509
 20
13.299887414
 30
0.0
 10
14.8029319669
 20
13.2985774516
 30
0.0
 10
14.8026731546
 20
13.296549631
 30
0.0
 10
14.8025410746
 20
13.294441702
 30
0.0
 10
14.8025391904
 20
13.2923063761
 30
0.0
 10
14.8026675324
 20
13.2901969407
 30
0.0
 10
14.8029228131
 20
13.2881659434
 30
0.0
 10
14.8032983799
 20
13.2862640609
 30
0.0
 10
14.8036379812
 20
13.2850585688
 30
0.0
 10
14.8038296404
 20
13.2844893799
 30
0.0
  0
SPLINE
  5
2CF
100
AcDbEntity
  8
LAYER_FEATURE
100
AcDbSpline
 62
7
  6
CONTINUOUS
 70
0
 71
3
 72
15
 73
11
 74
0
 42
0.0000001
 43
0.0000001
 44
0.0000000001
 40
0.0
 40
0.0
 40
0.0
 40
0.0
 40
0.1316450842
 40
0.2640644908
 40
0.3958868239
 40
0.5257432647
 40
0.6523038891
 40
0.7743003193
 40
0.890550777
 40
1.0
 40
1.0
 40
1.0
 40
1.0
 10
14.814873451
 20
13.2252670337
 30
0.0
 10
14.8149907918
 20
13.2269876597
 30
0.0
 10
14.815149518
 20
13.2304447069
 30
0.0
 10
14.8151639342
 20
13.2356325327
 30
0.0
 10
14.8149560789
 20
13.240792889
 30
0.0
 10
14.8145284955
 20
13.2458627276
 30
0.0
 10
14.8138865025
 20
13.2507802314
 30
0.0
 10
14.8130380276
 20
13.2554856056
 30
0.0
 10
14.8119936594
 20
13.2599214871
 30
0.0
 10
14.8111474233
 20
13.2627570507
 30
0.0
 10
14.810689858
 20
13.2641159267
 30
0.0
  0
SPLINE
  5
2D0
100
AcDbEntity
  8
LAYER_FEATURE
100
AcDbSpline
 62
7
  6
CONTINUOUS
 70
0
 71
3
 72
39
 73
35
 74
0
 42
0.0000001
 43
0.0000001
 44
0.0000000001
 40
0.0
 40
0.0
 40
0.0
 40
0.0
 40
0.0443812481
 40
0.0879669295
 40
0.1307335086
 40
0.172661876
 40
0.2137331571
 40
0.2539301992
 40
0.2932376968
 40
0.3316421073
 40
0.369131911
 40
0.4056977099
 40
0.4413323968
 40
0.4760313903
 40
0.5097927974
 40
0.5426176342
 40
0.5745101269
 40
0.6054779669
 40
0.6355325892
 40
0.664689538
 40
0.6929688298
 40
0.7203952869
 40
0.7469989387
 40
0.7728154376
 40
0.7978863828
 40
0.8222596394
 40
0.8459896168
 40
0.869137373
 40
0.8917705712
 40
0.9139632708
 40
0.935795451
 40
0.9573522592
 40
0.9787230199
 40
1.0
 40
1.0
 40
1.0
 40
1.0
 10
14.7728287853
 20
13.4447739702
 30
0.0
 10
14.7762086825
 20
13.4557113214
 30
0.0
 10
14.7830830311
 20
13.4773363472
 30
0.0
 10
14.7938400378
 20
13.5092976154
 30
0.0
 10
14.8049427043
 20
13.5404698276
 30
0.0
 10
14.8163820894
 20
13.5708280233
 30
0.0
 10
14.8281492526
 20
13.6003484673
 30
0.0
 10
14.840234878
 20
13.6290078161
 30
0.0
 10
14.8526294327
 20
13.6567834578
 30
0.0
 10
14.8653231612
 20
13.6836534988
 30
0.0
 10
14.8783060451
 20
13.7095967683
 30
0.0
 10
14.8915678728
 20
13.7345928252
 30
0.0
 10
14.9050982401
 20
13.7586219745
 30
0.0
 10
14.9188865094
 20
13.7816653116
 30
0.0
 10
14.9329218742
 20
13.8037047069
 30
0.0
 10
14.94719338
 20
13.8247228068
 30
0.0
 10
14.9616898816
 20
13.844703084
 30
0.0
 10
14.9764000858
 20
13.8636298292
 30
0.0
 10
14.9913125929
 20
13.8814881279
 30
0.0
 10
15.0064158702
 20
13.8982638959
 30
0.0
 10
15.0216982527
 20
13.913943895
 30
0.0
 10
15.0371479994
 20
13.9285156811
 30
0.0
 10
15.052753283
 20
13.9419676071
 30
0.0
 10
15.0685021438
 20
13.9542888714
 30
0.0
 10
15.0843825384
 20
13.965469445
 30
0.0
 10
15.1003823234
 20
13.9755000459
 30
0.0
 10
15.1164891773
 20
13.984372215
 30
0.0
 10
15.1326906062
 20
13.9920782775
 30
0.0
 10
15.1489739048
 20
13.9986113185
 30
0.0
 10
15.1653261195
 20
14.0039652936
 30
0.0
 10
15.1817338894
 20
14.0081351066
 30
0.0
 10
15.1981839631
 20
14.0111166136
 30
0.0
 10
15.2146613675
 20
14.0129067369
 30
0.0
 10
15.2256660153
 20
14.0133049899
 30
0.0
 10
15.23115419
 20
14.0133049845
 30
0.0
  0
SPLINE
  5
2D1
100
AcDbEntity
  8
LAYER_FEATURE
100
AcDbSpline
 62
7
  6
CONTINUOUS
 70
0
 71
3
 72
15
 73
11
 74
0
 42
0.0000001
 43
0.0000001
 44
0.0000000001
 40
0.0
 40
0.0
 40
0.0
 40
0.0
 40
0.1266224476
 40
0.2583254122
 40
0.3923443928
 40
0.525812853
 40
0.6558906301
 40
0.7798656484
 40
0.8952640286
 40
1.0
 40
1.0
 40
1.0
 40
1.0
 10
14.7717088444
 20
13.1677848124
 30
0.0
 10
14.7715849446
 20
13.1671200529
 30
0.0
 10
14.7713829325
 20
13.1657540397
 30
0.0
 10
14.7712131026
 20
13.1636643609
 30
0.0
 10
14.7711727635
 20
13.1615315574
 30
0.0
 10
14.7712630043
 20
13.1594089804
 30
0.0
 10
14.7714814761
 20
13.1573495918
 30
0.0
 10
14.7718225868
 20
13.1554045305
 30
0.0
 10
14.7722774705
 20
13.1536221649
 30
0.0
 10
14.7726700271
 20
13.1525114648
 30
0.0
 10
14.7728873536
 20
13.1519960864
 30
0.0
  0
SPLINE
  5
2D2
100
AcDbEntity
  8
LAYER_FEATURE
100
AcDbSpline
 62
7
  6
CONTINUOUS
 70
0
 71
3
 72
15
 73
11
 74
0
 42
0.0000001
 43
0.0000001
 44
0.0000000001
 40
0.0
 40
0.0
 40
0.0
 40
0.0
 40
0.1365676154
 40
0.272495776
 40
0.4063816426
 40
0.5368509848
 40
0.6625967167
 40
0.7824040924
 40
0.8951801406
 40
1.0
 40
1.0
 40
1.0
 40
1.0
 10
14.7864438778
 20
13.0963214035
 30
0.0
 10
14.7864852399
 20
13.0980557323
 30
0.0
 10
14.7864929879
 20
13.1015185114
 30
0.0
 10
14.7862822932
 20
13.1066780269
 30
0.0
 10
14.785851954
 20
13.1117463118
 30
0.0
 10
14.7852072737
 20
13.1166615024
 30
0.0
 10
14.7843562594
 20
13.121363753
 30
0.0
 10
14.7833093902
 20
13.1257960803
 30
0.0
 10
14.7820796996
 20
13.1299046006
 30
0.0
 10
14.7811101054
 20
13.1324962602
 30
0.0
 10
14.7805927389
 20
13.1337231678
 30
0.0
  0
SPLINE
  5
2D3
100
AcDbEntity
  8
LAYER_FEATURE
100
AcDbSpline
 62
7
  6
CONTINUOUS
 70
0
 71
3
 72
15
 73
11
 74
0
 42
0.0000001
 43
0.0000001
 44
0.0000000001
 40
0.0
 40
0.0
 40
0.0
 40
0.0
 40
0.1334427034
 40
0.2700914408
 40
0.4070459539
 40
0.5413781001
 40
0.6702642862
 40
0.7910935811
 40
0.9015920806
 40
1.0
 40
1.0
 40
1.0
 40
1.0
 10
14.7460569647
 20
13.026790051
 30
0.0
 10
14.7459635854
 20
13.0260994491
 30
0.0
 10
14.7458227506
 20
13.024694781
 30
0.0
 10
14.7457440911
 20
13.0225692219
 30
0.0
 10
14.7457960113
 20
13.0204380985
 30
0.0
 10
14.7459772161
 20
13.0183546883
 30
0.0
 10
14.7462830062
 20
13.0163709043
 30
0.0
 10
14.7467055939
 20
13.014535735
 30
0.0
 10
14.747234037
 20
13.0128945472
 30
0.0
 10
14.747675711
 20
13.0118934823
 30
0.0
 10
14.7479164682
 20
13.0114394428
 30
0.0
  0
SPLINE
  5
2D4
100
AcDbEntity
  8
LAYER_FEATURE
100
AcDbSpline
 62
7
  6
CONTINUOUS
 70
0
 71
3
 72
15
 73
11
 74
0
 42
0.0000001
 43
0.0000001
 44
0.0000000001
 40
0.0
 40
0.0
 40
0.0
 40
0.0
 40
0.1417244768
 40
0.2812949259
 40
0.4172879753
 40
0.5483382239
 40
0.673180423
 40
0.7906793062
 40
0.8998667458
 40
1.0
 40
1.0
 40
1.0
 40
1.0
 10
14.7638152248
 20
12.9600125647
 30
0.0
 10
14.76378089
 20
12.9617387459
 30
0.0
 10
14.7636391481
 20
12.9651638926
 30
0.0
 10
14.763206023
 20
12.9702305343
 30
0.0
 10
14.7625586743
 20
12.9751433832
 30
0.0
 10
14.761705088
 20
12.979842574
 30
0.0
 10
14.7606558451
 20
12.9842710387
 30
0.0
 10
14.7594237844
 20
12.9883754173
 30
0.0
 10
14.758024169
 20
12.9921060528
 30
0.0
 10
14.7569415839
 20
12.9944191409
 30
0.0
 10
14.7563701215
 20
12.9954968514
 30
0.0
  0
SPLINE
  5
2D5
100
AcDbEntity
  8
LAYER_FEATURE
100
AcDbSpline
 62
7
  6
CONTINUOUS
 70
0
 71
3
 72
56
 73
52
 74
0
 42
0.0000001
 43
0.0000001
 44
0.0000000001
 40
0.0
 40
0.0
 40
0.0
 40
0.0
 40
0.0394995602
 40
0.0794521739
 40
0.1197453166
 40
0.160264391
 40
0.200893783
 40
0.2415173374
 40
0.2820189256
 40
0.3222830174
 40
0.3621952615
 40
0.4016430597
 40
0.4405161694
 40
0.4787073093
 40
0.5161127931
 40
0.5526332059
 40
0.5881740957
 40
0.6055497768
 40
0.6226478331
 40
0.6394582152
 40
0.6559713493
 40
0.6721781592
 40
0.6880701033
 40
0.7036392256
 40
0.7188781852
 40
0.7337802968
 40
0.7483395912
 40
0.7625508709
 40
0.7764097575
 40
0.7899127607
 40
0.8030573665
 40
0.8158421052
 40
0.8282666381
 40
0.84033187
 40
0.8520400612
 40
0.8633949383
 40
0.8744018311
 40
0.8850678316
 40
0.8954019355
 40
0.9054151994
 40
0.9151209157
 40
0.9245347702
 40
0.9336749744
 40
0.9425623834
 40
0.9512205739
 40
0.95967584
 40
0.9679571117
 40
0.9760957812
 40
0.9841254068
 40
0.9920812975
 40
1.0
 40
1.0
 40
1.0
 40
1.0
 10
14.7294835527
 20
12.9042186035
 30
0.0
 10
14.7264982206
 20
12.8782860411
 30
0.0
 10
14.721129733
 20
12.8260481583
 30
0.0
 10
14.7149004737
 20
12.7471515212
 30
0.0
 10
14.7104621038
 20
12.667458781
 30
0.0
 10
14.707829698
 20
12.5872387121
 30
0.0
 10
14.7070121413
 20
12.5067612792
 30
0.0
 10
14.7080122207
 20
12.4262974713
 30
0.0
 10
14.7108265223
 20
12.3461181738
 30
0.0
 10
14.7154455652
 20
12.266493321
 30
0.0
 10
14.7218536887
 20
12.1876909511
 30
0.0
 10
14.7300292504
 20
12.1099763053
 30
0.0
 10
14.7399445872
 20
12.0336108984
 30
0.0
 10
14.7515661706
 20
11.9588516893
 30
0.0
 10
14.7648547445
 20
11.8859499676
 30
0.0
 10
14.7797653353
 20
11.8151513136
 30
0.0
 10
14.7936025967
 20
11.7576784146
 30
0.0
 10
14.8054644749
 20
11.7129529488
 30
0.0
 10
14.8146666714
 20
11.6803327687
 30
0.0
 10
14.824233514
 20
11.6484122814
 30
0.0
 10
14.8341569832
 20
11.6172182776
 30
0.0
 10
14.8444287078
 20
11.5867770271
 30
0.0
 10
14.8550400548
 20
11.5571141425
 30
0.0
 10
14.865982076
 20
11.5282545693
 30
0.0
 10
14.8772455597
 20
11.5002225715
 30
0.0
 10
14.8888210452
 20
11.4730417209
 30
0.0
 10
14.9006988044
 20
11.4467348592
 30
0.0
 10
14.9128688492
 20
11.4213240763
 30
0.0
 10
14.9253209723
 20
11.3968307113
 30
0.0
 10
14.9380447542
 20
11.3732753311
 30
0.0
 10
14.9510295322
 20
11.3506776881
 30
0.0
 10
14.9642644531
 20
11.3290567274
 30
0.0
 10
14.9777384943
 20
11.3084305835
 30
0.0
 10
14.9914404465
 20
11.2888165443
 30
0.0
 10
15.0053589262
 20
11.2702310359
 30
0.0
 10
15.0194824214
 20
11.2526896437
 30
0.0
 10
15.0337993015
 20
11.2362071063
 30
0.0
 10
15.048297786
 20
11.220797272
 30
0.0
 10
15.0629659981
 20
11.2064731374
 30
0.0
 10
15.0777919792
 20
11.193246872
 30
0.0
 10
15.0927636595
 20
11.1811297915
 30
0.0
 10
15.1078688524
 20
11.170132363
 30
0.0
 10
15.1230952694
 20
11.1602642615
 30
0.0
 10
15.1384304836
 20
11.1515343768
 30
0.0
 10
15.1538618574
 20
11.1439507428
 30
0.0
 10
15.1693765247
 20
11.1375205761
 30
0.0
 10
15.1849613787
 20
11.1322502552
 30
0.0
 10
15.2006028723
 20
11.1281451939
 30
0.0
 10
15.2162875214
 20
11.1252097419
 30
0.0
 10
15.2320000779
 20
11.1234471281
 30
0.0
 10
15.2424951974
 20
11.123055006
 30
0.0
 10
15.2477283816
 20
11.1230549994
 30
0.0
  0
SPLINE
  5
2D6
100
AcDbEntity
  8
LAYER_FEATURE
100
AcDbSpline
 62
7
  6
CONTINUOUS
 70
0
 71
3
 72
15
 73
11
 74
0
 42
0.0000001
 43
0.0000001
 44
0.0000000001
 40
0.0
 40
0.0
 40
0.0
 40
0.0
 40
0.1135225319
 40
0.2355592166
 40
0.3636923714
 40
0.4952476134
 40
0.6274264102
 40
0.7574071313
 40
0.8824447333
 40
1.0
 40
1.0
 40
1.0
 40
1.0
 10
14.8405734021
 20
13.4233194353
 30
0.0
 10
14.8403918849
 20
13.4227320455
 30
0.0
 10
14.840073054
 20
13.4214949641
 30
0.0
 10
14.8397285877
 20
13.4195541336
 30
0.0
 10
14.8395064651
 20
13.4174972945
 30
0.0
 10
14.8394124811
 20
13.415375811
 30
0.0
 10
14.8394490398
 20
13.41324257
 30
0.0
 10
14.8396152164
 20
13.4111507938
 30
0.0
 10
14.8399066644
 20
13.4091527703
 30
0.0
 10
14.8401900696
 20
13.4078682562
 30
0.0
 10
14.8403542115
 20
13.4072531434
 30
0.0
  0
SPLINE
  5
2D7
100
AcDbEntity
  8
LAYER_FEATURE
100
AcDbSpline
 62
7
  6
CONTINUOUS
 70
0
 71
3
 72
15
 73
11
 74
0
 42
0.0000001
 43
0.0000001
 44
0.0000000001
 40
0.0
 40
0.0
 40
0.0
 40
0.0
 40
0.1268997237
 40
0.2559111064
 40
0.3857038519
 40
0.5149258567
 40
0.6422383017
 40
0.7663370526
 40
0.8859752718
 40
1.0
 40
1.0
 40
1.0
 40
1.0
 10
14.8487464262
 20
13.3452278892
 30
0.0
 10
14.8489390866
 20
13.3469130234
 30
0.0
 10
14.8492483683
 20
13.3503208433
 30
0.0
 10
14.849487711
 20
13.3554720457
 30
0.0
 10
14.8495049849
 20
13.3606599038
 30
0.0
 10
14.8492999369
 20
13.3658210047
 30
0.0
 10
14.8488751242
 20
13.3708923773
 30
0.0
 10
14.8482357973
 20
13.3758122326
 30
0.0
 10
14.8473899472
 20
13.380520498
 30
0.0
 10
14.8466759249
 20
13.3835628614
 30
0.0
 10
14.8462829901
 20
13.3850353636
 30
0.0
  0
ENDSEC
  0
SECTION
  2
OBJECTS
  0
DICTIONARY
  5
C
100
AcDbDictionary
280
0
281
1
  3
ACAD_GROUP
350
D
  3
ACAD_MLINESTYLE
350
17
  3
ACAD_LAYOUT
350
1A
  3
ACAD_PLOTSETTINGS
350
19
  3
ACAD_PLOTSTYLENAME
350
E
  0
DICTIONARY
  5
D
102
{ACAD_REACTORS
330
C
102
}
100
AcDbDictionary
280
0
281
1
  0
ACDBDICTIONARYWDFLT
  5
E
102
{ACAD_REACTORS
330
C
102
}
100
AcDbDictionary
281
1
  3
Normal
350
F
100
AcDbDictionaryWithDefault
340
F
  0
DICTIONARY
  5
17
102
{ACAD_REACTORS
330
C
102
}
100
AcDbDictionary
280
0
281
1
  3
Standard
350
18
  0
DICTIONARY
  5
19
102
{ACAD_REACTORS
330
C
102
}
100
AcDbDictionary
281
1
  0
DICTIONARY
  5
1A
102
{ACAD_REACTORS
330
C
102
}
100
AcDbDictionary
281
1
  3
Model
350
2D8
  3
Layout1
350
2D9
  0
ACDBPLACEHOLDER
  5
F
102
{ACAD_REACTORS
330
E
102
}
  0
MLINESTYLE
  5
18
102
{ACAD_REACTORS
330
17
102
}
100
AcDbMlineStyle
  2
STANDARD
 70
0
  3

 62
256
 51
90.0
 52
90.0
 71
2
 49
0.5
 62
256
  6
BYLAYER
 49
-0.5
 62
256
  6
BYLAYER
  0
LAYOUT
  5
2D8
102
{ACAD_REACTORS
330
1A
102
}
100
AcDbPlotSettings
  1

  2
none_device
  4
ANSI_C_(22.00_x_17.00_Inches)
  6

 40
0.0
 41
0.0
 42
0.0
 43
0.0
 44
558.8
 45
431.8
 46
0.0
 47
0.0
 48
0.0
 49
0.0
140
0.0
141
0.0
142
1.0
143
1.0
 70
1024
 72
0
 73
0
 74
0
  7

 75
0
147
1.0
148
0.0
149
0.0
100
AcDbLayout
  1
Model
 70
0
 71
0
 10
0.0
 20
0.0
 11
22.0
 21
17.0
 12
0.0
 22
0.0
 32
0.0
 14
0.0
 24
0.0
 34
0.0
 15
0.0
 25
0.0
 35
0.0
146
0.0
 13
0.0
 23
0.0
 33
0.0
 16
1.0
 26
0.0
 36
0.0
 17
0.0
 27
1.0
 37
0.0
 76
0
330
222
345
0
346
0
  0
LAYOUT
  5
2D9
102
{ACAD_REACTORS
330
1A
102
}
100
AcDbPlotSettings
  1

  2
none_device
  4
ANSI_C_(22.00_x_17.00_Inches)
  6

 40
0.0
 41
0.0
 42
0.0
 43
0.0
 44
558.8
 45
431.8
 46
0.0
 47
0.0
 48
0.0
 49
0.0
140
0.0
141
0.0
142
1.0
143
1.0
 70
0
 72
0
 73
0
 74
0
  7

 75
0
147
1.0
148
0.0
149
0.0
100
AcDbLayout
  1
Layout1
 70
0
 71
1
 10
0.0
 20
0.0
 11
22.0
 21
17.0
 12
0.0
 22
0.0
 32
0.0
 14
0.0
 24
0.0
 34
0.0
 15
0.0
 25
0.0
 35
0.0
146
0.0
 13
0.0
 23
0.0
 33
0.0
 16
1.0
 26
0.0
 36
0.0
 17
0.0
 27
1.0
 37
0.0
 76
0
330
223
345
0
346
0
  0
ENDSEC
  0
EOF