999
DXF file: _cgs_temp_output.dxf
999
Pro/ENGINEER 2016360 by Parametric Technology Corporation
  0
SECTION
  2
HEADER
  9
$ACADVER
  1
AC1021
  9
$DWGCODEPAGE
  3
ANSI_1252
  9
$EXTMAX
 10
22.0
 20
17.0
 30
0.0
  9
$EXTMIN
 10
0.0
 20
0.0
 30
0.0
  9
$LIMMIN
 10
0.0
 20
0.0
  9
$LIMMAX
 10
22.0
 20
17.0
  9
$VIEWCTR
 10
11.0
 20
8.5
  9
$VIEWSIZE
 40
17.0
  9
$CLAYER
  8
0
  9
$LTSCALE
 40
1.21
  9
$CELTYPE
  6
BYLAYER
  9
$DIMSCALE
 40
1.0
  9
$DIMASZ
 40
0.1875
  9
$DIMEXO
 40
0.0625
  9
$DIMDLI
 40
0.836
  9
$DIMEXE
 40
0.125
  9
$DIMCEN
 40
0.198
  9
$DIMLFAC
 40
1.0
  9
$DIMBLK
  1
_CLOSED
  9
$DIMALT
 70
0
  9
$DIMALTF
 40
25.4
  9
$DIMTXT
 40
0.15625
  9
$DIMTOL
 70
0
  9
$DIMLIM
 70
0
  9
$DIMTFAC
 40
1.0
  9
$DIMGAP
 40
0.09
  9
$DIMDSEP
 70
46
  9
$AUNITS
 70
0
  9
$PDMODE
 70
3
  9
$PDSIZE
 40
0.3125
  9
$HANDSEED
  5
2E3
  9
$TILEMODE
 70
1
  9
$MEASUREMENT
 70
0
  9
$INSUNITS
 70
1
  0
ENDSEC
  0
SECTION
  2
CLASSES
  0
CLASS
  1
ACDBDICTIONARYWDFLT
  2
AcDbDictionaryWithDefault
  3
AutoCAD 2000
 90
0
 91
1
280
0
281
0
  0
CLASS
  1
ACDBPLACEHOLDER
  2
AcDbPlaceHolder
  3
AutoCAD 2000
 90
0
 91
1
280
0
281
0
  0
CLASS
  1
LAYOUT
  2
AcDbLayout
  3
AutoCAD 2000
 90
0
 91
0
280
0
281
0
  0
ENDSEC
  0
SECTION
  2
TABLES
  0
TABLE
  2
VPORT
  5
8
100
AcDbSymbolTable
 70
2
  0
VPORT
  5
1F4
100
AcDbSymbolTableRecord
100
AcDbViewportTableRecord
  2
*ACTIVE
 70
0
 10
0.0
 20
0.0
 11
1.0
 21
1.0
 12
11.0
 22
8.5
 13
0.0
 23
0.0
 14
1.0
 24
1.0
 15
0.0
 25
0.0
 16
0.0
 26
0.0
 36
1.0
 17
0.0
 27
0.0
 37
0.0
 40
17.0
 41
1.2941176471
 42
50.0
 43
0.0
 44
0.0
 50
0.0
 51
0.0
 71
0
 72
100
 73
1
 74
1
 75
0
 76
0
 77
0
 78
0
  0
ENDTAB
  0
TABLE
  2
LTYPE
  5
5
100
AcDbSymbolTable
 70
6
  0
LTYPE
  5
14
100
AcDbSymbolTableRecord
100
AcDbLinetypeTableRecord
  2
BYBLOCK
 70
0
  3

 72
65
 73
0
 40
0.0
  0
LTYPE
  5
15
100
AcDbSymbolTableRecord
100
AcDbLinetypeTableRecord
  2
BYLAYER
 70
0
  3

 72
65
 73
0
 40
0.0
  0
LTYPE
  5
16
100
AcDbSymbolTableRecord
100
AcDbLinetypeTableRecord
  2
CONTINUOUS
 70
64
  3
Solid line
 72
65
 73
0
 40
0.0
  0
LTYPE
  5
1F5
100
AcDbSymbolTableRecord
100
AcDbLinetypeTableRecord
  2
CENTER
 70
64
  3
____ _ ____ _ ____ _ ____ _ ____ _ ____ _ ____
 72
65
 73
4
 40
0.6
 49
0.375
 74
0
 49
-0.075
 74
0
 49
0.075
 74
0
 49
-0.075
 74
0
  0
LTYPE
  5
1F6
100
AcDbSymbolTableRecord
100
AcDbLinetypeTableRecord
  2
HIDDEN
 70
64
  3
- - - - - - - - - - - - - - - - - - - -
 72
65
 73
2
 40
0.2
 49
0.1
 74
0
 49
-0.1
 74
0
  0
LTYPE
  5
1F7
100
AcDbSymbolTableRecord
100
AcDbLinetypeTableRecord
  2
PHANTOM
 70
64
  3
_____ _ _ _____ _ _ _____ _ _ _____
 72
65
 73
6
 40
0.8
 49
0.45
 74
0
 49
-0.05
 74
0
 49
0.1
 74
0
 49
-0.05
 74
0
 49
0.1
 74
0
 49
-0.05
 74
0
  0
LTYPE
  5
1F8
100
AcDbSymbolTableRecord
100
AcDbLinetypeTableRecord
  2
DOT
 70
64
  3
. . . . . . . . . . . . . . . . . . . .
 72
65
 73
2
 40
0.2
 49
0.1
 74
0
 49
-0.1
 74
0
  0
LTYPE
  5
1F9
100
AcDbSymbolTableRecord
100
AcDbLinetypeTableRecord
  2
DASHED
 70
64
  3
- - - - - - - - - - - - - - - - - - - -
 72
65
 73
2
 40
0.2
 49
0.1
 74
0
 49
-0.1
 74
0
  0
ENDTAB
  0
TABLE
  2
LAYER
  5
2
100
AcDbSymbolTable
 70
36
  0
LAYER
  5
10
100
AcDbSymbolTableRecord
100
AcDbLayerTableRecord
  2
0
 70
0
 62
7
  6
CONTINUOUS
370
-3
390
F
  0
LAYER
  5
1FA
100
AcDbSymbolTableRecord
100
AcDbLayerTableRecord
  2
DEFAULT_1
 70
0
 62
7
  6
CENTER
370
-3
390
F
  0
LAYER
  5
1FB
100
AcDbSymbolTableRecord
100
AcDbLayerTableRecord
  2
DEFAULT_2
 70
0
 62
8
  6
HIDDEN
370
-3
390
F
  0
LAYER
  5
1FC
100
AcDbSymbolTableRecord
100
AcDbLayerTableRecord
  2
DEFAULT_3
 70
0
 62
7
  6
PHANTOM
370
-3
390
F
  0
LAYER
  5
1FD
100
AcDbSymbolTableRecord
100
AcDbLayerTableRecord
  2
01_ALL_DTM_PLN
 70
0
 62
7
  6
CONTINUOUS
370
-3
390
F
  0
LAYER
  5
1FE
100
AcDbSymbolTableRecord
100
AcDbLayerTableRecord
  2
01__ASM_ALL_DTM_PLN
 70
0
 62
7
  6
CONTINUOUS
370
-3
390
F
  0
LAYER
  5
1FF
100
AcDbSymbolTableRecord
100
AcDbLayerTableRecord
  2
01__ASM_DEF_DTM_PLN
 70
0
 62
7
  6
CONTINUOUS
370
-3
390
F
  0
LAYER
  5
200
100
AcDbSymbolTableRecord
100
AcDbLayerTableRecord
  2
01___PRT_ALL_DTM_PLN
 70
0
 62
7
  6
CONTINUOUS
370
-3
390
F
  0
LAYER
  5
201
100
AcDbSymbolTableRecord
100
AcDbLayerTableRecord
  2
01___PRT_DEF_DTM_PLN
 70
0
 62
7
  6
CONTINUOUS
370
-3
390
F
  0
LAYER
  5
202
100
AcDbSymbolTableRecord
100
AcDbLayerTableRecord
  2
02_ALL_AXES
 70
0
 62
7
  6
CONTINUOUS
370
-3
390
F
  0
LAYER
  5
203
100
AcDbSymbolTableRecord
100
AcDbLayerTableRecord
  2
02__ASM_ALL_AXES
 70
0
 62
7
  6
CONTINUOUS
370
-3
390
F
  0
LAYER
  5
204
100
AcDbSymbolTableRecord
100
AcDbLayerTableRecord
  2
02___PRT_ALL_AXES
 70
0
 62
7
  6
CONTINUOUS
370
-3
390
F
  0
LAYER
  5
205
100
AcDbSymbolTableRecord
100
AcDbLayerTableRecord
  2
03_ALL_CURVES
 70
0
 62
7
  6
CONTINUOUS
370
-3
390
F
  0
LAYER
  5
206
100
AcDbSymbolTableRecord
100
AcDbLayerTableRecord
  2
03__ASM_ALL_CURVES
 70
0
 62
7
  6
CONTINUOUS
370
-3
390
F
  0
LAYER
  5
207
100
AcDbSymbolTableRecord
100
AcDbLayerTableRecord
  2
03___PRT_ALL_CURVES
 70
0
 62
7
  6
CONTINUOUS
370
-3
390
F
  0
LAYER
  5
208
100
AcDbSymbolTableRecord
100
AcDbLayerTableRecord
  2
04_ALL_DTM_PNT
 70
0
 62
7
  6
CONTINUOUS
370
-3
390
F
  0
LAYER
  5
209
100
AcDbSymbolTableRecord
100
AcDbLayerTableRecord
  2
04__ASM_ALL_DTM_PNT
 70
0
 62
7
  6
CONTINUOUS
370
-3
390
F
  0
LAYER
  5
20A
100
AcDbSymbolTableRecord
100
AcDbLayerTableRecord
  2
04___PRT_ALL_DTM_PNT
 70
0
 62
7
  6
CONTINUOUS
370
-3
390
F
  0
LAYER
  5
20B
100
AcDbSymbolTableRecord
100
AcDbLayerTableRecord
  2
05_ALL_DTM_CSYS
 70
0
 62
7
  6
CONTINUOUS
370
-3
390
F
  0
LAYER
  5
20C
100
AcDbSymbolTableRecord
100
AcDbLayerTableRecord
  2
05__ASM_ALL_DTM_CSYS
 70
0
 62
7
  6
CONTINUOUS
370
-3
390
F
  0
LAYER
  5
20D
100
AcDbSymbolTableRecord
100
AcDbLayerTableRecord
  2
05__ASM_DEF_DTM_CSYS
 70
0
 62
7
  6
CONTINUOUS
370
-3
390
F
  0
LAYER
  5
20E
100
AcDbSymbolTableRecord
100
AcDbLayerTableRecord
  2
05___PRT_ALL_DTM_CSYS
 70
0
 62
7
  6
CONTINUOUS
370
-3
390
F
  0
LAYER
  5
20F
100
AcDbSymbolTableRecord
100
AcDbLayerTableRecord
  2
05___PRT_DEF_DTM_CSYS
 70
0
 62
7
  6
CONTINUOUS
370
-3
390
F
  0
LAYER
  5
210
100
AcDbSymbolTableRecord
100
AcDbLayerTableRecord
  2
06_ALL_SURFS
 70
0
 62
7
  6
CONTINUOUS
370
-3
390
F
  0
LAYER
  5
211
100
AcDbSymbolTableRecord
100
AcDbLayerTableRecord
  2
06__ASM_ALL_SURFS
 70
0
 62
7
  6
CONTINUOUS
370
-3
390
F
  0
LAYER
  5
212
100
AcDbSymbolTableRecord
100
AcDbLayerTableRecord
  2
06___PRT_ALL_SURFS
 70
0
 62
7
  6
CONTINUOUS
370
-3
390
F
  0
LAYER
  5
213
100
AcDbSymbolTableRecord
100
AcDbLayerTableRecord
  2
07__ASM_ALL_SKELETONS
 70
0
 62
7
  6
CONTINUOUS
370
-3
390
F
  0
LAYER
  5
214
100
AcDbSymbolTableRecord
100
AcDbLayerTableRecord
  2
LAYER_AXIS
 70
0
 62
7
  6
CONTINUOUS
370
-3
390
F
  0
LAYER
  5
215
100
AcDbSymbolTableRecord
100
AcDbLayerTableRecord
  2
LAYER_CHAMFER_FEAT
 70
0
 62
7
  6
CONTINUOUS
370
-3
390
F
  0
LAYER
  5
216
100
AcDbSymbolTableRecord
100
AcDbLayerTableRecord
  2
LAYER_CUT_FEAT
 70
0
 62
7
  6
CONTINUOUS
370
-3
390
F
  0
LAYER
  5
217
100
AcDbSymbolTableRecord
100
AcDbLayerTableRecord
  2
LAYER_DATUM
 70
0
 62
7
  6
CONTINUOUS
370
-3
390
F
  0
LAYER
  5
218
100
AcDbSymbolTableRecord
100
AcDbLayerTableRecord
  2
LAYER_DIM
 70
0
 62
7
  6
CONTINUOUS
370
-3
390
F
  0
LAYER
  5
219
100
AcDbSymbolTableRecord
100
AcDbLayerTableRecord
  2
LAYER_FEATURE
 70
0
 62
7
  6
CONTINUOUS
370
-3
390
F
  0
LAYER
  5
21A
100
AcDbSymbolTableRecord
100
AcDbLayerTableRecord
  2
LAYER_GEOM_FEAT
 70
0
 62
7
  6
CONTINUOUS
370
-3
390
F
  0
LAYER
  5
21B
100
AcDbSymbolTableRecord
100
AcDbLayerTableRecord
  2
LAYER_NOGEOM_FEAT
 70
0
 62
7
  6
CONTINUOUS
370
-3
390
F
  0
LAYER
  5
21C
100
AcDbSymbolTableRecord
100
AcDbLayerTableRecord
  2
LAYER_PARAMETER_DIM
 70
0
 62
7
  6
CONTINUOUS
370
-3
390
F
  0
LAYER
  5
21D
100
AcDbSymbolTableRecord
100
AcDbLayerTableRecord
  2
LAYER_PROTRUSION_FEAT
 70
0
 62
7
  6
CONTINUOUS
370
-3
390
F
  0
LAYER
  5
21E
100
AcDbSymbolTableRecord
100
AcDbLayerTableRecord
  2
LAYER_QUILT
 70
0
 62
7
  6
CONTINUOUS
370
-3
390
F
  0
LAYER
  5
21F
100
AcDbSymbolTableRecord
100
AcDbLayerTableRecord
  2
LAYER_ROUND_FEAT
 70
0
 62
7
  6
CONTINUOUS
370
-3
390
F
  0
ENDTAB
  0
TABLE
  2
STYLE
  5
3
100
AcDbSymbolTable
 70
1
  0
STYLE
  5
11
100
AcDbSymbolTableRecord
100
AcDbTextStyleTableRecord
  2
STANDARD
 70
0
 40
0.0
 41
0.8
 50
0.0
 71
0
 42
0.2
  3
txt
  4

  0
STYLE
  5
220
100
AcDbSymbolTableRecord
100
AcDbTextStyleTableRecord
  2
TEXTSTYLE_1
 70
0
 40
0.0
 41
0.8
 50
0.0
 71
0
 42
0.2
  3
gdt
  4

  0
ENDTAB
  0
TABLE
  2
VIEW
  5
6
100
AcDbSymbolTable
 70
0
  0
ENDTAB
  0
TABLE
  2
UCS
  5
7
100
AcDbSymbolTable
 70
0
  0
ENDTAB
  0
TABLE
  2
APPID
  5
9
100
AcDbSymbolTable
 70
1
  0
APPID
  5
221
100
AcDbSymbolTableRecord
100
AcDbRegAppTableRecord
  2
ACAD
 70
0
  0
ENDTAB
  0
TABLE
  2
BLOCK_RECORD
  5
1
100
AcDbSymbolTable
 70
0
  0
BLOCK_RECORD
  5
222
100
AcDbSymbolTableRecord
100
AcDbBlockTableRecord
  2
*Model_Space
  0
BLOCK_RECORD
  5
223
100
AcDbSymbolTableRecord
100
AcDbBlockTableRecord
  2
*Paper_Space
  0
ENDTAB
  0
TABLE
  2
DIMSTYLE
  5
A
100
AcDbSymbolTable
 70
1
100
AcDbDimStyleTable
 71
0
  0
DIMSTYLE
105
224
100
AcDbSymbolTableRecord
100
AcDbDimStyleTableRecord
  2
STANDARD
 70
0
  3

  4

 40
1.0
 41
0.1875
 42
0.0625
 43
0.38
 44
0.125
 45
0.0
 46
0.0
 47
0.0001
 48
0.0001
140
0.15625
141
0.09
142
0.0
143
25.4
144
1.0
145
0.0
146
1.0
147
0.09
 71
0.0
 72
0.0
 73
1
 74
1
 75
0
 76
0
 77
0
 78
4
 79
1
170
0
171
3
172
0
173
0
174
0
175
0
176
0
177
0
178
0
270
2
179
4
271
4
272
4
273
2
274
2
275
0
280
0
281
0
282
0
283
1
284
4
285
0
286
0
287
3
288
0
340
11
278
46
  0
ENDTAB
  0
ENDSEC
  0
SECTION
  2
BLOCKS
  0
BLOCK
  5
20
100
AcDbEntity
  8
0
100
AcDbBlockBegin
  2
*Model_Space
 70
0
 10
0.0
 20
0.0
 30
0.0
  3
*Model_Space
  1

  0
ENDBLK
  5
21
100
AcDbEntity
  8
0
100
AcDbBlockEnd
  0
BLOCK
  5
1C
100
AcDbEntity
  8
0
100
AcDbBlockBegin
  2
*Paper_Space
 70
0
 10
0.0
 20
0.0
 30
0.0
  3
*Paper_Space
  1

  0
ENDBLK
  5
1D
100
AcDbEntity
  8
0
100
AcDbBlockEnd
  0
ENDSEC
  0
SECTION
  2
ENTITIES
  0
MTEXT
  5
225
100
AcDbEntity
  8
0
100
AcDbMText
 62
7
  6
CONTINUOUS
  7
STANDARD
 71
1
 72
1
 10
15.9560215477
 20
0.9479130325
 30
0.0
 11
1.0
 21
0.0
 31
0.0
 44
0.9
  1
SCALE: 1:0.500
 40
0.3
 41
3.36
  0
LINE
  5
226
100
AcDbEntity
  8
0
100
AcDbLine
 62
7
  6
CONTINUOUS
 10
0.0
 20
0.0
 11
0.0
 21
17.0
  0
LINE
  5
227
100
AcDbEntity
  8
0
100
AcDbLine
 62
7
  6
CONTINUOUS
 10
0.0
 20
0.0
 11
22.0
 21
0.0
  0
LINE
  5
228
100
AcDbEntity
  8
0
100
AcDbLine
 62
7
  6
CONTINUOUS
 10
0.0
 20
17.0
 11
22.0
 21
17.0
  0
LINE
  5
229
100
AcDbEntity
  8
0
100
AcDbLine
 62
7
  6
CONTINUOUS
 10
22.0
 20
0.0
 11
22.0
 21
17.0
  0
LINE
  5
22A
100
AcDbEntity
  8
LAYER_FEATURE
100
AcDbLine
 62
7
  6
CONTINUOUS
 10
6.5813672762
 20
4.1451198968
 11
6.5353619494
 21
4.1451198968
  0
LINE
  5
22B
100
AcDbEntity
  8
LAYER_FEATURE
100
AcDbLine
 62
7
  6
CONTINUOUS
 10
5.6793672762
 20
4.1451198968
 11
5.7253726029
 21
4.1451198968
  0
LINE
  5
22C
100
AcDbEntity
  8
02___PRT_ALL_AXES
100
AcDbLine
 62
7
  6
CONTINUOUS
 10
5.7353672762
 20
4.2073698968
 11
6.5253672762
 21
4.2073698968
  0
LINE
  5
22D
100
AcDbEntity
  8
02___PRT_ALL_AXES
100
AcDbLine
 62
7
  6
CONTINUOUS
 10
6.5813672762
 20
6.7571258825
 11
6.5953672762
 21
6.7616198968
  0
LINE
  5
22E
100
AcDbEntity
  8
02___PRT_ALL_AXES
100
AcDbLine
 62
7
  6
CONTINUOUS
 10
6.5813672762
 20
4.283113911
 11
6.5953672762
 21
4.2786198968
  0
LINE
  5
22F
100
AcDbEntity
  8
02___PRT_ALL_AXES
100
AcDbLine
 62
7
  6
CONTINUOUS
 10
5.6653672762
 20
4.2786198968
 11
5.6653672762
 21
6.7616198968
  0
LINE
  5
230
100
AcDbEntity
  8
LAYER_FEATURE
100
AcDbLine
 62
7
  6
CONTINUOUS
 10
5.6793672762
 20
6.8951198968
 11
5.6793672762
 21
4.1451198968
  0
LINE
  5
231
100
AcDbEntity
  8
LAYER_FEATURE
100
AcDbLine
 62
7
  6
CONTINUOUS
 10
5.7253726029
 20
6.8951198968
 11
5.7253726029
 21
4.1451198968
  0
LINE
  5
232
100
AcDbEntity
  8
LAYER_FEATURE
100
AcDbLine
 62
7
  6
CONTINUOUS
 10
5.7353672762
 20
6.8480986561
 11
5.7353672762
 21
4.1921411374
  0
LINE
  5
233
100
AcDbEntity
  8
LAYER_FEATURE
100
AcDbLine
 62
7
  6
CONTINUOUS
 10
5.7253726029
 20
4.1451198968
 11
5.7353672762
 21
4.1921411374
  0
LINE
  5
234
100
AcDbEntity
  8
LAYER_FEATURE
100
AcDbLine
 62
7
  6
CONTINUOUS
 10
5.7253726029
 20
6.8951198968
 11
5.7353672762
 21
6.8480986561
  0
LINE
  5
235
100
AcDbEntity
  8
LAYER_FEATURE
100
AcDbLine
 62
7
  6
CONTINUOUS
 10
6.5353619494
 20
6.8951198968
 11
6.5253672762
 21
6.8480986561
  0
LINE
  5
236
100
AcDbEntity
  8
LAYER_FEATURE
100
AcDbLine
 62
7
  6
CONTINUOUS
 10
6.5353619494
 20
4.1451198968
 11
6.5253672762
 21
4.1921411374
  0
LINE
  5
237
100
AcDbEntity
  8
LAYER_FEATURE
100
AcDbLine
 62
7
  6
CONTINUOUS
 10
6.5253672762
 20
6.8480986561
 11
6.5253672762
 21
4.1921411374
  0
LINE
  5
238
100
AcDbEntity
  8
LAYER_FEATURE
100
AcDbLine
 62
7
  6
CONTINUOUS
 10
6.5353619494
 20
6.8951198968
 11
6.5353619494
 21
4.1451198968
  0
LINE
  5
239
100
AcDbEntity
  8
LAYER_FEATURE
100
AcDbLine
 62
7
  6
CONTINUOUS
 10
6.5813672762
 20
6.8951198968
 11
6.5813672762
 21
4.1451198968
  0
LINE
  5
23A
100
AcDbEntity
  8
02___PRT_ALL_AXES
100
AcDbLine
 62
7
  6
CONTINUOUS
 10
6.5953672762
 20
4.2786198968
 11
6.5953672762
 21
6.7616198968
  0
LINE
  5
23B
100
AcDbEntity
  8
02___PRT_ALL_AXES
100
AcDbLine
 62
7
  6
CONTINUOUS
 10
5.6653672762
 20
4.2786198968
 11
5.6793672762
 21
4.283113911
  0
LINE
  5
23C
100
AcDbEntity
  8
02___PRT_ALL_AXES
100
AcDbLine
 62
7
  6
CONTINUOUS
 10
5.6653672762
 20
6.7616198968
 11
5.6793672762
 21
6.7571258825
  0
LINE
  5
23D
100
AcDbEntity
  8
LAYER_FEATURE
100
AcDbLine
 62
7
  6
CONTINUOUS
 10
5.7353672762
 20
6.7266243416
 11
6.5253672762
 21
6.7266243416
  0
LINE
  5
23E
100
AcDbEntity
  8
0
100
AcDbLine
 62
7
  6
CONTINUOUS
 10
5.7353672762
 20
6.7274737377
 11
6.5253672762
 21
6.7274737377
  0
LINE
  5
23F
100
AcDbEntity
  8
LAYER_FEATURE
100
AcDbLine
 62
7
  6
CONTINUOUS
 10
5.7353672762
 20
6.7718035038
 11
6.5253672762
 21
6.7718035038
  0
LINE
  5
240
100
AcDbEntity
  8
LAYER_FEATURE
100
AcDbLine
 62
7
  6
CONTINUOUS
 10
5.7353672762
 20
6.7793456067
 11
6.5253672762
 21
6.7793456067
  0
LINE
  5
241
100
AcDbEntity
  8
0
100
AcDbLine
 62
7
  6
CONTINUOUS
 10
5.7353672762
 20
6.7797253366
 11
6.5253672762
 21
6.7797253366
  0
LINE
  5
242
100
AcDbEntity
  8
LAYER_FEATURE
100
AcDbLine
 62
7
  6
CONTINUOUS
 10
5.7353672762
 20
6.8098220712
 11
6.5253672762
 21
6.8098220712
  0
LINE
  5
243
100
AcDbEntity
  8
LAYER_FEATURE
100
AcDbLine
 62
7
  6
CONTINUOUS
 10
5.7353672762
 20
6.8143901031
 11
6.5253672762
 21
6.8143901031
  0
LINE
  5
244
100
AcDbEntity
  8
0
100
AcDbLine
 62
7
  6
CONTINUOUS
 10
5.7353672762
 20
6.8144853699
 11
6.5253672762
 21
6.8144853699
  0
LINE
  5
245
100
AcDbEntity
  8
LAYER_FEATURE
100
AcDbLine
 62
7
  6
CONTINUOUS
 10
5.7353672762
 20
6.829736047
 11
6.5253672762
 21
6.829736047
  0
LINE
  5
246
100
AcDbEntity
  8
LAYER_FEATURE
100
AcDbLine
 62
7
  6
CONTINUOUS
 10
5.7353672762
 20
6.8312658829
 11
6.5253672762
 21
6.8312658829
  0
LINE
  5
247
100
AcDbEntity
  8
LAYER_FEATURE
100
AcDbLine
 62
7
  6
CONTINUOUS
 10
6.5813672762
 20
6.8951198968
 11
6.5353619494
 21
6.8951198968
  0
LINE
  5
248
100
AcDbEntity
  8
LAYER_FEATURE
100
AcDbLine
 62
7
  6
CONTINUOUS
 10
5.6793672762
 20
6.8951198968
 11
5.7253726029
 21
6.8951198968
  0
LINE
  5
249
100
AcDbEntity
  8
LAYER_FEATURE
100
AcDbLine
 62
7
  6
CONTINUOUS
 10
5.6198720839
 20
11.2250477814
 11
5.6658774106
 21
11.2250477814
  0
LINE
  5
24A
100
AcDbEntity
  8
LAYER_FEATURE
100
AcDbLine
 62
7
  6
CONTINUOUS
 10
6.4758667571
 20
11.2250477814
 11
6.5218720839
 21
11.2250477814
  0
LINE
  5
24B
100
AcDbEntity
  8
02___PRT_ALL_AXES
100
AcDbLine
 62
7
  6
CONTINUOUS
 10
5.6758720839
 20
11.2872977814
 11
6.4658720839
 21
11.2872977814
  0
LINE
  5
24C
100
AcDbEntity
  8
02___PRT_ALL_AXES
100
AcDbLine
 62
7
  6
CONTINUOUS
 10
6.5358720839
 20
13.8415477814
 11
6.5218720839
 21
13.8370537671
  0
LINE
  5
24D
100
AcDbEntity
  8
02___PRT_ALL_AXES
100
AcDbLine
 62
7
  6
CONTINUOUS
 10
6.5358720839
 20
11.3585477814
 11
6.5218720839
 21
11.3630417956
  0
LINE
  5
24E
100
AcDbEntity
  8
LAYER_FEATURE
100
AcDbLine
 62
7
  6
CONTINUOUS
 10
5.6758720839
 20
12.0826895042
 11
6.4658720839
 21
12.0826895042
  0
LINE
  5
24F
100
AcDbEntity
  8
02___PRT_ALL_AXES
100
AcDbLine
 62
7
  6
CONTINUOUS
 10
5.6058720839
 20
11.3585477814
 11
5.6058720839
 21
13.8415477814
  0
LINE
  5
250
100
AcDbEntity
  8
LAYER_FEATURE
100
AcDbLine
 62
7
  6
CONTINUOUS
 10
5.6198720839
 20
11.2250477814
 11
5.6198720839
 21
13.9750477814
  0
LINE
  5
251
100
AcDbEntity
  8
LAYER_FEATURE
100
AcDbLine
 62
7
  6
CONTINUOUS
 10
5.6658774106
 20
11.2250477814
 11
5.6658774106
 21
13.9750477814
  0
LINE
  5
252
100
AcDbEntity
  8
LAYER_FEATURE
100
AcDbLine
 62
7
  6
CONTINUOUS
 10
5.6758720839
 20
11.2720691082
 11
5.6758720839
 21
13.9280264545
  0
LINE
  5
253
100
AcDbEntity
  8
LAYER_FEATURE
100
AcDbLine
 62
7
  6
CONTINUOUS
 10
6.4658720839
 20
12.1503997139
 11
5.6758720839
 21
12.1503997139
  0
LINE
  5
254
100
AcDbEntity
  8
LAYER_FEATURE
100
AcDbLine
 62
7
  6
CONTINUOUS
 10
6.4658720839
 20
12.1818032725
 11
5.6758720839
 21
12.1818032725
  0
LINE
  5
255
100
AcDbEntity
  8
0
100
AcDbLine
 62
7
  6
CONTINUOUS
 10
5.6758720839
 20
12.195472918
 11
6.4658720839
 21
12.195472918
  0
LINE
  5
256
100
AcDbEntity
  8
LAYER_FEATURE
100
AcDbLine
 62
7
  6
CONTINUOUS
 10
5.6758720839
 20
12.2043197052
 11
6.4658720839
 21
12.2043197052
  0
LINE
  5
257
100
AcDbEntity
  8
LAYER_FEATURE
100
AcDbLine
 62
7
  6
CONTINUOUS
 10
5.6758720839
 20
12.2290178987
 11
6.4658720839
 21
12.2290178987
  0
LINE
  5
258
100
AcDbEntity
  8
LAYER_FEATURE
100
AcDbLine
 62
7
  6
CONTINUOUS
 10
6.4658720839
 20
12.291039663
 11
5.6758720839
 21
12.291039663
  0
LINE
  5
259
100
AcDbEntity
  8
LAYER_FEATURE
100
AcDbLine
 62
7
  6
CONTINUOUS
 10
6.4658720839
 20
12.3236024306
 11
5.6758720839
 21
12.3236024306
  0
LINE
  5
25A
100
AcDbEntity
  8
LAYER_FEATURE
100
AcDbLine
 62
7
  6
CONTINUOUS
 10
5.6758720839
 20
12.3551378718
 11
6.4658720839
 21
12.3551378718
  0
LINE
  5
25B
100
AcDbEntity
  8
LAYER_FEATURE
100
AcDbLine
 62
7
  6
CONTINUOUS
 10
5.6758720839
 20
12.3805547394
 11
6.4658720839
 21
12.3805547394
  0
LINE
  5
25C
100
AcDbEntity
  8
LAYER_FEATURE
100
AcDbLine
 62
7
  6
CONTINUOUS
 10
5.6658774106
 20
11.2250477814
 11
5.6758720839
 21
11.272069022
  0
LINE
  5
25D
100
AcDbEntity
  8
LAYER_FEATURE
100
AcDbLine
 62
7
  6
CONTINUOUS
 10
6.4658720839
 20
12.4360174087
 11
5.6758720839
 21
12.4360174087
  0
LINE
  5
25E
100
AcDbEntity
  8
LAYER_FEATURE
100
AcDbLine
 62
7
  6
CONTINUOUS
 10
6.4658720839
 20
12.4692822755
 11
5.6758720839
 21
12.4692822755
  0
LINE
  5
25F
100
AcDbEntity
  8
LAYER_FEATURE
100
AcDbLine
 62
7
  6
CONTINUOUS
 10
5.6758720839
 20
12.5093940367
 11
6.4658720839
 21
12.5093940367
  0
LINE
  5
260
100
AcDbEntity
  8
LAYER_FEATURE
100
AcDbLine
 62
7
  6
CONTINUOUS
 10
5.6658774106
 20
13.9750477814
 11
5.6758720839
 21
13.9280265408
  0
LINE
  5
261
100
AcDbEntity
  8
LAYER_FEATURE
100
AcDbLine
 62
7
  6
CONTINUOUS
 10
5.6758720839
 20
12.5351727814
 11
6.4658720839
 21
12.5351727814
  0
LINE
  5
262
100
AcDbEntity
  8
LAYER_FEATURE
100
AcDbLine
 62
7
  6
CONTINUOUS
 10
6.4658720839
 20
12.5832977814
 11
5.6758720839
 21
12.5832977814
  0
LINE
  5
263
100
AcDbEntity
  8
LAYER_FEATURE
100
AcDbLine
 62
7
  6
CONTINUOUS
 10
6.4658720839
 20
12.6167977814
 11
5.6758720839
 21
12.6167977814
  0
LINE
  5
264
100
AcDbEntity
  8
LAYER_FEATURE
100
AcDbLine
 62
7
  6
CONTINUOUS
 10
5.6758720839
 20
12.6649227814
 11
6.4658720839
 21
12.6649227814
  0
LINE
  5
265
100
AcDbEntity
  8
LAYER_FEATURE
100
AcDbLine
 62
7
  6
CONTINUOUS
 10
6.4658720839
 20
13.9280265408
 11
6.4758667571
 21
13.9750477814
  0
LINE
  5
266
100
AcDbEntity
  8
LAYER_FEATURE
100
AcDbLine
 62
7
  6
CONTINUOUS
 10
6.4658720839
 20
11.272069022
 11
6.4758667571
 21
11.2250477814
  0
LINE
  5
267
100
AcDbEntity
  8
LAYER_FEATURE
100
AcDbLine
 62
7
  6
CONTINUOUS
 10
6.4658720839
 20
11.272069022
 11
6.4658720839
 21
13.9280265408
  0
LINE
  5
268
100
AcDbEntity
  8
LAYER_FEATURE
100
AcDbLine
 62
7
  6
CONTINUOUS
 10
6.4758667571
 20
11.2250477814
 11
6.4758667571
 21
13.9750477814
  0
LINE
  5
269
100
AcDbEntity
  8
LAYER_FEATURE
100
AcDbLine
 62
7
  6
CONTINUOUS
 10
6.5218720839
 20
11.2250477814
 11
6.5218720839
 21
13.9750477814
  0
LINE
  5
26A
100
AcDbEntity
  8
02___PRT_ALL_AXES
100
AcDbLine
 62
7
  6
CONTINUOUS
 10
6.5358720839
 20
11.3585477814
 11
6.5358720839
 21
13.8415477814
  0
LINE
  5
26B
100
AcDbEntity
  8
02___PRT_ALL_AXES
100
AcDbLine
 62
7
  6
CONTINUOUS
 10
5.6198720839
 20
11.3630417956
 11
5.6058720839
 21
11.3585477814
  0
LINE
  5
26C
100
AcDbEntity
  8
02___PRT_ALL_AXES
100
AcDbLine
 62
7
  6
CONTINUOUS
 10
5.6198720839
 20
13.8370537671
 11
5.6058720839
 21
13.8415477814
  0
LINE
  5
26D
100
AcDbEntity
  8
02___PRT_ALL_AXES
100
AcDbLine
 62
7
  6
CONTINUOUS
 10
5.6758720839
 20
13.9127977814
 11
6.4658720839
 21
13.9127977814
  0
LINE
  5
26E
100
AcDbEntity
  8
LAYER_FEATURE
100
AcDbLine
 62
7
  6
CONTINUOUS
 10
5.6198720839
 20
13.9750477814
 11
5.6658774106
 21
13.9750477814
  0
LINE
  5
26F
100
AcDbEntity
  8
LAYER_FEATURE
100
AcDbLine
 62
7
  6
CONTINUOUS
 10
6.4758667571
 20
13.9750477814
 11
6.5218720839
 21
13.9750477814
  0
LINE
  5
270
100
AcDbEntity
  8
LAYER_FEATURE
100
AcDbLine
 62
7
  6
CONTINUOUS
 10
15.0556917398
 20
11.1358049929
 11
15.0980654518
 21
11.1358049929
  0
LINE
  5
271
100
AcDbEntity
  8
LAYER_FEATURE
100
AcDbLine
 62
7
  6
CONTINUOUS
 10
15.8441150444
 20
11.1358049929
 11
15.8864887564
 21
11.1358049929
  0
LINE
  5
272
100
AcDbEntity
  8
02___PRT_ALL_AXES
100
AcDbLine
 62
7
  6
CONTINUOUS
 10
15.1072711555
 20
11.1980549929
 11
15.6850696541
 21
11.1980549929
  0
LINE
  5
273
100
AcDbEntity
  8
02___PRT_ALL_AXES
100
AcDbLine
 62
7
  6
CONTINUOUS
 10
15.8337694536
 20
13.7408181849
 11
15.7967573131
 21
13.7277985388
  0
LINE
  5
274
100
AcDbEntity
  8
02___PRT_ALL_AXES
100
AcDbLine
 62
7
  6
CONTINUOUS
 10
15.8337694536
 20
11.2807918009
 11
15.7975340748
 21
11.2935382079
  0
LINE
  5
275
100
AcDbEntity
  8
LAYER_FEATURE
100
AcDbLine
 62
7
  6
CONTINUOUS
 10
14.6641481339
 20
13.019313087
 11
14.6696302057
 21
13.0497116306
  0
LINE
  5
276
100
AcDbEntity
  8
LAYER_FEATURE
100
AcDbLine
 62
7
  6
CONTINUOUS
 10
14.6906791065
 20
13.1503281401
 11
14.6975227885
 21
13.1788483181
  0
LINE
  5
277
100
AcDbEntity
  8
LAYER_FEATURE
100
AcDbLine
 62
7
  6
CONTINUOUS
 10
14.7254617733
 20
13.2801439206
 11
14.7311673401
 21
13.2986071416
  0
LINE
  5
278
100
AcDbEntity
  8
LAYER_FEATURE
100
AcDbLine
 62
7
  6
CONTINUOUS
 10
14.6438376371
 20
12.8811596949
 11
14.6478811425
 21
12.9130098753
  0
LINE
  5
279
100
AcDbEntity
  8
LAYER_FEATURE
100
AcDbLine
 62
7
  6
CONTINUOUS
 10
14.6401741307
 20
12.9481234826
 11
14.631641152
 21
12.9635818108
  0
LINE
  5
27A
100
AcDbEntity
  8
LAYER_FEATURE
100
AcDbLine
 62
7
  6
CONTINUOUS
 10
14.6635945421
 20
13.0869195334
 11
14.6558334313
 21
13.1048609762
  0
LINE
  5
27B
100
AcDbEntity
  8
LAYER_FEATURE
100
AcDbLine
 62
7
  6
CONTINUOUS
 10
14.6932432006
 20
13.2176281989
 11
14.6863629066
 21
13.2378008977
  0
LINE
  5
27C
100
AcDbEntity
  8
LAYER_FEATURE
100
AcDbLine
 62
7
  6
CONTINUOUS
 10
14.728703904
 20
13.3384146159
 11
14.7228010112
 21
13.3605353903
  0
LINE
  5
27D
100
AcDbEntity
  8
LAYER_FEATURE
100
AcDbLine
 62
7
  6
CONTINUOUS
 10
14.6140017715
 20
12.8555195222
 11
15.325874046
 21
12.8555195222
  0
LINE
  5
27E
100
AcDbEntity
  8
0
100
AcDbLine
 62
7
  6
CONTINUOUS
 10
14.6190269999
 20
12.8648854445
 11
15.3268179541
 21
12.8648854445
  0
LINE
  5
27F
100
AcDbEntity
  8
LAYER_FEATURE
100
AcDbLine
 62
7
  6
CONTINUOUS
 10
15.3284580913
 20
12.8811596949
 11
14.6438376371
 21
12.8811596949
  0
LINE
  5
280
100
AcDbEntity
  8
LAYER_FEATURE
100
AcDbLine
 62
7
  6
CONTINUOUS
 10
15.3321909533
 20
12.9130098753
 11
14.6478811425
 21
12.9130098753
  0
LINE
  5
281
100
AcDbEntity
  8
LAYER_FEATURE
100
AcDbLine
 62
7
  6
CONTINUOUS
 10
14.6296628111
 20
12.9788795493
 11
15.3406967207
 21
12.9788795493
  0
LINE
  5
282
100
AcDbEntity
  8
LAYER_FEATURE
100
AcDbLine
 62
7
  6
CONTINUOUS
 10
14.6333407549
 20
13.0029145552
 11
15.3442340378
 21
13.0029145552
  0
LINE
  5
283
100
AcDbEntity
  8
0
100
AcDbLine
 62
7
  6
CONTINUOUS
 10
14.6381369483
 20
13.0107837559
 11
15.345431587
 21
13.0107837559
  0
LINE
  5
284
100
AcDbEntity
  8
LAYER_FEATURE
100
AcDbLine
 62
7
  6
CONTINUOUS
 10
15.3467295961
 20
13.019313087
 11
14.6641481339
 21
13.019313087
  0
LINE
  5
285
100
AcDbEntity
  8
LAYER_FEATURE
100
AcDbLine
 62
7
  6
CONTINUOUS
 10
15.3515926811
 20
13.0497116306
 11
14.6696302057
 21
13.0497116306
  0
LINE
  5
286
100
AcDbEntity
  8
LAYER_CUT_FEAT
100
AcDbLine
 62
7
  6
CONTINUOUS
 10
15.6062392329
 20
13.1975883739
 11
15.6105448274
 21
13.1980043684
  0
LINE
  5
287
100
AcDbEntity
  8
LAYER_FEATURE
100
AcDbLine
 62
7
  6
CONTINUOUS
 10
14.6545735554
 20
13.120652198
 11
15.3643125646
 21
13.120652198
  0
LINE
  5
288
100
AcDbEntity
  8
LAYER_FEATURE
100
AcDbLine
 62
7
  6
CONTINUOUS
 10
14.6593326822
 20
13.1434014486
 11
15.3687606074
 21
13.1434014486
  0
LINE
  5
289
100
AcDbEntity
  8
0
100
AcDbLine
 62
7
  6
CONTINUOUS
 10
14.6638325125
 20
13.149853995
 11
15.3701068334
 21
13.149853995
  0
LINE
  5
28A
100
AcDbEntity
  8
LAYER_FEATURE
100
AcDbLine
 62
7
  6
CONTINUOUS
 10
15.3702057566
 20
13.1503281401
 11
14.6906791065
 21
13.1503281401
  0
LINE
  5
28B
100
AcDbEntity
  8
LAYER_FEATURE
100
AcDbLine
 62
7
  6
CONTINUOUS
 10
15.3761560595
 20
13.1788483181
 11
14.6975227885
 21
13.1788483181
  0
LINE
  5
28C
100
AcDbEntity
  8
LAYER_FEATURE
100
AcDbLine
 62
7
  6
CONTINUOUS
 10
14.6858391818
 20
13.2538639288
 11
15.3937108102
 21
13.2538639288
  0
LINE
  5
28D
100
AcDbEntity
  8
LAYER_FEATURE
100
AcDbLine
 62
7
  6
CONTINUOUS
 10
14.6916126837
 20
13.2750080745
 11
15.3990045245
 21
13.2750080745
  0
LINE
  5
28E
100
AcDbEntity
  8
0
100
AcDbLine
 62
7
  6
CONTINUOUS
 10
14.6957529833
 20
13.2801439206
 11
15.4003555432
 21
13.2801439206
  0
LINE
  5
28F
100
AcDbEntity
  8
LAYER_FEATURE
100
AcDbLine
 62
7
  6
CONTINUOUS
 10
15.4053929844
 20
13.2986071416
 11
14.7311673401
 21
13.2986071416
  0
LINE
  5
290
100
AcDbEntity
  8
LAYER_FEATURE
100
AcDbLine
 62
7
  6
CONTINUOUS
 10
14.7230207892
 20
13.376644741
 11
15.4282633536
 21
13.376644741
  0
LINE
  5
291
100
AcDbEntity
  8
02___PRT_ALL_AXES
100
AcDbLine
 62
7
  6
CONTINUOUS
 10
15.1072711555
 20
13.8235549929
 11
15.6848807916
 21
13.8235549929
  0
LINE
  5
292
100
AcDbEntity
  8
LAYER_FEATURE
100
AcDbLine
 62
7
  6
CONTINUOUS
 10
15.0556917398
 20
13.8858049929
 11
15.0980654518
 21
13.8858049929
  0
LINE
  5
293
100
AcDbEntity
  8
LAYER_FEATURE
100
AcDbLine
 62
7
  6
CONTINUOUS
 10
15.8441150444
 20
13.8858049929
 11
15.8864887564
 21
13.8858049929
  0
CIRCLE
  5
294
100
AcDbEntity
  8
LAYER_FEATURE
100
AcDbCircle
 62
7
  6
CONTINUOUS
 10
15.5603552569
 20
5.4606247044
 40
1.375
  0
CIRCLE
  5
295
100
AcDbEntity
  8
LAYER_FEATURE
100
AcDbCircle
 62
7
  6
CONTINUOUS
 10
15.5603552569
 20
5.4606247044
 40
1.3279787594
  0
CIRCLE
  5
296
100
AcDbEntity
  8
02___PRT_ALL_AXES
100
AcDbCircle
 62
7
  6
CONTINUOUS
 10
15.5603552569
 20
5.4606247044
 40
1.2415
  0
CIRCLE
  5
297
100
AcDbEntity
  8
LAYER_CHAMFER_FEAT
100
AcDbCircle
 62
7
  6
CONTINUOUS
 10
15.5603552569
 20
5.4606247044
 40
1.2215
  0
CIRCLE
  5
298
100
AcDbEntity
  8
LAYER_CHAMFER_FEAT
100
AcDbCircle
 62
7
  6
CONTINUOUS
 10
15.5603552569
 20
5.4606247044
 40
1.19
  0
ARC
  5
299
100
AcDbEntity
  8
02___PRT_ALL_AXES
100
AcDbCircle
 62
7
  6
CONTINUOUS
 10
15.5603552569
 20
5.4606247044
 40
0.6875
100
AcDbArc
 50
153.9499278124
 51
231.0500721876
  0
ARC
  5
29A
100
AcDbEntity
  8
02___PRT_ALL_AXES
100
AcDbCircle
 62
7
  6
CONTINUOUS
 10
15.5603552569
 20
5.4606247044
 40
0.6875
100
AcDbArc
 50
58.9499278124
 51
136.0500721876
  0
ARC
  5
29B
100
AcDbEntity
  8
LAYER_CUT_FEAT
100
AcDbCircle
 62
7
  6
CONTINUOUS
 10
15.5603552569
 20
5.4606247044
 40
0.6875
100
AcDbArc
 50
248.9499278124
 51
41.0500721876
  0
ARC
  5
29C
100
AcDbEntity
  8
02___PRT_ALL_AXES
100
AcDbCircle
 62
7
  6
CONTINUOUS
 10
15.5603552569
 20
5.4606247044
 40
0.6656478713
100
AcDbArc
 50
135.5426864311
 51
154.4573135689
  0
ARC
  5
29D
100
AcDbEntity
  8
LAYER_CUT_FEAT
100
AcDbCircle
 62
7
  6
CONTINUOUS
 10
15.5603552569
 20
5.4606247044
 40
0.6437957425
100
AcDbArc
 50
59.5897023119
 51
230.4102976881
  0
ARC
  5
29E
100
AcDbEntity
  8
LAYER_CUT_FEAT
100
AcDbCircle
 62
7
  6
CONTINUOUS
 10
15.5603552569
 20
5.4606247044
 40
0.6437957425
100
AcDbArc
 50
249.5897023119
 51
40.4102976881
  0
ARC
  5
29F
100
AcDbEntity
  8
LAYER_CUT_FEAT
100
AcDbCircle
 62
7
  6
CONTINUOUS
 10
15.9821846258
 20
5.9633413702
 40
0.109375
100
AcDbArc
 50
308.6898214686
 51
151.3101785314
  0
ARC
  5
2A0
100
AcDbEntity
  8
02___PRT_ALL_AXES
100
AcDbCircle
 62
7
  6
CONTINUOUS
 10
15.2322302569
 20
4.8922955332
 40
0.109375
100
AcDbArc
 50
138.6898214686
 51
341.3101785314
  0
ARC
  5
2A1
100
AcDbEntity
  8
02___PRT_ALL_AXES
100
AcDbCircle
 62
7
  6
CONTINUOUS
 10
15.0227867279
 20
5.8370342408
 40
0.109375
100
AcDbArc
 50
55.1836503003
 51
234.8163496997
  0
ARC
  5
2A2
100
AcDbEntity
  8
02___PRT_ALL_AXES
100
AcDbCircle
 62
7
  6
CONTINUOUS
 10
20.0036793458
 20
76.8500261093
 40
65.1539451567
100
AcDbArc
 50
266.0772834239
 51
266.192300121
  0
ARC
  5
2A3
100
AcDbEntity
  8
02___PRT_ALL_AXES
100
AcDbCircle
 62
7
  6
CONTINUOUS
 10
13.1362297423
 20
-20.9300670087
 40
32.9527750096
100
AcDbArc
 50
85.4429115421
 51
85.9229535517
  0
ARC
  5
2A4
100
AcDbEntity
  8
LAYER_FEATURE
100
AcDbCircle
 62
7
  6
CONTINUOUS
 10
17.4084248321
 20
12.5659599084
 40
2.8092741053
100
AcDbArc
 50
171.051881038
 51
171.5477881184
  0
ARC
  5
2A5
100
AcDbEntity
  8
LAYER_FEATURE
100
AcDbCircle
 62
7
  6
CONTINUOUS
 10
17.0571352216
 20
12.6299104687
 40
2.4521684291
100
AcDbArc
 50
167.9126418251
 51
168.4556949066
  0
ARC
  5
2A6
100
AcDbEntity
  8
LAYER_FEATURE
100
AcDbCircle
 62
7
  6
CONTINUOUS
 10
16.6715730729
 20
12.7230108673
 40
2.0554668714
100
AcDbArc
 50
164.4219527011
 51
165.0329220501
  0
ARC
  5
2A7
100
AcDbEntity
  8
LAYER_FEATURE
100
AcDbCircle
 62
7
  6
CONTINUOUS
 10
14.6595503732
 20
13.1668346289
 40
0.0352343896
100
AcDbArc
 50
331.1426614606
 51
332.0645420571
  0
SPLINE
  5
2A8
100
AcDbEntity
  8
02___PRT_ALL_AXES
100
AcDbSpline
 62
7
  6
CONTINUOUS
 70
0
 71
3
 72
39
 73
35
 74
0
 42
0.0000001
 43
0.0000001
 44
0.0000000001
 40
0.0
 40
0.0
 40
0.0
 40
0.0
 40
0.0461924993
 40
0.0914257741
 40
0.1356692149
 40
0.1788965354
 40
0.2210827646
 40
0.2622059831
 40
0.3022470777
 40
0.3411900732
 40
0.3790224147
 40
0.415735266
 40
0.4513238724
 40
0.4857879669
 40
0.51913221
 40
0.5513666814
 40
0.5825074337
 40
0.6125771007
 40
0.6416055657
 40
0.6696306486
 40
0.696698805
 40
0.7228658086
 40
0.7481973545
 40
0.772769518
 40
0.7966689541
 40
0.8199927454
 40
0.8428478032
 40
0.8653497377
 40
0.8876211692
 40
0.9097895201
 40
0.931984419
 40
0.9543349223
 40
0.9769667844
 40
1.0
 40
1.0
 40
1.0
 40
1.0
 10
16.2780930878
 20
11.7390762173
 30
0.0
 10
16.2748821972
 20
11.7286857716
 30
0.0
 10
16.2683360847
 20
11.7081790256
 30
0.0
 10
16.258029974
 20
11.6779441992
 30
0.0
 10
16.247348283
 20
11.6485815246
 30
0.0
 10
16.2363023466
 20
11.6201219737
 30
0.0
 10
16.2249036207
 20
11.592595135
 30
0.0
 10
16.21316405
 20
11.5660298202
 30
0.0
 10
16.2010958817
 20
11.5404537448
 30
0.0
 10
16.1887117002
 20
11.5158935932
 30
0.0
 10
16.176024397
 20
11.4923749748
 30
0.0
 10
16.1630471518
 20
11.4699224004
 30
0.0
 10
16.149793411
 20
11.4485592593
 30
0.0
 10
16.1362768774
 20
11.428307788
 30
0.0
 10
16.1225114794
 20
11.4091890587
 30
0.0
 10
16.1085113448
 20
11.3912229719
 30
0.0
 10
16.0942907798
 20
11.3744282501
 30
0.0
 10
16.0798642419
 20
11.3588224385
 30
0.0
 10
16.0652463333
 20
11.3444219002
 30
0.0
 10
16.0504517819
 20
11.3312418362
 30
0.0
 10
16.0354954365
 20
11.3192963176
 30
0.0
 10
16.0203922853
 20
11.3085983134
 30
0.0
 10
16.0051574894
 20
11.29915972
 30
0.0
 10
15.9898064549
 20
11.2909913594
 30
0.0
 10
15.9743549136
 20
11.2841029682
 30
0.0
 10
15.9588190158
 20
11.2785031541
 30
0.0
 10
15.9432154217
 20
11.2741992805
 30
0.0
 10
15.9275613437
 20
11.2711973057
 30
0.0
 10
15.9118745312
 20
11.2695015613
 30
0.0
 10
15.8961731119
 20
11.2691145698
 30
0.0
 10
15.8804755092
 20
11.2700368873
 30
0.0
 10
15.8647997233
 20
11.2722672278
 30
0.0
 10
15.8491648681
 20
11.2758019321
 30
0.0
 10
15.8388849745
 20
11.278992342
 30
0.0
 10
15.8337694539
 20
11.2807918063
 30
0.0
  0
SPLINE
  5
2A9
100
AcDbEntity
  8
02___PRT_ALL_AXES
100
AcDbSpline
 62
7
  6
CONTINUOUS
 70
0
 71
3
 72
23
 73
19
 74
0
 42
0.0000001
 43
0.0000001
 44
0.0000000001
 40
0.0
 40
0.0
 40
0.0
 40
0.0
 40
0.0888376409
 40
0.174505467
 40
0.2567846962
 40
0.335494344
 40
0.4104786557
 40
0.4816207752
 40
0.5488460967
 40
0.6121310695
 40
0.6715128681
 40
0.7271015292
 40
0.7790945523
 40
0.8277932425
 40
0.8736186965
 40
0.9171228279
 40
0.958986951
 40
1.0
 40
1.0
 40
1.0
 40
1.0
 10
15.676936639
 20
11.8399048432
 30
0.0
 10
15.6774120719
 20
11.8380701019
 30
0.0
 10
15.6784033072
 20
11.8344805876
 30
0.0
 10
15.6800436254
 20
11.8292522672
 30
0.0
 10
15.6818056687
 20
11.8242922259
 30
0.0
 10
15.6836827231
 20
11.8196191513
 30
0.0
 10
15.6856678314
 20
11.815250413
 30
0.0
 10
15.6877535969
 20
11.8112022817
 30
0.0
 10
15.6899323729
 20
11.8074897438
 30
0.0
 10
15.6921962769
 20
11.8041264914
 30
0.0
 10
15.6945373019
 20
11.8011248989
 30
0.0
 10
15.6969474159
 20
11.798496064
 30
0.0
 10
15.6994186316
 20
11.796249923
 30
0.0
 10
15.7019430429
 20
11.7943954704
 30
0.0
 10
15.7045125035
 20
11.7929410516
 30
0.0
 10
15.7071185074
 20
11.7918945362
 30
0.0
 10
15.7097499499
 20
11.7912630464
 30
0.0
 10
15.711521178
 20
11.7911217758
 30
0.0
 10
15.7123961861
 20
11.79112178
 30
0.0
  0
SPLINE
  5
2AA
100
AcDbEntity
  8
LAYER_CHAMFER_FEAT
100
AcDbSpline
 62
7
  6
CONTINUOUS
 70
0
 71
3
 72
15
 73
11
 74
0
 42
0.0000001
 43
0.0000001
 44
0.0000000001
 40
0.0
 40
0.0
 40
0.0
 40
0.0
 40
0.1375063382
 40
0.2714666545
 40
0.40184853
 40
0.5286397273
 40
0.6518352955
 40
0.7714433709
 40
0.8874860432
 40
1.0
 40
1.0
 40
1.0
 40
1.0
 10
15.6036995963
 20
11.5539711728
 30
0.0
 10
15.6072905612
 20
11.5466535558
 30
0.0
 10
15.6145497298
 20
11.5322895232
 30
0.0
 10
15.6258237015
 20
11.5113022781
 30
0.0
 10
15.6373323285
 20
11.4911708676
 30
0.0
 10
15.6490656108
 20
11.4719127604
 30
0.0
 10
15.6610136949
 20
11.453544239
 30
0.0
 10
15.6731665054
 20
11.4360809155
 30
0.0
 10
15.6855135241
 20
11.4195379772
 30
0.0
 10
15.6939977192
 20
11.4089701142
 30
0.0
 10
15.6982716564
 20
11.4038497173
 30
0.0
  0
SPLINE
  5
2AB
100
AcDbEntity
  8
LAYER_CUT_FEAT
100
AcDbSpline
 62
7
  6
CONTINUOUS
 70
0
 71
3
 72
32
 73
28
 74
0
 42
0.0000001
 43
0.0000001
 44
0.0000000001
 40
0.0
 40
0.0
 40
0.0
 40
0.0
 40
0.0167644439
 40
0.0337496769
 40
0.0511660935
 40
0.0692050502
 40
0.0880333475
 40
0.1077908964
 40
0.1285905543
 40
0.1505199365
 40
0.1736440146
 40
0.1980075409
 40
0.2236378756
 40
0.2505474457
 40
0.2787354668
 40
0.3081899175
 40
0.3388890687
 40
0.3708023915
 40
0.4038918374
 40
0.4381127525
 40
0.5097338577
 40
0.5852072378
 40
0.6639980347
 40
0.7455175264
 40
0.8291353779
 40
0.9141893122
 40
1.0
 40
1.0
 40
1.0
 40
1.0
 10
15.5672210615
 20
13.2631039749
 30
0.0
 10
15.566526993
 20
13.2631039805
 30
0.0
 10
15.5651281698
 20
13.2630157316
 30
0.0
 10
15.563041982
 20
13.2626201906
 30
0.0
 10
15.5609675809
 20
13.2619628674
 30
0.0
 10
15.5589107679
 20
13.2610463786
 30
0.0
 10
15.5568762843
 20
13.2598738689
 30
0.0
 10
15.5548687065
 20
13.2584488253
 30
0.0
 10
15.5528923394
 20
13.2567751272
 30
0.0
 10
15.5509514193
 20
13.2548570025
 30
0.0
 10
15.5490501832
 20
13.2526990726
 30
0.0
 10
15.547192813
 20
13.2503064697
 30
0.0
 10
15.5453834736
 20
13.2476848168
 30
0.0
 10
15.543626313
 20
13.2448402412
 30
0.0
 10
15.5419253672
 20
13.241779423
 30
0.0
 10
15.5402845913
 20
13.2385095518
 30
0.0
 10
15.5387078507
 20
13.2350383112
 30
0.0
 10
15.537198852
 20
13.2313738997
 30
0.0
 10
15.5357611246
 20
13.2275249566
 30
0.0
 10
15.5339158386
 20
13.2220762475
 30
0.0
 10
15.5318218957
 20
13.214863182
 30
0.0
 10
15.5296792955
 20
13.2057563419
 30
0.0
 10
15.5278905241
 20
13.1961564989
 30
0.0
 10
15.5264727237
 20
13.186154609
 30
0.0
 10
15.5254395257
 20
13.1758452286
 30
0.0
 10
15.5248008117
 20
13.1653262158
 30
0.0
 10
15.5246423806
 20
13.1582519653
 30
0.0
 10
15.5246301065
 20
13.1546993189
 30
0.0
  0
SPLINE
  5
2AC
100
AcDbEntity
  8
02___PRT_ALL_AXES
100
AcDbSpline
 62
7
  6
CONTINUOUS
 70
0
 71
3
 72
22
 73
18
 74
0
 42
0.0000001
 43
0.0000001
 44
0.0000000001
 40
0.0
 40
0.0
 40
0.0
 40
0.0
 40
0.0515037249
 40
0.1035398295
 40
0.1563683588
 40
0.2102349081
 40
0.2653673778
 40
0.3219736168
 40
0.4402795808
 40
0.502341022
 40
0.5664950251
 40
0.6328456295
 40
0.7014787272
 40
0.7724635614
 40
0.8458541925
 40
0.9216905919
 40
1.0
 40
1.0
 40
1.0
 40
1.0
 10
15.6105448263
 20
11.8236055255
 30
0.0
 10
15.6077652444
 20
11.8238166465
 30
0.0
 10
15.6021918495
 20
11.8244642273
 30
0.0
 10
15.5938794752
 20
11.826097434
 30
0.0
 10
15.5855923897
 20
11.8283938158
 30
0.0
 10
15.5773397538
 20
11.8313504003
 30
0.0
 10
15.569129183
 20
11.8349639236
 30
0.0
 10
15.5580884302
 20
11.8407358334
 30
0.0
 10
15.5473171774
 20
11.8477664649
 30
0.0
 10
15.5368676296
 20
11.8558942628
 30
0.0
 10
15.528984095
 20
11.8627193825
 30
0.0
 10
15.5211888775
 20
11.8701683114
 30
0.0
 10
15.5134884354
 20
11.8782342942
 30
0.0
 10
15.5058901632
 20
11.886909372
 30
0.0
 10
15.4984011135
 20
11.8961852914
 30
0.0
 10
15.4910284331
 20
11.9060529816
 30
0.0
 10
15.4862719026
 20
11.9129095488
 30
0.0
 10
15.4839129443
 20
11.9164308431
 30
0.0
  0
SPLINE
  5
2AD
100
AcDbEntity
  8
LAYER_FEATURE
100
AcDbSpline
 62
7
  6
CONTINUOUS
 70
0
 71
3
 72
19
 73
15
 74
0
 42
0.0000001
 43
0.0000001
 44
0.0000000001
 40
0.0
 40
0.0
 40
0.0
 40
0.0
 40
0.057999999
 40
0.116115158
 40
0.1744597907
 40
0.2331465462
 40
0.2922856436
 40
0.351984143
 40
0.4123453818
 40
0.4734683518
 40
0.5983445733
 40
0.7273352875
 40
0.8610472453
 40
1.0
 40
1.0
 40
1.0
 40
1.0
 10
15.0980654518
 20
13.8858049852
 30
0.0
 10
15.1014317377
 20
13.8858049819
 30
0.0
 10
15.1081721299
 20
13.8856416494
 30
0.0
 10
15.1182747277
 20
13.8849069326
 30
0.0
 10
15.1283701123
 20
13.8836827558
 30
0.0
 10
15.1384542566
 20
13.8819696048
 30
0.0
 10
15.1485235611
 20
13.8797681537
 30
0.0
 10
15.1585742968
 20
13.8770793355
 30
0.0
 10
15.1686029911
 20
13.8739040672
 30
0.0
 10
15.1820345249
 20
13.8689892412
 30
0.0
 10
15.1987802261
 20
13.8615956308
 30
0.0
 10
15.2185753811
 20
13.8508634473
 30
0.0
 10
15.2381886043
 20
13.8382263437
 30
0.0
 10
15.2508697109
 20
13.8287356997
 30
0.0
 10
15.2571698796
 20
13.8237010353
 30
0.0
  0
SPLINE
  5
2AE
100
AcDbEntity
  8
LAYER_FEATURE
100
AcDbSpline
 62
7
  6
CONTINUOUS
 70
0
 71
3
 72
19
 73
15
 74
0
 42
0.0000001
 43
0.0000001
 44
0.0000000001
 40
0.0
 40
0.0
 40
0.0
 40
0.0
 40
0.05799917
 40
0.1161135264
 40
0.1744573947
 40
0.2331434673
 40
0.292281949
 40
0.3519799717
 40
0.4123408217
 40
0.4734635931
 40
0.5983398493
 40
0.7273313256
 40
0.861044843
 40
1.0
 40
1.0
 40
1.0
 40
1.0
 10
15.0980654518
 20
11.1358050006
 30
0.0
 10
15.1014320991
 20
11.1358049973
 30
0.0
 10
15.1081732171
 20
11.1359683693
 30
0.0
 10
15.1182768988
 20
11.136703254
 30
0.0
 10
15.1283733697
 20
11.1379276735
 30
0.0
 10
15.1384585878
 20
11.1396412203
 30
0.0
 10
15.148528975
 20
11.1418431111
 30
0.0
 10
15.1585807684
 20
11.1445325428
 30
0.0
 10
15.1686105364
 20
11.1477084558
 30
0.0
 10
15.1820434881
 20
11.1526243804
 30
0.0
 10
15.1987909674
 20
11.1600195672
 30
0.0
 10
15.2185881538
 20
11.1707540473
 30
0.0
 10
15.2382033466
 20
11.1833938425
 30
0.0
 10
15.2508856775
 20
11.1928864538
 30
0.0
 10
15.2571864328
 20
11.1979221789
 30
0.0
  0
SPLINE
  5
2AF
100
AcDbEntity
  8
LAYER_FEATURE
100
AcDbSpline
 62
7
  6
CONTINUOUS
 70
0
 71
3
 72
67
 73
63
 74
0
 42
0.0000001
 43
0.0000001
 44
0.0000000001
 40
0.0
 40
0.0
 40
0.0
 40
0.0
 40
0.003844833
 40
0.0076962527
 40
0.0115608028
 40
0.0154449469
 40
0.0193550249
 40
0.0232972228
 40
0.0313000211
 40
0.0395004234
 40
0.0479395776
 40
0.0566541327
 40
0.0656760981
 40
0.0750329003
 40
0.0847475773
 40
0.0948390585
 40
0.1053224871
 40
0.1162095548
 40
0.127508829
 40
0.1392260584
 40
0.1513644541
 40
0.1639249427
 40
0.1769063911
 40
0.1903058053
 40
0.2041185056
 40
0.2183382812
 40
0.2329575257
 40
0.2479673577
 40
0.2633577274
 40
0.2791175127
 40
0.2952346051
 40
0.3116959882
 40
0.3284878083
 40
0.345595439
 40
0.3630035422
 40
0.3806961234
 40
0.3986565843
 40
0.4168677729
 40
0.4353120304
 40
0.4539712376
 40
0.4728268572
 40
0.4918599768
 40
0.5110513492
 40
0.5498294602
 40
0.5890030127
 40
0.6284099461
 40
0.6678865234
 40
0.7072685091
 40
0.7463923438
 40
0.7850963267
 40
0.8042416476
 40
0.8232228322
 40
0.8420207304
 40
0.860616539
 40
0.8789918432
 40
0.8971286589
 40
0.9150094791
 40
0.9326173078
 40
0.9499357498
 40
0.9669489345
 40
0.9836418922
 40
1.0
 40
1.0
 40
1.0
 40
1.0
 10
15.8864887564
 20
13.8858049852
 30
0.0
 10
15.8896150671
 20
13.8858049877
 30
0.0
 10
15.8958739558
 20
13.8856641492
 30
0.0
 10
15.9052558978
 20
13.8850305596
 30
0.0
 10
15.9146321051
 20
13.8839748763
 30
0.0
 10
15.9239993082
 20
13.8824973943
 30
0.0
 10
15.9333548126
 20
13.8805986152
 30
0.0
 10
15.9458701856
 20
13.8774910497
 30
0.0
 10
15.9615031342
 20
13.8725296001
 30
0.0
 10
15.9800654729
 20
13.8649307743
 30
0.0
 10
15.9985050635
 20
13.8556682058
 30
0.0
 10
16.0167987066
 20
13.844755491
 30
0.0
 10
16.0349251069
 20
13.8322076065
 30
0.0
 10
16.0528630251
 20
13.8180411359
 30
0.0
 10
16.070591614
 20
13.8022742169
 30
0.0
 10
16.0880902056
 20
13.7849266155
 30
0.0
 10
16.1053383131
 20
13.7660197783
 30
0.0
 10
16.1223156193
 20
13.7455768832
 30
0.0
 10
16.1390020004
 20
13.7236228727
 30
0.0
 10
16.1553775597
 20
13.7001844722
 30
0.0
 10
16.1714226691
 20
13.6752901922
 30
0.0
 10
16.1871180079
 20
13.6489703137
 30
0.0
 10
16.2024446039
 20
13.6212568669
 30
0.0
 10
16.2173838724
 20
13.5921836007
 30
0.0
 10
16.2319176512
 20
13.5617859471
 30
0.0
 10
16.2460282345
 20
13.5301009799
 30
0.0
 10
16.2596984031
 20
13.497167371
 30
0.0
 10
16.2729114523
 20
13.4630253426
 30
0.0
 10
16.285651221
 20
13.4277166185
 30
0.0
 10
16.2979021136
 20
13.3912843701
 30
0.0
 10
16.3096491224
 20
13.353773161
 30
0.0
 10
16.3208778495
 20
13.3152288914
 30
0.0
 10
16.3315745258
 20
13.2756987398
 30
0.0
 10
16.3417260305
 20
13.2352311042
 30
0.0
 10
16.3513199074
 20
13.1938755415
 30
0.0
 10
16.3603443819
 20
13.1516827061
 30
0.0
 10
16.3687883772
 20
13.1087042876
 30
0.0
 10
16.3766415289
 20
13.0649929452
 30
0.0
 10
16.3838941953
 20
13.0206022449
 30
0.0
 10
16.390537475
 20
12.9755865807
 30
0.0
 10
16.3965631993
 20
12.9300011534
 30
0.0
 10
16.4019640121
 20
12.8839017275
 30
0.0
 10
16.4083446257
 20
12.8216135094
 30
0.0
 10
16.4147009998
 20
12.742869163
 30
0.0
 10
16.4197230043
 20
12.647562939
 30
0.0
 10
16.4221404703
 20
12.5515867673
 30
0.0
 10
16.4219415065
 20
12.4554110915
 30
0.0
 10
16.4191270876
 20
12.3595064544
 30
0.0
 10
16.4137110607
 20
12.2643429497
 30
0.0
 10
16.4070282201
 20
12.1857642107
 30
0.0
 10
16.400388782
 20
12.1236437792
 30
0.0
 10
16.3947972601
 20
12.0776946228
 30
0.0
 10
16.3885829954
 20
12.0322765202
 30
0.0
 10
16.3817535733
 20
11.9874450308
 30
0.0
 10
16.3743173907
 20
11.9432551291
 30
0.0
 10
16.3662835761
 20
11.899760959
 30
0.0
 10
16.3576619923
 20
11.8570158239
 30
0.0
 10
16.348463225
 20
11.8150720725
 30
0.0
 10
16.3386985639
 20
11.7739811477
 30
0.0
 10
16.3283799789
 20
11.7337932214
 30
0.0
 10
16.3175201817
 20
11.6945578389
 30
0.0
 10
16.3098484393
 20
11.6687994393
 30
0.0
 10
16.3059213231
 20
11.6560912865
 30
0.0
  0
SPLINE
  5
2B0
100
AcDbEntity
  8
LAYER_FEATURE
100
AcDbSpline
 62
7
  6
CONTINUOUS
 70
0
 71
3
 72
39
 73
35
 74
0
 42
0.0000001
 43
0.0000001
 44
0.0000000001
 40
0.0
 40
0.0
 40
0.0
 40
0.0
 40
0.02127698
 40
0.0426477422
 40
0.0642045501
 40
0.0860367276
 40
0.1082294289
 40
0.13086263
 40
0.1540103821
 40
0.1777403583
 40
0.2021136209
 40
0.227184563
 40
0.2530010579
 40
0.2796047152
 40
0.3070311728
 40
0.3353104595
 40
0.3644674098
 40
0.3945220365
 40
0.4254898723
 40
0.4573823633
 40
0.4902072054
 40
0.5239686104
 40
0.558667601
 40
0.5943022909
 40
0.6308680905
 40
0.6683578916
 40
0.706762302
 40
0.7460698023
 40
0.7862668438
 40
0.8273381185
 40
0.8692664962
 40
0.9120330786
 40
0.9556187218
 40
1.0
 40
1.0
 40
1.0
 40
1.0
 10
15.8864887564
 20
11.1358050007
 30
0.0
 10
15.8915112124
 20
11.1358050048
 30
0.0
 10
15.9015820226
 20
11.1361694347
 30
0.0
 10
15.9166611764
 20
11.1378076786
 30
0.0
 10
15.9317153196
 20
11.1405361751
 30
0.0
 10
15.9467307533
 20
11.1443521298
 30
0.0
 10
15.961695341
 20
11.1492517816
 30
0.0
 10
15.9765968579
 20
11.155230448
 30
0.0
 10
15.9914234616
 20
11.162282573
 30
0.0
 10
16.0061635133
 20
11.1704018596
 30
0.0
 10
16.0208055713
 20
11.1795812917
 30
0.0
 10
16.0353383824
 20
11.1898130911
 30
0.0
 10
16.0497508221
 20
11.2010887843
 30
0.0
 10
16.064031857
 20
11.2133992077
 30
0.0
 10
16.0781705603
 20
11.2267344528
 30
0.0
 10
16.0921561068
 20
11.2410838638
 30
0.0
 10
16.1059777402
 20
11.2564360659
 30
0.0
 10
16.1196247883
 20
11.2727789394
 30
0.0
 10
16.1330867103
 20
11.290099584
 30
0.0
 10
16.1463530613
 20
11.3083843621
 30
0.0
 10
16.1594135017
 20
11.3276189005
 30
0.0
 10
16.1722578483
 20
11.3477880626
 30
0.0
 10
16.1848760673
 20
11.3688759731
 30
0.0
 10
16.1972582638
 20
11.3908660452
 30
0.0
 10
16.2093947115
 20
11.413740973
 30
0.0
 10
16.2212758887
 20
11.437482732
 30
0.0
 10
16.2328924453
 20
11.46207262
 30
0.0
 10
16.2442352137
 20
11.4874912619
 30
0.0
 10
16.2552952715
 20
11.5137186178
 30
0.0
 10
16.2660638914
 20
11.5407339995
 30
0.0
 10
16.2765325451
 20
11.5685160447
 30
0.0
 10
16.2866930539
 20
11.5970430218
 30
0.0
 10
16.2965372373
 20
11.626292101
 30
0.0
 10
16.302828237
 20
11.6460820565
 30
0.0
 10
16.3059213231
 20
11.6560912865
 30
0.0
  0
SPLINE
  5
2B1
100
AcDbEntity
  8
LAYER_FEATURE
100
AcDbSpline
 62
7
  6
CONTINUOUS
 70
0
 71
3
 72
35
 73
31
 74
0
 42
0.0000001
 43
0.0000001
 44
0.0000000001
 40
0.0
 40
0.0
 40
0.0
 40
0.0
 40
0.0845270473
 40
0.1663130043
 40
0.2452402907
 40
0.2836006983
 40
0.3212095422
 40
0.3580569098
 40
0.3941342321
 40
0.4294342751
 40
0.4639513305
 40
0.4976812434
 40
0.5306215454
 40
0.5627716313
 40
0.5941327947
 40
0.6247084833
 40
0.6545043928
 40
0.6835286401
 40
0.71179202
 40
0.7393081011
 40
0.7660935317
 40
0.7921682099
 40
0.8175554872
 40
0.8663681075
 40
0.8898714485
 40
0.9128198063
 40
0.9352567742
 40
0.9572303191
 40
0.9787926354
 40
1.0
 40
1.0
 40
1.0
 40
1.0
 10
15.5007088684
 20
13.2781824987
 30
0.0
 10
15.5055577049
 20
13.2938733393
 30
0.0
 10
15.5155334917
 20
13.3246141314
 30
0.0
 10
15.5316168205
 20
13.3694737035
 30
0.0
 10
15.5458535058
 20
13.4054456767
 30
0.0
 10
15.557669298
 20
13.4331258625
 30
0.0
 10
15.5666424233
 20
13.4531258925
 30
0.0
 10
15.57580525
 20
13.4725503915
 30
0.0
 10
15.5851522179
 20
13.4913875819
 30
0.0
 10
15.5946776606
 20
13.5096259575
 30
0.0
 10
15.6043757588
 20
13.527254425
 30
0.0
 10
15.6142406243
 20
13.5442622458
 30
0.0
 10
15.6242662875
 20
13.5606390555
 30
0.0
 10
15.6344466322
 20
13.5763749049
 30
0.0
 10
15.6447755334
 20
13.5914601963
 30
0.0
 10
15.6552467215
 20
13.6058857631
 30
0.0
 10
15.6658538752
 20
13.6196428262
 30
0.0
 10
15.6765906347
 20
13.6327229924
 30
0.0
 10
15.6874504935
 20
13.6451183101
 30
0.0
 10
15.6984270174
 20
13.6568212221
 30
0.0
 10
15.7095134655
 20
13.6678244598
 30
0.0
 10
15.7207037525
 20
13.6781217326
 30
0.0
 10
15.7355569853
 20
13.6907346263
 30
0.0
 10
15.7507863249
 20
13.7021169143
 30
0.0
 10
15.7663632276
 20
13.7121251831
 30
0.0
 10
15.7779693674
 20
13.7188034817
 30
0.0
 10
15.7896378132
 20
13.724743177
 30
0.0
 10
15.8013619347
 20
13.7299406077
 30
0.0
 10
15.8131339495
 20
13.734391988
 30
0.0
 10
15.8210688684
 20
13.7368788537
 30
0.0
 10
15.8250359219
 20
13.7379925982
 30
0.0
  0
SPLINE
  5
2B2
100
AcDbEntity
  8
LAYER_FEATURE
100
AcDbSpline
 62
7
  6
CONTINUOUS
 70
0
 71
3
 72
59
 73
55
 74
0
 42
0.0000001
 43
0.0000001
 44
0.0000000001
 40
0.0
 40
0.0
 40
0.0
 40
0.0
 40
0.015944238
 40
0.0322000137
 40
0.0487542626
 40
0.0655939596
 40
0.0827051367
 40
0.1000734318
 40
0.1176839589
 40
0.1355213862
 40
0.1718126305
 40
0.2088179451
 40
0.2464021291
 40
0.2844260747
 40
0.3227477634
 40
0.3612232255
 40
0.3997074949
 40
0.4380555471
 40
0.4761232428
 40
0.5137682742
 40
0.5508511274
 40
0.5872360769
 40
0.6051262135
 40
0.6227932319
 40
0.6402216995
 40
0.6573966239
 40
0.6743034903
 40
0.6909283022
 40
0.707257624
 40
0.7232786291
 40
0.7389791475
 40
0.7543477172
 40
0.7693736405
 40
0.7840470465
 40
0.7983589607
 40
0.8123013831
 40
0.8258673695
 40
0.8390511247
 40
0.8518481088
 40
0.8642551562
 40
0.8762706135
 40
0.887894489
 40
0.8991286217
 40
0.9099768727
 40
0.9204453376
 40
0.9305425832
 40
0.9402799009
 40
0.9496715685
 40
0.9587351181
 40
0.9674915887
 40
0.9759657424
 40
0.9841862103
 40
0.9921855247
 40
1.0
 40
1.0
 40
1.0
 40
1.0
 10
15.5007088684
 20
13.2781824987
 30
0.0
 10
15.4973545717
 20
13.2673279905
 30
0.0
 10
15.4907939742
 20
13.2453403346
 30
0.0
 10
15.4814797344
 20
13.2118708352
 30
0.0
 10
15.4726047449
 20
13.1776226186
 30
0.0
 10
15.4641789076
 20
13.1426340267
 30
0.0
 10
15.4562115747
 20
13.1069436947
 30
0.0
 10
15.4487116218
 20
13.0705913296
 30
0.0
 10
15.4416873406
 20
13.0336171786
 30
0.0
 10
15.4329163343
 20
12.9832562834
 30
0.0
 10
15.4232155871
 20
12.9190377012
 30
0.0
 10
15.4136497006
 20
12.840601418
 30
0.0
 10
15.4061357958
 20
12.7607019407
 30
0.0
 10
15.4007073867
 20
12.6796940815
 30
0.0
 10
15.3973887246
 20
12.5979369861
 30
0.0
 10
15.3961946062
 20
12.5157933599
 30
0.0
 10
15.397130358
 20
12.4336276039
 30
0.0
 10
15.4001918235
 20
12.3518042189
 30
0.0
 10
15.4053653155
 20
12.2706862076
 30
0.0
 10
15.4126277533
 20
12.1906332158
 30
0.0
 10
15.4219467391
 20
12.1120007417
 30
0.0
 10
15.4314441419
 20
12.0475905481
 30
0.0
 10
15.4400552092
 20
11.9970554057
 30
0.0
 10
15.4469628436
 20
11.9599365354
 30
0.0
 10
15.4543480925
 20
11.9234295456
 30
0.0
 10
15.4622027897
 20
11.8875748759
 30
0.0
 10
15.4705181889
 20
11.8524123461
 30
0.0
 10
15.4792850501
 20
11.8179809755
 30
0.0
 10
15.4884936317
 20
11.7843189735
 30
0.0
 10
15.4981336991
 20
11.7514636832
 30
0.0
 10
15.50819454
 20
11.719451543
 30
0.0
 10
15.5186649815
 20
11.6883180472
 30
0.0
 10
15.5295334017
 20
11.6580977069
 30
0.0
 10
15.5407877461
 20
11.628824011
 30
0.0
 10
15.5524155408
 20
11.6005293839
 30
0.0
 10
15.564403903
 20
11.5732451462
 30
0.0
 10
15.5767395683
 20
11.5470014834
 30
0.0
 10
15.5894089078
 20
11.5218274146
 30
0.0
 10
15.602397948
 20
11.4977507604
 30
0.0
 10
15.6156923963
 20
11.4747981127
 30
0.0
 10
15.6292776536
 20
11.4529948001
 30
0.0
 10
15.6431388472
 20
11.4323648679
 30
0.0
 10
15.6572608597
 20
11.4129310646
 30
0.0
 10
15.6716283547
 20
11.3947148287
 30
0.0
 10
15.6862258069
 20
11.3777362836
 30
0.0
 10
15.7010375245
 20
11.3620142346
 30
0.0
 10
15.7160476637
 20
11.3475661756
 30
0.0
 10
15.7312402547
 20
11.3344083214
 30
0.0
 10
15.746599179
 20
11.322555644
 30
0.0
 10
15.7621081948
 20
11.3120218949
 30
0.0
 10
15.7777507001
 20
11.3028196864
 30
0.0
 10
15.7935102904
 20
11.2949603061
 30
0.0
 10
15.8093683158
 20
11.2884543315
 30
0.0
 10
15.8201050319
 20
11.2849895969
 30
0.0
 10
15.8254692001
 20
11.2834962535
 30
0.0
  0
SPLINE
  5
2B3
100
AcDbEntity
  8
LAYER_FEATURE
100
AcDbSpline
 62
7
  6
CONTINUOUS
 70
0
 71
3
 72
67
 73
63
 74
0
 42
0.0000001
 43
0.0000001
 44
0.0000000001
 40
0.0
 40
0.0
 40
0.0
 40
0.0
 40
0.0163581078
 40
0.0330510655
 40
0.0500642502
 40
0.0673826922
 40
0.0849905209
 40
0.1028713411
 40
0.1210081568
 40
0.139383461
 40
0.1579792696
 40
0.1767771678
 40
0.1957583524
 40
0.2149036733
 40
0.2536076562
 40
0.2927314909
 40
0.3321134766
 40
0.3715900539
 40
0.4109969873
 40
0.4501705398
 40
0.4889486508
 40
0.5081400232
 40
0.5271731428
 40
0.5460287624
 40
0.5646879696
 40
0.5831322271
 40
0.6013434157
 40
0.6193038766
 40
0.6369964578
 40
0.654404561
 40
0.6715121917
 40
0.6883040118
 40
0.7047653949
 40
0.7208824873
 40
0.7366422726
 40
0.7520326423
 40
0.7670424743
 40
0.7816617188
 40
0.7958814944
 40
0.8096941947
 40
0.8230936089
 40
0.8360750573
 40
0.8486355459
 40
0.8607739416
 40
0.872491171
 40
0.8837904452
 40
0.8946775129
 40
0.9051609415
 40
0.9152524227
 40
0.9249670997
 40
0.9343239019
 40
0.9433458673
 40
0.9520604224
 40
0.9604995766
 40
0.9686999789
 40
0.9767027772
 40
0.9806449751
 40
0.9845550531
 40
0.9884391972
 40
0.9923037473
 40
0.996155167
 40
1.0
 40
1.0
 40
1.0
 40
1.0
 10
15.4246824778
 20
13.3655186993
 30
0.0
 10
15.4207553616
 20
13.3528105465
 30
0.0
 10
15.4130836192
 20
13.3270521469
 30
0.0
 10
15.402223822
 20
13.2878167644
 30
0.0
 10
15.391905237
 20
13.2476288381
 30
0.0
 10
15.3821405759
 20
13.2065379133
 30
0.0
 10
15.3729418086
 20
13.1645941619
 30
0.0
 10
15.3643202248
 20
13.1218490268
 30
0.0
 10
15.3562864102
 20
13.0783548567
 30
0.0
 10
15.3488502276
 20
13.034164955
 30
0.0
 10
15.3420208055
 20
12.9893334656
 30
0.0
 10
15.3358065408
 20
12.943915363
 30
0.0
 10
15.3302150188
 20
12.8979662066
 30
0.0
 10
15.3235755808
 20
12.8358457751
 30
0.0
 10
15.3168927401
 20
12.7572670362
 30
0.0
 10
15.3114767132
 20
12.6621035314
 30
0.0
 10
15.3086622943
 20
12.5661988943
 30
0.0
 10
15.3084633305
 20
12.4700232185
 30
0.0
 10
15.3108807966
 20
12.3740470468
 30
0.0
 10
15.315902801
 20
12.2787408228
 30
0.0
 10
15.3222591751
 20
12.1999964764
 30
0.0
 10
15.3286397888
 20
12.1377082584
 30
0.0
 10
15.3340406016
 20
12.0916088325
 30
0.0
 10
15.3400663259
 20
12.0460234051
 30
0.0
 10
15.3467096055
 20
12.0010077409
 30
0.0
 10
15.353962272
 20
11.9566170406
 30
0.0
 10
15.3618154236
 20
11.9129056982
 30
0.0
 10
15.3702594189
 20
11.8699272797
 30
0.0
 10
15.3792838934
 20
11.8277344443
 30
0.0
 10
15.3888777704
 20
11.7863788816
 30
0.0
 10
15.399029275
 20
11.745911246
 30
0.0
 10
15.4097259514
 20
11.7063810944
 30
0.0
 10
15.4209546785
 20
11.6678368248
 30
0.0
 10
15.4327016873
 20
11.6303256157
 30
0.0
 10
15.4449525798
 20
11.5938933673
 30
0.0
 10
15.4576923486
 20
11.5585846432
 30
0.0
 10
15.4709053978
 20
11.5244426148
 30
0.0
 10
15.4845755663
 20
11.4915090059
 30
0.0
 10
15.4986861497
 20
11.4598240388
 30
0.0
 10
15.5132199285
 20
11.4294263851
 30
0.0
 10
15.5281591969
 20
11.4003531189
 30
0.0
 10
15.543485793
 20
11.3726396721
 30
0.0
 10
15.5591811317
 20
11.3463197936
 30
0.0
 10
15.5752262411
 20
11.3214255136
 30
0.0
 10
15.5916018004
 20
11.2979871132
 30
0.0
 10
15.6082881816
 20
11.2760331026
 30
0.0
 10
15.6252654878
 20
11.2555902076
 30
0.0
 10
15.6425135953
 20
11.2366833703
 30
0.0
 10
15.6600121868
 20
11.2193357689
 30
0.0
 10
15.6777407757
 20
11.2035688499
 30
0.0
 10
15.6956786939
 20
11.1894023793
 30
0.0
 10
15.7138050943
 20
11.1768544948
 30
0.0
 10
15.7320987373
 20
11.16594178
 30
0.0
 10
15.7505383279
 20
11.1566792115
 30
0.0
 10
15.7691006667
 20
11.1490803857
 30
0.0
 10
15.7847336153
 20
11.1441189361
 30
0.0
 10
15.7972489883
 20
11.1410113706
 30
0.0
 10
15.8066044926
 20
11.1391125915
 30
0.0
 10
15.8159716958
 20
11.1376351096
 30
0.0
 10
15.8253479031
 20
11.1365794262
 30
0.0
 10
15.834729845
 20
11.1359458367
 30
0.0
 10
15.8409887338
 20
11.1358049981
 30
0.0
 10
15.8441150444
 20
11.1358050007
 30
0.0
  0
SPLINE
  5
2B4
100
AcDbEntity
  8
02___PRT_ALL_AXES
100
AcDbSpline
 62
7
  6
CONTINUOUS
 70
0
 71
3
 72
74
 73
70
 74
0
 42
0.0000001
 43
0.0000001
 44
0.0000000001
 40
0.0
 40
0.0
 40
0.0
 40
0.0
 40
0.0041305636
 40
0.0082149834
 40
0.0122600338
 40
0.0162727482
 40
0.020260373
 40
0.024230329
 40
0.0281901597
 40
0.0321474809
 40
0.036109926
 40
0.0400850928
 40
0.0440804872
 40
0.0481034772
 40
0.0521612387
 40
0.0562607229
 40
0.0604086088
 40
0.064611285
 40
0.073203167
 40
0.0820826983
 40
0.0866433991
 40
0.0912900531
 40
0.1008554479
 40
0.1108079366
 40
0.1211700361
 40
0.1319595721
 40
0.143190114
 40
0.1548714015
 40
0.1670097419
 40
0.1796083722
 40
0.1926677817
 40
0.2061859967
 40
0.2201588301
 40
0.2345800997
 40
0.2494418192
 40
0.264734365
 40
0.2804466239
 40
0.2965661233
 40
0.3130791469
 40
0.3299708397
 40
0.3472253017
 40
0.3648256743
 40
0.3827542193
 40
0.4009923918
 40
0.4195209091
 40
0.4383198153
 40
0.4573685421
 40
0.4766459676
 40
0.4961304723
 40
0.5157999935
 40
0.5356320782
 40
0.5756913705
 40
0.6161239901
 40
0.6567413811
 40
0.6973534975
 40
0.7377703352
 40
0.7778034658
 40
0.797618642
 40
0.8172687475
 40
0.8367313698
 40
0.8559844929
 40
0.87500655
 40
0.8937764771
 40
0.9122737728
 40
0.9304785468
 40
0.9483716119
 40
0.9659344641
 40
0.9831495593
 40
1.0
 40
1.0
 40
1.0
 40
1.0
 10
15.8337694536
 20
13.7408181847
 30
0.0
 10
15.8367171009
 20
13.7418550708
 30
0.0
 10
15.8426246655
 20
13.7437914961
 30
0.0
 10
15.8515599606
 20
13.7462878786
 30
0.0
 10
15.8605124564
 20
13.748357412
 30
0.0
 10
15.8694787646
 20
13.7499992863
 30
0.0
 10
15.8784557722
 20
13.7512128402
 30
0.0
 10
15.8874402621
 20
13.7519976156
 30
0.0
 10
15.8964290297
 20
13.7523533041
 30
0.0
 10
15.9054188551
 20
13.7522797433
 30
0.0
 10
15.9144065204
 20
13.7517770049
 30
0.0
 10
15.9233888041
 20
13.7508452261
 30
0.0
 10
15.9323625102
 20
13.7494848495
 30
0.0
 10
15.9413244297
 20
13.7476963212
 30
0.0
 10
15.9502714194
 20
13.74548042
 30
0.0
 10
15.9592002688
 20
13.7428379275
 30
0.0
 10
15.9681080135
 20
13.7397698489
 30
0.0
 10
15.9800390837
 20
13.7350792445
 30
0.0
 10
15.9949076473
 20
13.7281224388
 30
0.0
 10
16.009418129
 20
13.7198893269
 30
0.0
 10
16.0209360269
 20
13.7124992949
 30
0.0
 10
16.03261305
 20
13.7044124216
 30
0.0
 10
16.0470980865
 20
13.6932379617
 30
0.0
 10
16.0641043346
 20
13.6783278464
 30
0.0
 10
16.0808788461
 20
13.6618099789
 30
0.0
 10
16.0973990446
 20
13.6437078312
 30
0.0
 10
16.1136433261
 20
13.6240462443
 30
0.0
 10
16.1295900631
 20
13.6028522251
 30
0.0
 10
16.1452179375
 20
13.58015476
 30
0.0
 10
16.1605059094
 20
13.5559848796
 30
0.0
 10
16.1754332925
 20
13.530375629
 30
0.0
 10
16.1899797993
 20
13.5033620455
 30
0.0
 10
16.2041255901
 20
13.47498112
 30
0.0
 10
16.2178513173
 20
13.445271752
 30
0.0
 10
16.2311381653
 20
13.4142746983
 30
0.0
 10
16.2439678881
 20
13.3820325169
 30
0.0
 10
16.2563228422
 20
13.3485895077
 30
0.0
 10
16.2681860191
 20
13.3139916496
 30
0.0
 10
16.2795410734
 20
13.2782865353
 30
0.0
 10
16.2903723488
 20
13.2415233031
 30
0.0
 10
16.3006649037
 20
13.203752567
 30
0.0
 10
16.3104045336
 20
13.165026345
 30
0.0
 10
16.3195777929
 20
13.1253979859
 30
0.0
 10
16.3281720143
 20
13.0849220935
 30
0.0
 10
16.3361753281
 20
13.0436544509
 30
0.0
 10
16.3435766789
 20
13.0016519407
 30
0.0
 10
16.3503658408
 20
12.9589724693
 30
0.0
 10
16.3565334365
 20
12.915674873
 30
0.0
 10
16.3620709315
 20
12.8718188852
 30
0.0
 10
16.3669707204
 20
12.8274648661
 30
0.0
 10
16.3726630482
 20
12.7675462501
 30
0.0
 10
16.3781274129
 20
12.6918375077
 30
0.0
 10
16.3820338068
 20
12.6002910423
 30
0.0
 10
16.3832891465
 20
12.5082513744
 30
0.0
 10
16.3818865099
 20
12.416225768
 30
0.0
 10
16.3778336357
 20
12.3247214117
 30
0.0
 10
16.3722477936
 20
12.2490661503
 30
0.0
 10
16.3664590626
 20
12.1892042549
 30
0.0
 10
16.3614882061
 20
12.1449024474
 30
0.0
 10
16.3558804497
 20
12.1011054125
 30
0.0
 10
16.3496434953
 20
12.0578734285
 30
0.0
 10
16.342785973
 20
12.0152661383
 30
0.0
 10
16.3353173547
 20
11.9733422763
 30
0.0
 10
16.3272479581
 20
11.9321596448
 30
0.0
 10
16.3185889309
 20
11.891774993
 30
0.0
 10
16.309352233
 20
11.8522440221
 30
0.0
 10
16.2995506041
 20
11.813621079
 30
0.0
 10
16.2891976362
 20
11.7759596716
 30
0.0
 10
16.2818566273
 20
11.7512550356
 30
0.0
 10
16.2780930878
 20
11.7390762173
 30
0.0
  0
SPLINE
  5
2B5
100
AcDbEntity
  8
LAYER_CHAMFER_FEAT
100
AcDbSpline
 62
7
  6
CONTINUOUS
 70
0
 71
3
 72
56
 73
52
 74
0
 42
0.0000001
 43
0.0000001
 44
0.0000000001
 40
0.0
 40
0.0
 40
0.0
 40
0.0
 40
0.0101614304
 40
0.0206686623
 40
0.0315253987
 40
0.0427336531
 40
0.0542938964
 40
0.0662051966
 40
0.0784653468
 40
0.091070975
 40
0.1040176376
 40
0.1172999037
 40
0.1309114401
 40
0.144845081
 40
0.1590928902
 40
0.1736462113
 40
0.1884957263
 40
0.2036315043
 40
0.2190430443
 40
0.234719311
 40
0.2506487743
 40
0.2668194483
 40
0.2998334759
 40
0.3336585507
 40
0.3681854763
 40
0.4033005756
 40
0.4388865166
 40
0.4748231041
 40
0.5109880398
 40
0.5472576727
 40
0.583507734
 40
0.6196140695
 40
0.6554533755
 40
0.6909039328
 40
0.7258463661
 40
0.7601644057
 40
0.7937456954
 40
0.8102266852
 40
0.8264835706
 40
0.8425037929
 40
0.8582752064
 40
0.8737861092
 40
0.889025277
 40
0.9039820055
 40
0.9186461502
 40
0.9330081573
 40
0.9470591241
 40
0.9607908531
 40
0.9741957959
 40
0.9872675776
 40
1.0
 40
1.0
 40
1.0
 40
1.0
 10
15.6982716559
 20
13.6177602713
 30
0.0
 10
15.6936264583
 20
13.6121950998
 30
0.0
 10
15.6844118023
 20
13.6006783882
 30
0.0
 10
15.6710375137
 20
13.5825913842
 30
0.0
 10
15.6578942225
 20
13.5634232544
 30
0.0
 10
15.6449953004
 20
13.5431936183
 30
0.0
 10
15.6323534949
 20
13.5219226626
 30
0.0
 10
15.6199814454
 20
13.4996317747
 30
0.0
 10
15.6078915245
 20
13.4763433303
 30
0.0
 10
15.5960958602
 20
13.4520807261
 30
0.0
 10
15.5846063012
 20
13.4268683521
 30
0.0
 10
15.5734343921
 20
13.4007315766
 30
0.0
 10
15.5625913781
 20
13.3736967061
 30
0.0
 10
15.5520881852
 20
13.3457909585
 30
0.0
 10
15.5419354107
 20
13.3170424388
 30
0.0
 10
15.5321432896
 20
13.2874801198
 30
0.0
 10
15.5227217019
 20
13.257133802
 30
0.0
 10
15.5136801617
 20
13.2260340817
 30
0.0
 10
15.5050278044
 20
13.1942123128
 30
0.0
 10
15.4967733823
 20
13.1617006144
 30
0.0
 10
15.4889251783
 20
13.1285317132
 30
0.0
 10
15.4789447004
 20
13.0831630969
 30
0.0
 10
15.4675624652
 20
13.0250389707
 30
0.0
 10
15.4557334709
 20
12.9536899051
 30
0.0
 10
15.4456897084
 20
12.8805546506
 30
0.0
 10
15.4374719114
 20
12.8059284372
 30
0.0
 10
15.4311133859
 20
12.730111955
 30
0.0
 10
15.426639941
 20
12.6534109517
 30
0.0
 10
15.4240696912
 20
12.5761347487
 30
0.0
 10
15.4234130965
 20
12.4985950334
 30
0.0
 10
15.4246727811
 20
12.4211045676
 30
0.0
 10
15.4278436766
 20
12.3439759158
 30
0.0
 10
15.4329128814
 20
12.2675201488
 30
0.0
 10
15.4398598732
 20
12.1920456311
 30
0.0
 10
15.4486564493
 20
12.1178565382
 30
0.0
 10
15.4592669596
 20
12.0452523905
 30
0.0
 10
15.4696484144
 20
11.9859488582
 30
0.0
 10
15.4788444657
 20
11.9395381921
 30
0.0
 10
15.4861231388
 20
11.905523243
 30
0.0
 10
15.4938188002
 20
11.8721194722
 30
0.0
 10
15.5019237162
 20
11.8393605081
 30
0.0
 10
15.5104296853
 20
11.8072794225
 30
0.0
 10
15.5193281245
 20
11.775908576
 30
0.0
 10
15.5286100421
 20
11.7452796073
 30
0.0
 10
15.5382660611
 20
11.7154233984
 30
0.0
 10
15.5482864322
 20
11.6863700456
 30
0.0
 10
15.558661055
 20
11.6581488174
 30
0.0
 10
15.5693794565
 20
11.6307882185
 30
0.0
 10
15.5804308723
 20
11.6043155884
 30
0.0
 10
15.5918040646
 20
11.5787579889
 30
0.0
 10
15.5996980632
 20
11.56212544
 30
0.0
 10
15.6036995963
 20
11.5539711728
 30
0.0
  0
SPLINE
  5
2B6
100
AcDbEntity
  8
LAYER_CHAMFER_FEAT
100
AcDbSpline
 62
7
  6
CONTINUOUS
 70
0
 71
3
 72
22
 73
18
 74
0
 42
0.0000001
 43
0.0000001
 44
0.0000000001
 40
0.0
 40
0.0
 40
0.0
 40
0.0
 40
0.0746060384
 40
0.1471590957
 40
0.2177156835
 40
0.2863425776
 40
0.4180961689
 40
0.4814492159
 40
0.5432569352
 40
0.6036470126
 40
0.662760257
 40
0.7207502216
 40
0.7777825224
 40
0.8340338794
 40
0.889690486
 40
0.9449461554
 40
1.0
 40
1.0
 40
1.0
 40
1.0
 10
15.6855401167
 20
11.4195555857
 30
0.0
 10
15.6891219928
 20
11.4155549808
 30
0.0
 10
15.6963233975
 20
11.4077843054
 30
0.0
 10
15.7073930942
 20
11.3966881913
 30
0.0
 10
15.7185714833
 20
11.3863231189
 30
0.0
 10
15.7334072007
 20
11.3736612843
 30
0.0
 10
15.7486336921
 20
11.3622725756
 30
0.0
 10
15.7642203349
 20
11.3523112882
 30
0.0
 10
15.7758306305
 20
11.3456986137
 30
0.0
 10
15.7875049338
 20
11.3398523147
 30
0.0
 10
15.7992359518
 20
11.3347763914
 30
0.0
 10
15.8110158794
 20
11.3304746357
 30
0.0
 10
15.8228369229
 20
11.3269503638
 30
0.0
 10
15.8346910157
 20
11.3242062658
 30
0.0
 10
15.8465702332
 20
11.3222445909
 30
0.0
 10
15.8584656416
 20
11.321066943
 30
0.0
 10
15.8664076713
 20
11.3208049921
 30
0.0
 10
15.870370189
 20
11.3208049929
 30
0.0
  0
SPLINE
  5
2B7
100
AcDbEntity
  8
LAYER_CHAMFER_FEAT
100
AcDbSpline
 62
7
  6
CONTINUOUS
 70
0
 71
3
 72
22
 73
18
 74
0
 42
0.0000001
 43
0.0000001
 44
0.0000000001
 40
0.0
 40
0.0
 40
0.0
 40
0.0
 40
0.0551320894
 40
0.1104635616
 40
0.1661911544
 40
0.222506442
 40
0.27959356
 40
0.3376273983
 40
0.3967719926
 40
0.457179578
 40
0.5189899063
 40
0.5823298592
 40
0.7140083135
 40
0.7825724406
 40
0.8530494908
 40
0.9255064042
 40
1.0
 40
1.0
 40
1.0
 40
1.0
 10
15.870370189
 20
13.7008049929
 30
0.0
 10
15.8664346253
 20
13.700804992
 30
0.0
 10
15.8585468468
 20
13.7005466082
 30
0.0
 10
15.8467324514
 20
13.6993849635
 30
0.0
 10
15.8349339045
 20
13.697449937
 30
0.0
 10
15.8231599561
 20
13.6947430747
 30
0.0
 10
15.8114183676
 20
13.6912665691
 30
0.0
 10
15.7997170441
 20
13.6870230301
 30
0.0
 10
15.7880636246
 20
13.6820156836
 30
0.0
 10
15.7764657622
 20
13.6762482186
 30
0.0
 10
15.7649306061
 20
13.6697245244
 30
0.0
 10
15.7494454158
 20
13.6598981902
 30
0.0
 10
15.7343136746
 20
13.6486620139
 30
0.0
 10
15.7195663894
 20
13.6361674053
 30
0.0
 10
15.7084544846
 20
13.6259399636
 30
0.0
 10
15.6974491151
 20
13.6149907044
 30
0.0
 10
15.6902878719
 20
13.6073218405
 30
0.0
 10
15.6867257343
 20
13.6033735753
 30
0.0
  0
SPLINE
  5
2B8
100
AcDbEntity
  8
LAYER_FEATURE
100
AcDbSpline
 62
7
  6
CONTINUOUS
 70
0
 71
3
 72
39
 73
35
 74
0
 42
0.0000001
 43
0.0000001
 44
0.0000000001
 40
0.0
 40
0.0
 40
0.0
 40
0.0
 40
0.0443812782
 40
0.0879669214
 40
0.1307335038
 40
0.1726618815
 40
0.2137331562
 40
0.2539301977
 40
0.293237698
 40
0.3316421084
 40
0.3691319095
 40
0.4056977091
 40
0.441332399
 40
0.4760313896
 40
0.5097927946
 40
0.5426176367
 40
0.5745101277
 40
0.6054779635
 40
0.6355325902
 40
0.6646895405
 40
0.6929688272
 40
0.7203952848
 40
0.7469989421
 40
0.772815437
 40
0.7978863791
 40
0.8222596417
 40
0.8459896179
 40
0.86913737
 40
0.8917705711
 40
0.9139632724
 40
0.9357954499
 40
0.9573522578
 40
0.97872302
 40
1.0
 40
1.0
 40
1.0
 40
1.0
 10
15.4246824778
 20
13.3655186993
 30
0.0
 10
15.4277755638
 20
13.3755279293
 30
0.0
 10
15.4340665635
 20
13.3953178848
 30
0.0
 10
15.443910747
 20
13.424566964
 30
0.0
 10
15.4540712558
 20
13.4530939412
 30
0.0
 10
15.4645399095
 20
13.4808759863
 30
0.0
 10
15.4753085293
 20
13.507891368
 30
0.0
 10
15.4863685871
 20
13.5341187239
 30
0.0
 10
15.4977113556
 20
13.5595373658
 30
0.0
 10
15.5093279121
 20
13.5841272538
 30
0.0
 10
15.5212090894
 20
13.6078690129
 30
0.0
 10
15.5333455371
 20
13.6307439406
 30
0.0
 10
15.5457277335
 20
13.6527340127
 30
0.0
 10
15.5583459526
 20
13.6738219232
 30
0.0
 10
15.5711902991
 20
13.6939910853
 30
0.0
 10
15.5842507395
 20
13.7132256237
 30
0.0
 10
15.5975170906
 20
13.7315104018
 30
0.0
 10
15.6109790125
 20
13.7488310464
 30
0.0
 10
15.6246260607
 20
13.7651739199
 30
0.0
 10
15.6384476941
 20
13.780526122
 30
0.0
 10
15.6524332406
 20
13.794875533
 30
0.0
 10
15.6665719439
 20
13.8082107781
 30
0.0
 10
15.6808529788
 20
13.8205212015
 30
0.0
 10
15.6952654185
 20
13.8317968947
 30
0.0
 10
15.7097982296
 20
13.8420286941
 30
0.0
 10
15.7244402876
 20
13.8512081262
 30
0.0
 10
15.7391803393
 20
13.8593274128
 30
0.0
 10
15.754006943
 20
13.8663795378
 30
0.0
 10
15.7689084599
 20
13.8723582042
 30
0.0
 10
15.7838730476
 20
13.877257856
 30
0.0
 10
15.7988884813
 20
13.8810738107
 30
0.0
 10
15.8139426245
 20
13.8838023073
 30
0.0
 10
15.8290217783
 20
13.8854405511
 30
0.0
 10
15.8390925885
 20
13.885804981
 30
0.0
 10
15.8441150444
 20
13.8858049852
 30
0.0
  0
LINE
  5
2B9
100
AcDbEntity
  8
LAYER_CUT_FEAT
100
AcDbLine
 62
7
  6
CONTINUOUS
 10
15.6062392329
 20
13.1975883739
 11
15.5273958115
 21
13.1916317508
  0
SPLINE
  5
2BA
100
AcDbEntity
  8
LAYER_FEATURE
100
AcDbSpline
 62
7
  6
CONTINUOUS
 70
0
 71
3
 72
67
 73
63
 74
0
 42
0.0000001
 43
0.0000001
 44
0.0000000001
 40
0.0
 40
0.0
 40
0.0
 40
0.0
 40
0.0163581013
 40
0.0330510694
 40
0.0500642491
 40
0.0673826926
 40
0.0849905208
 40
0.1028713409
 40
0.1210081566
 40
0.1393834611
 40
0.15797927
 40
0.1767771682
 40
0.1957583526
 40
0.2149036734
 40
0.2536076561
 40
0.292731491
 40
0.3321134768
 40
0.371590054
 40
0.4109969877
 40
0.45017054
 40
0.4889486503
 40
0.5081400228
 40
0.5271731428
 40
0.546028763
 40
0.5646879707
 40
0.5831322282
 40
0.601343416
 40
0.6193038759
 40
0.6369964566
 40
0.65440456
 40
0.6715121917
 40
0.6883040129
 40
0.7047653969
 40
0.720882489
 40
0.7366422729
 40
0.7520326412
 40
0.7670424724
 40
0.7816617173
 40
0.7958814943
 40
0.8096941963
 40
0.8230936114
 40
0.8360750592
 40
0.8486355463
 40
0.8607739405
 40
0.872491169
 40
0.8837904436
 40
0.8946775128
 40
0.905160943
 40
0.9152524249
 40
0.9249671014
 40
0.9343239024
 40
0.9433458667
 40
0.9520604213
 40
0.9604995757
 40
0.9686999787
 40
0.9767027777
 40
0.9806449746
 40
0.9845550535
 40
0.9884391969
 40
0.9923037475
 40
0.9961551669
 40
1.0
 40
1.0
 40
1.0
 40
1.0
 10
14.6362591732
 20
13.3655186993
 30
0.0
 10
14.6323320586
 20
13.3528105516
 30
0.0
 10
14.6246603161
 20
13.3270521488
 30
0.0
 10
14.6138005178
 20
13.2878167675
 30
0.0
 10
14.6034819328
 20
13.2476288354
 30
0.0
 10
14.5937172714
 20
13.206537914
 30
0.0
 10
14.5845185038
 20
13.1645941619
 30
0.0
 10
14.5758969196
 20
13.1218490275
 30
0.0
 10
14.5678631048
 20
13.0783548573
 30
0.0
 10
14.5604269229
 20
13.034164955
 30
0.0
 10
14.553597502
 20
12.9893334649
 30
0.0
 10
14.5473832376
 20
12.9439153621
 30
0.0
 10
14.5417917153
 20
12.8979662061
 30
0.0
 10
14.5351522762
 20
12.8358457752
 30
0.0
 10
14.5284694332
 20
12.7572670365
 30
0.0
 10
14.5230534084
 20
12.6621035315
 30
0.0
 10
14.5202389929
 20
12.5661988942
 30
0.0
 10
14.5200400263
 20
12.4700232184
 30
0.0
 10
14.5224574885
 20
12.3740470466
 30
0.0
 10
14.5274794961
 20
12.2787408231
 30
0.0
 10
14.5338358741
 20
12.1999964777
 30
0.0
 10
14.5402164863
 20
12.1377082597
 30
0.0
 10
14.5456172973
 20
12.0916088327
 30
0.0
 10
14.5516430195
 20
12.0460234039
 30
0.0
 10
14.5582862978
 20
12.0010077385
 30
0.0
 10
14.5655389647
 20
11.9566170386
 30
0.0
 10
14.5733921189
 20
11.9129056982
 30
0.0
 10
14.5818361169
 20
11.8699272822
 30
0.0
 10
14.5908605923
 20
11.8277344481
 30
0.0
 10
14.6004544682
 20
11.7863788846
 30
0.0
 10
14.6106059707
 20
11.7459112464
 30
0.0
 10
14.6213026449
 20
11.7063810918
 30
0.0
 10
14.6325313704
 20
11.6678368203
 30
0.0
 10
14.6442783801
 20
11.6303256122
 30
0.0
 10
14.6565292751
 20
11.5938933672
 30
0.0
 10
14.6692690462
 20
11.5585846471
 30
0.0
 10
14.6824820966
 20
11.5244426208
 30
0.0
 10
14.6961522641
 20
11.4915090106
 30
0.0
 10
14.7102628453
 20
11.4598240394
 30
0.0
 10
14.724796622
 20
11.4294263812
 30
0.0
 10
14.7397358891
 20
11.4003531125
 30
0.0
 10
14.7550624863
 20
11.3726396673
 30
0.0
 10
14.770757827
 20
11.3463197934
 30
0.0
 10
14.7868029383
 20
11.3214255184
 30
0.0
 10
14.8031784987
 20
11.2979871209
 30
0.0
 10
14.819864879
 20
11.2760331088
 30
0.0
 10
14.8368421833
 20
11.2555902085
 30
0.0
 10
14.8540902889
 20
11.2366833653
 30
0.0
 10
14.8715888797
 20
11.2193357611
 30
0.0
 10
14.8893174698
 20
11.2035688445
 30
0.0
 10
14.9072553894
 20
11.1894023791
 30
0.0
 10
14.9253817907
 20
11.1768544998
 30
0.0
 10
14.9436754343
 20
11.1659417888
 30
0.0
 10
14.9621150241
 20
11.1566792174
 30
0.0
 10
14.980677363
 20
11.1490803915
 30
0.0
 10
14.9963103059
 20
11.1441189175
 30
0.0
 10
15.0088256876
 20
11.1410113874
 30
0.0
 10
15.0181811842
 20
11.1391125719
 30
0.0
 10
15.027548394
 20
11.137635129
 30
0.0
 10
15.0369245968
 20
11.1365794124
 30
0.0
 10
15.0463065411
 20
11.1359458447
 30
0.0
 10
15.0525654291
 20
11.1358050037
 30
0.0
 10
15.0556917398
 20
11.1358050006
 30
0.0
  0
SPLINE
  5
2BB
100
AcDbEntity
  8
02___PRT_ALL_AXES
100
AcDbSpline
 62
7
  6
CONTINUOUS
 70
0
 71
3
 72
11
 73
7
 74
0
 42
0.0000001
 43
0.0000001
 44
0.0000000001
 40
0.0
 40
0.0
 40
0.0
 40
0.0
 40
0.2670204709
 40
0.522530359
 40
0.7667468437
 40
1.0
 40
1.0
 40
1.0
 40
1.0
 10
15.4837180645
 20
13.1048879519
 30
0.0
 10
15.4869127391
 20
13.1096659838
 30
0.0
 10
15.4933708819
 20
13.1188804905
 30
0.0
 10
15.503497616
 20
13.1319218095
 30
0.0
 10
15.5138320118
 20
13.143853878
 30
0.0
 10
15.5210098499
 20
13.1512204888
 30
0.0
 10
15.5246301065
 20
13.1546993189
 30
0.0
  0
SPLINE
  5
2BC
100
AcDbEntity
  8
LAYER_FEATURE
100
AcDbSpline
 62
7
  6
CONTINUOUS
 70
0
 71
3
 72
39
 73
35
 74
0
 42
0.0000001
 43
0.0000001
 44
0.0000000001
 40
0.0
 40
0.0
 40
0.0
 40
0.0
 40
0.0443812481
 40
0.0879669295
 40
0.1307335086
 40
0.172661876
 40
0.2137331571
 40
0.2539301992
 40
0.2932376968
 40
0.3316421073
 40
0.369131911
 40
0.4056977099
 40
0.4413323968
 40
0.4760313903
 40
0.5097927974
 40
0.5426176342
 40
0.5745101269
 40
0.6054779669
 40
0.6355325892
 40
0.664689538
 40
0.6929688298
 40
0.7203952869
 40
0.7469989387
 40
0.7728154376
 40
0.7978863828
 40
0.8222596394
 40
0.8459896168
 40
0.869137373
 40
0.8917705712
 40
0.9139632708
 40
0.935795451
 40
0.9573522592
 40
0.9787230199
 40
1.0
 40
1.0
 40
1.0
 40
1.0
 10
14.6362591732
 20
13.3655186993
 30
0.0
 10
14.6393522571
 20
13.3755279225
 30
0.0
 10
14.6456432584
 20
13.3953178795
 30
0.0
 10
14.6554874408
 20
13.4245669602
 30
0.0
 10
14.6656479509
 20
13.4530939431
 30
0.0
 10
14.6761166062
 20
13.4808759858
 30
0.0
 10
14.6868852247
 20
13.5078913671
 30
0.0
 10
14.6979452813
 20
13.5341187246
 30
0.0
 10
14.7092880518
 20
13.5595373651
 30
0.0
 10
14.7209046087
 20
13.5841272529
 30
0.0
 10
14.7327857837
 20
13.6078690136
 30
0.0
 10
14.7449222316
 20
13.630743941
 30
0.0
 10
14.7573044313
 20
13.652734011
 30
0.0
 10
14.7699226478
 20
13.6738219235
 30
0.0
 10
14.7827669916
 20
13.6939910873
 30
0.0
 10
14.7958274379
 20
13.7132256212
 30
0.0
 10
14.8090937871
 20
13.7315104007
 30
0.0
 10
14.8225557044
 20
13.7488310494
 30
0.0
 10
14.8362027575
 20
13.7651739185
 30
0.0
 10
14.8500243924
 20
13.7805261188
 30
0.0
 10
14.8640099337
 20
13.7948755356
 30
0.0
 10
14.878148637
 20
13.8082107808
 30
0.0
 10
14.8924296786
 20
13.8205211956
 30
0.0
 10
14.9068421136
 20
13.831796895
 30
0.0
 10
14.9213749207
 20
13.8420287012
 30
0.0
 10
14.9360169867
 20
13.8512081196
 30
0.0
 10
14.9507570361
 20
13.8593274091
 30
0.0
 10
14.9655836349
 20
13.8663795462
 30
0.0
 10
14.9804851561
 20
13.8723582027
 30
0.0
 10
14.9954497452
 20
13.8772578471
 30
0.0
 10
15.0104651753
 20
13.8810738158
 30
0.0
 10
15.0255193193
 20
13.8838023163
 30
0.0
 10
15.0405984747
 20
13.8854405324
 30
0.0
 10
15.0506692839
 20
13.8858049901
 30
0.0
 10
15.0556917398
 20
13.8858049852
 30
0.0
  0
SPLINE
  5
2BD
100
AcDbEntity
  8
LAYER_CUT_FEAT
100
AcDbSpline
 62
7
  6
CONTINUOUS
 70
0
 71
3
 72
25
 73
21
 74
0
 42
0.0000001
 43
0.0000001
 44
0.0000000001
 40
0.0
 40
0.0
 40
0.0
 40
0.0
 40
0.0894531595
 40
0.1761707946
 40
0.2598089763
 40
0.3400533476
 40
0.416623282
 40
0.4892787522
 40
0.5578276997
 40
0.6221356541
 40
0.6821379005
 40
0.7378552855
 40
0.7894145675
 40
0.8370737775
 40
0.881251209
 40
0.9225523612
 40
0.9423863812
 40
0.9618192779
 40
0.9809788771
 40
1.0
 40
1.0
 40
1.0
 40
1.0
 10
15.6062392329
 20
13.1975883739
 30
0.0
 10
15.6058328042
 20
13.1999726456
 30
0.0
 10
15.6049568598
 20
13.2046558412
 30
0.0
 10
15.6034278734
 20
13.2115136826
 30
0.0
 10
15.601710357
 20
13.2180699251
 30
0.0
 10
15.5998133305
 20
13.2242903867
 30
0.0
 10
15.5977466943
 20
13.2301428399
 30
0.0
 10
15.5955211928
 20
13.2355970315
 30
0.0
 10
15.593148298
 20
13.2406249069
 30
0.0
 10
15.5906400837
 20
13.2452007572
 30
0.0
 10
15.5880090588
 20
13.2493013449
 30
0.0
 10
15.5852679016
 20
13.2529059607
 30
0.0
 10
15.5824293111
 20
13.2559963073
 30
0.0
 10
15.579505349
 20
13.258556211
 30
0.0
 10
15.5765088961
 20
13.2605706607
 30
0.0
 10
15.5739255842
 20
13.2617993922
 30
0.0
 10
15.5718534766
 20
13.2624792545
 30
0.0
 10
15.5703131015
 20
13.2628394375
 30
0.0
 10
15.5687683416
 20
13.2630558002
 30
0.0
 10
15.5677353609
 20
13.2631039708
 30
0.0
 10
15.5672210615
 20
13.2631039749
 30
0.0
  0
SPLINE
  5
2BE
100
AcDbEntity
  8
LAYER_FEATURE
100
AcDbSpline
 62
7
  6
CONTINUOUS
 70
0
 71
3
 72
16
 73
12
 74
0
 42
0.0000001
 43
0.0000001
 44
0.0000000001
 40
0.0
 40
0.0
 40
0.0
 40
0.0
 40
0.0435827272
 40
0.0888537519
 40
0.1856503384
 40
0.2925057613
 40
0.4106172907
 40
0.5405383781
 40
0.6823323126
 40
0.8356856393
 40
1.0
 40
1.0
 40
1.0
 40
1.0
 10
14.632201527
 20
12.8648431227
 30
0.0
 10
14.6324863505
 20
12.864938149
 30
0.0
 10
14.6330566935
 20
12.8651642391
 30
0.0
 10
14.634193203
 20
12.8657548082
 30
0.0
 10
14.6355940538
 20
12.8667603831
 30
0.0
 10
14.6371796288
 20
12.8683190286
 30
0.0
 10
14.6386984467
 20
12.8702418143
 30
0.0
 10
14.6401395555
 20
12.8725126649
 30
0.0
 10
14.6414923764
 20
12.8751133465
 30
0.0
 10
14.6427459989
 20
12.8780224344
 30
0.0
 10
14.6434845829
 20
12.8800841367
 30
0.0
 10
14.6438376371
 20
12.8811596949
 30
0.0
  0
SPLINE
  5
2BF
100
AcDbEntity
  8
LAYER_FEATURE
100
AcDbSpline
 62
7
  6
CONTINUOUS
 70
0
 71
3
 72
20
 73
16
 74
0
 42
0.0000001
 43
0.0000001
 44
0.0000000001
 40
0.0
 40
0.0
 40
0.0
 40
0.0
 40
0.0368148495
 40
0.0748648857
 40
0.1152289858
 40
0.1587808429
 40
0.2061405315
 40
0.2577097776
 40
0.3137092359
 40
0.3742131628
 40
0.439183432
 40
0.5084870716
 40
0.6591737057
 40
0.8240057405
 40
1.0
 40
1.0
 40
1.0
 40
1.0
 10
14.6190269999
 20
12.8648854409
 30
0.0
 10
14.618888174
 20
12.8648854305
 30
0.0
 10
14.6186050968
 20
12.8648564115
 30
0.0
 10
14.618187577
 20
12.8647274973
 30
0.0
 10
14.6177772402
 20
12.8645150278
 30
0.0
 10
14.6173765899
 20
12.8642214748
 30
0.0
 10
14.6169873642
 20
12.8638492403
 30
0.0
 10
14.6166114545
 20
12.8634007264
 30
0.0
 10
14.6162507613
 20
12.8628786465
 30
0.0
 10
14.6159072348
 20
12.8622860903
 30
0.0
 10
14.6155828598
 20
12.8616265453
 30
0.0
 10
14.6151668462
 20
12.8606352129
 30
0.0
 10
14.6147143094
 20
12.8592538219
 30
0.0
 10
14.6142883527
 20
12.8574482499
 30
0.0
 10
14.614085355
 20
12.8561778986
 30
0.0
 10
14.6140017715
 20
12.8555195222
 30
0.0
  0
SPLINE
  5
2C0
100
AcDbEntity
  8
LAYER_FEATURE
100
AcDbSpline
 62
7
  6
CONTINUOUS
 70
0
 71
3
 72
11
 73
7
 74
0
 42
0.0000001
 43
0.0000001
 44
0.0000000001
 40
0.0
 40
0.0
 40
0.0
 40
0.0
 40
0.2207350566
 40
0.4609977145
 40
0.720890572
 40
1.0
 40
1.0
 40
1.0
 40
1.0
 10
14.659130696
 20
13.0107506037
 30
0.0
 10
14.6596115812
 20
13.0113038747
 30
0.0
 10
14.6605505355
 20
13.0125169867
 30
0.0
 10
14.6618383463
 20
13.0145381845
 30
0.0
 10
14.6630566745
 20
13.0168238708
 30
0.0
 10
14.6637917919
 20
13.0184574149
 30
0.0
 10
14.6641481339
 20
13.019313087
 30
0.0
  0
SPLINE
  5
2C1
100
AcDbEntity
  8
LAYER_FEATURE
100
AcDbSpline
 62
7
  6
CONTINUOUS
 70
0
 71
3
 72
19
 73
15
 74
0
 42
0.0000001
 43
0.0000001
 44
0.0000000001
 40
0.0
 40
0.0
 40
0.0
 40
0.0
 40
0.0384631702
 40
0.0779834407
 40
0.119524724
 40
0.1638760618
 40
0.2116377292
 40
0.2632313596
 40
0.3189207462
 40
0.3788446695
 40
0.5113769559
 40
0.6602533291
 40
0.8238714116
 40
1.0
 40
1.0
 40
1.0
 40
1.0
 10
14.6381369483
 20
13.0107837576
 30
0.0
 10
14.6380113179
 20
13.0107837616
 30
0.0
 10
14.6377560254
 20
13.0107601339
 30
0.0
 10
14.6373781735
 20
13.0106548508
 30
0.0
 10
14.6370054614
 20
13.0104808902
 30
0.0
 10
14.6366398713
 20
13.0102398791
 30
0.0
 10
14.6362828669
 20
13.0099334928
 30
0.0
 10
14.6359359166
 20
13.0095634495
 30
0.0
 10
14.6356003997
 20
13.0091316671
 30
0.0
 10
14.6351554227
 20
13.0084533916
 30
0.0
 10
14.6346446483
 20
13.007458872
 30
0.0
 10
14.6341198768
 20
13.0061012254
 30
0.0
 10
14.6336741049
 20
13.0045670556
 30
0.0
 10
14.6334428539
 20
13.0034807027
 30
0.0
 10
14.6333407549
 20
13.0029145552
 30
0.0
  0
SPLINE
  5
2C2
100
AcDbEntity
  8
LAYER_FEATURE
100
AcDbSpline
 62
7
  6
CONTINUOUS
 70
0
 71
3
 72
18
 73
14
 74
0
 42
0.0000001
 43
0.0000001
 44
0.0000000001
 40
0.0
 40
0.0
 40
0.0
 40
0.0
 40
0.0403964068
 40
0.081691237
 40
0.1247116109
 40
0.1701640022
 40
0.2186158181
 40
0.2704884968
 40
0.3854807319
 40
0.5164178978
 40
0.6632106045
 40
0.8249197278
 40
1.0
 40
1.0
 40
1.0
 40
1.0
 10
14.6638325125
 20
13.1498539952
 30
0.0
 10
14.6637200578
 20
13.1498539921
 30
0.0
 10
14.6634922306
 20
13.1498351422
 30
0.0
 10
14.6631540094
 20
13.1497510522
 30
0.0
 10
14.6628193529
 20
13.1496117035
 30
0.0
 10
14.6624897413
 20
13.149418218
 30
0.0
 10
14.6621663396
 20
13.1491716444
 30
0.0
 10
14.6617298917
 20
13.1487594686
 30
0.0
 10
14.6612105638
 20
13.1481080834
 30
0.0
 10
14.6606514088
 20
13.1471658795
 30
0.0
 10
14.6601431279
 20
13.1460509912
 30
0.0
 10
14.6596935356
 20
13.1447806641
 30
0.0
 10
14.6594464064
 20
13.1438753801
 30
0.0
 10
14.6593326822
 20
13.1434014486
 30
0.0
  0
SPLINE
  5
2C3
100
AcDbEntity
  8
LAYER_CHAMFER_FEAT
100
AcDbSpline
 62
7
  6
CONTINUOUS
 70
0
 71
3
 72
41
 73
37
 74
0
 42
0.0000001
 43
0.0000001
 44
0.0000000001
 40
0.0
 40
0.0
 40
0.0
 40
0.0
 40
0.0439502214
 40
0.0865552114
 40
0.1278035014
 40
0.1676910365
 40
0.2062191616
 40
0.2433966276
 40
0.279239888
 40
0.3137740893
 40
0.3470339791
 40
0.3790649059
 40
0.4099238617
 40
0.4249368993
 40
0.4396842157
 40
0.4684217824
 40
0.4962378031
 40
0.523244415
 40
0.5495681361
 40
0.5753489218
 40
0.6007383756
 40
0.6258970832
 40
0.6509911746
 40
0.6761883661
 40
0.7016538486
 40
0.727546422
 40
0.7540152187
 40
0.7811972338
 40
0.8092157337
 40
0.8235752909
 40
0.838183515
 40
0.8681867204
 40
0.8993094245
 40
0.9316182891
 40
0.965167541
 40
1.0
 40
1.0
 40
1.0
 40
1.0
 10
16.1950676244
 20
13.467638813
 30
0.0
 10
16.1908342409
 20
13.4762655416
 30
0.0
 10
16.1822615649
 20
13.4931408292
 30
0.0
 10
16.1688661404
 20
13.5176691781
 30
0.0
 10
16.1551479502
 20
13.5409943361
 30
0.0
 10
16.1411234463
 20
13.5630882605
 30
0.0
 10
16.1268090046
 20
13.5839248437
 30
0.0
 10
16.112221455
 20
13.6034792962
 30
0.0
 10
16.0973777755
 20
13.6217283999
 30
0.0
 10
16.0822952206
 20
13.638650403
 30
0.0
 10
16.06699105
 20
13.6542251884
 30
0.0
 10
16.0514832399
 20
13.6684336577
 30
0.0
 10
16.0382856419
 20
13.6792186374
 30
0.0
 10
16.0276453414
 20
13.6871247702
 30
0.0
 10
16.0171416806
 20
13.6944260309
 30
0.0
 10
16.0039124142
 20
13.7026976355
 30
0.0
 10
15.9877674156
 20
13.7112827001
 30
0.0
 10
15.9715089627
 20
13.718428993
 30
0.0
 10
15.9551568555
 20
13.7241258114
 30
0.0
 10
15.9387311844
 20
13.728364343
 30
0.0
 10
15.922252959
 20
13.7311375762
 30
0.0
 10
15.9057438906
 20
13.7324407061
 30
0.0
 10
15.8892262037
 20
13.7322714051
 30
0.0
 10
15.8727222742
 20
13.7306299863
 30
0.0
 10
15.8562542285
 20
13.7275193635
 30
0.0
 10
15.8398436571
 20
13.7229448861
 30
0.0
 10
15.8235112593
 20
13.7169139427
 30
0.0
 10
15.8072774387
 20
13.7094360281
 30
0.0
 10
15.7939566422
 20
13.7020679569
 30
0.0
 10
15.7833757139
 20
13.6954849064
 30
0.0
 10
15.7726593449
 20
13.6883112331
 30
0.0
 10
15.7593545167
 20
13.6784336726
 30
0.0
 10
15.7437017146
 20
13.6652890671
 30
0.0
 10
15.7282388288
 20
13.6507646114
 30
0.0
 10
15.7129843648
 20
13.6348787118
 30
0.0
 10
15.7031519349
 20
13.6236070817
 30
0.0
 10
15.6982716559
 20
13.6177602713
 30
0.0
  0
SPLINE
  5
2C4
100
AcDbEntity
  8
LAYER_FEATURE
100
AcDbSpline
 62
7
  6
CONTINUOUS
 70
0
 71
3
 72
16
 73
12
 74
0
 42
0.0000001
 43
0.0000001
 44
0.0000000001
 40
0.0
 40
0.0
 40
0.0
 40
0.0
 40
0.0426530477
 40
0.0860488065
 40
0.1775998948
 40
0.2793800045
 40
0.3942716821
 40
0.5237394487
 40
0.6681779635
 40
0.82724443
 40
1.0
 40
1.0
 40
1.0
 40
1.0
 10
14.6957529833
 20
13.2801439191
 30
0.0
 10
14.695653673
 20
13.2801439232
 30
0.0
 10
14.6954530217
 20
13.2801292748
 30
0.0
 10
14.6950479073
 20
13.2800406232
 30
0.0
 10
14.6945394956
 20
13.2798114525
 30
0.0
 10
14.6939648644
 20
13.2793740189
 30
0.0
 10
14.6934171442
 20
13.2787783428
 30
0.0
 10
14.6929009028
 20
13.2780320065
 30
0.0
 10
14.6924209077
 20
13.2771436495
 30
0.0
 10
14.6919826562
 20
13.2761237465
 30
0.0
 10
14.6917314416
 20
13.275392375
 30
0.0
 10
14.6916126837
 20
13.2750080745
 30
0.0
  0
SPLINE
  5
2C5
100
AcDbEntity
  8
LAYER_CHAMFER_FEAT
100
AcDbSpline
 62
7
  6
CONTINUOUS
 70
0
 71
3
 72
27
 73
23
 74
0
 42
0.0000001
 43
0.0000001
 44
0.0000000001
 40
0.0
 40
0.0
 40
0.0
 40
0.0
 40
0.0835111702
 40
0.1639083199
 40
0.2411671025
 40
0.3152835232
 40
0.3862766078
 40
0.4541914553
 40
0.5191027314
 40
0.5811185612
 40
0.6403847149
 40
0.6970888465
 40
0.751464352
 40
0.8037931746
 40
0.8292988641
 40
0.8544212681
 40
0.8792091144
 40
0.9037137747
 40
0.9279888824
 40
0.9520900454
 40
0.9760743644
 40
1.0
 40
1.0
 40
1.0
 40
1.0
 10
16.1584291139
 20
13.4429640154
 30
0.0
 10
16.1534485631
 20
13.4531133107
 30
0.0
 10
16.1433397257
 20
13.4728723744
 30
0.0
 10
16.127412332
 20
13.5013808639
 30
0.0
 10
16.1110329541
 20
13.5281534267
 30
0.0
 10
16.094229936
 20
13.5531431203
 30
0.0
 10
16.0770318842
 20
13.5763066691
 30
0.0
 10
16.0594678861
 20
13.5976037976
 30
0.0
 10
16.0415673441
 20
13.6169973739
 30
0.0
 10
16.0233598618
 20
13.6344533087
 30
0.0
 10
16.0048753941
 20
13.6499403674
 30
0.0
 10
15.9861436528
 20
13.6634302102
 30
0.0
 10
15.9671965976
 20
13.674896406
 30
0.0
 10
15.9511148398
 20
13.6828135605
 30
0.0
 10
15.9382032765
 20
13.6880751987
 30
0.0
 10
15.9285703807
 20
13.6914705588
 30
0.0
 10
15.9189111293
 20
13.6943463211
 30
0.0
 10
15.9092296822
 20
13.6967012786
 30
0.0
 10
15.8995304565
 20
13.6985341109
 30
0.0
 10
15.88981777
 20
13.699844002
 30
0.0
 10
15.8800964232
 20
13.7006301631
 30
0.0
 10
15.8736091691
 20
13.7008049936
 30
0.0
 10
15.870370189
 20
13.7008049929
 30
0.0
  0
SPLINE
  5
2C6
100
AcDbEntity
  8
LAYER_FEATURE
100
AcDbSpline
 62
7
  6
CONTINUOUS
 70
0
 71
3
 72
23
 73
19
 74
0
 42
0.0000001
 43
0.0000001
 44
0.0000000001
 40
0.0
 40
0.0
 40
0.0
 40
0.0
 40
0.0547225861
 40
0.1111786213
 40
0.1692406048
 40
0.2287714769
 40
0.2896264608
 40
0.3516539622
 40
0.4146965073
 40
0.4785916868
 40
0.5431730247
 40
0.6082708184
 40
0.6737129775
 40
0.7393258244
 40
0.8049349021
 40
0.8703657702
 40
0.9354448059
 40
1.0
 40
1.0
 40
1.0
 40
1.0
 10
15.4721939332
 20
13.3362898274
 30
0.0
 10
15.4660924398
 20
13.3165453875
 30
0.0
 10
15.4543559194
 20
13.276224552
 30
0.0
 10
15.4383598771
 20
13.2143368946
 30
0.0
 10
15.4237348744
 20
13.1502471156
 30
0.0
 10
15.4105270853
 20
13.0841562214
 30
0.0
 10
15.3987779108
 20
13.0162706243
 30
0.0
 10
15.3885243235
 20
12.9468027
 30
0.0
 10
15.3797985243
 20
12.8759697752
 30
0.0
 10
15.3726279565
 20
12.8039935321
 30
0.0
 10
15.3670351794
 20
12.7310992728
 30
0.0
 10
15.3630377551
 20
12.6575152115
 30
0.0
 10
15.3606482823
 20
12.5834717486
 30
0.0
 10
15.3598742594
 20
12.5092007279
 30
0.0
 10
15.3607181164
 20
12.4349347598
 30
0.0
 10
15.3631772293
 20
12.3609062657
 30
0.0
 10
15.367243798
 20
12.2873475568
 30
0.0
 10
15.3710366994
 20
12.2385340884
 30
0.0
 10
15.3732030585
 20
12.2142516003
 30
0.0
  0
SPLINE
  5
2C7
100
AcDbEntity
  8
LAYER_FEATURE
100
AcDbSpline
 62
7
  6
CONTINUOUS
 70
0
 71
3
 72
70
 73
66
 74
0
 42
0.0000001
 43
0.0000001
 44
0.0000000001
 40
0.0
 40
0.0
 40
0.0
 40
0.0
 40
0.047467353
 40
0.0708983274
 40
0.0940953947
 40
0.1170353321
 40
0.1396954148
 40
0.1620534692
 40
0.1840879285
 40
0.2057778903
 40
0.2271031776
 40
0.2480444031
 40
0.2685830381
 40
0.2887014845
 40
0.3083831533
 40
0.3276125498
 40
0.346375367
 40
0.3646585887
 40
0.3824506034
 40
0.3997413337
 40
0.416522379
 40
0.4327871769
 40
0.448531186
 40
0.4637520942
 40
0.4784500546
 40
0.4926279535
 40
0.5062917121
 40
0.5194506244
 40
0.5321177281
 40
0.5443102023
 40
0.5560497845
 40
0.5673631812
 40
0.5782824416
 40
0.5888452458
 40
0.5990950458
 40
0.6090809875
 40
0.6188575414
 40
0.6284837913
 40
0.638022367
 40
0.6475380643
 40
0.6570962565
 40
0.6667612488
 40
0.6765947374
 40
0.6866545151
 40
0.6969935094
 40
0.7076591778
 40
0.7186932341
 40
0.7301316433
 40
0.7420048139
 40
0.7543379175
 40
0.7671512768
 40
0.7804607812
 40
0.7942783008
 40
0.8086120779
 40
0.823467088
 40
0.8388453667
 40
0.8547463001
 40
0.8711668832
 40
0.8881019448
 40
0.9055443528
 40
0.9234851755
 40
0.9419138933
 40
0.9608183649
 40
0.9801853961
 40
1.0
 40
1.0
 40
1.0
 40
1.0
 10
15.3732030585
 20
12.2142516003
 30
0.0
 10
15.3758841867
 20
12.1841991204
 30
0.0
 10
15.3805238887
 20
12.1393648336
 30
0.0
 10
15.3879967958
 20
12.0800217838
 30
0.0
 10
15.3941792324
 20
12.0362345238
 30
0.0
 10
15.4009556096
 20
11.9930312782
 30
0.0
 10
15.4083176307
 20
11.9504649788
 30
0.0
 10
15.4162562106
 20
11.9085880276
 30
0.0
 10
15.4247615728
 20
11.8674519051
 30
0.0
 10
15.4338232393
 20
11.8271071929
 30
0.0
 10
15.4434300506
 20
11.7876034873
 30
0.0
 10
15.453570177
 20
11.7489893428
 30
0.0
 10
15.4642311329
 20
11.7113122082
 30
0.0
 10
15.4753997968
 20
11.6746183693
 30
0.0
 10
15.4870624277
 20
11.6389528905
 30
0.0
 10
15.4992046842
 20
11.6043595586
 30
0.0
 10
15.5118116448
 20
11.5708808275
 30
0.0
 10
15.5248678288
 20
11.5385577642
 30
0.0
 10
15.5383572206
 20
11.5074299971
 30
0.0
 10
15.5522632919
 20
11.4775356639
 30
0.0
 10
15.5665690287
 20
11.4489113637
 30
0.0
 10
15.5812569627
 20
11.4215921146
 30
0.0
 10
15.5963092015
 20
11.3956113122
 30
0.0
 10
15.6117074632
 20
11.371000693
 30
0.0
 10
15.6274331124
 20
11.3477903027
 30
0.0
 10
15.6434671995
 20
11.3260084722
 30
0.0
 10
15.6597905016
 20
11.3056818014
 30
0.0
 10
15.6763835587
 20
11.2868351527
 30
0.0
 10
15.6932267123
 20
11.2694916627
 30
0.0
 10
15.7103001322
 20
11.253672771
 30
0.0
 10
15.7275838236
 20
11.2393982633
 30
0.0
 10
15.7450576069
 20
11.226686326
 30
0.0
 10
15.7627010554
 20
11.2155536025
 30
0.0
 10
15.7804933841
 20
11.20601523
 30
0.0
 10
15.7984132905
 20
11.1980848243
 30
0.0
 10
15.8164387647
 20
11.1917743741
 30
0.0
 10
15.8345469273
 20
11.1870940335
 30
0.0
 10
15.8527139536
 20
11.1840518005
 30
0.0
 10
15.8709151567
 20
11.1826531389
 30
0.0
 10
15.8891252615
 20
11.1829006427
 30
0.0
 10
15.9073188274
 20
11.1847938505
 30
0.0
 10
15.9254707164
 20
11.1883292809
 30
0.0
 10
15.9435564797
 20
11.1935006692
 30
0.0
 10
15.9615525767
 20
11.2002993249
 30
0.0
 10
15.9794364037
 20
11.2087145089
 30
0.0
 10
15.9971861843
 20
11.2187337244
 30
0.0
 10
16.0147807898
 20
11.2303428948
 30
0.0
 10
16.0321995576
 20
11.2435264347
 30
0.0
 10
16.0494221441
 20
11.2582672444
 30
0.0
 10
16.0664284281
 20
11.2745466655
 30
0.0
 10
16.0831984652
 20
11.2923444188
 30
0.0
 10
16.0997124763
 20
11.3116385542
 30
0.0
 10
16.1159508606
 20
11.3324054152
 30
0.0
 10
16.1318942259
 20
11.3546196168
 30
0.0
 10
16.1475234259
 20
11.3782540401
 30
0.0
 10
16.1628196009
 20
11.403279839
 30
0.0
 10
16.177764217
 20
11.4296664588
 30
0.0
 10
16.1923391036
 20
11.4573816615
 30
0.0
 10
16.2065264952
 20
11.4863915587
 30
0.0
 10
16.2203090532
 20
11.5166606452
 30
0.0
 10
16.2336699232
 20
11.5481518675
 30
0.0
 10
16.2465926901
 20
11.5808265866
 30
0.0
 10
16.2590615777
 20
11.6146448687
 30
0.0
 10
16.2710611262
 20
11.6495649422
 30
0.0
 10
16.2786535829
 20
11.6732867985
 30
0.0
 10
16.2823721724
 20
11.6853201584
 30
0.0
  0
SPLINE
  5
2C8
100
AcDbEntity
  8
LAYER_FEATURE
100
AcDbSpline
 62
7
  6
CONTINUOUS
 70
0
 71
3
 72
23
 73
19
 74
0
 42
0.0000001
 43
0.0000001
 44
0.0000000001
 40
0.0
 40
0.0
 40
0.0
 40
0.0
 40
0.0550378749
 40
0.1115323233
 40
0.1693981858
 40
0.2285443572
 40
0.2888752951
 40
0.3502911259
 40
0.4126882242
 40
0.4759596354
 40
0.5399955066
 40
0.6046834989
 40
0.6699091834
 40
0.7355564297
 40
0.8015077852
 40
0.8676448501
 40
0.9338486488
 40
1.0
 40
1.0
 40
1.0
 40
1.0
 10
15.4670561898
 20
13.3655186993
 30
0.0
 10
15.4618737157
 20
13.3487482067
 30
0.0
 10
15.4518304466
 20
13.3146200225
 30
0.0
 10
15.4378900212
 20
13.2624188218
 30
0.0
 10
15.4248991584
 20
13.2086243549
 30
0.0
 10
15.4128856029
 20
13.1533509009
 30
0.0
 10
15.4018748339
 20
13.0967154193
 30
0.0
 10
15.3918902651
 20
13.038837889
 30
0.0
 10
15.3829531175
 20
12.9798409273
 30
0.0
 10
15.3750823909
 20
12.9198495586
 30
0.0
 10
15.3682948173
 20
12.8589909343
 30
0.0
 10
15.362604829
 20
12.7973940608
 30
0.0
 10
15.3580245253
 20
12.7351895239
 30
0.0
 10
15.3545636475
 20
12.672509202
 30
0.0
 10
15.3522295571
 20
12.6094860146
 30
0.0
 10
15.3510272205
 20
12.5462535228
 30
0.0
 10
15.3509591849
 20
12.4829460775
 30
0.0
 10
15.3516708512
 20
12.4407379372
 30
0.0
 10
15.3522165389
 20
12.4196476329
 30
0.0
  0
SPLINE
  5
2C9
100
AcDbEntity
  8
LAYER_FEATURE
100
AcDbSpline
 62
7
  6
CONTINUOUS
 70
0
 71
3
 72
52
 73
48
 74
0
 42
0.0000001
 43
0.0000001
 44
0.0000000001
 40
0.0
 40
0.0
 40
0.0
 40
0.0
 40
0.0434491822
 40
0.0867018859
 40
0.1296774971
 40
0.1722963061
 40
0.2144797797
 40
0.2561508371
 40
0.2972341325
 40
0.3376563481
 40
0.3773464991
 40
0.416236256
 40
0.4542602816
 40
0.4913565926
 40
0.5274669526
 40
0.5625373039
 40
0.5965182512
 40
0.6293656036
 40
0.6610409903
 40
0.6764296195
 40
0.6915139118
 40
0.7062910473
 40
0.7207587377
 40
0.7349152294
 40
0.7487593874
 40
0.7622906911
 40
0.7755093088
 40
0.788416141
 40
0.8010128528
 40
0.813301971
 40
0.8252868989
 40
0.8369720197
 40
0.8483627478
 40
0.8594655942
 40
0.8702882708
 40
0.8808397242
 40
0.8911302495
 40
0.9109718797
 40
0.9299286382
 40
0.9391197296
 40
0.9481426589
 40
0.9570181983
 40
0.9657685079
 40
0.9744169839
 40
0.9829880934
 40
0.9915071374
 40
1.0
 40
1.0
 40
1.0
 40
1.0
 10
15.3522165389
 20
12.4196476329
 30
0.0
 10
15.3527719279
 20
12.3981823824
 30
0.0
 10
15.3542729761
 20
12.3553580454
 30
0.0
 10
15.3577021407
 20
12.291360171
 30
0.0
 10
15.3622976394
 20
12.2278465984
 30
0.0
 10
15.3680492874
 20
12.1649578324
 30
0.0
 10
15.374944346
 20
12.1028326266
 30
0.0
 10
15.3829675451
 20
12.0416081289
 30
0.0
 10
15.3921011201
 20
11.9814194557
 30
0.0
 10
15.4023248512
 20
11.9223994214
 30
0.0
 10
15.4136161111
 20
11.8646782307
 30
0.0
 10
15.4259499088
 20
11.8083831856
 30
0.0
 10
15.4392989563
 20
11.7536383976
 30
0.0
 10
15.4536337338
 20
11.7005645129
 30
0.0
 10
15.4689225657
 20
11.6492784205
 30
0.0
 10
15.4851316862
 20
11.5998930466
 30
0.0
 10
15.5022253821
 20
11.5525168669
 30
0.0
 10
15.5201658801
 20
11.5072544495
 30
0.0
 10
15.5359373987
 20
11.471038932
 30
0.0
 10
15.5489635154
 20
11.4432229328
 30
0.0
 10
15.5588256539
 20
11.4231510887
 30
0.0
 10
15.568868735
 20
11.4036798533
 30
0.0
 10
15.5790872606
 20
11.3848198913
 30
0.0
 10
15.5894756389
 20
11.3665816231
 30
0.0
 10
15.6000281237
 20
11.3489750694
 30
0.0
 10
15.6107389502
 20
11.332009938
 30
0.0
 10
15.6216022406
 20
11.315695566
 30
0.0
 10
15.6326120268
 20
11.3000409217
 30
0.0
 10
15.6437623278
 20
11.2850546467
 30
0.0
 10
15.65504701
 20
11.2707449631
 30
0.0
 10
15.6664599606
 20
11.2571197786
 30
0.0
 10
15.6779949542
 20
11.2441865915
 30
0.0
 10
15.6896457121
 20
11.2319525403
 30
0.0
 10
15.7014059768
 20
11.2204243979
 30
0.0
 10
15.7132692451
 20
11.2096086002
 30
0.0
 10
15.7252294934
 20
11.1995109247
 30
0.0
 10
15.741102736
 20
11.1871636902
 30
0.0
 10
15.7611687902
 20
11.1734721625
 30
0.0
 10
15.7819474519
 20
11.1619554202
 30
0.0
 10
15.7986547926
 20
11.154302118
 30
0.0
 10
15.8111080406
 20
11.1493706616
 30
0.0
 10
15.8236044857
 20
11.1451926178
 30
0.0
 10
15.8361373535
 20
11.1417704188
 30
0.0
 10
15.8486994348
 20
11.1391063915
 30
0.0
 10
15.8612836781
 20
11.1372022052
 30
0.0
 10
15.8738821894
 20
11.1360591909
 30
0.0
 10
15.8822916134
 20
11.1358049972
 30
0.0
 10
15.8864887564
 20
11.1358050007
 30
0.0
  0
SPLINE
  5
2CA
100
AcDbEntity
  8
02___PRT_ALL_AXES
100
AcDbSpline
 62
7
  6
CONTINUOUS
 70
0
 71
3
 72
33
 73
29
 74
0
 42
0.0000001
 43
0.0000001
 44
0.0000000001
 40
0.0
 40
0.0
 40
0.0
 40
0.0
 40
0.0161690664
 40
0.0326006172
 40
0.0495419716
 40
0.0672133727
 40
0.0763858214
 40
0.0858075729
 40
0.1054621709
 40
0.1262993332
 40
0.1484034977
 40
0.1718318085
 40
0.1966179848
 40
0.222775688
 40
0.2503016182
 40
0.2791780431
 40
0.3093747779
 40
0.3408507722
 40
0.3735556363
 40
0.4074308199
 40
0.4424105214
 40
0.5153822181
 40
0.5918375523
 40
0.6710656261
 40
0.7523037822
 40
0.834753237
 40
0.9175936205
 40
1.0
 40
1.0
 40
1.0
 40
1.0
 10
15.7123961861
 20
11.79112178
 30
0.0
 10
15.7131680953
 20
11.7911217837
 30
0.0
 10
15.7147265555
 20
11.7912312231
 30
0.0
 10
15.7170473439
 20
11.7917214091
 30
0.0
 10
15.7193512708
 20
11.7925350624
 30
0.0
 10
15.7212275315
 20
11.7934677666
 30
0.0
 10
15.7227100953
 20
11.7943631364
 30
0.0
 10
15.7242221116
 20
11.7953882426
 30
0.0
 10
15.7260909347
 20
11.7968728522
 30
0.0
 10
15.7282598798
 20
11.7989333215
 30
0.0
 10
15.7303807474
 20
11.8012912248
 30
0.0
 10
15.7324476875
 20
11.803939509
 30
0.0
 10
15.7344550938
 20
11.8068705572
 30
0.0
 10
15.7363973588
 20
11.8100758945
 30
0.0
 10
15.7382689835
 20
11.8135462664
 30
0.0
 10
15.7400645929
 20
11.8172716313
 30
0.0
 10
15.7417789826
 20
11.8212411781
 30
0.0
 10
15.7434071745
 20
11.8254433466
 30
0.0
 10
15.7449443998
 20
11.8298658703
 30
0.0
 10
15.7463861836
 20
11.8344958521
 30
0.0
 10
15.7482010925
 20
11.8410197651
 30
0.0
 10
15.7501901435
 20
11.8496006428
 30
0.0
 10
15.7521053548
 20
11.8603515805
 30
0.0
 10
15.7535586638
 20
11.8715725048
 30
0.0
 10
15.7545327886
 20
11.8831319697
 30
0.0
 10
15.7550161607
 20
11.8948948545
 30
0.0
 10
15.755003024
 20
11.906723143
 30
0.0
 10
15.7546613038
 20
11.9146074385
 30
0.0
 10
15.7544057048
 20
11.9185331968
 30
0.0
  0
SPLINE
  5
2CB
100
AcDbEntity
  8
02___PRT_ALL_AXES
100
AcDbSpline
 62
7
  6
CONTINUOUS
 70
0
 71
3
 72
58
 73
54
 74
0
 42
0.0000001
 43
0.0000001
 44
0.0000000001
 40
0.0
 40
0.0
 40
0.0
 40
0.0
 40
0.0079137879
 40
0.0160386076
 40
0.0244065828
 40
0.0330461221
 40
0.0419819269
 40
0.0512351067
 40
0.060823373
 40
0.0707612719
 40
0.0810604357
 40
0.0917298333
 40
0.1027760097
 40
0.1142033122
 40
0.1260140989
 40
0.1382089258
 40
0.1507867126
 40
0.163744891
 40
0.1770795335
 40
0.1907854741
 40
0.204856413
 40
0.219285009
 40
0.2340629622
 40
0.2491810857
 40
0.2646293743
 40
0.2803970673
 40
0.2964727044
 40
0.3128441766
 40
0.3294987725
 40
0.3464232216
 40
0.3636037378
 40
0.3810260592
 40
0.4165359304
 40
0.4528316191
 40
0.4897854465
 40
0.527265345
 40
0.5651358075
 40
0.603258819
 40
0.6414947605
 40
0.6797032984
 40
0.7177442734
 40
0.7554785842
 40
0.7927690886
 40
0.829481509
 40
0.865485373
 40
0.8831825993
 40
0.9006560018
 40
0.9178907854
 40
0.9348725837
 40
0.9515875331
 40
0.9680221466
 40
0.9841638444
 40
1.0
 40
1.0
 40
1.0
 40
1.0
 10
15.8337694539
 20
11.2807918063
 30
0.0
 10
15.8284551181
 20
11.2826612069
 30
0.0
 10
15.8178278653
 20
11.2868691226
 30
0.0
 10
15.8021711319
 20
11.2944326745
 30
0.0
 10
15.7866245391
 20
11.3033135878
 30
0.0
 10
15.7712056998
 20
11.3135006515
 30
0.0
 10
15.7559302635
 20
11.3249820975
 30
0.0
 10
15.7408141161
 20
11.3377448542
 30
0.0
 10
15.7258728487
 20
11.3517747431
 30
0.0
 10
15.711121954
 20
11.3670563877
 30
0.0
 10
15.6965767862
 20
11.3835732003
 30
0.0
 10
15.6822525693
 20
11.4013073535
 30
0.0
 10
15.668164368
 20
11.420239759
 30
0.0
 10
15.6543270673
 20
11.4403500664
 30
0.0
 10
15.6407553522
 20
11.4616166738
 30
0.0
 10
15.6274636795
 20
11.484016738
 30
0.0
 10
15.6144662531
 20
11.50752619
 30
0.0
 10
15.6017770001
 20
11.5321197524
 30
0.0
 10
15.5894095388
 20
11.5577709595
 30
0.0
 10
15.577377169
 20
11.5844521907
 30
0.0
 10
15.5656928489
 20
11.6121347019
 30
0.0
 10
15.5543691775
 20
11.640788656
 30
0.0
 10
15.5434183795
 20
11.6703831542
 30
0.0
 10
15.5328522805
 20
11.7008862653
 30
0.0
 10
15.5226822964
 20
11.732265064
 30
0.0
 10
15.5129194229
 20
11.7644856702
 30
0.0
 10
15.50357422
 20
11.7975132878
 30
0.0
 10
15.4946568026
 20
11.8313122397
 30
0.0
 10
15.4861768202
 20
11.8658460134
 30
0.0
 10
15.4781434622
 20
11.9010772652
 30
0.0
 10
15.4705653727
 20
11.9369679984
 30
0.0
 10
15.4610191646
 20
11.9859590233
 30
0.0
 10
15.4503034955
 20
12.0485772239
 30
0.0
 10
15.4394598341
 20
12.1252462
 30
0.0
 10
15.4305983764
 20
12.2035808601
 30
0.0
 10
15.423757648
 20
12.2832424732
 30
0.0
 10
15.4189673641
 20
12.3638871606
 30
0.0
 10
15.4162483324
 20
12.4451665387
 30
0.0
 10
15.4156123917
 20
12.5267294927
 30
0.0
 10
15.4170622869
 20
12.6082236463
 30
0.0
 10
15.4205917192
 20
12.6892969411
 30
0.0
 10
15.4261853655
 20
12.7695991158
 30
0.0
 10
15.4338188956
 20
12.8487834712
 30
0.0
 10
15.4434591556
 20
12.9265075705
 30
0.0
 10
15.4531847929
 20
12.99014066
 30
0.0
 10
15.4619532994
 20
13.0400443567
 30
0.0
 10
15.4689651653
 20
13.0766865628
 30
0.0
 10
15.4764422461
 20
13.112716679
 30
0.0
 10
15.4843764922
 20
13.1480958599
 30
0.0
 10
15.4927592964
 20
13.1827857752
 30
0.0
 10
15.5015815989
 20
13.2167491227
 30
0.0
 10
15.5108338138
 20
13.2499488743
 30
0.0
 10
15.5173457513
 20
13.2717631215
 30
0.0
 10
15.5206741329
 20
13.2825337685
 30
0.0
  0
SPLINE
  5
2CC
100
AcDbEntity
  8
LAYER_CUT_FEAT
100
AcDbSpline
 62
7
  6
CONTINUOUS
 70
0
 71
3
 72
67
 73
63
 74
0
 42
0.0000001
 43
0.0000001
 44
0.0000000001
 40
0.0
 40
0.0
 40
0.0
 40
0.0
 40
0.003921388
 40
0.0078387425
 40
0.011761264
 40
0.015698285
 40
0.0196589862
 40
0.0236522803
 40
0.031768445
 40
0.0401144562
 40
0.0487486849
 40
0.0577220237
 40
0.0670776684
 40
0.0768513121
 40
0.0870716133
 40
0.0977608017
 40
0.1089353297
 40
0.120606509
 40
0.1327811003
 40
0.1454618439
 40
0.1586479235
 40
0.1723353693
 40
0.1865174054
 40
0.2011847488
 40
0.216325868
 40
0.231927207
 40
0.2479733796
 40
0.2644473424
 40
0.2813305482
 40
0.2986030835
 40
0.3162437921
 40
0.3342303895
 40
0.3525395675
 40
0.3711470925
 40
0.3900278974
 40
0.4091561697
 40
0.4285054352
 40
0.4677568341
 40
0.5075615571
 40
0.5476919823
 40
0.5879172344
 40
0.6280054974
 40
0.6677263167
 40
0.7068529127
 40
0.7261248297
 40
0.7451660438
 40
0.7639503129
 40
0.7824520863
 40
0.8006465901
 40
0.8185099163
 40
0.8360191175
 40
0.8531523069
 40
0.8698887667
 40
0.8862090652
 40
0.9020951867
 40
0.9175306732
 40
0.9325007862
 40
0.9469926748
 40
0.9609956226
 40
0.9745011581
 40
0.9875036462
 40
1.0
 40
1.0
 40
1.0
 40
1.0
 10
15.6105448264
 20
13.1980044528
 30
0.0
 10
15.6123810523
 20
13.1981439132
 30
0.0
 10
15.6160597022
 20
13.1983261263
 30
0.0
 10
15.6215853086
 20
13.1983069251
 30
0.0
 10
15.6271096386
 20
13.1979948826
 30
0.0
 10
15.6326300103
 20
13.197390205
 30
0.0
 10
15.6381442211
 20
13.196493091
 30
0.0
 10
15.6455235782
 20
13.1948995836
 30
0.0
 10
15.654748053
 20
13.1921580175
 30
0.0
 10
15.6656852319
 20
13.1877232128
 30
0.0
 10
15.6765344233
 20
13.1821355172
 30
0.0
 10
15.6872768967
 20
13.175406806
 30
0.0
 10
15.6978957038
 20
13.1675501743
 30
0.0
 10
15.7083739917
 20
13.1585800769
 30
0.0
 10
15.7186952248
 20
13.1485123551
 30
0.0
 10
15.7288429805
 20
13.1373643496
 30
0.0
 10
15.7388009605
 20
13.1251549884
 30
0.0
 10
15.7485530032
 20
13.1119048529
 30
0.0
 10
15.7580831324
 20
13.0976362134
 30
0.0
 10
15.7673756064
 20
13.0823730359
 30
0.0
 10
15.7764149728
 20
13.0661409706
 30
0.0
 10
15.7851861191
 20
13.0489673253
 30
0.0
 10
15.7936743191
 20
13.030881028
 30
0.0
 10
15.8018652749
 20
13.0119125815
 30
0.0
 10
15.8097451541
 20
12.9920940128
 30
0.0
 10
15.8173006234
 20
12.9714588177
 30
0.0
 10
15.8245188805
 20
12.9500419029
 30
0.0
 10
15.8313876812
 20
12.9278795247
 30
0.0
 10
15.8378953639
 20
12.905009223
 30
0.0
 10
15.8440308725
 20
12.8814697559
 30
0.0
 10
15.8497837781
 20
12.8573010318
 30
0.0
 10
15.8551442981
 20
12.8325440389
 30
0.0
 10
15.8601033137
 20
12.8072407768
 30
0.0
 10
15.8646523905
 20
12.7814341741
 30
0.0
 10
15.8687837755
 20
12.7551680511
 30
0.0
 10
15.872490482
 20
12.7284869065
 30
0.0
 10
15.8768786619
 20
12.6922479716
 30
0.0
 10
15.8812476972
 20
12.6462333758
 30
0.0
 10
15.884691089
 20
12.5903587644
 30
0.0
 10
15.8863359755
 20
12.5339446507
 30
0.0
 10
15.8861711276
 20
12.477373848
 30
0.0
 10
15.884197679
 20
12.4210294781
 30
0.0
 10
15.8804291034
 20
12.3652938777
 30
0.0
 10
15.8757912423
 20
12.3194405166
 30
0.0
 10
15.8711906704
 20
12.2833648213
 30
0.0
 10
15.8673285787
 20
12.2568295314
 30
0.0
 10
15.8630442867
 20
12.23072558
 30
0.0
 10
15.8583450406
 20
12.2050971874
 30
0.0
 10
15.8532388484
 20
12.1799878683
 30
0.0
 10
15.8477343933
 20
12.1554402191
 30
0.0
 10
15.841841038
 20
12.1314958807
 30
0.0
 10
15.835568802
 20
12.108195457
 30
0.0
 10
15.8289283445
 20
12.0855784463
 30
0.0
 10
15.8219309442
 20
12.0636831713
 30
0.0
 10
15.8145884782
 20
12.0425467118
 30
0.0
 10
15.8069133987
 20
12.0222048364
 30
0.0
 10
15.7989187042
 20
12.0026919512
 30
0.0
 10
15.7906179112
 20
11.9840410033
 30
0.0
 10
15.7820250399
 20
11.9662835336
 30
0.0
 10
15.7731544808
 20
11.9494493029
 30
0.0
 10
15.764021352
 20
11.9335671323
 30
0.0
 10
15.7576405633
 20
11.9234294841
 30
0.0
 10
15.7544057048
 20
11.9185331968
 30
0.0
  0
SPLINE
  5
2CD
100
AcDbEntity
  8
LAYER_CHAMFER_FEAT
100
AcDbSpline
 62
7
  6
CONTINUOUS
 70
0
 71
3
 72
82
 73
78
 74
0
 42
0.0000001
 43
0.0000001
 44
0.0000000001
 40
0.0
 40
0.0
 40
0.0
 40
0.0
 40
0.0113884098
 40
0.0168761395
 40
0.0222297962
 40
0.0274530444
 40
0.0325501189
 40
0.0423835639
 40
0.0517780634
 40
0.0563293248
 40
0.0607930588
 40
0.0651780499
 40
0.0694937294
 40
0.073750138
 40
0.0779578616
 40
0.0821279632
 40
0.0862718814
 40
0.09040133
 40
0.0945281742
 40
0.0986643072
 40
0.1028215242
 40
0.1070113985
 40
0.111245169
 40
0.1155336424
 40
0.1198871037
 40
0.1243152602
 40
0.1288271795
 40
0.1381328263
 40
0.1478659257
 40
0.1580748885
 40
0.1687980354
 40
0.1800645041
 40
0.1918952558
 40
0.2043040623
 40
0.2172984116
 40
0.2308803079
 40
0.2450469605
 40
0.2597913727
 40
0.2751028403
 40
0.2909673764
 40
0.3073680737
 40
0.3242854149
 40
0.3416975432
 40
0.3595804985
 40
0.3779084279
 40
0.3966537746
 40
0.4157874496
 40
0.4352789899
 40
0.455096706
 40
0.4752078207
 40
0.4955786016
 40
0.5161744869
 40
0.5369602081
 40
0.5578999087
 40
0.5789572603
 40
0.600095577
 40
0.6212779284
 40
0.6424672515
 40
0.6636264623
 40
0.6847185677
 40
0.7057067765
 40
0.7265546128
 40
0.7472260291
 40
0.767685522
 40
0.7878982499
 40
0.8078301541
 40
0.827448083
 40
0.8467199224
 40
0.8656147316
 40
0.8841028874
 40
0.9021562376
 40
0.9197482672
 40
0.9368542829
 40
0.9534516048
 40
0.9695198272
 40
0.9850409691
 40
1.0
 40
1.0
 40
1.0
 40
1.0
 10
15.6982716564
 20
11.4038497173
 30
0.0
 10
15.7046407597
 20
11.3962192034
 30
0.0
 10
15.7144041147
 20
11.3851748695
 30
0.0
 10
15.7279493109
 20
11.3712810122
 30
0.0
 10
15.73807224
 20
11.3615761979
 30
0.0
 10
15.7482791156
 20
11.3524636804
 30
0.0
 10
15.761830362
 20
11.3412446761
 30
0.0
 10
15.7789600019
 20
11.3286619563
 30
0.0
 10
15.7967061973
 20
11.3178427361
 30
0.0
 10
15.8109898656
 20
11.3104737986
 30
0.0
 10
15.8216374739
 20
11.3056243885
 30
0.0
 10
15.8323264184
 20
11.3013973199
 30
0.0
 10
15.8430513489
 20
11.2977949244
 30
0.0
 10
15.8538065837
 20
11.294819293
 30
0.0
 10
15.8645864643
 20
11.2924722645
 30
0.0
 10
15.8753852073
 20
11.290755178
 30
0.0
 10
15.8861970094
 20
11.2896691905
 30
0.0
 10
15.8970159921
 20
11.2892148817
 30
0.0
 10
15.9078362673
 20
11.2893926238
 30
0.0
 10
15.9186519351
 20
11.2902022377
 30
0.0
 10
15.9294571133
 20
11.2916432578
 30
0.0
 10
15.9402459589
 20
11.2937147786
 30
0.0
 10
15.951012686
 20
11.2964155135
 30
0.0
 10
15.9617515731
 20
11.2997438903
 30
0.0
 10
15.9724569389
 20
11.3036978455
 30
0.0
 10
15.9831233846
 20
11.3082752995
 30
0.0
 10
15.9974315613
 20
11.3152773596
 30
0.0
 10
16.0152182252
 20
11.325641778
 30
0.0
 10
16.0360848512
 20
11.340394304
 30
0.0
 10
16.056655508
 20
11.357555891
 30
0.0
 10
16.0768897211
 20
11.3770884069
 30
0.0
 10
16.0967495066
 20
11.3989510177
 30
0.0
 10
16.1161964714
 20
11.4230986069
 30
0.0
 10
16.1351926735
 20
11.4494818893
 30
0.0
 10
16.1537005306
 20
11.4780471755
 30
0.0
 10
16.1716830564
 20
11.5087363622
 30
0.0
 10
16.1891040092
 20
11.5414869563
 30
0.0
 10
16.2059280539
 20
11.5762321587
 30
0.0
 10
16.2221208992
 20
11.6129009804
 30
0.0
 10
16.2376494181
 20
11.6514183843
 30
0.0
 10
16.2524817549
 20
11.6917054419
 30
0.0
 10
16.2665874198
 20
11.7336795028
 30
0.0
 10
16.2799373726
 20
11.7772543726
 30
0.0
 10
16.2925040977
 20
11.8223404994
 30
0.0
 10
16.304261672
 20
11.8688451656
 30
0.0
 10
16.3151858266
 20
11.9166726866
 30
0.0
 10
16.3252540022
 20
11.9657246142
 30
0.0
 10
16.3344454004
 20
12.0158999448
 30
0.0
 10
16.3427410302
 20
12.0670953324
 30
0.0
 10
16.3501237482
 20
12.1192053064
 30
0.0
 10
16.3565782954
 20
12.1721224927
 30
0.0
 10
16.3620913299
 20
12.2257378386
 30
0.0
 10
16.3666514551
 20
12.2799408395
 30
0.0
 10
16.3702492435
 20
12.3346197701
 30
0.0
 10
16.3728772569
 20
12.3896619159
 30
0.0
 10
16.3745300617
 20
12.4449538082
 30
0.0
 10
16.3752042401
 20
12.5003814593
 30
0.0
 10
16.374898398
 20
12.5558305996
 30
0.0
 10
16.3736131683
 20
12.6111869149
 30
0.0
 10
16.3713512086
 20
12.6663362838
 30
0.0
 10
16.3681171957
 20
12.7211650149
 30
0.0
 10
16.363917816
 20
12.7755600825
 30
0.0
 10
16.3587617509
 20
12.8294093622
 30
0.0
 10
16.3526596596
 20
12.8826018632
 30
0.0
 10
16.3456241555
 20
12.9350279602
 30
0.0
 10
16.3376697806
 20
12.9865796214
 30
0.0
 10
16.3288129738
 20
13.0371506344
 30
0.0
 10
16.3190720364
 20
13.0866368291
 30
0.0
 10
16.308467093
 20
13.1349362965
 30
0.0
 10
16.297020047
 20
13.181949603
 30
0.0
 10
16.2847545299
 20
13.227580002
 30
0.0
 10
16.2716958526
 20
13.2717336341
 30
0.0
 10
16.2578709305
 20
13.3143197444
 30
0.0
 10
16.2433082677
 20
13.3552508157
 30
0.0
 10
16.2280377243
 20
13.3944429962
 30
0.0
 10
16.2120909873
 20
13.4318153053
 30
0.0
 10
16.2008191805
 20
13.4559183739
 30
0.0
 10
16.1950676244
 20
13.467638813
 30
0.0
  0
SPLINE
  5
2CE
100
AcDbEntity
  8
02___PRT_ALL_AXES
100
AcDbSpline
 62
7
  6
CONTINUOUS
 70
0
 71
3
 72
33
 73
29
 74
0
 42
0.0000001
 43
0.0000001
 44
0.0000000001
 40
0.0
 40
0.0
 40
0.0
 40
0.0
 40
0.083617237
 40
0.1646218019
 40
0.2429045874
 40
0.3183696865
 40
0.3909377501
 40
0.4261172233
 40
0.4605511233
 40
0.4942350067
 40
0.5271659414
 40
0.5593425495
 40
0.5907651146
 40
0.6214357719
 40
0.6513585336
 40
0.680539545
 40
0.7089871582
 40
0.7367121205
 40
0.7637277898
 40
0.7900502294
 40
0.8156985044
 40
0.8406947816
 40
0.8650645595
 40
0.9120323247
 40
0.9347113677
 40
0.9569022702
 40
0.9786491685
 40
1.0
 40
1.0
 40
1.0
 40
1.0
 10
15.5206741329
 20
13.2825337685
 30
0.0
 10
15.5253851505
 20
13.2977786268
 30
0.0
 10
15.5350688777
 20
13.3276678264
 30
0.0
 10
15.5506452371
 20
13.3713314724
 30
0.0
 10
15.5670141935
 20
13.4130386908
 30
0.0
 10
15.5841384321
 20
13.4526942254
 30
0.0
 10
15.5991573632
 20
13.4842754757
 30
0.0
 10
15.6115357402
 20
13.5084206006
 30
0.0
 10
15.6208875932
 20
13.5257742317
 30
0.0
 10
15.6303980684
 20
13.5425499707
 30
0.0
 10
15.6400618199
 20
13.5587383502
 30
0.0
 10
15.6498733608
 20
13.5743301692
 30
0.0
 10
15.6598271737
 20
13.5893165676
 30
0.0
 10
15.6699175985
 20
13.6036890612
 30
0.0
 10
15.6801389897
 20
13.6174394684
 30
0.0
 10
15.6904855645
 20
13.6305600018
 30
0.0
 10
15.7009515181
 20
13.6430432044
 30
0.0
 10
15.7115310015
 20
13.6548819688
 30
0.0
 10
15.7222180468
 20
13.6660695756
 30
0.0
 10
15.7330067716
 20
13.6765996353
 30
0.0
 10
15.7438909681
 20
13.686466046
 30
0.0
 10
15.7548651535
 20
13.6956635104
 30
0.0
 10
15.7694276008
 20
13.7068879468
 30
0.0
 10
15.7843296689
 20
13.7169302487
 30
0.0
 10
15.7995327993
 20
13.7256585269
 30
0.0
 10
15.8108621199
 20
13.7314368886
 30
0.0
 10
15.8222429562
 20
13.7365190621
 30
0.0
 10
15.8299260615
 20
13.7394662049
 30
0.0
 10
15.8337694536
 20
13.7408181847
 30
0.0
  0
SPLINE
  5
2CF
100
AcDbEntity
  8
LAYER_CHAMFER_FEAT
100
AcDbSpline
 62
7
  6
CONTINUOUS
 70
0
 71
3
 72
72
 73
68
 74
0
 42
0.0000001
 43
0.0000001
 44
0.0000000001
 40
0.0
 40
0.0
 40
0.0
 40
0.0
 40
0.0038601716
 40
0.0077283743
 40
0.0116125787
 40
0.0155206315
 40
0.0194602048
 40
0.0234387391
 40
0.0274634038
 40
0.0315410567
 40
0.039879151
 40
0.0485027705
 40
0.0574534385
 40
0.0667664671
 40
0.0764711832
 40
0.0865913168
 40
0.0971454724
 40
0.1081476238
 40
0.1196075961
 40
0.1315315137
 40
0.1439222046
 40
0.156779559
 40
0.1701008439
 40
0.1838809766
 40
0.1981127628
 40
0.2127871042
 40
0.2278931787
 40
0.2434186003
 40
0.2593495586
 40
0.275670944
 40
0.2923664602
 40
0.3094187248
 40
0.3268093628
 40
0.3445190914
 40
0.3625278
 40
0.3808146245
 40
0.3993580178
 40
0.4181358166
 40
0.437125306
 40
0.4563032811
 40
0.4756461073
 40
0.495129779
 40
0.5147299767
 40
0.5344221235
 40
0.573981878
 40
0.613610515
 40
0.6531077595
 40
0.672745364
 40
0.6922756405
 40
0.7116741665
 40
0.7309168117
 40
0.7499797954
 40
0.7688397444
 40
0.7874737526
 40
0.805859442
 40
0.8239750266
 40
0.841799378
 40
0.8593120944
 40
0.8764935736
 40
0.8933250903
 40
0.9097888787
 40
0.9258682251
 40
0.9415475564
 40
0.956812576
 40
0.9716503067
 40
0.9860494122
 40
1.0
 40
1.0
 40
1.0
 40
1.0
 10
15.870370189
 20
11.3208049929
 30
0.0
 10
15.8733526549
 20
11.3208049936
 30
0.0
 10
15.8793248459
 20
11.3209531771
 30
0.0
 10
15.8882757115
 20
11.3216195717
 30
0.0
 10
15.8972198623
 20
11.3227299773
 30
0.0
 10
15.9061535655
 20
11.3242838264
 30
0.0
 10
15.9150734666
 20
11.3262805408
 30
0.0
 10
15.9239761062
 20
11.3287192035
 30
0.0
 10
15.9328582637
 20
11.3315989279
 30
0.0
 10
15.9447561972
 20
11.3360574218
 30
0.0
 10
15.9595871138
 20
11.3427649252
 30
0.0
 10
15.97710664
 20
11.3524965384
 30
0.0
 10
15.9944579541
 20
11.3639539297
 30
0.0
 10
16.0116155374
 20
11.3771178177
 30
0.0
 10
16.0285557233
 20
11.391967477
 30
0.0
 10
16.0452547187
 20
11.4084800963
 30
0.0
 10
16.0616890412
 20
11.4266308294
 30
0.0
 10
16.0778353605
 20
11.4463926574
 30
0.0
 10
16.0936705705
 20
11.4677363384
 30
0.0
 10
16.1091718293
 20
11.4906303703
 30
0.0
 10
16.1243166257
 20
11.5150409854
 30
0.0
 10
16.1390828398
 20
11.5409321668
 30
0.0
 10
16.1534488047
 20
11.5682656817
 30
0.0
 10
16.167393362
 20
11.5970011263
 30
0.0
 10
16.1808959133
 20
11.6270959802
 30
0.0
 10
16.1939364673
 20
11.6585056684
 30
0.0
 10
16.2064956813
 20
11.6911836277
 30
0.0
 10
16.2185549005
 20
11.7250813776
 30
0.0
 10
16.2300961931
 20
11.7601485951
 30
0.0
 10
16.2411023828
 20
11.7963331923
 30
0.0
 10
16.2515570786
 20
11.833581396
 30
0.0
 10
16.2614447029
 20
11.8718378308
 30
0.0
 10
16.2707505174
 20
11.9110456032
 30
0.0
 10
16.2794606473
 20
11.9511463883
 30
0.0
 10
16.2875621027
 20
11.9920805194
 30
0.0
 10
16.2950427991
 20
12.0337870778
 30
0.0
 10
16.3018915767
 20
12.0762039856
 30
0.0
 10
16.3080982169
 20
12.1192680992
 30
0.0
 10
16.3136534589
 20
12.1629153048
 30
0.0
 10
16.3185490121
 20
12.2070806118
 30
0.0
 10
16.3227775737
 20
12.2516982646
 30
0.0
 10
16.3263328223
 20
12.2967017854
 30
0.0
 10
16.3292094927
 20
12.3420242873
 30
0.0
 10
16.3321386819
 20
12.4028788772
 30
0.0
 10
16.3340744883
 20
12.479264698
 30
0.0
 10
16.3336449239
 20
12.5709762471
 30
0.0
 10
16.3309932004
 20
12.6472501474
 30
0.0
 10
16.3274924188
 20
12.7079298546
 30
0.0
 10
16.3241912903
 20
12.7530610571
 30
0.0
 10
16.3202147816
 20
12.7978313535
 30
0.0
 10
16.3155687841
 20
12.8421742049
 30
0.0
 10
16.3102602424
 20
12.8860235452
 30
0.0
 10
16.304297075
 20
12.9293140922
 30
0.0
 10
16.2976881806
 20
12.9719813893
 30
0.0
 10
16.2904434195
 20
13.0139619176
 30
0.0
 10
16.2825736006
 20
13.0551931881
 30
0.0
 10
16.2740904639
 20
13.0956138365
 30
0.0
 10
16.2650066621
 20
13.1351637159
 30
0.0
 10
16.2553357409
 20
13.173783988
 30
0.0
 10
16.245092117
 20
13.2114172116
 30
0.0
 10
16.2342910562
 20
13.2480074334
 30
0.0
 10
16.2229486465
 20
13.2835002624
 30
0.0
 10
16.2110817715
 20
13.317842988
 30
0.0
 10
16.1987080936
 20
13.3509845565
 30
0.0
 10
16.1858459498
 20
13.3828759553
 30
0.0
 10
16.1725146136
 20
13.41346942
 30
0.0
 10
16.1631775368
 20
13.4332877468
 30
0.0
 10
16.1584291139
 20
13.4429640154
 30
0.0
  0
SPLINE
  5
2D0
100
AcDbEntity
  8
LAYER_FEATURE
100
AcDbSpline
 62
7
  6
CONTINUOUS
 70
0
 71
3
 72
39
 73
35
 74
0
 42
0.0000001
 43
0.0000001
 44
0.0000000001
 40
0.0
 40
0.0
 40
0.0
 40
0.0
 40
0.0217957966
 40
0.0436774318
 40
0.0657295051
 40
0.0880342007
 40
0.1106702457
 40
0.133712072
 40
0.1572291368
 40
0.1812854743
 40
0.2059394689
 40
0.2312437275
 40
0.2572451382
 40
0.2839850606
 40
0.3114995011
 40
0.3398194118
 40
0.3689710311
 40
0.3989761357
 40
0.4298523866
 40
0.4616136641
 40
0.4942702885
 40
0.5278293301
 40
0.5622948856
 40
0.5976682376
 40
0.6339481106
 40
0.6711308847
 40
0.7092107031
 40
0.748179661
 40
0.7880279894
 40
0.8287441869
 40
0.8703148756
 40
0.912725267
 40
0.9559602159
 40
1.0
 40
1.0
 40
1.0
 40
1.0
 10
15.1072711555
 20
13.8235549903
 30
0.0
 10
15.102739737
 20
13.8235549961
 30
0.0
 10
15.0936560223
 20
13.823244379
 30
0.0
 10
15.0800521706
 20
13.8218480521
 30
0.0
 10
15.0664683107
 20
13.8195222198
 30
0.0
 10
15.0529154444
 20
13.8162689682
 30
0.0
 10
15.0394033284
 20
13.8120911621
 30
0.0
 10
15.0259418423
 20
13.8069922978
 30
0.0
 10
15.012540587
 20
13.8009765705
 30
0.0
 10
14.9992089952
 20
13.7940488018
 30
0.0
 10
14.9859563727
 20
13.7862143283
 30
0.0
 10
14.9727918748
 20
13.777479096
 30
0.0
 10
14.9597245375
 20
13.76784961
 30
0.0
 10
14.946763346
 20
13.7573328765
 30
0.0
 10
14.933917176
 20
13.7459365025
 30
0.0
 10
14.9211948269
 20
13.7336686557
 30
0.0
 10
14.9086050696
 20
13.7205380311
 30
0.0
 10
14.8961565668
 20
13.7065539355
 30
0.0
 10
14.8838579073
 20
13.6917262451
 30
0.0
 10
14.8717176376
 20
13.6760653817
 30
0.0
 10
14.8597441749
 20
13.6595823762
 30
0.0
 10
14.847945846
 20
13.6422888241
 30
0.0
 10
14.8363309092
 20
13.6241968658
 30
0.0
 10
14.8249074672
 20
13.6053192329
 30
0.0
 10
14.8136835123
 20
13.5856692035
 30
0.0
 10
14.8026669403
 20
13.5652605848
 30
0.0
 10
14.7918654694
 20
13.5441077483
 30
0.0
 10
14.7812866871
 20
13.5222255869
 30
0.0
 10
14.770938053
 20
13.4996294861
 30
0.0
 10
14.7608268498
 20
13.4763353822
 30
0.0
 10
14.7509601998
 20
13.4523597262
 30
0.0
 10
14.7413450021
 20
13.4277192191
 30
0.0
 10
14.7319881793
 20
13.4024315332
 30
0.0
 10
14.7259814031
 20
13.3853088866
 30
0.0
 10
14.7230207892
 20
13.376644741
 30
0.0
  0
SPLINE
  5
2D1
100
AcDbEntity
  8
LAYER_FEATURE
100
AcDbSpline
 62
7
  6
CONTINUOUS
 70
0
 71
3
 72
99
 73
95
 74
0
 42
0.0000001
 43
0.0000001
 44
0.0000000001
 40
0.0
 40
0.0
 40
0.0
 40
0.0
 40
0.0173110148
 40
0.0340649543
 40
0.0502380523
 40
0.0581004628
 40
0.0658101902
 40
0.0733652193
 40
0.0807638045
 40
0.0880044665
 40
0.0950860286
 40
0.1020076264
 40
0.1087687286
 40
0.1153691763
 40
0.1218091891
 40
0.1280894116
 40
0.1342109392
 40
0.1401753446
 40
0.1459847332
 40
0.1516417626
 40
0.1571496967
 40
0.162512449
 40
0.1677346143
 40
0.177776925
 40
0.1826124822
 40
0.1873335887
 40
0.1919488686
 40
0.1964678231
 40
0.200900808
 40
0.2052590039
 40
0.2095543637
 40
0.2137995212
 40
0.218007688
 40
0.2221925149
 40
0.2263679382
 40
0.2305480109
 40
0.2347467287
 40
0.2389778573
 40
0.2432547718
 40
0.2475903181
 40
0.2519966871
 40
0.2564853304
 40
0.261066889
 40
0.2657511516
 40
0.2705470451
 40
0.2754626216
 40
0.2856785606
 40
0.2909931575
 40
0.2964514632
 40
0.3020576126
 40
0.3078150839
 40
0.313726741
 40
0.3197948634
 40
0.326021207
 40
0.3324070222
 40
0.3389530995
 40
0.3456598064
 40
0.3525271007
 40
0.3595545797
 40
0.3667414891
 40
0.3740867505
 40
0.3815889924
 40
0.3892465503
 40
0.4050190682
 40
0.4213867133
 40
0.4383276936
 40
0.4558171041
 40
0.473827265
 40
0.4923280209
 40
0.5112870094
 40
0.5306699001
 40
0.5504406125
 40
0.5705615169
 40
0.5909936262
 40
0.611696777
 40
0.632629802
 40
0.6537506951
 40
0.6750167742
 40
0.6963848408
 40
0.7178113364
 40
0.7392524968
 40
0.7606645062
 40
0.7820036516
 40
0.8032264761
 40
0.8242899347
 40
0.8451515509
 40
0.8657695781
 40
0.8861031623
 40
0.9061125098
 40
0.9257590615
 40
0.9450056762
 40
0.9638168481
 40
0.9821587929
 40
1.0
 40
1.0
 40
1.0
 40
1.0
 10
15.4721939332
 20
13.3362898274
 30
0.0
 10
15.4773729141
 20
13.3530490159
 30
0.0
 10
15.488025973
 20
13.3858879857
 30
0.0
 10
15.5051928992
 20
13.4338201224
 30
0.0
 10
15.5203830599
 20
13.4722686485
 30
0.0
 10
15.5329875986
 20
13.5018651497
 30
0.0
 10
15.5425595079
 20
13.5232573271
 30
0.0
 10
15.5523328915
 20
13.5440400184
 30
0.0
 10
15.5623019014
 20
13.5642008034
 30
0.0
 10
15.5724605769
 20
13.5837275459
 30
0.0
 10
15.5828028085
 20
13.6026085346
 30
0.0
 10
15.5933223961
 20
13.6208324371
 30
0.0
 10
15.6040130717
 20
13.638388303
 30
0.0
 10
15.6148684049
 20
13.6552656198
 30
0.0
 10
15.6258819488
 20
13.6714542451
 30
0.0
 10
15.6370471258
 20
13.6869444747
 30
0.0
 10
15.6483572757
 20
13.7017270253
 30
0.0
 10
15.6598057205
 20
13.7157930024
 30
0.0
 10
15.6713856199
 20
13.729133977
 30
0.0
 10
15.6830901945
 20
13.7417419446
 30
0.0
 10
15.694912378
 20
13.7536091746
 30
0.0
 10
15.7068457389
 20
13.7647289949
 30
0.0
 10
15.7226869109
 20
13.7783699584
 30
0.0
 10
15.7389288816
 20
13.7907104445
 30
0.0
 10
15.7555439002
 20
13.8016000892
 30
0.0
 10
15.7679245696
 20
13.8088879194
 30
0.0
 10
15.7803728086
 20
13.8153935547
 30
0.0
 10
15.7928814955
 20
13.821112988
 30
0.0
 10
15.8054430479
 20
13.8260423534
 30
0.0
 10
15.8180498775
 20
13.8301782655
 30
0.0
 10
15.8306942164
 20
13.8335178925
 30
0.0
 10
15.843368221
 20
13.836058782
 30
0.0
 10
15.8560639011
 20
13.8377991107
 30
0.0
 10
15.8687731858
 20
13.8387375958
 30
0.0
 10
15.881487937
 20
13.838873476
 30
0.0
 10
15.894199987
 20
13.8382067215
 30
0.0
 10
15.9069011823
 20
13.8367377772
 30
0.0
 10
15.9195834208
 20
13.8344677598
 30
0.0
 10
15.9322386987
 20
13.8313983678
 30
0.0
 10
15.9448590931
 20
13.8275317528
 30
0.0
 10
15.9574368425
 20
13.8228707054
 30
0.0
 10
15.9699642679
 20
13.8174183939
 30
0.0
 10
15.98243384
 20
13.8111784678
 30
0.0
 10
15.9948380649
 20
13.8041551077
 30
0.0
 10
16.007169854
 20
13.7963525958
 30
0.0
 10
16.0237166363
 20
13.7847694619
 30
0.0
 10
16.0398749795
 20
13.7717555364
 30
0.0
 10
16.055624974
 20
13.7574586006
 30
0.0
 10
16.0674858361
 20
13.7458434053
 30
0.0
 10
16.0792309348
 20
13.7334854881
 30
0.0
 10
16.0908538511
 20
13.7203918207
 30
0.0
 10
16.1023475472
 20
13.7065703966
 30
0.0
 10
16.1137052943
 20
13.6920295116
 30
0.0
 10
16.1249203017
 20
13.6767778783
 30
0.0
 10
16.1359859212
 20
13.6608246581
 30
0.0
 10
16.1468955685
 20
13.6441794255
 30
0.0
 10
16.1576427013
 20
13.6268521475
 30
0.0
 10
16.1682209387
 20
13.6088532407
 30
0.0
 10
16.1786239209
 20
13.5901934912
 30
0.0
 10
16.1888454288
 20
13.5708840995
 30
0.0
 10
16.1988793378
 20
13.5509366791
 30
0.0
 10
16.208719654
 20
13.5303631413
 30
0.0
 10
16.2217016619
 20
13.5018327135
 30
0.0
 10
16.2373814068
 20
13.4646689222
 30
0.0
 10
16.2551512835
 20
13.41820906
 30
0.0
 10
16.272013639
 20
13.3695674816
 30
0.0
 10
16.2879278468
 20
13.318861198
 30
0.0
 10
16.3028556609
 20
13.2662116304
 30
0.0
 10
16.3167611299
 20
13.2117451582
 30
0.0
 10
16.3296107436
 20
13.155592554
 30
0.0
 10
16.341373513
 20
13.0978887237
 30
0.0
 10
16.3520210543
 20
13.0387723555
 30
0.0
 10
16.3615276773
 20
12.9783855867
 30
0.0
 10
16.3698704382
 20
12.916873648
 30
0.0
 10
16.3770291964
 20
12.8543845066
 30
0.0
 10
16.3829866636
 20
12.7910685042
 30
0.0
 10
16.3877284523
 20
12.7270779934
 30
0.0
 10
16.3912431187
 20
12.6625669664
 30
0.0
 10
16.3935221766
 20
12.5976906787
 30
0.0
 10
16.3945601214
 20
12.5326052718
 30
0.0
 10
16.3943544404
 20
12.4674673948
 30
0.0
 10
16.3929056332
 20
12.4024338248
 30
0.0
 10
16.3902172026
 20
12.3376610849
 30
0.0
 10
16.3862956408
 20
12.2733050655
 30
0.0
 10
16.3811504143
 20
12.2095206461
 30
0.0
 10
16.3747939425
 20
12.1464613181
 30
0.0
 10
16.3672415796
 20
12.0842788098
 30
0.0
 10
16.3585115605
 20
12.0231227169
 30
0.0
 10
16.3486249605
 20
11.9631401449
 30
0.0
 10
16.3376056317
 20
11.9044753315
 30
0.0
 10
16.3254801798
 20
11.8472693394
 30
0.0
 10
16.3122778104
 20
11.791659545
 30
0.0
 10
16.2980305389
 20
11.7377800185
 30
0.0
 10
16.2877097723
 20
11.7025926382
 30
0.0
 10
16.2823721724
 20
11.6853201584
 30
0.0
  0
SPLINE
  5
2D2
100
AcDbEntity
  8
LAYER_FEATURE
100
AcDbSpline
 62
7
  6
CONTINUOUS
 70
0
 71
3
 72
39
 73
35
 74
0
 42
0.0000001
 43
0.0000001
 44
0.0000000001
 40
0.0
 40
0.0
 40
0.0
 40
0.0
 40
0.0443812782
 40
0.0879669214
 40
0.1307335038
 40
0.1726618815
 40
0.2137331562
 40
0.2539301977
 40
0.293237698
 40
0.3316421084
 40
0.3691319095
 40
0.4056977091
 40
0.441332399
 40
0.4760313896
 40
0.5097927946
 40
0.5426176367
 40
0.5745101277
 40
0.6054779635
 40
0.6355325902
 40
0.6646895405
 40
0.6929688272
 40
0.7203952848
 40
0.7469989421
 40
0.772815437
 40
0.7978863791
 40
0.8222596417
 40
0.8459896179
 40
0.86913737
 40
0.8917705711
 40
0.9139632724
 40
0.9357954499
 40
0.9573522578
 40
0.97872302
 40
1.0
 40
1.0
 40
1.0
 40
1.0
 10
15.4670561898
 20
13.3655186993
 30
0.0
 10
15.4701492758
 20
13.3755279293
 30
0.0
 10
15.4764402755
 20
13.3953178848
 30
0.0
 10
15.486284459
 20
13.424566964
 30
0.0
 10
15.4964449678
 20
13.4530939412
 30
0.0
 10
15.5069136215
 20
13.4808759863
 30
0.0
 10
15.5176822413
 20
13.507891368
 30
0.0
 10
15.5287422991
 20
13.5341187239
 30
0.0
 10
15.5400850676
 20
13.5595373658
 30
0.0
 10
15.5517016241
 20
13.5841272538
 30
0.0
 10
15.5635828014
 20
13.6078690129
 30
0.0
 10
15.5757192491
 20
13.6307439406
 30
0.0
 10
15.5881014455
 20
13.6527340127
 30
0.0
 10
15.6007196646
 20
13.6738219232
 30
0.0
 10
15.6135640111
 20
13.6939910853
 30
0.0
 10
15.6266244515
 20
13.7132256237
 30
0.0
 10
15.6398908026
 20
13.7315104018
 30
0.0
 10
15.6533527245
 20
13.7488310464
 30
0.0
 10
15.6669997727
 20
13.7651739199
 30
0.0
 10
15.6808214061
 20
13.780526122
 30
0.0
 10
15.6948069526
 20
13.794875533
 30
0.0
 10
15.7089456559
 20
13.8082107781
 30
0.0
 10
15.7232266908
 20
13.8205212015
 30
0.0
 10
15.7376391305
 20
13.8317968947
 30
0.0
 10
15.7521719416
 20
13.8420286941
 30
0.0
 10
15.7668139996
 20
13.8512081262
 30
0.0
 10
15.7815540513
 20
13.8593274128
 30
0.0
 10
15.796380655
 20
13.8663795378
 30
0.0
 10
15.8112821719
 20
13.8723582042
 30
0.0
 10
15.8262467596
 20
13.877257856
 30
0.0
 10
15.8412621933
 20
13.8810738107
 30
0.0
 10
15.8563163365
 20
13.8838023073
 30
0.0
 10
15.8713954903
 20
13.8854405511
 30
0.0
 10
15.8814663005
 20
13.885804981
 30
0.0
 10
15.8864887564
 20
13.8858049852
 30
0.0
  0
SPLINE
  5
2D3
100
AcDbEntity
  8
LAYER_FEATURE
100
AcDbSpline
 62
7
  6
CONTINUOUS
 70
0
 71
3
 72
67
 73
63
 74
0
 42
0.0000001
 43
0.0000001
 44
0.0000000001
 40
0.0
 40
0.0
 40
0.0
 40
0.0
 40
0.0163581013
 40
0.0330510694
 40
0.0500642491
 40
0.0673826926
 40
0.0849905208
 40
0.1028713409
 40
0.1210081566
 40
0.1393834611
 40
0.15797927
 40
0.1767771682
 40
0.1957583526
 40
0.2149036734
 40
0.2536076561
 40
0.292731491
 40
0.3321134768
 40
0.371590054
 40
0.4109969877
 40
0.45017054
 40
0.4889486503
 40
0.5081400228
 40
0.5271731428
 40
0.546028763
 40
0.5646879707
 40
0.5831322282
 40
0.601343416
 40
0.6193038759
 40
0.6369964566
 40
0.65440456
 40
0.6715121917
 40
0.6883040129
 40
0.7047653969
 40
0.720882489
 40
0.7366422729
 40
0.7520326412
 40
0.7670424724
 40
0.7816617173
 40
0.7958814943
 40
0.8096941963
 40
0.8230936114
 40
0.8360750592
 40
0.8486355463
 40
0.8607739405
 40
0.872491169
 40
0.8837904436
 40
0.8946775128
 40
0.905160943
 40
0.9152524249
 40
0.9249671014
 40
0.9343239024
 40
0.9433458667
 40
0.9520604213
 40
0.9604995757
 40
0.9686999787
 40
0.9767027777
 40
0.9806449746
 40
0.9845550535
 40
0.9884391969
 40
0.9923037475
 40
0.9961551669
 40
1.0
 40
1.0
 40
1.0
 40
1.0
 10
14.6786328852
 20
13.3655186993
 30
0.0
 10
14.6747057706
 20
13.3528105516
 30
0.0
 10
14.6670340281
 20
13.3270521488
 30
0.0
 10
14.6561742298
 20
13.2878167675
 30
0.0
 10
14.6458556448
 20
13.2476288354
 30
0.0
 10
14.6360909834
 20
13.206537914
 30
0.0
 10
14.6268922158
 20
13.1645941619
 30
0.0
 10
14.6182706316
 20
13.1218490275
 30
0.0
 10
14.6102368168
 20
13.0783548573
 30
0.0
 10
14.6028006349
 20
13.034164955
 30
0.0
 10
14.595971214
 20
12.9893334649
 30
0.0
 10
14.5897569496
 20
12.9439153621
 30
0.0
 10
14.5841654273
 20
12.8979662061
 30
0.0
 10
14.5775259882
 20
12.8358457752
 30
0.0
 10
14.5708431452
 20
12.7572670365
 30
0.0
 10
14.5654271204
 20
12.6621035315
 30
0.0
 10
14.5626127049
 20
12.5661988942
 30
0.0
 10
14.5624137383
 20
12.4700232184
 30
0.0
 10
14.5648312005
 20
12.3740470466
 30
0.0
 10
14.5698532081
 20
12.2787408231
 30
0.0
 10
14.5762095862
 20
12.1999964777
 30
0.0
 10
14.5825901983
 20
12.1377082597
 30
0.0
 10
14.5879910093
 20
12.0916088327
 30
0.0
 10
14.5940167315
 20
12.0460234039
 30
0.0
 10
14.6006600098
 20
12.0010077385
 30
0.0
 10
14.6079126767
 20
11.9566170386
 30
0.0
 10
14.615765831
 20
11.9129056982
 30
0.0
 10
14.6242098289
 20
11.8699272822
 30
0.0
 10
14.6332343043
 20
11.8277344481
 30
0.0
 10
14.6428281802
 20
11.7863788846
 30
0.0
 10
14.6529796827
 20
11.7459112464
 30
0.0
 10
14.6636763569
 20
11.7063810918
 30
0.0
 10
14.6749050824
 20
11.6678368203
 30
0.0
 10
14.6866520921
 20
11.6303256122
 30
0.0
 10
14.6989029871
 20
11.5938933672
 30
0.0
 10
14.7116427582
 20
11.5585846471
 30
0.0
 10
14.7248558086
 20
11.5244426208
 30
0.0
 10
14.7385259761
 20
11.4915090106
 30
0.0
 10
14.7526365573
 20
11.4598240394
 30
0.0
 10
14.767170334
 20
11.4294263812
 30
0.0
 10
14.7821096011
 20
11.4003531125
 30
0.0
 10
14.7974361983
 20
11.3726396673
 30
0.0
 10
14.813131539
 20
11.3463197934
 30
0.0
 10
14.8291766503
 20
11.3214255184
 30
0.0
 10
14.8455522107
 20
11.2979871209
 30
0.0
 10
14.862238591
 20
11.2760331088
 30
0.0
 10
14.8792158954
 20
11.2555902085
 30
0.0
 10
14.8964640009
 20
11.2366833653
 30
0.0
 10
14.9139625917
 20
11.2193357611
 30
0.0
 10
14.9316911819
 20
11.2035688445
 30
0.0
 10
14.9496291014
 20
11.1894023791
 30
0.0
 10
14.9677555027
 20
11.1768544998
 30
0.0
 10
14.9860491464
 20
11.1659417888
 30
0.0
 10
15.0044887361
 20
11.1566792174
 30
0.0
 10
15.023051075
 20
11.1490803915
 30
0.0
 10
15.0386840179
 20
11.1441189175
 30
0.0
 10
15.0511993996
 20
11.1410113874
 30
0.0
 10
15.0605548962
 20
11.1391125719
 30
0.0
 10
15.0699221061
 20
11.137635129
 30
0.0
 10
15.0792983088
 20
11.1365794124
 30
0.0
 10
15.0886802531
 20
11.1359458447
 30
0.0
 10
15.0949391411
 20
11.1358050037
 30
0.0
 10
15.0980654518
 20
11.1358050006
 30
0.0
  0
SPLINE
  5
2D4
100
AcDbEntity
  8
LAYER_FEATURE
100
AcDbSpline
 62
7
  6
CONTINUOUS
 70
0
 71
3
 72
40
 73
36
 74
0
 42
0.0000001
 43
0.0000001
 44
0.0000000001
 40
0.0
 40
0.0
 40
0.0
 40
0.0
 40
0.0463459027
 40
0.0917154345
 40
0.1360770742
 40
0.1794037859
 40
0.2216699398
 40
0.2628531039
 40
0.3029337993
 40
0.3418958534
 40
0.3797267011
 40
0.4164177067
 40
0.4519645524
 40
0.4863676764
 40
0.5196327474
 40
0.5517711955
 40
0.5828008091
 40
0.6127463908
 40
0.6416404737
 40
0.6695240575
 40
0.6964473474
 40
0.7095687658
 40
0.7224735461
 40
0.7476671275
 40
0.7721127594
 40
0.7959030902
 40
0.8191415361
 40
0.8419414759
 40
0.8644248584
 40
0.8867202158
 40
0.9089601569
 40
0.9312785148
 40
0.9538073913
 40
0.9766743522
 40
1.0
 40
1.0
 40
1.0
 40
1.0
 10
14.7021820359
 20
13.3362898274
 30
0.0
 10
14.7056638988
 20
13.3475571398
 30
0.0
 10
14.7127642205
 20
13.3697902386
 30
0.0
 10
14.7239500517
 20
13.4025618212
 30
0.0
 10
14.7355485428
 20
13.4343734268
 30
0.0
 10
14.7475470419
 20
13.4651905641
 30
0.0
 10
14.7599327578
 20
13.4949802981
 30
0.0
 10
14.7726923493
 20
13.5237105791
 30
0.0
 10
14.7858121354
 20
13.5513505975
 30
0.0
 10
14.7992780554
 20
13.5778707124
 30
0.0
 10
14.8130757041
 20
13.603242502
 30
0.0
 10
14.8271903543
 20
13.6274387893
 30
0.0
 10
14.8416069811
 20
13.6504336689
 30
0.0
 10
14.8563102748
 20
13.6722025402
 30
0.0
 10
14.8712846768
 20
13.692722123
 30
0.0
 10
14.8865144059
 20
13.7119704599
 30
0.0
 10
14.901983499
 20
13.7299269345
 30
0.0
 10
14.9176757838
 20
13.746572225
 30
0.0
 10
14.933575089
 20
13.7618884572
 30
0.0
 10
14.9496645473
 20
13.7758586464
 30
0.0
 10
14.9633330504
 20
13.7864558144
 30
0.0
 10
14.9743433139
 20
13.794224785
 30
0.0
 10
14.9852200382
 20
13.8014085369
 30
0.0
 10
14.9989104679
 20
13.809547503
 30
0.0
 10
15.015594293
 20
13.8179928298
 30
0.0
 10
15.0323837208
 20
13.825027731
 30
0.0
 10
15.0492602187
 20
13.8306427645
 30
0.0
 10
15.0662050846
 20
13.8348302225
 30
0.0
 10
15.0831988614
 20
13.8375839927
 30
0.0
 10
15.1002215374
 20
13.838899907
 30
0.0
 10
15.1172527281
 20
13.8387759208
 30
0.0
 10
15.1342718254
 20
13.837212263
 30
0.0
 10
15.1512587871
 20
13.8342112378
 30
0.0
 10
15.16819251
 20
13.8297778055
 30
0.0
 10
15.1793079963
 20
13.8259149367
 30
0.0
 10
15.1848385027
 20
13.8237603721
 30
0.0
  0
SPLINE
  5
2D5
100
AcDbEntity
  8
LAYER_FEATURE
100
AcDbSpline
 62
7
  6
CONTINUOUS
 70
0
 71
3
 72
75
 73
71
 74
0
 42
0.0000001
 43
0.0000001
 44
0.0000000001
 40
0.0
 40
0.0
 40
0.0
 40
0.0
 40
0.0168981295
 40
0.0341640111
 40
0.0517804733
 40
0.0697297121
 40
0.0879929288
 40
0.106550636
 40
0.1253826278
 40
0.1444680774
 40
0.1637855863
 40
0.1833132452
 40
0.203028689
 40
0.2229091515
 40
0.242931518
 40
0.2630723773
 40
0.3036136571
 40
0.3443428076
 40
0.3850669846
 40
0.4255933844
 40
0.4457231246
 40
0.4657319476
 40
0.4855964706
 40
0.5052936122
 40
0.5248006451
 40
0.5440952488
 40
0.5631555639
 40
0.5819602482
 40
0.600488535
 40
0.6187202934
 40
0.6366360917
 40
0.6542172646
 40
0.671445984
 40
0.6883053359
 40
0.7047794026
 40
0.7208533532
 40
0.736513542
 40
0.7517476181
 40
0.766544648
 40
0.7808952528
 40
0.7947917644
 40
0.8082284032
 40
0.8212014799
 40
0.8337096288
 40
0.8457540721
 40
0.8573389238
 40
0.8684715316
 40
0.8791628598
 40
0.8894279069
 40
0.8992861486
 40
0.9087619821
 40
0.9178851369
 40
0.9266909966
 40
0.9352207571
 40
0.9393975276
 40
0.9435233337
 40
0.9476048617
 40
0.9516490812
 40
0.9556632063
 40
0.9596546601
 40
0.9636310215
 40
0.967599979
 40
0.9715692735
 40
0.9755466437
 40
0.9795397707
 40
0.983556222
 40
0.9876034036
 40
0.9916885111
 40
0.9958184892
 40
1.0
 40
1.0
 40
1.0
 40
1.0
 10
14.7021820359
 20
13.3362898274
 30
0.0
 10
14.6981320877
 20
13.3231841901
 30
0.0
 10
14.6902336749
 20
13.2965973577
 30
0.0
 10
14.6790989399
 20
13.2560631486
 30
0.0
 10
14.6685611693
 20
13.2144888212
 30
0.0
 10
14.6586351493
 20
13.171932668
 30
0.0
 10
14.6493347348
 20
13.1284538863
 30
0.0
 10
14.6406729248
 20
13.0841131642
 30
0.0
 10
14.6326618292
 20
13.0389723316
 30
0.0
 10
14.6253126464
 20
12.9930943678
 30
0.0
 10
14.6186356524
 20
12.9465432793
 30
0.0
 10
14.6126401842
 20
12.899384024
 30
0.0
 10
14.6073346228
 20
12.8516824016
 30
0.0
 10
14.6027263994
 20
12.8035050167
 30
0.0
 10
14.5988219153
 20
12.754918979
 30
0.0
 10
14.5945526228
 20
12.689543965
 30
0.0
 10
14.5910170154
 20
12.6072858748
 30
0.0
 10
14.5896525594
 20
12.5082518885
 30
0.0
 10
14.5911651556
 20
12.4092321307
 30
0.0
 10
14.5948240091
 20
12.3270045808
 30
0.0
 10
14.5991915097
 20
12.2616682205
 30
0.0
 10
14.6031687741
 20
12.2131211521
 30
0.0
 10
14.6078491588
 20
12.1649896922
 30
0.0
 10
14.613226162
 20
12.1173408861
 30
0.0
 10
14.6192922525
 20
12.0702412642
 30
0.0
 10
14.6260389506
 20
12.0237565427
 30
0.0
 10
14.6334568217
 20
11.9779515855
 30
0.0
 10
14.6415354947
 20
11.9328902986
 30
0.0
 10
14.6502636753
 20
11.8886355435
 30
0.0
 10
14.6596291631
 20
11.8452490473
 30
0.0
 10
14.6696188686
 20
11.8027913159
 30
0.0
 10
14.6802188334
 20
11.7613215479
 30
0.0
 10
14.6914142498
 20
11.7208975504
 30
0.0
 10
14.7031894844
 20
11.6815756562
 30
0.0
 10
14.7155281008
 20
11.6434106433
 30
0.0
 10
14.7284128853
 20
11.6064556556
 30
0.0
 10
14.7418258758
 20
11.570762127
 30
0.0
 10
14.7557483909
 20
11.5363797076
 30
0.0
 10
14.7701610627
 20
11.5033561919
 30
0.0
 10
14.7850438717
 20
11.4717374506
 30
0.0
 10
14.8003761848
 20
11.441567366
 30
0.0
 10
14.8161367973
 20
11.4128877709
 30
0.0
 10
14.8323039786
 20
11.3857383942
 30
0.0
 10
14.848855522
 20
11.3601568127
 30
0.0
 10
14.8657687987
 20
11.3361784133
 30
0.0
 10
14.8830208156
 20
11.3138363668
 30
0.0
 10
14.9005882723
 20
11.293161619
 30
0.0
 10
14.9184476186
 20
11.2741829012
 30
0.0
 10
14.9365750863
 20
11.2569267717
 30
0.0
 10
14.9549467491
 20
11.2414176678
 30
0.0
 10
14.97353835
 20
11.2276780349
 30
0.0
 10
14.9923257347
 20
11.2157282673
 30
0.0
 10
15.0112828401
 20
11.20558731
 30
0.0
 10
15.0273147483
 20
11.1986085357
 30
0.0
 10
15.0401723702
 20
11.1939739752
 30
0.0
 10
15.0497732879
 20
11.1909821345
 30
0.0
 10
15.0593947621
 20
11.1884517904
 30
0.0
 10
15.0690335294
 20
11.1863837899
 30
0.0
 10
15.0786861089
 20
11.1847790281
 30
0.0
 10
15.0883490288
 20
11.1836380513
 30
0.0
 10
15.0980188087
 20
11.182961412
 30
0.0
 10
15.1076919409
 20
11.1827492747
 30
0.0
 10
15.1173649205
 20
11.183001831
 30
0.0
 10
15.1270342428
 20
11.1837188804
 30
0.0
 10
15.1366964009
 20
11.1849002207
 30
0.0
 10
15.1463479188
 20
11.186545319
 30
0.0
 10
15.1559853065
 20
11.1886535606
 30
0.0
 10
15.1656051775
 20
11.191224129
 30
0.0
 10
15.1752038946
 20
11.1942559314
 30
0.0
 10
15.1815446843
 20
11.1965685763
 30
0.0
 10
15.1847082227
 20
11.1977989059
 30
0.0
  0
SPLINE
  5
2D6
100
AcDbEntity
  8
LAYER_FEATURE
100
AcDbSpline
 62
7
  6
CONTINUOUS
 70
0
 71
3
 72
15
 73
11
 74
0
 42
0.0000001
 43
0.0000001
 44
0.0000000001
 40
0.0
 40
0.0
 40
0.0
 40
0.0
 40
0.1203739617
 40
0.2474951052
 40
0.3787478008
 40
0.5113440458
 40
0.642451583
 40
0.7692934764
 40
0.8892510195
 40
1.0
 40
1.0
 40
1.0
 40
1.0
 10
14.6858391818
 20
13.2538639288
 30
0.0
 10
14.685687016
 20
13.2532297971
 30
0.0
 10
14.6854280563
 20
13.2519126859
 30
0.0
 10
14.6851735221
 20
13.2498752374
 30
0.0
 10
14.6850462605
 20
13.2477595406
 30
0.0
 10
14.6850496104
 20
13.2456185035
 30
0.0
 10
14.685183467
 20
13.2435055574
 30
0.0
 10
14.6854444013
 20
13.2414733303
 30
0.0
 10
14.6858256145
 20
13.2395725226
 30
0.0
 10
14.6861692242
 20
13.2383687657
 30
0.0
 10
14.6863629066
 20
13.2378008977
 30
0.0
  0
SPLINE
  5
2D7
100
AcDbEntity
  8
LAYER_FEATURE
100
AcDbSpline
 62
7
  6
CONTINUOUS
 70
0
 71
3
 72
15
 73
11
 74
0
 42
0.0000001
 43
0.0000001
 44
0.0000000001
 40
0.0
 40
0.0
 40
0.0
 40
0.0
 40
0.1319184311
 40
0.2645334098
 40
0.3964714988
 40
0.5263632536
 40
0.6528796366
 40
0.7747547727
 40
0.8908111898
 40
1.0
 40
1.0
 40
1.0
 40
1.0
 10
14.6975227885
 20
13.1788483181
 30
0.0
 10
14.6976358374
 20
13.1805703032
 30
0.0
 10
14.697786011
 20
13.1840288375
 30
0.0
 10
14.697787663
 20
13.1892167949
 30
0.0
 10
14.6975671168
 20
13.1943736562
 30
0.0
 10
14.6971270735
 20
13.1994364182
 30
0.0
 10
14.6964730057
 20
13.2043433538
 30
0.0
 10
14.6956129899
 20
13.2090348054
 30
0.0
 10
14.6945577573
 20
13.2134535868
 30
0.0
 10
14.6937042876
 20
13.2162763133
 30
0.0
 10
14.6932432006
 20
13.2176281989
 30
0.0
  0
SPLINE
  5
2D8
100
AcDbEntity
  8
02___PRT_ALL_AXES
100
AcDbSpline
 62
7
  6
CONTINUOUS
 70
0
 71
3
 72
15
 73
11
 74
0
 42
0.0000001
 43
0.0000001
 44
0.0000000001
 40
0.0
 40
0.0
 40
0.0
 40
0.0
 40
0.1336139935
 40
0.2636882879
 40
0.3907018448
 40
0.515194631
 40
0.6377451191
 40
0.7589671508
 40
0.8795009225
 40
1.0
 40
1.0
 40
1.0
 40
1.0
 10
15.676936639
 20
11.8399048432
 30
0.0
 10
15.6742567827
 20
11.8383645508
 30
0.0
 10
15.6688713921
 20
11.8354887632
 30
0.0
 10
15.6606252473
 20
11.8317717263
 30
0.0
 10
15.6523348609
 20
11.8287175441
 30
0.0
 10
15.6440089795
 20
11.8263300999
 30
0.0
 10
15.6356559585
 20
11.8246122877
 30
0.0
 10
15.627284368
 20
11.823566398
 30
0.0
 10
15.6189038184
 20
11.8231938172
 30
0.0
 10
15.6133244002
 20
11.8233944051
 30
0.0
 10
15.6105448263
 20
11.8236055255
 30
0.0
  0
SPLINE
  5
2D9
100
AcDbEntity
  8
LAYER_FEATURE
100
AcDbSpline
 62
7
  6
CONTINUOUS
 70
0
 71
3
 72
15
 73
11
 74
0
 42
0.0000001
 43
0.0000001
 44
0.0000000001
 40
0.0
 40
0.0
 40
0.0
 40
0.0
 40
0.1273832213
 40
0.2596407113
 40
0.3939915413
 40
0.5275610859
 40
0.6575096969
 40
0.7811349078
 40
0.8959827583
 40
1.0
 40
1.0
 40
1.0
 40
1.0
 10
14.6545735554
 20
13.120652198
 30
0.0
 10
14.654452743
 20
13.1199822828
 30
0.0
 10
14.6542570668
 20
13.1186073367
 30
0.0
 10
14.6540970422
 20
13.1165066648
 30
0.0
 10
14.6540670635
 20
13.1143669967
 30
0.0
 10
14.654167952
 20
13.1122418541
 30
0.0
 10
14.6543970836
 20
13.1101842581
 30
0.0
 10
14.6547485955
 20
13.1082452782
 30
0.0
 10
14.6552133545
 20
13.1064731066
 30
0.0
 10
14.6556127422
 20
13.1053711456
 30
0.0
 10
14.6558334313
 20
13.1048609762
 30
0.0
  0
SPLINE
  5
2DA
100
AcDbEntity
  8
LAYER_FEATURE
100
AcDbSpline
 62
7
  6
CONTINUOUS
 70
0
 71
3
 72
15
 73
11
 74
0
 42
0.0000001
 43
0.0000001
 44
0.0000000001
 40
0.0
 40
0.0
 40
0.0
 40
0.0
 40
0.1371386438
 40
0.2734719274
 40
0.4075940973
 40
0.5381311296
 40
0.6637795945
 40
0.7833322517
 40
0.8957081549
 40
1.0
 40
1.0
 40
1.0
 40
1.0
 10
14.6696302057
 20
13.0497116306
 30
0.0
 10
14.6696629666
 20
13.0514461324
 30
0.0
 10
14.6696536807
 20
13.0549068199
 30
0.0
 10
14.6694176175
 20
13.060059047
 30
0.0
 10
14.6689623844
 20
13.0651128853
 30
0.0
 10
14.6682935929
 20
13.0700066566
 30
0.0
 10
14.6674195484
 20
13.0746807894
 30
0.0
 10
14.6663510081
 20
13.07907867
 30
0.0
 10
14.66510127
 20
13.0831468562
 30
0.0
 10
14.6641183365
 20
13.0857086721
 30
0.0
 10
14.6635945421
 20
13.0869195334
 30
0.0
  0
SPLINE
  5
2DB
100
AcDbEntity
  8
LAYER_FEATURE
100
AcDbSpline
 62
7
  6
CONTINUOUS
 70
0
 71
3
 72
16
 73
12
 74
0
 42
0.0000001
 43
0.0000001
 44
0.0000000001
 40
0.0
 40
0.0
 40
0.0
 40
0.0
 40
0.1346192122
 40
0.2721132975
 40
0.4095610881
 40
0.5440263841
 40
0.6726914541
 40
0.7929667576
 40
0.9026186703
 40
0.9529340234
 40
1.0
 40
1.0
 40
1.0
 40
1.0
 10
14.6296628111
 20
12.9788795493
 30
0.0
 10
14.6295744546
 20
12.978183576
 30
0.0
 10
14.6294437649
 20
12.9767703232
 30
0.0
 10
14.6293805513
 20
12.9746355876
 30
0.0
 10
14.6294482858
 20
12.9725016807
 30
0.0
 10
14.6296452625
 20
12.9704219767
 30
0.0
 10
14.6299663843
 20
12.9684481434
 30
0.0
 10
14.6304034514
 20
12.9666293173
 30
0.0
 10
14.6308674207
 20
12.9652417095
 30
0.0
 10
14.6312936489
 20
12.9642499663
 30
0.0
 10
14.631522617
 20
12.9637965488
 30
0.0
 10
14.631641152
 20
12.9635818108
 30
0.0
  0
SPLINE
  5
2DC
100
AcDbEntity
  8
LAYER_FEATURE
100
AcDbSpline
 62
7
  6
CONTINUOUS
 70
0
 71
3
 72
15
 73
11
 74
0
 42
0.0000001
 43
0.0000001
 44
0.0000000001
 40
0.0
 40
0.0
 40
0.0
 40
0.0
 40
0.1426270531
 40
0.2828308838
 40
0.4191859243
 40
0.5503300495
 40
0.6750075738
 40
0.7921001715
 40
0.9006658413
 40
1.0
 40
1.0
 40
1.0
 40
1.0
 10
14.6478811425
 20
12.9130098753
 30
0.0
 10
14.6478340498
 20
12.9147325134
 30
0.0
 10
14.6476672084
 20
12.918147004
 30
0.0
 10
14.6471967823
 20
12.9231915369
 30
0.0
 10
14.646513326
 20
12.9280718317
 30
0.0
 10
14.6456252698
 20
12.9327284431
 30
0.0
 10
14.6445436171
 20
12.9371048538
 30
0.0
 10
14.6432815817
 20
12.9411483993
 30
0.0
 10
14.6418547776
 20
12.9448102129
 30
0.0
 10
14.6407541405
 20
12.9470727378
 30
0.0
 10
14.6401741307
 20
12.9481234826
 30
0.0
  0
SPLINE
  5
2DD
100
AcDbEntity
  8
LAYER_FEATURE
100
AcDbSpline
 62
7
  6
CONTINUOUS
 70
0
 71
3
 72
56
 73
52
 74
0
 42
0.0000001
 43
0.0000001
 44
0.0000000001
 40
0.0
 40
0.0
 40
0.0
 40
0.0
 40
0.0398014555
 40
0.080011747
 40
0.1205199693
 40
0.161213402
 40
0.2019785308
 40
0.2427014992
 40
0.2832686508
 40
0.3235670772
 40
0.3634851756
 40
0.4029132007
 40
0.4417438454
 40
0.4798728256
 40
0.517199493
 40
0.5536274926
 40
0.589065434
 40
0.6063866419
 40
0.6234287305
 40
0.640182026
 40
0.656637326
 40
0.6727859214
 40
0.6886196345
 40
0.7041308672
 40
0.7193126305
 40
0.7341585849
 40
0.7486631007
 40
0.7628213107
 40
0.7766291578
 40
0.7900834645
 40
0.8031820178
 40
0.815923636
 40
0.8283082543
 40
0.8403370364
 40
0.8520124815
 40
0.8633385329
 40
0.8743207131
 40
0.8849662763
 40
0.8952843443
 40
0.9052860589
 40
0.9149847498
 40
0.9243960821
 40
0.9335381808
 40
0.9424317411
 40
0.9511000975
 40
0.9595692116
 40
0.9678675893
 40
0.9760261083
 40
0.9840777266
 40
0.9920570825
 40
1.0
 40
1.0
 40
1.0
 40
1.0
 10
14.6140017715
 20
12.8555195222
 30
0.0
 10
14.6114181707
 20
12.8311404495
 30
0.0
 10
14.606808984
 20
12.7820680799
 30
0.0
 10
14.6015800973
 20
12.7080123572
 30
0.0
 10
14.5980115395
 20
12.6333077422
 30
0.0
 10
14.5961151522
 20
12.558200334
 30
0.0
 10
14.5958971834
 20
12.482937033
 30
0.0
 10
14.5973583734
 20
12.4077653881
 30
0.0
 10
14.6004938662
 20
12.3329325926
 30
0.0
 10
14.6052933384
 20
12.2586847285
 30
0.0
 10
14.6117409019
 20
12.185265925
 30
0.0
 10
14.6198152856
 20
12.1129175575
 30
0.0
 10
14.6294898096
 20
12.0418774203
 30
0.0
 10
14.6407325214
 20
11.9723789919
 30
0.0
 10
14.6535063344
 20
11.9046504372
 30
0.0
 10
14.6677690252
 20
11.8389146072
 30
0.0
 10
14.6809543929
 20
11.7855767807
 30
0.0
 10
14.6922294467
 20
11.7440861527
 30
0.0
 10
14.7009630981
 20
11.7138351487
 30
0.0
 10
14.7100309197
 20
11.684240002
 30
0.0
 10
14.7194254891
 20
11.6553249723
 30
0.0
 10
14.7291390667
 20
11.6271138444
 30
0.0
 10
14.7391636784
 20
11.5996298015
 30
0.0
 10
14.7494910677
 20
11.5728954182
 30
0.0
 10
14.7601127443
 20
11.546932649
 30
0.0
 10
14.7710199959
 20
11.5217628178
 30
0.0
 10
14.7822038684
 20
11.4974065829
 30
0.0
 10
14.7936551782
 20
11.4738839206
 30
0.0
 10
14.805364547
 20
11.4512141252
 30
0.0
 10
14.8173224053
 20
11.4294157895
 30
0.0
 10
14.8295189664
 20
11.4085067668
 30
0.0
 10
14.8419442765
 20
11.3885041802
 30
0.0
 10
14.8545882308
 20
11.3694244189
 30
0.0
 10
14.8674405548
 20
11.3512831029
 30
0.0
 10
14.8804908222
 20
11.3340950746
 30
0.0
 10
14.8937284931
 20
11.3178744179
 30
0.0
 10
14.9071429195
 20
11.3026344491
 30
0.0
 10
14.9207233188
 20
11.2883876795
 30
0.0
 10
14.9344588249
 20
11.2751458549
 30
0.0
 10
14.9483384971
 20
11.2629199744
 30
0.0
 10
14.9623512893
 20
11.2517202612
 30
0.0
 10
14.976486053
 20
11.241556176
 30
0.0
 10
14.9907315455
 20
11.2324364651
 30
0.0
 10
15.0050763943
 20
11.2243691588
 30
0.0
 10
15.0195090361
 20
11.2173615105
 30
0.0
 10
15.0340177026
 20
11.2114200354
 30
0.0
 10
15.04859041
 20
11.2065504874
 30
0.0
 10
15.0632147772
 20
11.2027577353
 30
0.0
 10
15.0778784938
 20
11.2000456931
 30
0.0
 10
15.0925676479
 20
11.1984172657
 30
0.0
 10
15.1023787386
 20
11.198055005
 30
0.0
 10
15.1072711555
 20
11.1980549995
 30
0.0
  0
SPLINE
  5
2DE
100
AcDbEntity
  8
LAYER_FEATURE
100
AcDbSpline
 62
7
  6
CONTINUOUS
 70
0
 71
3
 72
15
 73
11
 74
0
 42
0.0000001
 43
0.0000001
 44
0.0000000001
 40
0.0
 40
0.0
 40
0.0
 40
0.0
 40
0.1135225319
 40
0.2355592166
 40
0.3636923714
 40
0.4952476134
 40
0.6274264102
 40
0.7574071313
 40
0.8824447333
 40
1.0
 40
1.0
 40
1.0
 40
1.0
 10
14.7230207892
 20
13.376644741
 30
0.0
 10
14.7228387856
 20
13.376055777
 30
0.0
 10
14.7225191002
 20
13.3748153801
 30
0.0
 10
14.7221737107
 20
13.372869348
 30
0.0
 10
14.7219509928
 20
13.3708069964
 30
0.0
 10
14.7218567569
 20
13.3686798273
 30
0.0
 10
14.7218934136
 20
13.366540869
 30
0.0
 10
14.7220600355
 20
13.3644434867
 30
0.0
 10
14.7223522646
 20
13.3624401084
 30
0.0
 10
14.7226364294
 20
13.3611521517
 30
0.0
 10
14.7228010112
 20
13.3605353903
 30
0.0
  0
SPLINE
  5
2DF
100
AcDbEntity
  8
LAYER_FEATURE
100
AcDbSpline
 62
7
  6
CONTINUOUS
 70
0
 71
3
 72
15
 73
11
 74
0
 42
0.0000001
 43
0.0000001
 44
0.0000000001
 40
0.0
 40
0.0
 40
0.0
 40
0.0
 40
0.1268997237
 40
0.2559111064
 40
0.3857038519
 40
0.5149258567
 40
0.6422383017
 40
0.7663370526
 40
0.8859752718
 40
1.0
 40
1.0
 40
1.0
 40
1.0
 10
14.7311673401
 20
13.2986071416
 30
0.0
 10
14.7313600005
 20
13.3002922758
 30
0.0
 10
14.7316692822
 20
13.3037000956
 30
0.0
 10
14.731908625
 20
13.3088512981
 30
0.0
 10
14.7319258989
 20
13.3140391562
 30
0.0
 10
14.7317208508
 20
13.3192002571
 30
0.0
 10
14.7312960382
 20
13.3242716297
 30
0.0
 10
14.7306567112
 20
13.3291914849
 30
0.0
 10
14.7298108611
 20
13.3338997504
 30
0.0
 10
14.7290968388
 20
13.3369421138
 30
0.0
 10
14.728703904
 20
13.3384146159
 30
0.0
  0
SPLINE
  5
2E0
100
AcDbEntity
  8
LAYER_FEATURE
100
AcDbSpline
 62
7
  6
CONTINUOUS
 70
0
 71
3
 72
39
 73
35
 74
0
 42
0.0000001
 43
0.0000001
 44
0.0000000001
 40
0.0
 40
0.0
 40
0.0
 40
0.0
 40
0.0443812481
 40
0.0879669295
 40
0.1307335086
 40
0.172661876
 40
0.2137331571
 40
0.2539301992
 40
0.2932376968
 40
0.3316421073
 40
0.369131911
 40
0.4056977099
 40
0.4413323968
 40
0.4760313903
 40
0.5097927974
 40
0.5426176342
 40
0.5745101269
 40
0.6054779669
 40
0.6355325892
 40
0.664689538
 40
0.6929688298
 40
0.7203952869
 40
0.7469989387
 40
0.7728154376
 40
0.7978863828
 40
0.8222596394
 40
0.8459896168
 40
0.869137373
 40
0.8917705712
 40
0.9139632708
 40
0.935795451
 40
0.9573522592
 40
0.9787230199
 40
1.0
 40
1.0
 40
1.0
 40
1.0
 10
14.6786328852
 20
13.3655186993
 30
0.0
 10
14.6817259691
 20
13.3755279225
 30
0.0
 10
14.6880169704
 20
13.3953178795
 30
0.0
 10
14.6978611528
 20
13.4245669602
 30
0.0
 10
14.7080216629
 20
13.4530939431
 30
0.0
 10
14.7184903182
 20
13.4808759858
 30
0.0
 10
14.7292589368
 20
13.5078913671
 30
0.0
 10
14.7403189933
 20
13.5341187246
 30
0.0
 10
14.7516617638
 20
13.5595373651
 30
0.0
 10
14.7632783207
 20
13.5841272529
 30
0.0
 10
14.7751594957
 20
13.6078690136
 30
0.0
 10
14.7872959436
 20
13.630743941
 30
0.0
 10
14.7996781433
 20
13.652734011
 30
0.0
 10
14.8122963598
 20
13.6738219235
 30
0.0
 10
14.8251407036
 20
13.6939910873
 30
0.0
 10
14.8382011499
 20
13.7132256212
 30
0.0
 10
14.8514674991
 20
13.7315104007
 30
0.0
 10
14.8649294164
 20
13.7488310494
 30
0.0
 10
14.8785764695
 20
13.7651739185
 30
0.0
 10
14.8923981044
 20
13.7805261188
 30
0.0
 10
14.9063836457
 20
13.7948755356
 30
0.0
 10
14.920522349
 20
13.8082107808
 30
0.0
 10
14.9348033906
 20
13.8205211956
 30
0.0
 10
14.9492158256
 20
13.831796895
 30
0.0
 10
14.9637486327
 20
13.8420287012
 30
0.0
 10
14.9783906988
 20
13.8512081196
 30
0.0
 10
14.9931307481
 20
13.8593274091
 30
0.0
 10
15.0079573469
 20
13.8663795462
 30
0.0
 10
15.0228588681
 20
13.8723582027
 30
0.0
 10
15.0378234572
 20
13.8772578471
 30
0.0
 10
15.0528388873
 20
13.8810738158
 30
0.0
 10
15.0678930313
 20
13.8838023163
 30
0.0
 10
15.0829721867
 20
13.8854405324
 30
0.0
 10
15.0930429959
 20
13.8858049901
 30
0.0
 10
15.0980654518
 20
13.8858049852
 30
0.0
  0
ENDSEC
  0
SECTION
  2
OBJECTS
  0
DICTIONARY
  5
C
100
AcDbDictionary
280
0
281
1
  3
ACAD_GROUP
350
D
  3
ACAD_MLINESTYLE
350
17
  3
ACAD_LAYOUT
350
1A
  3
ACAD_PLOTSETTINGS
350
19
  3
ACAD_PLOTSTYLENAME
350
E
  0
DICTIONARY
  5
D
102
{ACAD_REACTORS
330
C
102
}
100
AcDbDictionary
280
0
281
1
  0
ACDBDICTIONARYWDFLT
  5
E
102
{ACAD_REACTORS
330
C
102
}
100
AcDbDictionary
281
1
  3
Normal
350
F
100
AcDbDictionaryWithDefault
340
F
  0
DICTIONARY
  5
17
102
{ACAD_REACTORS
330
C
102
}
100
AcDbDictionary
280
0
281
1
  3
Standard
350
18
  0
DICTIONARY
  5
19
102
{ACAD_REACTORS
330
C
102
}
100
AcDbDictionary
281
1
  0
DICTIONARY
  5
1A
102
{ACAD_REACTORS
330
C
102
}
100
AcDbDictionary
281
1
  3
Model
350
2E1
  3
Layout1
350
2E2
  0
ACDBPLACEHOLDER
  5
F
102
{ACAD_REACTORS
330
E
102
}
  0
MLINESTYLE
  5
18
102
{ACAD_REACTORS
330
17
102
}
100
AcDbMlineStyle
  2
STANDARD
 70
0
  3

 62
256
 51
90.0
 52
90.0
 71
2
 49
0.5
 62
256
  6
BYLAYER
 49
-0.5
 62
256
  6
BYLAYER
  0
LAYOUT
  5
2E1
102
{ACAD_REACTORS
330
1A
102
}
100
AcDbPlotSettings
  1

  2
none_device
  4
ANSI_C_(22.00_x_17.00_Inches)
  6

 40
0.0
 41
0.0
 42
0.0
 43
0.0
 44
558.8
 45
431.8
 46
0.0
 47
0.0
 48
0.0
 49
0.0
140
0.0
141
0.0
142
1.0
143
1.0
 70
1024
 72
0
 73
0
 74
0
  7

 75
0
147
1.0
148
0.0
149
0.0
100
AcDbLayout
  1
Model
 70
0
 71
0
 10
0.0
 20
0.0
 11
22.0
 21
17.0
 12
0.0
 22
0.0
 32
0.0
 14
0.0
 24
0.0
 34
0.0
 15
0.0
 25
0.0
 35
0.0
146
0.0
 13
0.0
 23
0.0
 33
0.0
 16
1.0
 26
0.0
 36
0.0
 17
0.0
 27
1.0
 37
0.0
 76
0
330
222
345
0
346
0
  0
LAYOUT
  5
2E2
102
{ACAD_REACTORS
330
1A
102
}
100
AcDbPlotSettings
  1

  2
none_device
  4
ANSI_C_(22.00_x_17.00_Inches)
  6

 40
0.0
 41
0.0
 42
0.0
 43
0.0
 44
558.8
 45
431.8
 46
0.0
 47
0.0
 48
0.0
 49
0.0
140
0.0
141
0.0
142
1.0
143
1.0
 70
0
 72
0
 73
0
 74
0
  7

 75
0
147
1.0
148
0.0
149
0.0
100
AcDbLayout
  1
Layout1
 70
0
 71
1
 10
0.0
 20
0.0
 11
22.0
 21
17.0
 12
0.0
 22
0.0
 32
0.0
 14
0.0
 24
0.0
 34
0.0
 15
0.0
 25
0.0
 35
0.0
146
0.0
 13
0.0
 23
0.0
 33
0.0
 16
1.0
 26
0.0
 36
0.0
 17
0.0
 27
1.0
 37
0.0
 76
0
330
223
345
0
346
0
  0
ENDSEC
  0
EOF