999
DXF file: _cgs_temp_output.dxf
999
Pro/ENGINEER 2016360 by Parametric Technology Corporation
  0
SECTION
  2
HEADER
  9
$ACADVER
  1
AC1021
  9
$DWGCODEPAGE
  3
ANSI_1252
  9
$EXTMAX
 10
22.0
 20
17.0
 30
0.0
  9
$EXTMIN
 10
0.0
 20
0.0
 30
0.0
  9
$LIMMIN
 10
0.0
 20
0.0
  9
$LIMMAX
 10
22.0
 20
17.0
  9
$VIEWCTR
 10
11.0
 20
8.5
  9
$VIEWSIZE
 40
17.0
  9
$CLAYER
  8
0
  9
$LTSCALE
 40
1.21
  9
$CELTYPE
  6
BYLAYER
  9
$DIMSCALE
 40
1.0
  9
$DIMASZ
 40
0.1875
  9
$DIMEXO
 40
0.0625
  9
$DIMDLI
 40
0.836
  9
$DIMEXE
 40
0.125
  9
$DIMCEN
 40
0.198
  9
$DIMLFAC
 40
1.0
  9
$DIMBLK
  1
_CLOSED
  9
$DIMALT
 70
0
  9
$DIMALTF
 40
25.4
  9
$DIMTXT
 40
0.15625
  9
$DIMTOL
 70
0
  9
$DIMLIM
 70
0
  9
$DIMTFAC
 40
1.0
  9
$DIMGAP
 40
0.09
  9
$DIMDSEP
 70
46
  9
$AUNITS
 70
0
  9
$PDMODE
 70
3
  9
$PDSIZE
 40
0.3125
  9
$HANDSEED
  5
2F8
  9
$TILEMODE
 70
1
  9
$MEASUREMENT
 70
0
  9
$INSUNITS
 70
1
  0
ENDSEC
  0
SECTION
  2
CLASSES
  0
CLASS
  1
ACDBDICTIONARYWDFLT
  2
AcDbDictionaryWithDefault
  3
AutoCAD 2000
 90
0
 91
1
280
0
281
0
  0
CLASS
  1
ACDBPLACEHOLDER
  2
AcDbPlaceHolder
  3
AutoCAD 2000
 90
0
 91
1
280
0
281
0
  0
CLASS
  1
LAYOUT
  2
AcDbLayout
  3
AutoCAD 2000
 90
0
 91
0
280
0
281
0
  0
ENDSEC
  0
SECTION
  2
TABLES
  0
TABLE
  2
VPORT
  5
8
100
AcDbSymbolTable
 70
2
  0
VPORT
  5
1F4
100
AcDbSymbolTableRecord
100
AcDbViewportTableRecord
  2
*ACTIVE
 70
0
 10
0.0
 20
0.0
 11
1.0
 21
1.0
 12
11.0
 22
8.5
 13
0.0
 23
0.0
 14
1.0
 24
1.0
 15
0.0
 25
0.0
 16
0.0
 26
0.0
 36
1.0
 17
0.0
 27
0.0
 37
0.0
 40
17.0
 41
1.2941176471
 42
50.0
 43
0.0
 44
0.0
 50
0.0
 51
0.0
 71
0
 72
100
 73
1
 74
1
 75
0
 76
0
 77
0
 78
0
  0
ENDTAB
  0
TABLE
  2
LTYPE
  5
5
100
AcDbSymbolTable
 70
6
  0
LTYPE
  5
14
100
AcDbSymbolTableRecord
100
AcDbLinetypeTableRecord
  2
BYBLOCK
 70
0
  3

 72
65
 73
0
 40
0.0
  0
LTYPE
  5
15
100
AcDbSymbolTableRecord
100
AcDbLinetypeTableRecord
  2
BYLAYER
 70
0
  3

 72
65
 73
0
 40
0.0
  0
LTYPE
  5
16
100
AcDbSymbolTableRecord
100
AcDbLinetypeTableRecord
  2
CONTINUOUS
 70
64
  3
Solid line
 72
65
 73
0
 40
0.0
  0
LTYPE
  5
1F5
100
AcDbSymbolTableRecord
100
AcDbLinetypeTableRecord
  2
CENTER
 70
64
  3
____ _ ____ _ ____ _ ____ _ ____ _ ____ _ ____
 72
65
 73
4
 40
0.6
 49
0.375
 74
0
 49
-0.075
 74
0
 49
0.075
 74
0
 49
-0.075
 74
0
  0
LTYPE
  5
1F6
100
AcDbSymbolTableRecord
100
AcDbLinetypeTableRecord
  2
HIDDEN
 70
64
  3
- - - - - - - - - - - - - - - - - - - -
 72
65
 73
2
 40
0.2
 49
0.1
 74
0
 49
-0.1
 74
0
  0
LTYPE
  5
1F7
100
AcDbSymbolTableRecord
100
AcDbLinetypeTableRecord
  2
PHANTOM
 70
64
  3
_____ _ _ _____ _ _ _____ _ _ _____
 72
65
 73
6
 40
0.8
 49
0.45
 74
0
 49
-0.05
 74
0
 49
0.1
 74
0
 49
-0.05
 74
0
 49
0.1
 74
0
 49
-0.05
 74
0
  0
LTYPE
  5
1F8
100
AcDbSymbolTableRecord
100
AcDbLinetypeTableRecord
  2
DOT
 70
64
  3
. . . . . . . . . . . . . . . . . . . .
 72
65
 73
2
 40
0.2
 49
0.1
 74
0
 49
-0.1
 74
0
  0
LTYPE
  5
1F9
100
AcDbSymbolTableRecord
100
AcDbLinetypeTableRecord
  2
DASHED
 70
64
  3
- - - - - - - - - - - - - - - - - - - -
 72
65
 73
2
 40
0.2
 49
0.1
 74
0
 49
-0.1
 74
0
  0
ENDTAB
  0
TABLE
  2
LAYER
  5
2
100
AcDbSymbolTable
 70
36
  0
LAYER
  5
10
100
AcDbSymbolTableRecord
100
AcDbLayerTableRecord
  2
0
 70
0
 62
7
  6
CONTINUOUS
370
-3
390
F
  0
LAYER
  5
1FA
100
AcDbSymbolTableRecord
100
AcDbLayerTableRecord
  2
DEFAULT_1
 70
0
 62
7
  6
CENTER
370
-3
390
F
  0
LAYER
  5
1FB
100
AcDbSymbolTableRecord
100
AcDbLayerTableRecord
  2
DEFAULT_2
 70
0
 62
8
  6
HIDDEN
370
-3
390
F
  0
LAYER
  5
1FC
100
AcDbSymbolTableRecord
100
AcDbLayerTableRecord
  2
DEFAULT_3
 70
0
 62
7
  6
PHANTOM
370
-3
390
F
  0
LAYER
  5
1FD
100
AcDbSymbolTableRecord
100
AcDbLayerTableRecord
  2
01_ALL_DTM_PLN
 70
0
 62
7
  6
CONTINUOUS
370
-3
390
F
  0
LAYER
  5
1FE
100
AcDbSymbolTableRecord
100
AcDbLayerTableRecord
  2
01__ASM_ALL_DTM_PLN
 70
0
 62
7
  6
CONTINUOUS
370
-3
390
F
  0
LAYER
  5
1FF
100
AcDbSymbolTableRecord
100
AcDbLayerTableRecord
  2
01__ASM_DEF_DTM_PLN
 70
0
 62
7
  6
CONTINUOUS
370
-3
390
F
  0
LAYER
  5
200
100
AcDbSymbolTableRecord
100
AcDbLayerTableRecord
  2
01___PRT_ALL_DTM_PLN
 70
0
 62
7
  6
CONTINUOUS
370
-3
390
F
  0
LAYER
  5
201
100
AcDbSymbolTableRecord
100
AcDbLayerTableRecord
  2
01___PRT_DEF_DTM_PLN
 70
0
 62
7
  6
CONTINUOUS
370
-3
390
F
  0
LAYER
  5
202
100
AcDbSymbolTableRecord
100
AcDbLayerTableRecord
  2
02_ALL_AXES
 70
0
 62
7
  6
CONTINUOUS
370
-3
390
F
  0
LAYER
  5
203
100
AcDbSymbolTableRecord
100
AcDbLayerTableRecord
  2
02__ASM_ALL_AXES
 70
0
 62
7
  6
CONTINUOUS
370
-3
390
F
  0
LAYER
  5
204
100
AcDbSymbolTableRecord
100
AcDbLayerTableRecord
  2
02___PRT_ALL_AXES
 70
0
 62
7
  6
CONTINUOUS
370
-3
390
F
  0
LAYER
  5
205
100
AcDbSymbolTableRecord
100
AcDbLayerTableRecord
  2
03_ALL_CURVES
 70
0
 62
7
  6
CONTINUOUS
370
-3
390
F
  0
LAYER
  5
206
100
AcDbSymbolTableRecord
100
AcDbLayerTableRecord
  2
03__ASM_ALL_CURVES
 70
0
 62
7
  6
CONTINUOUS
370
-3
390
F
  0
LAYER
  5
207
100
AcDbSymbolTableRecord
100
AcDbLayerTableRecord
  2
03___PRT_ALL_CURVES
 70
0
 62
7
  6
CONTINUOUS
370
-3
390
F
  0
LAYER
  5
208
100
AcDbSymbolTableRecord
100
AcDbLayerTableRecord
  2
04_ALL_DTM_PNT
 70
0
 62
7
  6
CONTINUOUS
370
-3
390
F
  0
LAYER
  5
209
100
AcDbSymbolTableRecord
100
AcDbLayerTableRecord
  2
04__ASM_ALL_DTM_PNT
 70
0
 62
7
  6
CONTINUOUS
370
-3
390
F
  0
LAYER
  5
20A
100
AcDbSymbolTableRecord
100
AcDbLayerTableRecord
  2
04___PRT_ALL_DTM_PNT
 70
0
 62
7
  6
CONTINUOUS
370
-3
390
F
  0
LAYER
  5
20B
100
AcDbSymbolTableRecord
100
AcDbLayerTableRecord
  2
05_ALL_DTM_CSYS
 70
0
 62
7
  6
CONTINUOUS
370
-3
390
F
  0
LAYER
  5
20C
100
AcDbSymbolTableRecord
100
AcDbLayerTableRecord
  2
05__ASM_ALL_DTM_CSYS
 70
0
 62
7
  6
CONTINUOUS
370
-3
390
F
  0
LAYER
  5
20D
100
AcDbSymbolTableRecord
100
AcDbLayerTableRecord
  2
05__ASM_DEF_DTM_CSYS
 70
0
 62
7
  6
CONTINUOUS
370
-3
390
F
  0
LAYER
  5
20E
100
AcDbSymbolTableRecord
100
AcDbLayerTableRecord
  2
05___PRT_ALL_DTM_CSYS
 70
0
 62
7
  6
CONTINUOUS
370
-3
390
F
  0
LAYER
  5
20F
100
AcDbSymbolTableRecord
100
AcDbLayerTableRecord
  2
05___PRT_DEF_DTM_CSYS
 70
0
 62
7
  6
CONTINUOUS
370
-3
390
F
  0
LAYER
  5
210
100
AcDbSymbolTableRecord
100
AcDbLayerTableRecord
  2
06_ALL_SURFS
 70
0
 62
7
  6
CONTINUOUS
370
-3
390
F
  0
LAYER
  5
211
100
AcDbSymbolTableRecord
100
AcDbLayerTableRecord
  2
06__ASM_ALL_SURFS
 70
0
 62
7
  6
CONTINUOUS
370
-3
390
F
  0
LAYER
  5
212
100
AcDbSymbolTableRecord
100
AcDbLayerTableRecord
  2
06___PRT_ALL_SURFS
 70
0
 62
7
  6
CONTINUOUS
370
-3
390
F
  0
LAYER
  5
213
100
AcDbSymbolTableRecord
100
AcDbLayerTableRecord
  2
07__ASM_ALL_SKELETONS
 70
0
 62
7
  6
CONTINUOUS
370
-3
390
F
  0
LAYER
  5
214
100
AcDbSymbolTableRecord
100
AcDbLayerTableRecord
  2
LAYER_AXIS
 70
0
 62
7
  6
CONTINUOUS
370
-3
390
F
  0
LAYER
  5
215
100
AcDbSymbolTableRecord
100
AcDbLayerTableRecord
  2
LAYER_CHAMFER_FEAT
 70
0
 62
7
  6
CONTINUOUS
370
-3
390
F
  0
LAYER
  5
216
100
AcDbSymbolTableRecord
100
AcDbLayerTableRecord
  2
LAYER_CUT_FEAT
 70
0
 62
7
  6
CONTINUOUS
370
-3
390
F
  0
LAYER
  5
217
100
AcDbSymbolTableRecord
100
AcDbLayerTableRecord
  2
LAYER_DATUM
 70
0
 62
7
  6
CONTINUOUS
370
-3
390
F
  0
LAYER
  5
218
100
AcDbSymbolTableRecord
100
AcDbLayerTableRecord
  2
LAYER_DIM
 70
0
 62
7
  6
CONTINUOUS
370
-3
390
F
  0
LAYER
  5
219
100
AcDbSymbolTableRecord
100
AcDbLayerTableRecord
  2
LAYER_FEATURE
 70
0
 62
7
  6
CONTINUOUS
370
-3
390
F
  0
LAYER
  5
21A
100
AcDbSymbolTableRecord
100
AcDbLayerTableRecord
  2
LAYER_GEOM_FEAT
 70
0
 62
7
  6
CONTINUOUS
370
-3
390
F
  0
LAYER
  5
21B
100
AcDbSymbolTableRecord
100
AcDbLayerTableRecord
  2
LAYER_NOGEOM_FEAT
 70
0
 62
7
  6
CONTINUOUS
370
-3
390
F
  0
LAYER
  5
21C
100
AcDbSymbolTableRecord
100
AcDbLayerTableRecord
  2
LAYER_PARAMETER_DIM
 70
0
 62
7
  6
CONTINUOUS
370
-3
390
F
  0
LAYER
  5
21D
100
AcDbSymbolTableRecord
100
AcDbLayerTableRecord
  2
LAYER_PROTRUSION_FEAT
 70
0
 62
7
  6
CONTINUOUS
370
-3
390
F
  0
LAYER
  5
21E
100
AcDbSymbolTableRecord
100
AcDbLayerTableRecord
  2
LAYER_QUILT
 70
0
 62
7
  6
CONTINUOUS
370
-3
390
F
  0
LAYER
  5
21F
100
AcDbSymbolTableRecord
100
AcDbLayerTableRecord
  2
LAYER_ROUND_FEAT
 70
0
 62
7
  6
CONTINUOUS
370
-3
390
F
  0
ENDTAB
  0
TABLE
  2
STYLE
  5
3
100
AcDbSymbolTable
 70
1
  0
STYLE
  5
11
100
AcDbSymbolTableRecord
100
AcDbTextStyleTableRecord
  2
STANDARD
 70
0
 40
0.0
 41
0.8
 50
0.0
 71
0
 42
0.2
  3
txt
  4

  0
STYLE
  5
220
100
AcDbSymbolTableRecord
100
AcDbTextStyleTableRecord
  2
TEXTSTYLE_1
 70
0
 40
0.0
 41
0.8
 50
0.0
 71
0
 42
0.2
  3
gdt
  4

  0
ENDTAB
  0
TABLE
  2
VIEW
  5
6
100
AcDbSymbolTable
 70
0
  0
ENDTAB
  0
TABLE
  2
UCS
  5
7
100
AcDbSymbolTable
 70
0
  0
ENDTAB
  0
TABLE
  2
APPID
  5
9
100
AcDbSymbolTable
 70
1
  0
APPID
  5
221
100
AcDbSymbolTableRecord
100
AcDbRegAppTableRecord
  2
ACAD
 70
0
  0
ENDTAB
  0
TABLE
  2
BLOCK_RECORD
  5
1
100
AcDbSymbolTable
 70
0
  0
BLOCK_RECORD
  5
222
100
AcDbSymbolTableRecord
100
AcDbBlockTableRecord
  2
*Model_Space
  0
BLOCK_RECORD
  5
223
100
AcDbSymbolTableRecord
100
AcDbBlockTableRecord
  2
*Paper_Space
  0
ENDTAB
  0
TABLE
  2
DIMSTYLE
  5
A
100
AcDbSymbolTable
 70
1
100
AcDbDimStyleTable
 71
0
  0
DIMSTYLE
105
224
100
AcDbSymbolTableRecord
100
AcDbDimStyleTableRecord
  2
STANDARD
 70
0
  3

  4

 40
1.0
 41
0.1875
 42
0.0625
 43
0.38
 44
0.125
 45
0.0
 46
0.0
 47
0.0001
 48
0.0001
140
0.15625
141
0.09
142
0.0
143
25.4
144
1.0
145
0.0
146
1.0
147
0.09
 71
0.0
 72
0.0
 73
1
 74
1
 75
0
 76
0
 77
0
 78
4
 79
1
170
0
171
3
172
0
173
0
174
0
175
0
176
0
177
0
178
0
270
2
179
4
271
4
272
4
273
2
274
2
275
0
280
0
281
0
282
0
283
1
284
4
285
0
286
0
287
3
288
0
340
11
278
46
  0
ENDTAB
  0
ENDSEC
  0
SECTION
  2
BLOCKS
  0
BLOCK
  5
20
100
AcDbEntity
  8
0
100
AcDbBlockBegin
  2
*Model_Space
 70
0
 10
0.0
 20
0.0
 30
0.0
  3
*Model_Space
  1

  0
ENDBLK
  5
21
100
AcDbEntity
  8
0
100
AcDbBlockEnd
  0
BLOCK
  5
1C
100
AcDbEntity
  8
0
100
AcDbBlockBegin
  2
*Paper_Space
 70
0
 10
0.0
 20
0.0
 30
0.0
  3
*Paper_Space
  1

  0
ENDBLK
  5
1D
100
AcDbEntity
  8
0
100
AcDbBlockEnd
  0
ENDSEC
  0
SECTION
  2
ENTITIES
  0
MTEXT
  5
225
100
AcDbEntity
  8
0
100
AcDbMText
 62
7
  6
CONTINUOUS
  7
STANDARD
 71
1
 72
1
 10
15.9560215477
 20
0.9479130325
 30
0.0
 11
1.0
 21
0.0
 31
0.0
 44
0.9
  1
SCALE: 1:0.500
 40
0.3
 41
3.36
  0
LINE
  5
226
100
AcDbEntity
  8
0
100
AcDbLine
 62
7
  6
CONTINUOUS
 10
0.0
 20
0.0
 11
0.0
 21
17.0
  0
LINE
  5
227
100
AcDbEntity
  8
0
100
AcDbLine
 62
7
  6
CONTINUOUS
 10
0.0
 20
0.0
 11
22.0
 21
0.0
  0
LINE
  5
228
100
AcDbEntity
  8
0
100
AcDbLine
 62
7
  6
CONTINUOUS
 10
0.0
 20
17.0
 11
22.0
 21
17.0
  0
LINE
  5
229
100
AcDbEntity
  8
0
100
AcDbLine
 62
7
  6
CONTINUOUS
 10
22.0
 20
0.0
 11
22.0
 21
17.0
  0
LINE
  5
22A
100
AcDbEntity
  8
LAYER_FEATURE
100
AcDbLine
 62
7
  6
CONTINUOUS
 10
6.2388672762
 20
4.1676198968
 11
6.1928619494
 21
4.1676198968
  0
LINE
  5
22B
100
AcDbEntity
  8
LAYER_FEATURE
100
AcDbLine
 62
7
  6
CONTINUOUS
 10
5.8218672762
 20
4.1676198968
 11
5.8678726029
 21
4.1676198968
  0
LINE
  5
22C
100
AcDbEntity
  8
02___PRT_ALL_AXES
100
AcDbLine
 62
7
  6
CONTINUOUS
 10
5.8878672762
 20
4.2826198968
 11
6.1728672762
 21
4.2826198968
  0
LINE
  5
22D
100
AcDbEntity
  8
02___PRT_ALL_AXES
100
AcDbLine
 62
7
  6
CONTINUOUS
 10
6.2388672762
 20
6.6028358927
 11
6.2428672762
 21
6.6041198968
  0
LINE
  5
22E
100
AcDbEntity
  8
02___PRT_ALL_AXES
100
AcDbLine
 62
7
  6
CONTINUOUS
 10
6.4113672762
 20
4.5801198968
 11
6.2428672762
 21
4.5801198968
  0
LINE
  5
22F
100
AcDbEntity
  8
02___PRT_ALL_AXES
100
AcDbLine
 62
7
  6
CONTINUOUS
 10
6.2388672762
 20
4.4374039008
 11
6.2428672762
 21
4.4361198968
  0
LINE
  5
230
100
AcDbEntity
  8
02___PRT_ALL_AXES
100
AcDbLine
 62
7
  6
CONTINUOUS
 10
5.8178672762
 20
4.4361198968
 11
5.8178672762
 21
6.6041198968
  0
LINE
  5
231
100
AcDbEntity
  8
LAYER_FEATURE
100
AcDbLine
 62
7
  6
CONTINUOUS
 10
5.8218672762
 20
6.8726198968
 11
5.8218672762
 21
4.1676198968
  0
LINE
  5
232
100
AcDbEntity
  8
LAYER_FEATURE
100
AcDbLine
 62
7
  6
CONTINUOUS
 10
5.8678726029
 20
6.8726198968
 11
5.8678726029
 21
4.1676198968
  0
LINE
  5
233
100
AcDbEntity
  8
LAYER_FEATURE
100
AcDbLine
 62
7
  6
CONTINUOUS
 10
5.8878672762
 20
6.778552355
 11
5.8878672762
 21
4.2616874385
  0
LINE
  5
234
100
AcDbEntity
  8
LAYER_FEATURE
100
AcDbLine
 62
7
  6
CONTINUOUS
 10
6.1928619494
 20
6.8726198968
 11
6.1728672762
 21
6.778552355
  0
LINE
  5
235
100
AcDbEntity
  8
LAYER_FEATURE
100
AcDbLine
 62
7
  6
CONTINUOUS
 10
6.1928619494
 20
4.1676198968
 11
6.1728672762
 21
4.2616874385
  0
LINE
  5
236
100
AcDbEntity
  8
LAYER_FEATURE
100
AcDbLine
 62
7
  6
CONTINUOUS
 10
6.1728672762
 20
6.778552355
 11
6.1728672762
 21
4.2616874385
  0
LINE
  5
237
100
AcDbEntity
  8
LAYER_FEATURE
100
AcDbLine
 62
7
  6
CONTINUOUS
 10
6.1928619494
 20
6.8726198968
 11
6.1928619494
 21
4.1676198968
  0
LINE
  5
238
100
AcDbEntity
  8
LAYER_FEATURE
100
AcDbLine
 62
7
  6
CONTINUOUS
 10
5.8678726029
 20
4.1676198968
 11
5.8878672762
 21
4.2616874385
  0
LINE
  5
239
100
AcDbEntity
  8
LAYER_FEATURE
100
AcDbLine
 62
7
  6
CONTINUOUS
 10
5.8678726029
 20
6.8726198968
 11
5.8878672762
 21
6.778552355
  0
LINE
  5
23A
100
AcDbEntity
  8
LAYER_FEATURE
100
AcDbLine
 62
7
  6
CONTINUOUS
 10
6.2388672762
 20
6.8726198968
 11
6.2388672762
 21
4.1676198968
  0
LINE
  5
23B
100
AcDbEntity
  8
02___PRT_ALL_AXES
100
AcDbLine
 62
7
  6
CONTINUOUS
 10
6.2428672762
 20
4.4361198968
 11
6.2428672762
 21
6.6041198968
  0
LINE
  5
23C
100
AcDbEntity
  8
02___PRT_ALL_AXES
100
AcDbLine
 62
7
  6
CONTINUOUS
 10
6.4113672762
 20
6.4601198968
 11
6.4113672762
 21
4.5801198968
  0
LINE
  5
23D
100
AcDbEntity
  8
02___PRT_ALL_AXES
100
AcDbLine
 62
7
  6
CONTINUOUS
 10
6.4428672762
 20
6.4286198968
 11
6.4428672762
 21
4.6116198968
  0
LINE
  5
23E
100
AcDbEntity
  8
02___PRT_ALL_AXES
100
AcDbLine
 62
7
  6
CONTINUOUS
 10
6.4428672762
 20
4.6116198968
 11
6.4113672762
 21
4.5801198968
  0
LINE
  5
23F
100
AcDbEntity
  8
02___PRT_ALL_AXES
100
AcDbLine
 62
7
  6
CONTINUOUS
 10
5.8178672762
 20
4.4361198968
 11
5.8218672762
 21
4.4374039008
  0
LINE
  5
240
100
AcDbEntity
  8
02___PRT_ALL_AXES
100
AcDbLine
 62
7
  6
CONTINUOUS
 10
5.8178672762
 20
6.6041198968
 11
5.8218672762
 21
6.6028358927
  0
LINE
  5
241
100
AcDbEntity
  8
02___PRT_ALL_AXES
100
AcDbLine
 62
7
  6
CONTINUOUS
 10
6.4428672762
 20
6.4286198968
 11
6.4113672762
 21
6.4601198968
  0
LINE
  5
242
100
AcDbEntity
  8
02___PRT_ALL_AXES
100
AcDbLine
 62
7
  6
CONTINUOUS
 10
6.4113672762
 20
6.4601198968
 11
6.2428672762
 21
6.4601198968
  0
LINE
  5
243
100
AcDbEntity
  8
LAYER_FEATURE
100
AcDbLine
 62
7
  6
CONTINUOUS
 10
5.8878672762
 20
6.6452540344
 11
6.1728672762
 21
6.6452540344
  0
LINE
  5
244
100
AcDbEntity
  8
0
100
AcDbLine
 62
7
  6
CONTINUOUS
 10
5.8878672762
 20
6.6462100375
 11
6.1728672762
 21
6.6462100375
  0
LINE
  5
245
100
AcDbEntity
  8
LAYER_FEATURE
100
AcDbLine
 62
7
  6
CONTINUOUS
 10
5.8878672762
 20
6.6930181951
 11
6.1728672762
 21
6.6930181951
  0
LINE
  5
246
100
AcDbEntity
  8
LAYER_FEATURE
100
AcDbLine
 62
7
  6
CONTINUOUS
 10
5.8878672762
 20
6.7009595823
 11
6.1728672762
 21
6.7009595823
  0
LINE
  5
247
100
AcDbEntity
  8
0
100
AcDbLine
 62
7
  6
CONTINUOUS
 10
5.8878672762
 20
6.7013872823
 11
6.1728672762
 21
6.7013872823
  0
LINE
  5
248
100
AcDbEntity
  8
LAYER_FEATURE
100
AcDbLine
 62
7
  6
CONTINUOUS
 10
5.8878672762
 20
6.7332270952
 11
6.1728672762
 21
6.7332270952
  0
LINE
  5
249
100
AcDbEntity
  8
LAYER_FEATURE
100
AcDbLine
 62
7
  6
CONTINUOUS
 10
5.8878672762
 20
6.738042583
 11
6.1728672762
 21
6.738042583
  0
LINE
  5
24A
100
AcDbEntity
  8
0
100
AcDbLine
 62
7
  6
CONTINUOUS
 10
5.8878672762
 20
6.7381499312
 11
6.1728672762
 21
6.7381499312
  0
LINE
  5
24B
100
AcDbEntity
  8
LAYER_FEATURE
100
AcDbLine
 62
7
  6
CONTINUOUS
 10
5.8878672762
 20
6.7543045701
 11
6.1728672762
 21
6.7543045701
  0
LINE
  5
24C
100
AcDbEntity
  8
LAYER_FEATURE
100
AcDbLine
 62
7
  6
CONTINUOUS
 10
5.8878672762
 20
6.7559182154
 11
6.1728672762
 21
6.7559182154
  0
LINE
  5
24D
100
AcDbEntity
  8
LAYER_FEATURE
100
AcDbLine
 62
7
  6
CONTINUOUS
 10
6.2388672762
 20
6.8726198968
 11
6.1928619494
 21
6.8726198968
  0
LINE
  5
24E
100
AcDbEntity
  8
LAYER_FEATURE
100
AcDbLine
 62
7
  6
CONTINUOUS
 10
5.8218672762
 20
6.8726198968
 11
5.8678726029
 21
6.8726198968
  0
LINE
  5
24F
100
AcDbEntity
  8
LAYER_FEATURE
100
AcDbLine
 62
7
  6
CONTINUOUS
 10
5.7623720839
 20
11.2475477814
 11
5.8083774106
 21
11.2475477814
  0
LINE
  5
250
100
AcDbEntity
  8
LAYER_FEATURE
100
AcDbLine
 62
7
  6
CONTINUOUS
 10
6.1333667571
 20
11.2475477814
 11
6.1793720839
 21
11.2475477814
  0
LINE
  5
251
100
AcDbEntity
  8
02___PRT_ALL_AXES
100
AcDbLine
 62
7
  6
CONTINUOUS
 10
5.8283720839
 20
11.3625477814
 11
6.1133720839
 21
11.3625477814
  0
LINE
  5
252
100
AcDbEntity
  8
02___PRT_ALL_AXES
100
AcDbLine
 62
7
  6
CONTINUOUS
 10
6.1833720839
 20
13.6840477814
 11
6.1793720839
 21
13.6827637773
  0
LINE
  5
253
100
AcDbEntity
  8
02___PRT_ALL_AXES
100
AcDbLine
 62
7
  6
CONTINUOUS
 10
6.1833720839
 20
11.6600477814
 11
6.3518720839
 21
11.6600477814
  0
LINE
  5
254
100
AcDbEntity
  8
02___PRT_ALL_AXES
100
AcDbLine
 62
7
  6
CONTINUOUS
 10
6.1833720839
 20
11.5160477814
 11
6.1793720839
 21
11.5173317854
  0
LINE
  5
255
100
AcDbEntity
  8
LAYER_FEATURE
100
AcDbLine
 62
7
  6
CONTINUOUS
 10
5.8283720839
 20
12.0848008286
 11
6.1133720839
 21
12.0848008286
  0
LINE
  5
256
100
AcDbEntity
  8
LAYER_FEATURE
100
AcDbLine
 62
7
  6
CONTINUOUS
 10
6.1133720839
 20
12.153400174
 11
5.8283720839
 21
12.153400174
  0
LINE
  5
257
100
AcDbEntity
  8
LAYER_FEATURE
100
AcDbLine
 62
7
  6
CONTINUOUS
 10
6.1133720839
 20
12.1845476863
 11
5.8283720839
 21
12.1845476863
  0
LINE
  5
258
100
AcDbEntity
  8
0
100
AcDbLine
 62
7
  6
CONTINUOUS
 10
5.8283720839
 20
12.1968371537
 11
6.1133720839
 21
12.1968371537
  0
LINE
  5
259
100
AcDbEntity
  8
LAYER_FEATURE
100
AcDbLine
 62
7
  6
CONTINUOUS
 10
5.8283720839
 20
12.2054393276
 11
6.1133720839
 21
12.2054393276
  0
LINE
  5
25A
100
AcDbEntity
  8
LAYER_FEATURE
100
AcDbLine
 62
7
  6
CONTINUOUS
 10
5.8283720839
 20
12.2298804044
 11
6.1133720839
 21
12.2298804044
  0
LINE
  5
25B
100
AcDbEntity
  8
02___PRT_ALL_AXES
100
AcDbLine
 62
7
  6
CONTINUOUS
 10
5.7583720839
 20
11.5160478518
 11
5.7583720839
 21
13.684047711
  0
LINE
  5
25C
100
AcDbEntity
  8
LAYER_FEATURE
100
AcDbLine
 62
7
  6
CONTINUOUS
 10
5.7623720839
 20
11.2475477814
 11
5.7623720839
 21
13.9525477814
  0
LINE
  5
25D
100
AcDbEntity
  8
LAYER_FEATURE
100
AcDbLine
 62
7
  6
CONTINUOUS
 10
6.1133720839
 20
12.2926081555
 11
5.8283720839
 21
12.2926081555
  0
LINE
  5
25E
100
AcDbEntity
  8
LAYER_FEATURE
100
AcDbLine
 62
7
  6
CONTINUOUS
 10
6.1133720839
 20
12.3250556914
 11
5.8283720839
 21
12.3250556914
  0
LINE
  5
25F
100
AcDbEntity
  8
LAYER_FEATURE
100
AcDbLine
 62
7
  6
CONTINUOUS
 10
5.8083774106
 20
11.2475477814
 11
5.8083774106
 21
13.9525477814
  0
LINE
  5
260
100
AcDbEntity
  8
LAYER_FEATURE
100
AcDbLine
 62
7
  6
CONTINUOUS
 10
5.8283720839
 20
11.3416154048
 11
5.8283720839
 21
13.8584801579
  0
LINE
  5
261
100
AcDbEntity
  8
LAYER_FEATURE
100
AcDbLine
 62
7
  6
CONTINUOUS
 10
6.1133720839
 20
13.8584802397
 11
6.1333667571
 21
13.9525477814
  0
LINE
  5
262
100
AcDbEntity
  8
LAYER_FEATURE
100
AcDbLine
 62
7
  6
CONTINUOUS
 10
5.8283720839
 20
12.3555540695
 11
6.1133720839
 21
12.3555540695
  0
LINE
  5
263
100
AcDbEntity
  8
LAYER_FEATURE
100
AcDbLine
 62
7
  6
CONTINUOUS
 10
5.8283720839
 20
12.3807977408
 11
6.1133720839
 21
12.3807977408
  0
LINE
  5
264
100
AcDbEntity
  8
LAYER_FEATURE
100
AcDbLine
 62
7
  6
CONTINUOUS
 10
6.1133720839
 20
11.3416153231
 11
6.1333667571
 21
11.2475477814
  0
LINE
  5
265
100
AcDbEntity
  8
LAYER_FEATURE
100
AcDbLine
 62
7
  6
CONTINUOUS
 10
6.1133720839
 20
12.4366646436
 11
5.8283720839
 21
12.4366646436
  0
LINE
  5
266
100
AcDbEntity
  8
LAYER_FEATURE
100
AcDbLine
 62
7
  6
CONTINUOUS
 10
6.1133720839
 20
12.4699004861
 11
5.8283720839
 21
12.4699004861
  0
LINE
  5
267
100
AcDbEntity
  8
LAYER_FEATURE
100
AcDbLine
 62
7
  6
CONTINUOUS
 10
5.8283720839
 20
12.5095246233
 11
6.1133720839
 21
12.5095246233
  0
LINE
  5
268
100
AcDbEntity
  8
LAYER_FEATURE
100
AcDbLine
 62
7
  6
CONTINUOUS
 10
5.8283720839
 20
12.5351727814
 11
6.1133720839
 21
12.5351727814
  0
LINE
  5
269
100
AcDbEntity
  8
LAYER_FEATURE
100
AcDbLine
 62
7
  6
CONTINUOUS
 10
6.1133720839
 20
12.5832977814
 11
5.8283720839
 21
12.5832977814
  0
LINE
  5
26A
100
AcDbEntity
  8
LAYER_FEATURE
100
AcDbLine
 62
7
  6
CONTINUOUS
 10
6.1133720839
 20
11.3416153231
 11
6.1133720839
 21
13.8584802397
  0
LINE
  5
26B
100
AcDbEntity
  8
LAYER_FEATURE
100
AcDbLine
 62
7
  6
CONTINUOUS
 10
6.1333667571
 20
11.2475477814
 11
6.1333667571
 21
13.9525477814
  0
LINE
  5
26C
100
AcDbEntity
  8
LAYER_FEATURE
100
AcDbLine
 62
7
  6
CONTINUOUS
 10
5.8083774106
 20
11.2475477814
 11
5.8283720839
 21
11.3416153231
  0
LINE
  5
26D
100
AcDbEntity
  8
LAYER_FEATURE
100
AcDbLine
 62
7
  6
CONTINUOUS
 10
6.1133720839
 20
12.6167977814
 11
5.8283720839
 21
12.6167977814
  0
LINE
  5
26E
100
AcDbEntity
  8
LAYER_FEATURE
100
AcDbLine
 62
7
  6
CONTINUOUS
 10
5.8283720839
 20
12.6649227814
 11
6.1133720839
 21
12.6649227814
  0
LINE
  5
26F
100
AcDbEntity
  8
LAYER_FEATURE
100
AcDbLine
 62
7
  6
CONTINUOUS
 10
5.8083774106
 20
13.9525477814
 11
5.8283720839
 21
13.8584802397
  0
LINE
  5
270
100
AcDbEntity
  8
LAYER_FEATURE
100
AcDbLine
 62
7
  6
CONTINUOUS
 10
6.1793720839
 20
11.2475477814
 11
6.1793720839
 21
13.9525477814
  0
LINE
  5
271
100
AcDbEntity
  8
02___PRT_ALL_AXES
100
AcDbLine
 62
7
  6
CONTINUOUS
 10
6.1833720839
 20
11.5160478518
 11
6.1833720839
 21
13.684047711
  0
LINE
  5
272
100
AcDbEntity
  8
02___PRT_ALL_AXES
100
AcDbLine
 62
7
  6
CONTINUOUS
 10
6.3518720839
 20
11.6600477814
 11
6.3518720839
 21
13.5400477814
  0
LINE
  5
273
100
AcDbEntity
  8
02___PRT_ALL_AXES
100
AcDbLine
 62
7
  6
CONTINUOUS
 10
6.3833720839
 20
11.6915477814
 11
6.3833720839
 21
13.5085477814
  0
LINE
  5
274
100
AcDbEntity
  8
02___PRT_ALL_AXES
100
AcDbLine
 62
7
  6
CONTINUOUS
 10
6.3518720839
 20
11.6600477814
 11
6.3833720839
 21
11.6915477814
  0
LINE
  5
275
100
AcDbEntity
  8
02___PRT_ALL_AXES
100
AcDbLine
 62
7
  6
CONTINUOUS
 10
5.7623720839
 20
11.5173317854
 11
5.7583720839
 21
11.5160477814
  0
LINE
  5
276
100
AcDbEntity
  8
02___PRT_ALL_AXES
100
AcDbLine
 62
7
  6
CONTINUOUS
 10
5.7623720839
 20
13.6827637773
 11
5.7583720839
 21
13.6840477814
  0
LINE
  5
277
100
AcDbEntity
  8
02___PRT_ALL_AXES
100
AcDbLine
 62
7
  6
CONTINUOUS
 10
6.3518720839
 20
13.5400477814
 11
6.3833720839
 21
13.5085477814
  0
LINE
  5
278
100
AcDbEntity
  8
02___PRT_ALL_AXES
100
AcDbLine
 62
7
  6
CONTINUOUS
 10
6.1833720839
 20
13.5400477814
 11
6.3518720839
 21
13.5400477814
  0
LINE
  5
279
100
AcDbEntity
  8
02___PRT_ALL_AXES
100
AcDbLine
 62
7
  6
CONTINUOUS
 10
5.8283720839
 20
13.8375477814
 11
6.1133720839
 21
13.8375477814
  0
LINE
  5
27A
100
AcDbEntity
  8
LAYER_FEATURE
100
AcDbLine
 62
7
  6
CONTINUOUS
 10
5.7623720839
 20
13.9525477814
 11
5.8083774106
 21
13.9525477814
  0
LINE
  5
27B
100
AcDbEntity
  8
LAYER_FEATURE
100
AcDbLine
 62
7
  6
CONTINUOUS
 10
6.1333667571
 20
13.9525477814
 11
6.1793720839
 21
13.9525477814
  0
LINE
  5
27C
100
AcDbEntity
  8
LAYER_FEATURE
100
AcDbLine
 62
7
  6
CONTINUOUS
 10
15.2715489365
 20
11.1583049929
 11
15.3139226485
 21
11.1583049929
  0
LINE
  5
27D
100
AcDbEntity
  8
LAYER_FEATURE
100
AcDbLine
 62
7
  6
CONTINUOUS
 10
15.613257659
 20
11.1583049929
 11
15.655631371
 21
11.1583049929
  0
LINE
  5
27E
100
AcDbEntity
  8
02___PRT_ALL_AXES
100
AcDbLine
 62
7
  6
CONTINUOUS
 10
15.3323389621
 20
11.2733049929
 11
15.4009815943
 21
11.2733049929
  0
LINE
  5
27F
100
AcDbEntity
  8
02___PRT_ALL_AXES
100
AcDbLine
 62
7
  6
CONTINUOUS
 10
15.602025445
 20
13.584775432
 11
15.5680964784
 21
13.5728403445
  0
LINE
  5
280
100
AcDbEntity
  8
02___PRT_ALL_AXES
100
AcDbLine
 62
7
  6
CONTINUOUS
 10
15.6593156149
 20
11.5708049929
 11
15.8145143924
 21
11.5708049929
  0
LINE
  5
281
100
AcDbEntity
  8
02___PRT_ALL_AXES
100
AcDbLine
 62
7
  6
CONTINUOUS
 10
15.602025445
 20
11.4368345539
 11
15.5680664916
 21
11.4487801897
  0
LINE
  5
282
100
AcDbEntity
  8
LAYER_FEATURE
100
AcDbLine
 62
7
  6
CONTINUOUS
 10
14.8939816285
 20
12.8338902089
 11
14.8977595633
 21
12.8659546948
  0
LINE
  5
283
100
AcDbEntity
  8
LAYER_FEATURE
100
AcDbLine
 62
7
  6
CONTINUOUS
 10
14.9132070465
 20
12.9724267002
 11
14.9185201645
 21
13.00302243
  0
LINE
  5
284
100
AcDbEntity
  8
LAYER_FEATURE
100
AcDbLine
 62
7
  6
CONTINUOUS
 10
14.9390424253
 20
13.1036831414
 11
14.9458069354
 21
13.1323276022
  0
LINE
  5
285
100
AcDbEntity
  8
LAYER_FEATURE
100
AcDbLine
 62
7
  6
CONTINUOUS
 10
14.9734699933
 20
13.2333225083
 11
14.9791895472
 21
13.2518309915
  0
LINE
  5
286
100
AcDbEntity
  8
02___PRT_ALL_AXES
100
AcDbLine
 62
7
  6
CONTINUOUS
 10
15.5985799087
 20
12.2143180229
 11
15.601915525
 21
12.2146539405
  0
LINE
  5
287
100
AcDbEntity
  8
02___PRT_ALL_AXES
100
AcDbLine
 62
7
  6
CONTINUOUS
 10
15.601915525
 20
12.2146539405
 11
15.5951629011
 21
12.2146997737
  0
LINE
  5
288
100
AcDbEntity
  8
02___PRT_ALL_AXES
100
AcDbLine
 62
7
  6
CONTINUOUS
 10
15.601915525
 20
12.2146539405
 11
15.5951606559
 21
12.2147108619
  0
LINE
  5
289
100
AcDbEntity
  8
LAYER_FEATURE
100
AcDbLine
 62
7
  6
CONTINUOUS
 10
14.8897625396
 20
12.9006380155
 11
14.8811457929
 21
12.9155513106
  0
LINE
  5
28A
100
AcDbEntity
  8
LAYER_FEATURE
100
AcDbLine
 62
7
  6
CONTINUOUS
 10
14.9122789907
 20
13.0400060826
 11
14.9044580636
 21
13.0575750584
  0
LINE
  5
28B
100
AcDbEntity
  8
LAYER_FEATURE
100
AcDbLine
 62
7
  6
CONTINUOUS
 10
14.9414200384
 20
13.1710283325
 11
14.9345182717
 21
13.1909759157
  0
LINE
  5
28C
100
AcDbEntity
  8
LAYER_FEATURE
100
AcDbLine
 62
7
  6
CONTINUOUS
 10
14.976726111
 20
13.2916384658
 11
14.9708523498
 21
13.3136500712
  0
LINE
  5
28D
100
AcDbEntity
  8
LAYER_FEATURE
100
AcDbLine
 62
7
  6
CONTINUOUS
 10
14.8694474396
 20
12.8162638171
 11
14.8798384123
 21
12.8164089182
  0
LINE
  5
28E
100
AcDbEntity
  8
LAYER_FEATURE
100
AcDbLine
 62
7
  6
CONTINUOUS
 10
14.864402009
 20
12.8065927853
 11
15.0994225661
 21
12.8065927853
  0
LINE
  5
28F
100
AcDbEntity
  8
LAYER_FEATURE
100
AcDbLine
 62
7
  6
CONTINUOUS
 10
15.1018414163
 20
12.8338902089
 11
14.8939816285
 21
12.8338902089
  0
LINE
  5
290
100
AcDbEntity
  8
LAYER_FEATURE
100
AcDbLine
 62
7
  6
CONTINUOUS
 10
15.105142543
 20
12.8659546948
 11
14.8977595633
 21
12.8659546948
  0
LINE
  5
291
100
AcDbEntity
  8
LAYER_FEATURE
100
AcDbLine
 62
7
  6
CONTINUOUS
 10
14.8790344582
 20
12.9307828463
 11
15.1126220326
 21
12.9307828463
  0
LINE
  5
292
100
AcDbEntity
  8
LAYER_FEATURE
100
AcDbLine
 62
7
  6
CONTINUOUS
 10
14.8825283642
 20
12.9548646449
 11
15.1158722953
 21
12.9548646449
  0
LINE
  5
293
100
AcDbEntity
  8
0
100
AcDbLine
 62
7
  6
CONTINUOUS
 10
14.8873701899
 20
12.9629338293
 11
15.1169732508
 21
12.9629338293
  0
LINE
  5
294
100
AcDbEntity
  8
LAYER_FEATURE
100
AcDbLine
 62
7
  6
CONTINUOUS
 10
15.1182684534
 20
12.9724267002
 11
14.9132070465
 21
12.9724267002
  0
LINE
  5
295
100
AcDbEntity
  8
LAYER_FEATURE
100
AcDbLine
 62
7
  6
CONTINUOUS
 10
15.1227917387
 20
13.00302243
 11
14.9185201645
 21
13.00302243
  0
LINE
  5
296
100
AcDbEntity
  8
LAYER_FEATURE
100
AcDbLine
 62
7
  6
CONTINUOUS
 10
14.9031067839
 20
13.0733660163
 11
15.1343508869
 21
13.0733660163
  0
LINE
  5
297
100
AcDbEntity
  8
LAYER_FEATURE
100
AcDbLine
 62
7
  6
CONTINUOUS
 10
14.9077485012
 20
13.0961334186
 11
15.1385447914
 21
13.0961334186
  0
LINE
  5
298
100
AcDbEntity
  8
0
100
AcDbLine
 62
7
  6
CONTINUOUS
 10
14.9122815353
 20
13.1026879949
 11
15.1397929594
 21
13.1026879949
  0
LINE
  5
299
100
AcDbEntity
  8
LAYER_FEATURE
100
AcDbLine
 62
7
  6
CONTINUOUS
 10
15.1399824621
 20
13.1036831414
 11
14.9390424253
 21
13.1036831414
  0
LINE
  5
29A
100
AcDbEntity
  8
LAYER_FEATURE
100
AcDbLine
 62
7
  6
CONTINUOUS
 10
15.1455074605
 20
13.1323276022
 11
14.9458069354
 21
13.1323276022
  0
LINE
  5
29B
100
AcDbEntity
  8
02___PRT_ALL_AXES
100
AcDbLine
 62
7
  6
CONTINUOUS
 10
15.8313070394
 20
13.1975883739
 11
15.8356126339
 21
13.1980043686
  0
LINE
  5
29C
100
AcDbEntity
  8
LAYER_FEATURE
100
AcDbLine
 62
7
  6
CONTINUOUS
 10
14.9339483575
 20
13.2070772629
 11
15.1618246064
 21
13.2070772629
  0
LINE
  5
29D
100
AcDbEntity
  8
LAYER_FEATURE
100
AcDbLine
 62
7
  6
CONTINUOUS
 10
14.9396646834
 20
13.2281712133
 11
15.1668222858
 21
13.2281712133
  0
LINE
  5
29E
100
AcDbEntity
  8
0
100
AcDbLine
 62
7
  6
CONTINUOUS
 10
14.9438174373
 20
13.2333225083
 11
15.1681155063
 21
13.2333225083
  0
LINE
  5
29F
100
AcDbEntity
  8
LAYER_FEATURE
100
AcDbLine
 62
7
  6
CONTINUOUS
 10
15.1727620173
 20
13.2518309915
 11
14.9791895472
 21
13.2518309915
  0
LINE
  5
2A0
100
AcDbEntity
  8
LAYER_FEATURE
100
AcDbLine
 62
7
  6
CONTINUOUS
 10
14.9710727889
 20
13.3298078798
 11
15.1942417218
 21
13.3298078798
  0
LINE
  5
2A1
100
AcDbEntity
  8
02___PRT_ALL_AXES
100
AcDbLine
 62
7
  6
CONTINUOUS
 10
15.9692792207
 20
11.6589523812
 11
15.9931063739
 21
11.6874985059
  0
LINE
  5
2A2
100
AcDbEntity
  8
02___PRT_ALL_AXES
100
AcDbLine
 62
7
  6
CONTINUOUS
 10
15.9692792207
 20
13.3626576046
 11
15.9931063739
 21
13.3341114799
  0
LINE
  5
2A3
100
AcDbEntity
  8
02___PRT_ALL_AXES
100
AcDbLine
 62
7
  6
CONTINUOUS
 10
15.6593156149
 20
13.4508049929
 11
15.8145143924
 21
13.4508049929
  0
LINE
  5
2A4
100
AcDbEntity
  8
02___PRT_ALL_AXES
100
AcDbLine
 62
7
  6
CONTINUOUS
 10
15.3323389621
 20
13.7483049929
 11
15.4009596311
 21
13.7483049929
  0
LINE
  5
2A5
100
AcDbEntity
  8
LAYER_FEATURE
100
AcDbLine
 62
7
  6
CONTINUOUS
 10
15.2715489365
 20
13.8633049929
 11
15.3139226485
 21
13.8633049929
  0
LINE
  5
2A6
100
AcDbEntity
  8
LAYER_FEATURE
100
AcDbLine
 62
7
  6
CONTINUOUS
 10
15.613257659
 20
13.8633049929
 11
15.655631371
 21
13.8633049929
  0
CIRCLE
  5
2A7
100
AcDbEntity
  8
LAYER_FEATURE
100
AcDbCircle
 62
7
  6
CONTINUOUS
 10
15.5603552569
 20
5.4606247044
 40
1.3525
  0
CIRCLE
  5
2A8
100
AcDbEntity
  8
LAYER_FEATURE
100
AcDbCircle
 62
7
  6
CONTINUOUS
 10
15.5603552569
 20
5.4606247044
 40
1.2584324583
  0
CIRCLE
  5
2A9
100
AcDbEntity
  8
02___PRT_ALL_AXES
100
AcDbCircle
 62
7
  6
CONTINUOUS
 10
15.5603552569
 20
5.4606247044
 40
1.084
  0
CIRCLE
  5
2AA
100
AcDbEntity
  8
02___PRT_ALL_AXES
100
AcDbCircle
 62
7
  6
CONTINUOUS
 10
15.5603552569
 20
5.4606247044
 40
0.94
  0
CIRCLE
  5
2AB
100
AcDbEntity
  8
02___PRT_ALL_AXES
100
AcDbCircle
 62
7
  6
CONTINUOUS
 10
15.5603552569
 20
5.4606247044
 40
0.9085
  0
ARC
  5
2AC
100
AcDbEntity
  8
02___PRT_ALL_AXES
100
AcDbCircle
 62
7
  6
CONTINUOUS
 10
15.5603552569
 20
5.4606247044
 40
0.6875
100
AcDbArc
 50
153.9499278124
 51
231.0500721876
  0
ARC
  5
2AD
100
AcDbEntity
  8
02___PRT_ALL_AXES
100
AcDbCircle
 62
7
  6
CONTINUOUS
 10
15.5603552569
 20
5.4606247044
 40
0.6875
100
AcDbArc
 50
58.9499278124
 51
136.0500721876
  0
ARC
  5
2AE
100
AcDbEntity
  8
02___PRT_ALL_AXES
100
AcDbCircle
 62
7
  6
CONTINUOUS
 10
15.5603552569
 20
5.4606247044
 40
0.6875
100
AcDbArc
 50
248.9499278124
 51
41.0500721876
  0
ARC
  5
2AF
100
AcDbEntity
  8
02___PRT_ALL_AXES
100
AcDbCircle
 62
7
  6
CONTINUOUS
 10
15.5603552569
 20
5.4606247044
 40
0.6656478713
100
AcDbArc
 50
135.5426864311
 51
154.4573135689
  0
ARC
  5
2B0
100
AcDbEntity
  8
02___PRT_ALL_AXES
100
AcDbCircle
 62
7
  6
CONTINUOUS
 10
15.5603552569
 20
5.4606247044
 40
0.6437957425
100
AcDbArc
 50
59.5897023119
 51
230.4102976881
  0
ARC
  5
2B1
100
AcDbEntity
  8
02___PRT_ALL_AXES
100
AcDbCircle
 62
7
  6
CONTINUOUS
 10
15.5603552569
 20
5.4606247044
 40
0.6437957425
100
AcDbArc
 50
249.5897023119
 51
40.4102976881
  0
ARC
  5
2B2
100
AcDbEntity
  8
02___PRT_ALL_AXES
100
AcDbCircle
 62
7
  6
CONTINUOUS
 10
15.9821846258
 20
5.9633413702
 40
0.109375
100
AcDbArc
 50
308.6898214686
 51
151.3101785314
  0
ARC
  5
2B3
100
AcDbEntity
  8
02___PRT_ALL_AXES
100
AcDbCircle
 62
7
  6
CONTINUOUS
 10
15.2322302569
 20
4.8922955332
 40
0.109375
100
AcDbArc
 50
138.6898214686
 51
341.3101785314
  0
ARC
  5
2B4
100
AcDbEntity
  8
02___PRT_ALL_AXES
100
AcDbCircle
 62
7
  6
CONTINUOUS
 10
15.0227867279
 20
5.8370342408
 40
0.109375
100
AcDbArc
 50
55.1836503003
 51
234.8163496997
  0
ARC
  5
2B5
100
AcDbEntity
  8
02___PRT_ALL_AXES
100
AcDbCircle
 62
7
  6
CONTINUOUS
 10
20.228747149
 20
76.8500260557
 40
65.153945103
100
AcDbArc
 50
266.0772834204
 51
266.1923001208
  0
ARC
  5
2B6
100
AcDbEntity
  8
02___PRT_ALL_AXES
100
AcDbCircle
 62
7
  6
CONTINUOUS
 10
13.3559133145
 20
-21.0001997126
 40
33.0231137912
100
AcDbArc
 50
85.443267215
 51
85.9389272447
  0
ARC
  5
2B7
100
AcDbEntity
  8
LAYER_FEATURE
100
AcDbCircle
 62
7
  6
CONTINUOUS
 10
17.5463213313
 20
12.5560940793
 40
2.6934756237
100
AcDbArc
 50
171.4860296724
 51
172.0036644022
  0
ARC
  5
2B8
100
AcDbEntity
  8
LAYER_FEATURE
100
AcDbCircle
 62
7
  6
CONTINUOUS
 10
17.2017528098
 20
12.6165850964
 40
2.343591765
100
AcDbArc
 50
168.1926805603
 51
168.7607470488
  0
ARC
  5
2B9
100
AcDbEntity
  8
LAYER_FEATURE
100
AcDbCircle
 62
7
  6
CONTINUOUS
 10
16.8177514691
 20
12.7079001612
 40
1.9488180885
100
AcDbArc
 50
164.5161064396
 51
165.1586460665
  0
ARC
  5
2BA
100
AcDbEntity
  8
LAYER_FEATURE
100
AcDbCircle
 62
7
  6
CONTINUOUS
 10
14.9081589378
 20
13.119804957
 40
0.0348382367
100
AcDbArc
 50
330.501977634
 51
332.4345150891
  0
SPLINE
  5
2BB
100
AcDbEntity
  8
02___PRT_ALL_AXES
100
AcDbSpline
 62
7
  6
CONTINUOUS
 70
0
 71
3
 72
46
 73
42
 74
0
 42
0.0000001
 43
0.0000001
 44
0.0000000001
 40
0.0
 40
0.0
 40
0.0
 40
0.0
 40
0.0246252324
 40
0.0512678644
 40
0.0798893012
 40
0.1104090006
 40
0.1427137517
 40
0.1766631726
 40
0.2120946463
 40
0.2488271687
 40
0.2866646654
 40
0.32539891
 40
0.364812198
 40
0.4046798506
 40
0.444772611
 40
0.4848589786
 40
0.5247075156
 40
0.5640891544
 40
0.602779535
 40
0.6405614112
 40
0.6772271606
 40
0.7125814617
 40
0.746444234
 40
0.7786539723
 40
0.8090716775
 40
0.8375856804
 40
0.8641177977
 40
0.8766299703
 40
0.8886371308
 40
0.9001430095
 40
0.9111555434
 40
0.9216873909
 40
0.9317564539
 40
0.9413867098
 40
0.9506086083
 40
0.9594599141
 40
0.9679858889
 40
0.9762395896
 40
0.984281283
 40
0.9921775097
 40
1.0
 40
1.0
 40
1.0
 40
1.0
 10
15.5781645916
 20
12.4196851727
 30
0.0
 10
15.5770923443
 20
12.4181813987
 30
0.0
 10
15.575009643
 20
12.4149425067
 30
0.0
 10
15.5721698881
 20
12.4096610753
 30
0.0
 10
15.5695087301
 20
12.4037986457
 30
0.0
 10
15.56704416
 20
12.397394602
 30
0.0
 10
15.5647925625
 20
12.3904914982
 30
0.0
 10
15.562769221
 20
12.3831357048
 30
0.0
 10
15.560987895
 20
12.3753767756
 30
0.0
 10
15.5594607538
 20
12.367267147
 30
0.0
 10
15.5581982456
 20
12.3588617272
 30
0.0
 10
15.5572090168
 20
12.3502175042
 30
0.0
 10
15.5564998459
 20
12.3413931365
 30
0.0
 10
15.5560755942
 20
12.3324485392
 30
0.0
 10
15.5559391702
 20
12.3234444645
 30
0.0
 10
15.5560915097
 20
12.3144420781
 30
0.0
 10
15.5565315683
 20
12.3055025344
 30
0.0
 10
15.5572563294
 20
12.2966865507
 30
0.0
 10
15.5582608256
 20
12.288053984
 30
0.0
 10
15.5595381726
 20
12.2796634113
 30
0.0
 10
15.5610796214
 20
12.2715717146
 30
0.0
 10
15.5628746256
 20
12.263833679
 30
0.0
 10
15.5649109312
 20
12.25650158
 30
0.0
 10
15.5671746719
 20
12.2496248485
 30
0.0
 10
15.5696505623
 20
12.2432495088
 30
0.0
 10
15.5723219113
 20
12.2374184486
 30
0.0
 10
15.5747416327
 20
12.2329608363
 30
0.0
 10
15.5767685811
 20
12.2297113211
 30
0.0
 10
15.578296287
 20
12.2274816598
 30
0.0
 10
15.5798586765
 20
12.2254154106
 30
0.0
 10
15.5814532259
 20
12.2235160466
 30
0.0
 10
15.5830773251
 20
12.2217867721
 30
0.0
 10
15.5847283993
 20
12.2202305657
 30
0.0
 10
15.5864037801
 20
12.2188500885
 30
0.0
 10
15.5881008647
 20
12.2176478613
 30
0.0
 10
15.5898169113
 20
12.2166260743
 30
0.0
 10
15.5915491935
 20
12.2157868139
 30
0.0
 10
15.5932947802
 20
12.215131871
 30
0.0
 10
15.5950506766
 20
12.2146628094
 30
0.0
 10
15.5968133682
 20
12.2143808371
 30
0.0
 10
15.5979932186
 20
12.2143180133
 30
0.0
 10
15.5985799087
 20
12.2143180165
 30
0.0
  0
SPLINE
  5
2BC
100
AcDbEntity
  8
02___PRT_ALL_AXES
100
AcDbSpline
 62
7
  6
CONTINUOUS
 70
0
 71
3
 72
23
 73
19
 74
0
 42
0.0000001
 43
0.0000001
 44
0.0000000001
 40
0.0
 40
0.0
 40
0.0
 40
0.0
 40
0.0888376409
 40
0.174505467
 40
0.2567846962
 40
0.335494344
 40
0.4104786557
 40
0.4816207752
 40
0.5488460967
 40
0.6121310695
 40
0.6715128681
 40
0.7271015292
 40
0.7790945523
 40
0.8277932425
 40
0.8736186965
 40
0.9171228279
 40
0.958986951
 40
1.0
 40
1.0
 40
1.0
 40
1.0
 10
15.9020044455
 20
11.8399048432
 30
0.0
 10
15.9024798784
 20
11.8380701019
 30
0.0
 10
15.9034711138
 20
11.8344805876
 30
0.0
 10
15.9051114319
 20
11.8292522672
 30
0.0
 10
15.9068734753
 20
11.8242922259
 30
0.0
 10
15.9087505296
 20
11.8196191513
 30
0.0
 10
15.9107356379
 20
11.815250413
 30
0.0
 10
15.9128214035
 20
11.8112022817
 30
0.0
 10
15.9150001795
 20
11.8074897438
 30
0.0
 10
15.9172640834
 20
11.8041264914
 30
0.0
 10
15.9196051085
 20
11.8011248989
 30
0.0
 10
15.9220152224
 20
11.798496064
 30
0.0
 10
15.9244864381
 20
11.796249923
 30
0.0
 10
15.9270108495
 20
11.7943954704
 30
0.0
 10
15.92958031
 20
11.7929410516
 30
0.0
 10
15.9321863139
 20
11.7918945362
 30
0.0
 10
15.9348177565
 20
11.7912630464
 30
0.0
 10
15.9365889845
 20
11.7911217758
 30
0.0
 10
15.9374639926
 20
11.79112178
 30
0.0
  0
SPLINE
  5
2BD
100
AcDbEntity
  8
02___PRT_ALL_AXES
100
AcDbSpline
 62
7
  6
CONTINUOUS
 70
0
 71
3
 72
30
 73
26
 74
0
 42
0.0000001
 43
0.0000001
 44
0.0000000001
 40
0.0
 40
0.0
 40
0.0
 40
0.0
 40
0.0821709547
 40
0.160818394
 40
0.2359930691
 40
0.3077802745
 40
0.3763044915
 40
0.4417343882
 40
0.5042878765
 40
0.5642366807
 40
0.6219095696
 40
0.6500194402
 40
0.6777100987
 40
0.7050383483
 40
0.7320639851
 40
0.7588493687
 40
0.7854590069
 40
0.8119590062
 40
0.8384164988
 40
0.864899018
 40
0.89147386
 40
0.9182074553
 40
0.9451647795
 40
0.9724087934
 40
1.0
 40
1.0
 40
1.0
 40
1.0
 10
15.8791298998
 20
11.585369098
 30
0.0
 10
15.8741043799
 20
11.5774975869
 30
0.0
 10
15.8639389668
 20
11.5622988942
 30
0.0
 10
15.8479813205
 20
11.5407280074
 30
0.0
 10
15.8316761322
 20
11.5209224353
 30
0.0
 10
15.8150520698
 20
11.5029186085
 30
0.0
 10
15.7981375463
 20
11.4867492792
 30
0.0
 10
15.7809614184
 20
11.4724445849
 30
0.0
 10
15.7635522734
 20
11.4600318173
 30
0.0
 10
15.7459409328
 20
11.4495364139
 30
0.0
 10
15.7309917387
 20
11.4423450797
 30
0.0
 10
15.7189917998
 20
11.4376082878
 30
0.0
 10
15.7100394467
 20
11.434576077
 30
0.0
 10
15.7010631817
 20
11.4320361521
 30
0.0
 10
15.6920670266
 20
11.4299896619
 30
0.0
 10
15.6830552492
 20
11.4284377651
 30
0.0
 10
15.6740321172
 20
11.427381242
 30
0.0
 10
15.6650019326
 20
11.4268206951
 30
0.0
 10
15.6559690209
 20
11.426756411
 30
0.0
 10
15.6469377152
 20
11.4271884292
 30
0.0
 10
15.6379123394
 20
11.4281165245
 30
0.0
 10
15.62889722
 20
11.4295401673
 30
0.0
 10
15.6198965698
 20
11.4314586524
 30
0.0
 10
15.6109149042
 20
11.433870826
 30
0.0
 10
15.6049835857
 20
11.4357939829
 30
0.0
 10
15.6020254454
 20
11.4368345609
 30
0.0
  0
SPLINE
  5
2BE
100
AcDbEntity
  8
02___PRT_ALL_AXES
100
AcDbSpline
 62
7
  6
CONTINUOUS
 70
0
 71
3
 72
32
 73
28
 74
0
 42
0.0000001
 43
0.0000001
 44
0.0000000001
 40
0.0
 40
0.0
 40
0.0
 40
0.0
 40
0.0167644439
 40
0.0337496769
 40
0.0511660935
 40
0.0692050502
 40
0.0880333475
 40
0.1077908964
 40
0.1285905543
 40
0.1505199365
 40
0.1736440146
 40
0.1980075409
 40
0.2236378756
 40
0.2505474457
 40
0.2787354668
 40
0.3081899175
 40
0.3388890687
 40
0.3708023915
 40
0.4038918374
 40
0.4381127525
 40
0.5097338577
 40
0.5852072378
 40
0.6639980347
 40
0.7455175264
 40
0.8291353779
 40
0.9141893122
 40
1.0
 40
1.0
 40
1.0
 40
1.0
 10
15.792288868
 20
13.2631039749
 30
0.0
 10
15.7915947995
 20
13.2631039805
 30
0.0
 10
15.7901959764
 20
13.2630157316
 30
0.0
 10
15.7881097886
 20
13.2626201906
 30
0.0
 10
15.7860353875
 20
13.2619628674
 30
0.0
 10
15.7839785745
 20
13.2610463786
 30
0.0
 10
15.7819440908
 20
13.2598738689
 30
0.0
 10
15.7799365131
 20
13.2584488253
 30
0.0
 10
15.7779601459
 20
13.2567751272
 30
0.0
 10
15.7760192259
 20
13.2548570025
 30
0.0
 10
15.7741179897
 20
13.2526990726
 30
0.0
 10
15.7722606195
 20
13.2503064697
 30
0.0
 10
15.7704512802
 20
13.2476848168
 30
0.0
 10
15.7686941196
 20
13.2448402412
 30
0.0
 10
15.7669931738
 20
13.241779423
 30
0.0
 10
15.7653523978
 20
13.2385095518
 30
0.0
 10
15.7637756573
 20
13.2350383112
 30
0.0
 10
15.7622666585
 20
13.2313738997
 30
0.0
 10
15.7608289312
 20
13.2275249566
 30
0.0
 10
15.7589836452
 20
13.2220762475
 30
0.0
 10
15.7568897022
 20
13.214863182
 30
0.0
 10
15.7547471021
 20
13.2057563419
 30
0.0
 10
15.7529583307
 20
13.1961564989
 30
0.0
 10
15.7515405303
 20
13.186154609
 30
0.0
 10
15.7505073322
 20
13.1758452286
 30
0.0
 10
15.7498686183
 20
13.1653262158
 30
0.0
 10
15.7497101872
 20
13.1582519653
 30
0.0
 10
15.749697913
 20
13.1546993189
 30
0.0
  0
SPLINE
  5
2BF
100
AcDbEntity
  8
02___PRT_ALL_AXES
100
AcDbSpline
 62
7
  6
CONTINUOUS
 70
0
 71
3
 72
38
 73
34
 74
0
 42
0.0000001
 43
0.0000001
 44
0.0000000001
 40
0.0
 40
0.0
 40
0.0
 40
0.0
 40
0.0191667501
 40
0.0385629672
 40
0.0583053239
 40
0.0785029165
 40
0.0992556161
 40
0.1206530419
 40
0.1427740859
 40
0.1656869397
 40
0.1894494752
 40
0.214109823
 40
0.2397070448
 40
0.2662719163
 40
0.2938276944
 40
0.3223908178
 40
0.3519715385
 40
0.382574562
 40
0.4141995944
 40
0.4468417963
 40
0.4804921894
 40
0.51513807
 40
0.5507633411
 40
0.5873487744
 40
0.6248722707
 40
0.663309122
 40
0.70263222
 40
0.7428122154
 40
0.7838176635
 40
0.8256153184
 40
0.8681701348
 40
0.9114450482
 40
1.0
 40
1.0
 40
1.0
 40
1.0
 10
15.8356126329
 20
11.8236055255
 30
0.0
 10
15.8325468335
 20
11.823838386
 30
0.0
 10
15.8263959143
 20
11.824578759
 30
0.0
 10
15.8172301783
 20
11.8264941493
 30
0.0
 10
15.8080978548
 20
11.8292156996
 30
0.0
 10
15.7990111251
 20
11.8327390619
 30
0.0
 10
15.7899805523
 20
11.8370590454
 30
0.0
 10
15.7810166756
 20
11.842169631
 30
0.0
 10
15.7721296422
 20
11.8480640288
 30
0.0
 10
15.7633294142
 20
11.8547347295
 30
0.0
 10
15.7546258069
 20
11.8621735184
 30
0.0
 10
15.7460285422
 20
11.8703714472
 30
0.0
 10
15.7375472371
 20
11.8793187766
 30
0.0
 10
15.7291914345
 20
11.8890049869
 30
0.0
 10
15.720970598
 20
11.8994187654
 30
0.0
 10
15.7128940979
 20
11.9105479867
 30
0.0
 10
15.7049711672
 20
11.9223796903
 30
0.0
 10
15.697210915
 20
11.9349001117
 30
0.0
 10
15.6896223058
 20
11.9480946896
 30
0.0
 10
15.6822141338
 20
11.9619480659
 30
0.0
 10
15.6749949909
 20
11.976444093
 30
0.0
 10
15.6679732786
 20
11.9915658703
 30
0.0
 10
15.6611571912
 20
12.0072957615
 30
0.0
 10
15.6545546875
 20
12.0236154028
 30
0.0
 10
15.648173476
 20
12.040505725
 30
0.0
 10
15.6420210228
 20
12.0579469887
 30
0.0
 10
15.6361045397
 20
12.0759188074
 30
0.0
 10
15.6304309574
 20
12.094400153
 30
0.0
 10
15.6250069109
 20
12.1133694085
 30
0.0
 10
15.6198387762
 20
12.1328043509
 30
0.0
 10
15.614932591
 20
12.1526822901
 30
0.0
 10
15.6087004351
 20
12.1799541218
 30
0.0
 10
15.6045115475
 20
12.2006876399
 30
0.0
 10
15.601915525
 20
12.2146539405
 30
0.0
  0
SPLINE
  5
2C0
100
AcDbEntity
  8
LAYER_FEATURE
100
AcDbSpline
 62
7
  6
CONTINUOUS
 70
0
 71
3
 72
18
 73
14
 74
0
 42
0.0000001
 43
0.0000001
 44
0.0000000001
 40
0.0
 40
0.0
 40
0.0
 40
0.0
 40
0.0583441371
 40
0.1167939784
 40
0.1754545223
 40
0.2344293604
 40
0.2938200621
 40
0.3537254997
 40
0.475432438
 40
0.6002995232
 40
0.7289781673
 40
0.8620449872
 40
1.0
 40
1.0
 40
1.0
 40
1.0
 10
15.3139226485
 20
13.8633049853
 30
0.0
 10
15.3170853244
 20
13.8633049822
 30
0.0
 10
15.3234173812
 20
13.8631584349
 30
0.0
 10
15.3329086252
 20
13.8624992065
 30
0.0
 10
15.3423937148
 20
13.8614007576
 30
0.0
 10
15.3518691648
 20
13.8598635342
 30
0.0
 10
15.3613320614
 20
13.8578879563
 30
0.0
 10
15.3739932584
 20
13.8546540602
 30
0.0
 10
15.3898069545
 20
13.849490075
 30
0.0
 10
15.4085725394
 20
13.8415844693
 30
0.0
 10
15.4272067508
 20
13.8319494997
 30
0.0
 10
15.4456840055
 20
13.8206008044
 30
0.0
 10
15.457656372
 20
13.8120645861
 30
0.0
 10
15.4636067888
 20
13.8075351854
 30
0.0
  0
SPLINE
  5
2C1
100
AcDbEntity
  8
LAYER_FEATURE
100
AcDbSpline
 62
7
  6
CONTINUOUS
 70
0
 71
3
 72
19
 73
15
 74
0
 42
0.0000001
 43
0.0000001
 44
0.0000000001
 40
0.0
 40
0.0
 40
0.0
 40
0.0
 40
0.0583414147
 40
0.1167885657
 40
0.1754464642
 40
0.2344187578
 40
0.2938069949
 40
0.3537101333
 40
0.4142238895
 40
0.4754403791
 40
0.6003040604
 40
0.7289801901
 40
0.8620454789
 40
1.0
 40
1.0
 40
1.0
 40
1.0
 10
15.3139226485
 20
11.1583050005
 30
0.0
 10
15.3170858151
 20
11.1583049974
 30
0.0
 10
15.3234188567
 20
11.1584515908
 30
0.0
 10
15.3329115745
 20
11.1591110426
 30
0.0
 10
15.3423981317
 20
11.1602097989
 30
0.0
 10
15.3518750698
 20
11.1617475514
 30
0.0
 10
15.3613393272
 20
11.1637236502
 30
0.0
 10
15.3707876823
 20
11.1661374416
 30
0.0
 10
15.380217191
 20
11.1689880858
 30
0.0
 10
15.3928422506
 20
11.1733984808
 30
0.0
 10
15.4085877713
 20
11.180032431
 30
0.0
 10
15.4272239502
 20
11.1896701683
 30
0.0
 10
15.4457041444
 20
11.2010224136
 30
0.0
 10
15.4576781181
 20
11.2095612135
 30
0.0
 10
15.4636293607
 20
11.2140919773
 30
0.0
  0
SPLINE
  5
2C2
100
AcDbEntity
  8
LAYER_FEATURE
100
AcDbSpline
 62
7
  6
CONTINUOUS
 70
0
 71
3
 72
43
 73
39
 74
0
 42
0.0000001
 43
0.0000001
 44
0.0000000001
 40
0.0
 40
0.0
 40
0.0
 40
0.0
 40
0.0092006077
 40
0.0184206514
 40
0.0276794174
 40
0.0369958896
 40
0.0463886211
 40
0.0558755968
 40
0.0654741403
 40
0.0752008033
 40
0.0950959668
 40
0.1156809677
 40
0.1370556608
 40
0.1593047678
 40
0.1824984578
 40
0.2066933181
 40
0.2319335191
 40
0.2582520302
 40
0.2856717991
 40
0.3142068441
 40
0.3438632372
 40
0.3746399733
 40
0.4065297313
 40
0.4395195354
 40
0.4735913299
 40
0.5087224797
 40
0.5448862063
 40
0.5820519713
 40
0.6201858145
 40
0.6592506554
 40
0.6992065641
 40
0.7400110064
 40
0.7816190678
 40
0.8239836608
 40
0.8670557169
 40
0.9107843679
 40
0.9551171166
 40
1.0
 40
1.0
 40
1.0
 40
1.0
 10
15.655631371
 20
13.8633049922
 30
0.0
 10
15.6590470856
 20
13.8633049949
 30
0.0
 10
15.6658869568
 20
13.8631339816
 30
0.0
 10
15.6761381304
 20
13.8623649091
 30
0.0
 10
15.6863814921
 20
13.8610834374
 30
0.0
 10
15.6966126974
 20
13.859290209
 30
0.0
 10
15.7068278438
 20
13.8569859116
 30
0.0
 10
15.7170229133
 20
13.8541716319
 30
0.0
 10
15.7271941478
 20
13.850848379
 30
0.0
 10
15.7408196058
 20
13.845702816
 30
0.0
 10
15.7578027886
 20
13.8379614932
 30
0.0
 10
15.7778601714
 20
13.8267317109
 30
0.0
 10
15.7977219408
 20
13.8135112858
 30
0.0
 10
15.8173584823
 20
13.7983227892
 30
0.0
 10
15.8367423243
 20
13.7811904698
 30
0.0
 10
15.8558458425
 20
13.7621410206
 30
0.0
 10
15.8746417696
 20
13.7412035198
 30
0.0
 10
15.8931030147
 20
13.7184095933
 30
0.0
 10
15.9112027501
 20
13.6937934736
 30
0.0
 10
15.9289144612
 20
13.6673920414
 30
0.0
 10
15.9462120242
 20
13.6392448296
 30
0.0
 10
15.9630697798
 20
13.6093940027
 30
0.0
 10
15.9794626051
 20
13.5778843171
 30
0.0
 10
15.9953659792
 20
13.5447630661
 30
0.0
 10
16.0107560441
 20
13.5100800145
 30
0.0
 10
16.0256096589
 20
13.4738873252
 30
0.0
 10
16.0399044494
 20
13.4362394795
 30
0.0
 10
16.053618853
 20
13.3971931925
 30
0.0
 10
16.0667321608
 20
13.3568073245
 30
0.0
 10
16.0792245548
 20
13.315142789
 30
0.0
 10
16.0910771432
 20
13.2722624572
 30
0.0
 10
16.1022719928
 20
13.22823106
 30
0.0
 10
16.1127921591
 20
13.1831150888
 30
0.0
 10
16.1226217145
 20
13.1369826874
 30
0.0
 10
16.1317457717
 20
13.0899035656
 30
0.0
 10
16.1401505162
 20
13.0419488195
 30
0.0
 10
16.1478231956
 20
12.9931911011
 30
0.0
 10
16.1524161495
 20
12.960388055
 30
0.0
 10
16.1545905292
 20
12.9438678186
 30
0.0
  0
SPLINE
  5
2C3
100
AcDbEntity
  8
LAYER_FEATURE
100
AcDbSpline
 62
7
  6
CONTINUOUS
 70
0
 71
3
 72
15
 73
11
 74
0
 42
0.0000001
 43
0.0000001
 44
0.0000000001
 40
0.0
 40
0.0
 40
0.0
 40
0.0
 40
0.1326908368
 40
0.2635587573
 40
0.3924081988
 40
0.5190496657
 40
0.6433003988
 40
0.764985402
 40
0.8839375261
 40
1.0
 40
1.0
 40
1.0
 40
1.0
 10
16.1546441035
 20
12.0781494099
 30
0.0
 10
16.1522362476
 20
12.0598361226
 30
0.0
 10
16.147121151
 20
12.0235038727
 30
0.0
 10
16.1384862137
 20
11.9695632441
 30
0.0
 10
16.128954149
 20
11.9166289679
 30
0.0
 10
16.1185427465
 20
11.8647996617
 30
0.0
 10
16.107271413
 20
11.8141715834
 30
0.0
 10
16.0951611128
 20
11.7648387309
 30
0.0
 10
16.0822345262
 20
11.7168930547
 30
0.0
 10
16.072970569
 20
11.685513474
 30
0.0
 10
16.0682004956
 20
11.6700775108
 30
0.0
  0
SPLINE
  5
2C4
100
AcDbEntity
  8
LAYER_FEATURE
100
AcDbSpline
 62
7
  6
CONTINUOUS
 70
0
 71
3
 72
39
 73
35
 74
0
 42
0.0000001
 43
0.0000001
 44
0.0000000001
 40
0.0
 40
0.0
 40
0.0
 40
0.0
 40
0.0212769805
 40
0.0426477427
 40
0.0642045486
 40
0.0860367268
 40
0.1082294314
 40
0.1308626295
 40
0.1540103791
 40
0.1777403604
 40
0.2021136227
 40
0.2271845602
 40
0.2530010567
 40
0.2796047186
 40
0.307031172
 40
0.3353104562
 40
0.3644674123
 40
0.3945220379
 40
0.4254898696
 40
0.4573823626
 40
0.4902072078
 40
0.5239686095
 40
0.5586675988
 40
0.5943022926
 40
0.630868091
 40
0.6683578902
 40
0.7067623015
 40
0.7460698034
 40
0.7862668444
 40
0.8273381134
 40
0.8692665
 40
0.9120330868
 40
0.9556186933
 40
1.0
 40
1.0
 40
1.0
 40
1.0
 10
15.655631371
 20
11.1583049937
 30
0.0
 10
15.6605716414
 20
11.1583049977
 30
0.0
 10
15.6704776564
 20
11.158663477
 30
0.0
 10
15.6853100593
 20
11.1602749139
 30
0.0
 10
15.7001178642
 20
11.1629587487
 30
0.0
 10
15.7148875913
 20
11.1667122627
 30
0.0
 10
15.7296072992
 20
11.1715317524
 30
0.0
 10
15.7442649763
 20
11.1774125758
 30
0.0
 10
15.7588489665
 20
11.1843492956
 30
0.0
 10
15.7733478111
 20
11.1923357338
 30
0.0
 10
15.7877502723
 20
11.2013649554
 30
0.0
 10
15.8020452785
 20
11.2114293175
 30
0.0
 10
15.816221877
 20
11.222520502
 30
0.0
 10
15.8302692169
 20
11.2346294888
 30
0.0
 10
15.8441765642
 20
11.2477465151
 30
0.0
 10
15.8579332591
 20
11.2618611147
 30
0.0
 10
15.8715287138
 20
11.2769621055
 30
0.0
 10
15.8849524485
 20
11.2930375487
 30
0.0
 10
15.898194088
 20
11.310074761
 30
0.0
 10
15.9112433515
 20
11.3280603354
 30
0.0
 10
15.9240900725
 20
11.3469801293
 30
0.0
 10
15.9367242421
 20
11.366819248
 30
0.0
 10
15.9491359825
 20
11.3875620827
 30
0.0
 10
15.9613155572
 20
11.4091923199
 30
0.0
 10
15.9732534101
 20
11.4316929299
 30
0.0
 10
15.9849401697
 20
11.4550461861
 30
0.0
 10
15.9963666358
 20
11.4792336949
 30
0.0
 10
16.0075237945
 20
11.5042363963
 30
0.0
 10
16.0184028705
 20
11.5300345757
 30
0.0
 10
16.0289952775
 20
11.5566078879
 30
0.0
 10
16.0392926247
 20
11.5839353201
 30
0.0
 10
16.0492868693
 20
11.6119954869
 30
0.0
 10
16.0589699671
 20
11.6407659436
 30
0.0
 10
16.0651580218
 20
11.6602320619
 30
0.0
 10
16.0682004956
 20
11.6700775108
 30
0.0
  0
SPLINE
  5
2C5
100
AcDbEntity
  8
LAYER_FEATURE
100
AcDbSpline
 62
7
  6
CONTINUOUS
 70
0
 71
3
 72
34
 73
30
 74
0
 42
0.0000001
 43
0.0000001
 44
0.0000000001
 40
0.0
 40
0.0
 40
0.0
 40
0.0
 40
0.0847727855
 40
0.1667691653
 40
0.2458692112
 40
0.3219685311
 40
0.3588673636
 40
0.3949858886
 40
0.430316845
 40
0.4648545655
 40
0.4985949627
 40
0.5315357513
 40
0.5636765397
 40
0.5950189352
 40
0.6255668026
 40
0.6553263062
 40
0.6843062034
 40
0.7125179874
 40
0.7399760794
 40
0.7666981333
 40
0.7927051472
 40
0.8180218022
 40
0.8426766241
 40
0.8667021931
 40
0.9130029467
 40
0.9353795495
 40
0.9573008918
 40
0.9788214894
 40
1.0
 40
1.0
 40
1.0
 40
1.0
 10
15.308684967
 20
13.1802789287
 30
0.0
 10
15.3129541589
 20
13.1940940388
 30
0.0
 10
15.3217394793
 20
13.2211544224
 30
0.0
 10
15.3359125121
 20
13.260632188
 30
0.0
 10
15.3508335444
 20
13.2982470057
 30
0.0
 10
15.3639921632
 20
13.3282639887
 30
0.0
 10
15.3748795163
 20
13.3512524739
 30
0.0
 10
15.383124505
 20
13.3677938408
 30
0.0
 10
15.3915276118
 20
13.3838019949
 30
0.0
 10
15.400083646
 20
13.3992670648
 30
0.0
 10
15.4087873287
 20
13.414179431
 30
0.0
 10
15.417633269
 20
13.4285298528
 30
0.0
 10
15.4266159908
 20
13.4423094384
 30
0.0
 10
15.435729988
 20
13.4555096257
 30
0.0
 10
15.4449696066
 20
13.4681222558
 30
0.0
 10
15.4543292053
 20
13.4801394854
 30
0.0
 10
15.463803025
 20
13.4915538704
 30
0.0
 10
15.47338526
 20
13.5023583287
 30
0.0
 10
15.4830700923
 20
13.5125461182
 30
0.0
 10
15.4928515648
 20
13.5221109157
 30
0.0
 10
15.5027238194
 20
13.5310467309
 30
0.0
 10
15.5126806609
 20
13.5393478656
 30
0.0
 10
15.5227166903
 20
13.5470094321
 30
0.0
 10
15.5360284851
 20
13.5562499324
 30
0.0
 10
15.5496485742
 20
13.5643448151
 30
0.0
 10
15.5635231809
 20
13.571163349
 30
0.0
 10
15.5738601216
 20
13.5755592934
 30
0.0
 10
15.5842376072
 20
13.5792911271
 30
0.0
 10
15.5912292709
 20
13.5813494881
 30
0.0
 10
15.5947241675
 20
13.5822634344
 30
0.0
  0
SPLINE
  5
2C6
100
AcDbEntity
  8
LAYER_FEATURE
100
AcDbSpline
 62
7
  6
CONTINUOUS
 70
0
 71
3
 72
58
 73
54
 74
0
 42
0.0000001
 43
0.0000001
 44
0.0000000001
 40
0.0
 40
0.0
 40
0.0
 40
0.0
 40
0.0159677147
 40
0.0322483135
 40
0.0488285628
 40
0.0656953833
 40
0.0828346911
 40
0.1002320129
 40
0.1178723502
 40
0.1357402516
 40
0.1720939448
 40
0.2091628754
 40
0.2468107995
 40
0.2848975516
 40
0.3232800391
 40
0.361813225
 40
0.4003510884
 40
0.438747578
 40
0.4768575646
 40
0.514537803
 40
0.55164791
 40
0.5880513598
 40
0.6236165393
 40
0.6410458084
 40
0.6582189592
 40
0.6751214254
 40
0.6917391685
 40
0.7080587211
 40
0.7240672324
 40
0.739752521
 40
0.7551031301
 40
0.7701083825
 40
0.7847584429
 40
0.7990443888
 40
0.812958291
 40
0.8264933017
 40
0.8396437472
 40
0.852405236
 40
0.8647747816
 40
0.8767509446
 40
0.8883339897
 40
0.8995260569
 40
0.9103313587
 40
0.9207563986
 40
0.9308102155
 40
0.9405046421
 40
0.94985457
 40
0.9588782206
 40
0.9675973966
 40
0.9760376941
 40
0.9842286314
 40
0.9922036574
 40
1.0
 40
1.0
 40
1.0
 40
1.0
 10
15.308684967
 20
13.1802789287
 30
0.0
 10
15.3057501726
 20
13.1707819307
 30
0.0
 10
15.3000104528
 20
13.1515434439
 30
0.0
 10
15.2918629796
 20
13.1222576216
 30
0.0
 10
15.28410096
 20
13.0922887237
 30
0.0
 10
15.2767331031
 20
13.0616705185
 30
0.0
 10
15.2697676334
 20
13.0304369882
 30
0.0
 10
15.2632123573
 20
12.9986230861
 30
0.0
 10
15.2570745583
 20
12.9662642382
 30
0.0
 10
15.2494129622
 20
12.9221887033
 30
0.0
 10
15.2409445126
 20
12.8659845715
 30
0.0
 10
15.2326033273
 20
12.7973377192
 30
0.0
 10
15.2260630967
 20
12.7274123536
 30
0.0
 10
15.2213531943
 20
12.6565207672
 30
0.0
 10
15.2184947565
 20
12.584979053
 30
0.0
 10
15.2175006029
 20
12.5131064123
 30
0.0
 10
15.2183752217
 20
12.4412235008
 30
0.0
 10
15.2211146573
 20
12.3696510364
 30
0.0
 10
15.225706635
 20
12.2987083144
 30
0.0
 10
15.2321305339
 20
12.2287118232
 30
0.0
 10
15.2403575142
 20
12.1599735806
 30
0.0
 10
15.2503506773
 20
12.0928005358
 30
0.0
 10
15.2601775834
 20
12.0380138888
 30
0.0
 10
15.2689056274
 20
11.9952128827
 30
0.0
 10
15.2758190585
 20
11.9639030828
 30
0.0
 10
15.2831358617
 20
11.9332041855
 30
0.0
 10
15.2908479058
 20
11.903150377
 30
0.0
 10
15.2989465569
 20
11.8737752157
 30
0.0
 10
15.3074227714
 20
11.8451114733
 30
0.0
 10
15.3162670799
 20
11.8171911247
 30
0.0
 10
15.3254696004
 20
11.7900453008
 30
0.0
 10
15.3350200597
 20
11.7637042603
 30
0.0
 10
15.3449078032
 20
11.7381973567
 30
0.0
 10
15.3551218123
 20
11.7135530042
 30
0.0
 10
15.3656507123
 20
11.68979864
 30
0.0
 10
15.3764827851
 20
11.6669606905
 30
0.0
 10
15.3876059967
 20
11.6450645484
 30
0.0
 10
15.399008012
 20
11.6241345465
 30
0.0
 10
15.4106762179
 20
11.6041939317
 30
0.0
 10
15.4225977371
 20
11.5852648347
 30
0.0
 10
15.4347594482
 20
11.5673682467
 30
0.0
 10
15.4471480207
 20
11.5505240132
 30
0.0
 10
15.4597499347
 20
11.534750824
 30
0.0
 10
15.47255151
 20
11.5200662104
 30
0.0
 10
15.4855389192
 20
11.5064865384
 30
0.0
 10
15.4986982045
 20
11.4940270193
 30
0.0
 10
15.5120152989
 20
11.4827017426
 30
0.0
 10
15.5254760015
 20
11.4725237086
 30
0.0
 10
15.5390660009
 20
11.4635048513
 30
0.0
 10
15.5527706467
 20
11.4556560902
 30
0.0
 10
15.5665754541
 20
11.4489871834
 30
0.0
 10
15.5804639241
 20
11.4435072387
 30
0.0
 10
15.5898615746
 20
11.440623165
 30
0.0
 10
15.5945558012
 20
11.4393906693
 30
0.0
  0
SPLINE
  5
2C7
100
AcDbEntity
  8
LAYER_FEATURE
100
AcDbSpline
 62
7
  6
CONTINUOUS
 70
0
 71
3
 72
68
 73
64
 74
0
 42
0.0000001
 43
0.0000001
 44
0.0000000001
 40
0.0
 40
0.0
 40
0.0
 40
0.0
 40
0.0163580858
 40
0.0330510049
 40
0.0500641651
 40
0.0673825756
 40
0.0849903746
 40
0.1028711641
 40
0.1210079486
 40
0.1393832211
 40
0.1579789974
 40
0.176776863
 40
0.1957580148
 40
0.2149033029
 40
0.2536072195
 40
0.2927309867
 40
0.3321129044
 40
0.3715894139
 40
0.4109962794
 40
0.450169764
 40
0.4889478082
 40
0.5081391481
 40
0.5271722354
 40
0.5460278227
 40
0.5646869974
 40
0.5831312226
 40
0.6013423791
 40
0.6193028086
 40
0.6369953594
 40
0.6544034334
 40
0.6715110358
 40
0.6883028277
 40
0.7047641825
 40
0.7208812464
 40
0.7366410033
 40
0.7520313453
 40
0.767041151
 40
0.7816603709
 40
0.7958801233
 40
0.8096928013
 40
0.8230921932
 40
0.836073619
 40
0.8486340848
 40
0.8607724581
 40
0.8724896662
 40
0.8837889208
 40
0.8946759706
 40
0.9051593824
 40
0.9152508473
 40
0.9249655082
 40
0.9343222939
 40
0.9433442428
 40
0.9520587819
 40
0.9604979211
 40
0.9686983093
 40
0.9727225116
 40
0.9767028171
 40
0.9806450085
 40
0.9845550798
 40
0.9884392169
 40
0.9923037608
 40
0.9961551735
 40
1.0
 40
1.0
 40
1.0
 40
1.0
 10
15.2006885343
 20
13.351532475
 30
0.0
 10
15.1968256786
 20
13.3390322692
 30
0.0
 10
15.1892794739
 20
13.3136953737
 30
0.0
 10
15.1785973835
 20
13.2751020234
 30
0.0
 10
15.1684476479
 20
13.2355717232
 30
0.0
 10
15.1588427724
 20
13.1951531922
 30
0.0
 10
15.1497945306
 20
13.1538957939
 30
0.0
 10
15.1413140277
 20
13.1118501239
 30
0.0
 10
15.1334116759
 20
13.0690676765
 30
0.0
 10
15.1260971762
 20
13.0256008825
 30
0.0
 10
15.1193795073
 20
12.9815029999
 30
0.0
 10
15.1132669297
 20
12.9368281031
 30
0.0
 10
15.1077669052
 20
12.8916308422
 30
0.0
 10
15.1012361129
 20
12.8305269264
 30
0.0
 10
15.0946626293
 20
12.7532340208
 30
0.0
 10
15.0893352303
 20
12.6596277369
 30
0.0
 10
15.0865668619
 20
12.5652924485
 30
0.0
 10
15.0863711521
 20
12.4706905565
 30
0.0
 10
15.0887490621
 20
12.3762849043
 30
0.0
 10
15.0936888917
 20
12.2825382371
 30
0.0
 10
15.0999412512
 20
12.2050824343
 30
0.0
 10
15.1062174515
 20
12.1438134769
 30
0.0
 10
15.1115298859
 20
12.0984684042
 30
0.0
 10
15.1174570076
 20
12.0536289199
 30
0.0
 10
15.1239915803
 20
12.0093498764
 30
0.0
 10
15.1311255685
 20
11.9656855709
 30
0.0
 10
15.1388502157
 20
11.9226895068
 30
0.0
 10
15.1471560376
 20
11.8804143726
 30
0.0
 10
15.1560328384
 20
11.838911965
 30
0.0
 10
15.1654697225
 20
11.7982331276
 30
0.0
 10
15.1754551095
 20
11.7584276868
 30
0.0
 10
15.1859767479
 20
11.7195443903
 30
0.0
 10
15.1970217326
 20
11.6816308452
 30
0.0
 10
15.2085765192
 20
11.644733458
 30
0.0
 10
15.2206269444
 20
11.6088973769
 30
0.0
 10
15.2331582459
 20
11.5741664349
 30
0.0
 10
15.2461550822
 20
11.5405830954
 30
0.0
 10
15.2596015559
 20
11.5081883984
 30
0.0
 10
15.2734812369
 20
11.4770219088
 30
0.0
 10
15.2877771886
 20
11.4471216673
 30
0.0
 10
15.3024719952
 20
11.4185241431
 30
0.0
 10
15.317547793
 20
11.3912641898
 30
0.0
 10
15.3329863005
 20
11.3653750039
 30
0.0
 10
15.3487688552
 20
11.3408880895
 30
0.0
 10
15.3648764522
 20
11.3178332302
 30
0.0
 10
15.3812897832
 20
11.2962384674
 30
0.0
 10
15.3979892779
 20
11.2761300893
 30
0.0
 10
15.4149551419
 20
11.2575326322
 30
0.0
 10
15.4321673932
 20
11.2404688959
 30
0.0
 10
15.4496058727
 20
11.2249599799
 30
0.0
 10
15.4672502786
 20
11.2110253217
 30
0.0
 10
15.4850800071
 20
11.1986827854
 30
0.0
 10
15.5030745108
 20
11.1879485974
 30
0.0
 10
15.5212116153
 20
11.1788377817
 30
0.0
 10
15.5365245393
 20
11.1725695383
 30
0.0
 10
15.5488004293
 20
11.168401953
 30
0.0
 10
15.5579708605
 20
11.1657075444
 30
0.0
 10
15.5671585813
 20
11.1634261356
 30
0.0
 10
15.5763608941
 20
11.1615584714
 30
0.0
 10
15.585574845
 20
11.1601051718
 30
0.0
 10
15.5947976133
 20
11.1590667382
 30
0.0
 10
15.6040260369
 20
11.1584435505
 30
0.0
 10
15.610182506
 20
11.1583049912
 30
0.0
 10
15.613257659
 20
11.1583049937
 30
0.0
  0
SPLINE
  5
2C8
100
AcDbEntity
  8
02___PRT_ALL_AXES
100
AcDbSpline
 62
7
  6
CONTINUOUS
 70
0
 71
3
 72
30
 73
26
 74
0
 42
0.0000001
 43
0.0000001
 44
0.0000000001
 40
0.0
 40
0.0
 40
0.0
 40
0.0
 40
0.0275883021
 40
0.054829368
 40
0.0817837185
 40
0.1085143588
 40
0.1350862901
 40
0.161565983
 40
0.1880207657
 40
0.2145182045
 40
0.2411254664
 40
0.2679086824
 40
0.2949323935
 40
0.3222589757
 40
0.3499482521
 40
0.3780570371
 40
0.4357286978
 40
0.4956775823
 40
0.5582324747
 40
0.6236650756
 40
0.6921932424
 40
0.7639855662
 40
0.8391664338
 40
0.9178210331
 40
1.0
 40
1.0
 40
1.0
 40
1.0
 10
15.6020254453
 20
13.584775427
 30
0.0
 10
15.6049844679
 20
13.5858163171
 30
0.0
 10
15.6109175673
 20
13.5877399905
 30
0.0
 10
15.6199019437
 20
13.5901526855
 30
0.0
 10
15.6289053222
 20
13.5920713631
 30
0.0
 10
15.6379231688
 20
13.5934949306
 30
0.0
 10
15.6469512775
 20
13.5944226196
 30
0.0
 10
15.6559853109
 20
13.5948539633
 30
0.0
 10
15.6650209442
 20
13.5947886747
 30
0.0
 10
15.6740538404
 20
13.5942268533
 30
0.0
 10
15.6830796669
 20
13.5931687315
 30
0.0
 10
15.6920941235
 20
13.5916149624
 30
0.0
 10
15.7010929311
 20
13.5895662853
 30
0.0
 10
15.7100718262
 20
13.5870238953
 30
0.0
 10
15.7190267761
 20
13.5839889177
 30
0.0
 10
15.7310302345
 20
13.5792479971
 30
0.0
 10
15.7459837326
 20
13.5720507303
 30
0.0
 10
15.7635999062
 20
13.5615472046
 30
0.0
 10
15.7810136737
 20
13.5491252268
 30
0.0
 10
15.7981941894
 20
13.5348102668
 30
0.0
 10
15.8151128428
 20
13.5186296494
 30
0.0
 10
15.8317407532
 20
13.5006135493
 30
0.0
 10
15.8480494831
 20
13.4807947589
 30
0.0
 10
15.8640103434
 20
13.4592097548
 30
0.0
 10
15.8741775915
 20
13.4440013344
 30
0.0
 10
15.8792039816
 20
13.4361248249
 30
0.0
  0
SPLINE
  5
2C9
100
AcDbEntity
  8
02___PRT_ALL_AXES
100
AcDbSpline
 62
7
  6
CONTINUOUS
 70
0
 71
3
 72
23
 73
19
 74
0
 42
0.0000001
 43
0.0000001
 44
0.0000000001
 40
0.0
 40
0.0
 40
0.0
 40
0.0
 40
0.0543119545
 40
0.1088492274
 40
0.1638337036
 40
0.219480609
 40
0.2759956729
 40
0.3335728029
 40
0.3923923366
 40
0.4526198792
 40
0.5144056784
 40
0.5778844618
 40
0.6431756449
 40
0.7103838167
 40
0.7795994167
 40
0.8508995284
 40
0.9243487358
 40
1.0
 40
1.0
 40
1.0
 40
1.0
 10
15.8145143924
 20
13.4508049909
 30
0.0
 10
15.8178450115
 20
13.4508049924
 30
0.0
 10
15.8245224144
 20
13.4505706099
 30
0.0
 10
15.8345216679
 20
13.449516974
 30
0.0
 10
15.8445053842
 20
13.4477620464
 30
0.0
 10
15.8544650303
 20
13.4453074941
 30
0.0
 10
15.8643930383
 20
13.4421555841
 30
0.0
 10
15.8742817728
 20
13.4383091403
 30
0.0
 10
15.8841238159
 20
13.4337714999
 30
0.0
 10
15.8939118752
 20
13.4285464774
 30
0.0
 10
15.9036387858
 20
13.4226383404
 30
0.0
 10
15.9132974834
 20
13.4160517958
 30
0.0
 10
15.9228809872
 20
13.4087919863
 30
0.0
 10
15.932382388
 20
13.4008644865
 30
0.0
 10
15.9417948245
 20
13.3922753244
 30
0.0
 10
15.9511115345
 20
13.3830309209
 30
0.0
 10
15.9603256387
 20
13.3731383537
 30
0.0
 10
15.9663064089
 20
13.3662191792
 30
0.0
 10
15.9692792204
 20
13.3626576025
 30
0.0
  0
SPLINE
  5
2CA
100
AcDbEntity
  8
02___PRT_ALL_AXES
100
AcDbSpline
 62
7
  6
CONTINUOUS
 70
0
 71
3
 72
46
 73
42
 74
0
 42
0.0000001
 43
0.0000001
 44
0.0000000001
 40
0.0
 40
0.0
 40
0.0
 40
0.0
 40
0.0099899649
 40
0.0202817193
 40
0.0308783664
 40
0.0417818201
 40
0.0529929016
 40
0.064511427
 40
0.0763362867
 40
0.0884655172
 40
0.1008963664
 40
0.1136253522
 40
0.1266483157
 40
0.1399604691
 40
0.1535564394
 40
0.1674303077
 40
0.1959844921
 40
0.2255672223
 40
0.2561148255
 40
0.2875577623
 40
0.3198213472
 40
0.3528263952
 40
0.3864898148
 40
0.420725159
 40
0.455443143
 40
0.4905521375
 40
0.5259586467
 40
0.5615677738
 40
0.5972836755
 40
0.6330100129
 40
0.6686503985
 40
0.704108844
 40
0.739290209
 40
0.7741006552
 40
0.8084481103
 40
0.8422427407
 40
0.8753974414
 40
0.9078283491
 40
0.9394553842
 40
0.9702028253
 40
1.0
 40
1.0
 40
1.0
 40
1.0
 10
15.9931063736
 20
13.3341114782
 30
0.0
 10
15.9961661998
 20
13.3304456551
 30
0.0
 10
16.0022420708
 20
13.3228886007
 30
0.0
 10
16.0110944566
 20
13.3110756233
 30
0.0
 10
16.0198133963
 20
13.2986268393
 30
0.0
 10
16.0283918899
 20
13.2855523001
 30
0.0
 10
16.0368232459
 20
13.2718622913
 30
0.0
 10
16.0451008139
 20
13.2575676603
 30
0.0
 10
16.0532180697
 20
13.2426797164
 30
0.0
 10
16.0611686016
 20
13.2272102493
 30
0.0
 10
16.0689461224
 20
13.2111715123
 30
0.0
 10
16.0765444738
 20
13.1945762159
 30
0.0
 10
16.0839576377
 20
13.1774375127
 30
0.0
 10
16.0911797223
 20
13.1597690057
 30
0.0
 10
16.0982050457
 20
13.1415846643
 30
0.0
 10
16.1073901641
 20
13.1164294014
 30
0.0
 10
16.1183208133
 20
13.0837833865
 30
0.0
 10
16.1304441401
 20
13.0431571738
 30
0.0
 10
16.1416582678
 20
13.000840921
 30
0.0
 10
16.1519274558
 20
12.9569690404
 30
0.0
 10
16.1612190139
 20
12.9116804453
 30
0.0
 10
16.1695033277
 20
12.8651187902
 30
0.0
 10
16.1767539862
 20
12.8174318009
 30
0.0
 10
16.1829478638
 20
12.7687708448
 30
0.0
 10
16.1880652
 20
12.7192904245
 30
0.0
 10
16.1920896686
 20
12.6691476821
 30
0.0
 10
16.1950084301
 20
12.6185018901
 30
0.0
 10
16.1968121708
 20
12.5675139376
 30
0.0
 10
16.1974951329
 20
12.5163458134
 30
0.0
 10
16.1970551369
 20
12.4651600852
 30
0.0
 10
16.1954935889
 20
12.4141193771
 30
0.0
 10
16.1928154719
 20
12.3633858474
 30
0.0
 10
16.1890293303
 20
12.3131206675
 30
0.0
 10
16.1841472443
 20
12.2634835037
 30
0.0
 10
16.1781847921
 20
12.2146320006
 30
0.0
 10
16.1711609963
 20
12.1667212791
 30
0.0
 10
16.1630982544
 20
12.1199034128
 30
0.0
 10
16.154022288
 20
12.0743270127
 30
0.0
 10
16.143961978
 20
12.0301364619
 30
0.0
 10
16.1329495473
 20
11.9874724308
 30
0.0
 10
16.1248634093
 20
11.9596799149
 30
0.0
 10
16.1206583496
 20
11.9460723367
 30
0.0
  0
SPLINE
  5
2CB
100
AcDbEntity
  8
02___PRT_ALL_AXES
100
AcDbSpline
 62
7
  6
CONTINUOUS
 70
0
 71
3
 72
23
 73
19
 74
0
 42
0.0000001
 43
0.0000001
 44
0.0000000001
 40
0.0
 40
0.0
 40
0.0
 40
0.0
 40
0.0543119545
 40
0.1088492274
 40
0.1638337044
 40
0.2194806118
 40
0.2759956776
 40
0.3335728076
 40
0.3923923396
 40
0.4526198795
 40
0.5144056765
 40
0.5778844597
 40
0.6431756461
 40
0.7103838229
 40
0.7795994254
 40
0.8508995358
 40
0.9243487397
 40
1.0
 40
1.0
 40
1.0
 40
1.0
 10
15.8145143924
 20
11.5708049949
 30
0.0
 10
15.8178450115
 20
11.5708049964
 30
0.0
 10
15.8245224144
 20
11.5710393729
 30
0.0
 10
15.834521668
 20
11.5720930102
 30
0.0
 10
15.8445053844
 20
11.5738479378
 30
0.0
 10
15.8544650303
 20
11.5763024922
 30
0.0
 10
15.864393038
 20
11.5794544036
 30
0.0
 10
15.8742817725
 20
11.5833008473
 30
0.0
 10
15.8841238158
 20
11.5878384867
 30
0.0
 10
15.8939118753
 20
11.5930635078
 30
0.0
 10
15.9036387861
 20
11.5989716438
 30
0.0
 10
15.913297484
 20
11.6055581882
 30
0.0
 10
15.9228809875
 20
11.6128179989
 30
0.0
 10
15.9323823877
 20
11.6207455003
 30
0.0
 10
15.9417948239
 20
11.6293346632
 30
0.0
 10
15.9511115343
 20
11.6385790661
 30
0.0
 10
15.9603256379
 20
11.6484716329
 30
0.0
 10
15.9663064106
 20
11.6553908047
 30
0.0
 10
15.9692792205
 20
11.6589523824
 30
0.0
  0
SPLINE
  5
2CC
100
AcDbEntity
  8
02___PRT_ALL_AXES
100
AcDbSpline
 62
7
  6
CONTINUOUS
 70
0
 71
3
 72
22
 73
18
 74
0
 42
0.0000001
 43
0.0000001
 44
0.0000000001
 40
0.0
 40
0.0
 40
0.0
 40
0.0
 40
0.0507379473
 40
0.1030499853
 40
0.1569524662
 40
0.2124552303
 40
0.269562148
 40
0.3282716102
 40
0.3885769727
 40
0.4504669555
 40
0.5139260052
 40
0.5789346169
 40
0.6454696366
 40
0.7135044922
 40
0.7830095391
 40
0.8539519734
 40
1.0
 40
1.0
 40
1.0
 40
1.0
 10
15.9931063735
 20
11.6874985082
 30
0.0
 10
15.9962502443
 20
11.6912650226
 30
0.0
 10
16.002491681
 20
11.6990360081
 30
0.0
 10
16.0115779074
 20
11.7111956355
 30
0.0
 10
16.0205229593
 20
11.7240253327
 30
0.0
 10
16.029319265
 20
11.7375141773
 30
0.0
 10
16.0379595904
 20
11.7516509787
 30
0.0
 10
16.0464367491
 20
11.7664239241
 30
0.0
 10
16.054743695
 20
11.7818206876
 30
0.0
 10
16.0628735074
 20
11.7978284102
 30
0.0
 10
16.0708194051
 20
11.8144337194
 30
0.0
 10
16.0785747517
 20
11.831622735
 30
0.0
 10
16.0861330677
 20
11.8493810911
 30
0.0
 10
16.0934880157
 20
11.8676939087
 30
0.0
 10
16.1006334993
 20
11.8865459654
 30
0.0
 10
16.1099634992
 20
11.9126318888
 30
0.0
 10
16.1164887736
 20
11.932579584
 30
0.0
 10
16.1206583496
 20
11.9460723367
 30
0.0
  0
SPLINE
  5
2CD
100
AcDbEntity
  8
LAYER_FEATURE
100
AcDbSpline
 62
7
  6
CONTINUOUS
 70
0
 71
3
 72
39
 73
35
 74
0
 42
0.0000001
 43
0.0000001
 44
0.0000000001
 40
0.0
 40
0.0
 40
0.0
 40
0.0
 40
0.0443813067
 40
0.0879669132
 40
0.1307335
 40
0.1726618866
 40
0.2137331556
 40
0.2539301966
 40
0.2932376985
 40
0.3316421098
 40
0.369131909
 40
0.4056977074
 40
0.4413324012
 40
0.4760313905
 40
0.5097927922
 40
0.5426176374
 40
0.5745101304
 40
0.6054779621
 40
0.6355325877
 40
0.6646895438
 40
0.692968828
 40
0.7203952814
 40
0.7469989433
 40
0.7728154398
 40
0.7978863773
 40
0.8222596396
 40
0.8459896209
 40
0.8691373705
 40
0.8917705686
 40
0.9139632732
 40
0.9357954514
 40
0.9573522573
 40
0.9787230195
 40
1.0
 40
1.0
 40
1.0
 40
1.0
 10
15.2006885343
 20
13.351532475
 30
0.0
 10
15.2037310082
 20
13.3613779239
 30
0.0
 10
15.2099190628
 20
13.3808440423
 30
0.0
 10
15.2196021606
 20
13.409614499
 30
0.0
 10
15.2295964053
 20
13.4376746657
 30
0.0
 10
15.2398937524
 20
13.4650020979
 30
0.0
 10
15.2504861595
 20
13.4915754101
 30
0.0
 10
15.2613652354
 20
13.5173735895
 30
0.0
 10
15.2725223941
 20
13.5423762909
 30
0.0
 10
15.2839488602
 20
13.5665637997
 30
0.0
 10
15.2956356198
 20
13.5899170559
 30
0.0
 10
15.3075734728
 20
13.6124176659
 30
0.0
 10
15.3197530474
 20
13.6340479031
 30
0.0
 10
15.3321647878
 20
13.6547907379
 30
0.0
 10
15.3447989575
 20
13.6746298565
 30
0.0
 10
15.3576456785
 20
13.6935496505
 30
0.0
 10
15.370694942
 20
13.7115352248
 30
0.0
 10
15.3839365814
 20
13.7285724371
 30
0.0
 10
15.3973603161
 20
13.7446478803
 30
0.0
 10
15.4109557708
 20
13.7597488711
 30
0.0
 10
15.4247124657
 20
13.7738634707
 30
0.0
 10
15.438619813
 20
13.786980497
 30
0.0
 10
15.4526671529
 20
13.7990894838
 30
0.0
 10
15.4668437514
 20
13.8101806683
 30
0.0
 10
15.4811387576
 20
13.8202450304
 30
0.0
 10
15.4955412189
 20
13.829274252
 30
0.0
 10
15.5100400635
 20
13.8372606902
 30
0.0
 10
15.5246240536
 20
13.8441974101
 30
0.0
 10
15.5392817307
 20
13.8500782334
 30
0.0
 10
15.5540014387
 20
13.8548977231
 30
0.0
 10
15.5687711657
 20
13.8586512371
 30
0.0
 10
15.5835789707
 20
13.8613350719
 30
0.0
 10
15.5984113736
 20
13.8629465088
 30
0.0
 10
15.6083173885
 20
13.8633049881
 30
0.0
 10
15.613257659
 20
13.8633049922
 30
0.0
  0
SPLINE
  5
2CE
100
AcDbEntity
  8
LAYER_FEATURE
100
AcDbSpline
 62
7
  6
CONTINUOUS
 70
0
 71
3
 72
67
 73
63
 74
0
 42
0.0000001
 43
0.0000001
 44
0.0000000001
 40
0.0
 40
0.0
 40
0.0
 40
0.0
 40
0.0163581013
 40
0.0330510694
 40
0.0500642491
 40
0.0673826926
 40
0.0849905208
 40
0.1028713409
 40
0.1210081566
 40
0.1393834611
 40
0.15797927
 40
0.1767771682
 40
0.1957583526
 40
0.2149036734
 40
0.2536076561
 40
0.292731491
 40
0.3321134768
 40
0.371590054
 40
0.4109969877
 40
0.45017054
 40
0.4889486503
 40
0.5081400228
 40
0.5271731428
 40
0.546028763
 40
0.5646879707
 40
0.5831322282
 40
0.601343416
 40
0.6193038759
 40
0.6369964566
 40
0.65440456
 40
0.6715121917
 40
0.6883040129
 40
0.7047653969
 40
0.720882489
 40
0.7366422729
 40
0.7520326412
 40
0.7670424724
 40
0.7816617173
 40
0.7958814943
 40
0.8096941963
 40
0.8230936114
 40
0.8360750592
 40
0.8486355463
 40
0.8607739405
 40
0.872491169
 40
0.8837904436
 40
0.8946775128
 40
0.905160943
 40
0.9152524249
 40
0.9249671014
 40
0.9343239024
 40
0.9433458667
 40
0.9520604213
 40
0.9604995757
 40
0.9686999787
 40
0.9767027777
 40
0.9806449746
 40
0.9845550535
 40
0.9884391969
 40
0.9923037475
 40
0.9961551669
 40
1.0
 40
1.0
 40
1.0
 40
1.0
 10
14.8589798118
 20
13.351532475
 30
0.0
 10
14.8551169591
 20
13.3390322789
 30
0.0
 10
14.8475707542
 20
13.3136953771
 30
0.0
 10
14.8368886617
 20
13.2751020294
 30
0.0
 10
14.8267389263
 20
13.2355717179
 30
0.0
 10
14.8171340503
 20
13.1951531935
 30
0.0
 10
14.808085808
 20
13.1538957937
 30
0.0
 10
14.7996053042
 20
13.1118501251
 30
0.0
 10
14.7917029518
 20
13.0690676777
 30
0.0
 10
14.7843884529
 20
13.0256008828
 30
0.0
 10
14.7776707861
 20
12.981502999
 30
0.0
 10
14.7715582097
 20
12.9368281015
 30
0.0
 10
14.766058185
 20
12.8916308408
 30
0.0
 10
14.7595273913
 20
12.830526926
 30
0.0
 10
14.7529539039
 20
12.7532340213
 30
0.0
 10
14.747626505
 20
12.6596277373
 30
0.0
 10
14.7448581436
 20
12.5652924486
 30
0.0
 10
14.7446624328
 20
12.4706905565
 30
0.0
 10
14.7470403365
 20
12.3762849039
 30
0.0
 10
14.7519801658
 20
12.2825382368
 30
0.0
 10
14.7582325304
 20
12.2050824352
 30
0.0
 10
14.7645087325
 20
12.143813479
 30
0.0
 10
14.7698211666
 20
12.0984684063
 30
0.0
 10
14.7757482861
 20
12.0536289208
 30
0.0
 10
14.7822828562
 20
12.0093498754
 30
0.0
 10
14.7894168431
 20
11.9656855688
 30
0.0
 10
14.7971414912
 20
11.9226895048
 30
0.0
 10
14.8054473146
 20
11.880414372
 30
0.0
 10
14.8143241168
 20
11.8389119661
 30
0.0
 10
14.823761002
 20
11.79823313
 30
0.0
 10
14.833746389
 20
11.7584276896
 30
0.0
 10
14.8442680267
 20
11.719544392
 30
0.0
 10
14.8553130095
 20
11.6816308449
 30
0.0
 10
14.8668677954
 20
11.6447334566
 30
0.0
 10
14.8789182212
 20
11.6088973756
 30
0.0
 10
14.8914495233
 20
11.5741664346
 30
0.0
 10
14.9044463601
 20
11.540583096
 30
0.0
 10
14.917892834
 20
11.5081883994
 30
0.0
 10
14.9317725148
 20
11.4770219096
 30
0.0
 10
14.946068466
 20
11.4471216675
 30
0.0
 10
14.9607632723
 20
11.4185241432
 30
0.0
 10
14.9758390707
 20
11.3912641908
 30
0.0
 10
14.9912775786
 20
11.3653750058
 30
0.0
 10
15.0070601335
 20
11.3408880917
 30
0.0
 10
15.0231677302
 20
11.3178332315
 30
0.0
 10
15.0395810607
 20
11.2962384669
 30
0.0
 10
15.0562805545
 20
11.2761300867
 30
0.0
 10
15.0732464183
 20
11.2575326283
 30
0.0
 10
15.0904586686
 20
11.240468894
 30
0.0
 10
15.1078971545
 20
11.2249599815
 30
0.0
 10
15.1255415445
 20
11.211025331
 30
0.0
 10
15.1433713319
 20
11.1986827806
 30
0.0
 10
15.1613656251
 20
11.1879486413
 30
0.0
 10
15.1795034761
 20
11.1788376392
 30
0.0
 10
15.1977620676
 20
11.1713631577
 30
0.0
 10
15.2131391987
 20
11.1664828715
 30
0.0
 10
15.2254497833
 20
11.1634261919
 30
0.0
 10
15.2346521899
 20
11.1615584479
 30
0.0
 10
15.2438661181
 20
11.1601051813
 30
0.0
 10
15.2530888921
 20
11.1590667401
 30
0.0
 10
15.2623173137
 20
11.1584435398
 30
0.0
 10
15.2684737836
 20
11.1583050035
 30
0.0
 10
15.2715489365
 20
11.1583050005
 30
0.0
  0
LINE
  5
2CF
100
AcDbEntity
  8
02___PRT_ALL_AXES
100
AcDbLine
 62
7
  6
CONTINUOUS
 10
15.8313070394
 20
13.1975883739
 11
15.7524636179
 21
13.1916317508
  0
SPLINE
  5
2D0
100
AcDbEntity
  8
02___PRT_ALL_AXES
100
AcDbSpline
 62
7
  6
CONTINUOUS
 70
0
 71
3
 72
35
 73
31
 74
0
 42
0.0000001
 43
0.0000001
 44
0.0000000001
 40
0.0
 40
0.0
 40
0.0
 40
0.0
 40
0.0746183729
 40
0.1494972294
 40
0.2241877918
 40
0.2982430346
 40
0.3348957387
 40
0.3712252747
 40
0.4071784112
 40
0.4427029319
 40
0.4777477951
 40
0.5122632977
 40
0.546201246
 40
0.5795151341
 40
0.6121603334
 40
0.6440942934
 40
0.6752767584
 40
0.7056700024
 40
0.7352390878
 40
0.7639521519
 40
0.7917807295
 40
0.8187001171
 40
0.8446897883
 40
0.8697338726
 40
0.893821716
 40
0.91694851
 40
0.9391160992
 40
0.9603336984
 40
0.9806192832
 40
1.0
 40
1.0
 40
1.0
 40
1.0
 10
15.5781645916
 20
12.4196851727
 30
0.0
 10
15.5771661314
 20
12.4388597516
 30
0.0
 10
15.5758056667
 20
12.4773120668
 30
0.0
 10
15.5756539356
 20
12.5350089631
 30
0.0
 10
15.5773845184
 20
12.5925355051
 30
0.0
 10
15.5803951056
 20
12.640156307
 30
0.0
 10
15.5837438994
 20
12.6778445682
 30
0.0
 10
15.5867056767
 20
12.7057200342
 30
0.0
 10
15.5901207622
 20
12.7332510687
 30
0.0
 10
15.5939831478
 20
12.7603891359
 30
0.0
 10
15.5982859831
 20
12.7870862839
 30
0.0
 10
15.6030216522
 20
12.8132953772
 30
0.0
 10
15.6081817705
 20
12.8389701421
 30
0.0
 10
15.6137572048
 20
12.86406526
 30
0.0
 10
15.6197380891
 20
12.8885364462
 30
0.0
 10
15.6261138436
 20
12.912340531
 30
0.0
 10
15.6328731947
 20
12.9354355371
 30
0.0
 10
15.6400041979
 20
12.9577807563
 30
0.0
 10
15.6474942613
 20
12.979336824
 30
0.0
 10
15.6553301726
 20
13.0000657917
 30
0.0
 10
15.6634981271
 20
13.019931197
 30
0.0
 10
15.6719837599
 20
13.038898131
 30
0.0
 10
15.6807721821
 20
13.0569333001
 30
0.0
 10
15.6898480198
 20
13.0740050896
 30
0.0
 10
15.6991954562
 20
13.0900836034
 30
0.0
 10
15.7087982962
 20
13.1051407529
 30
0.0
 10
15.7186399494
 20
13.1191501612
 30
0.0
 10
15.7287037752
 20
13.1320875804
 30
0.0
 10
15.7389720999
 20
13.1439296927
 30
0.0
 10
15.7461020461
 20
13.1512439258
 30
0.0
 10
15.749697913
 20
13.1546993189
 30
0.0
  0
SPLINE
  5
2D1
100
AcDbEntity
  8
LAYER_FEATURE
100
AcDbSpline
 62
7
  6
CONTINUOUS
 70
0
 71
3
 72
39
 73
35
 74
0
 42
0.0000001
 43
0.0000001
 44
0.0000000001
 40
0.0
 40
0.0
 40
0.0
 40
0.0
 40
0.0443812481
 40
0.0879669295
 40
0.1307335086
 40
0.172661876
 40
0.2137331571
 40
0.2539301992
 40
0.2932376968
 40
0.3316421073
 40
0.369131911
 40
0.4056977099
 40
0.4413323968
 40
0.4760313903
 40
0.5097927974
 40
0.5426176342
 40
0.5745101269
 40
0.6054779669
 40
0.6355325892
 40
0.664689538
 40
0.6929688298
 40
0.7203952869
 40
0.7469989387
 40
0.7728154376
 40
0.7978863828
 40
0.8222596394
 40
0.8459896168
 40
0.869137373
 40
0.8917705712
 40
0.9139632708
 40
0.935795451
 40
0.9573522592
 40
0.9787230199
 40
1.0
 40
1.0
 40
1.0
 40
1.0
 10
14.8589798118
 20
13.351532475
 30
0.0
 10
14.8620222817
 20
13.3613779109
 30
0.0
 10
14.8682103392
 20
13.3808440323
 30
0.0
 10
14.8778934351
 20
13.4096144917
 30
0.0
 10
14.8878876823
 20
13.4376746694
 30
0.0
 10
14.8981850323
 20
13.4650020968
 30
0.0
 10
14.9087774371
 20
13.4915754083
 30
0.0
 10
14.9196565109
 20
13.5173735908
 30
0.0
 10
14.9308136724
 20
13.54237629
 30
0.0
 10
14.9422401402
 20
13.5665637977
 30
0.0
 10
14.9539268959
 20
13.5899170569
 30
0.0
 10
14.9658647474
 20
13.6124176673
 30
0.0
 10
14.9780443294
 20
13.6340478998
 30
0.0
 10
14.9904560659
 20
13.6547907374
 30
0.0
 10
15.0030902296
 20
13.6746298603
 30
0.0
 10
15.0159369594
 20
13.6935496473
 30
0.0
 10
15.0289862229
 20
13.7115352213
 30
0.0
 10
15.0422278543
 20
13.7285724412
 30
0.0
 10
15.055651592
 20
13.7446478815
 30
0.0
 10
15.0692470547
 20
13.759748864
 30
0.0
 10
15.0830037417
 20
13.7738634722
 30
0.0
 10
15.0969110844
 20
13.7869805043
 30
0.0
 10
15.1109584362
 20
13.7990894759
 30
0.0
 10
15.1251350313
 20
13.8101806639
 30
0.0
 10
15.1394300289
 20
13.8202450405
 30
0.0
 10
15.1538324975
 20
13.8292742503
 30
0.0
 10
15.168331346
 20
13.8372606787
 30
0.0
 10
15.1829153278
 20
13.8441974171
 30
0.0
 10
15.1975730059
 20
13.8500782411
 30
0.0
 10
15.2122927199
 20
13.8548977095
 30
0.0
 10
15.227062443
 20
13.8586512351
 30
0.0
 10
15.2418702464
 20
13.8613350874
 30
0.0
 10
15.2567026521
 20
13.8629464963
 30
0.0
 10
15.2666086661
 20
13.8633049902
 30
0.0
 10
15.2715489365
 20
13.8633049853
 30
0.0
  0
SPLINE
  5
2D2
100
AcDbEntity
  8
02___PRT_ALL_AXES
100
AcDbSpline
 62
7
  6
CONTINUOUS
 70
0
 71
3
 72
46
 73
42
 74
0
 42
0.0000001
 43
0.0000001
 44
0.0000000001
 40
0.0
 40
0.0
 40
0.0
 40
0.0
 40
0.0475538273
 40
0.0938175082
 40
0.1387424927
 40
0.1822851276
 40
0.2244077379
 40
0.2650791149
 40
0.3042752644
 40
0.3419802764
 40
0.3781873255
 40
0.4128998182
 40
0.4461327419
 40
0.4779142186
 40
0.5082872335
 40
0.5373115463
 40
0.5650657078
 40
0.5916489942
 40
0.6171830312
 40
0.6418127453
 40
0.6538436625
 40
0.6657133783
 40
0.6774461854
 40
0.6890674772
 40
0.7006035779
 40
0.7120815503
 40
0.7235289707
 40
0.7349736891
 40
0.7464435801
 40
0.7579662921
 40
0.7695690055
 40
0.7812782035
 40
0.7931194739
 40
0.8051173347
 40
0.8296680495
 40
0.8551078135
 40
0.8815838198
 40
0.9092199234
 40
0.9381175023
 40
0.968357031
 40
1.0
 40
1.0
 40
1.0
 40
1.0
 10
15.5663972779
 20
13.0755376491
 30
0.0
 10
15.5694190515
 20
13.0853161121
 30
0.0
 10
15.5756110158
 20
13.104537592
 30
0.0
 10
15.5854892317
 20
13.1327205185
 30
0.0
 10
15.5958165851
 20
13.159820569
 30
0.0
 10
15.6065750902
 20
13.1857905299
 30
0.0
 10
15.6177460884
 20
13.210585418
 30
0.0
 10
15.6293102409
 20
13.2341622892
 30
0.0
 10
15.6412475982
 20
13.2564803699
 30
0.0
 10
15.6535376437
 20
13.2775011113
 30
0.0
 10
15.6661593544
 20
13.2971882558
 30
0.0
 10
15.6790912828
 20
13.3155078727
 30
0.0
 10
15.6923116278
 20
13.3324283843
 30
0.0
 10
15.7057983031
 20
13.3479205759
 30
0.0
 10
15.719529008
 20
13.3619575474
 30
0.0
 10
15.733481317
 20
13.3745146429
 30
0.0
 10
15.7476325138
 20
13.3855693067
 30
0.0
 10
15.7619600279
 20
13.3951010727
 30
0.0
 10
15.7764394153
 20
13.4030909251
 30
0.0
 10
15.7887099917
 20
13.4084927483
 30
0.0
 10
15.798552012
 20
13.4120004742
 30
0.0
 10
15.8058971205
 20
13.4142176654
 30
0.0
 10
15.8132591514
 20
13.4160401992
 30
0.0
 10
15.8206349645
 20
13.4174672677
 30
0.0
 10
15.8280211973
 20
13.4184981123
 30
0.0
 10
15.8354145078
 20
13.4191322234
 30
0.0
 10
15.8428115249
 20
13.4193692765
 30
0.0
 10
15.8502088694
 20
13.4192091356
 30
0.0
 10
15.8576031612
 20
13.4186518961
 30
0.0
 10
15.8649910266
 20
13.4176978454
 30
0.0
 10
15.8723691195
 20
13.416347453
 30
0.0
 10
15.8797340709
 20
13.4146014407
 30
0.0
 10
15.8870827377
 20
13.4124605814
 30
0.0
 10
15.8969288318
 20
13.4090556604
 30
0.0
 10
15.9092069619
 20
13.4037820614
 30
0.0
 10
15.9236998629
 20
13.3959424023
 30
0.0
 10
15.9380432021
 20
13.3865591169
 30
0.0
 10
15.9522124348
 20
13.3756510681
 30
0.0
 10
15.9661850734
 20
13.3632384027
 30
0.0
 10
15.9799379242
 20
13.3493440311
 30
0.0
 10
15.9887423269
 20
13.3393398221
 30
0.0
 10
15.9931063736
 20
13.3341114782
 30
0.0
  0
SPLINE
  5
2D3
100
AcDbEntity
  8
LAYER_FEATURE
100
AcDbSpline
 62
7
  6
CONTINUOUS
 70
0
 71
3
 72
11
 73
7
 74
0
 42
0.0000001
 43
0.0000001
 44
0.0000000001
 40
0.0
 40
0.0
 40
0.0
 40
0.0
 40
0.2170116498
 40
0.455987776
 40
0.7171496711
 40
1.0
 40
1.0
 40
1.0
 40
1.0
 10
14.9075531257
 20
12.9629074181
 30
0.0
 10
14.9081029342
 20
12.9634953293
 30
0.0
 10
14.9091746717
 20
12.9648099003
 30
0.0
 10
14.9106299318
 20
12.9670410049
 30
0.0
 10
14.9119981798
 20
12.9696063526
 30
0.0
 10
14.9128134244
 20
12.97145419
 30
0.0
 10
14.9132070465
 20
12.9724267002
 30
0.0
  0
SPLINE
  5
2D4
100
AcDbEntity
  8
LAYER_FEATURE
100
AcDbSpline
 62
7
  6
CONTINUOUS
 70
0
 71
3
 72
20
 73
16
 74
0
 42
0.0000001
 43
0.0000001
 44
0.0000000001
 40
0.0
 40
0.0
 40
0.0
 40
0.0
 40
0.038248543
 40
0.077575017
 40
0.1189575251
 40
0.1631952538
 40
0.2108914155
 40
0.2624662595
 40
0.3181797711
 40
0.3781615789
 40
0.4424377176
 40
0.5109464345
 40
0.6600459302
 40
0.8238364678
 40
1.0
 40
1.0
 40
1.0
 40
1.0
 10
14.8873701899
 20
12.9629338302
 30
0.0
 10
14.8872425955
 20
12.962933834
 30
0.0
 10
14.8869832081
 20
12.9629095216
 30
0.0
 10
14.8865994487
 20
12.9628012019
 30
0.0
 10
14.8862210551
 20
12.9626223017
 30
0.0
 10
14.8858501002
 20
12.9623744947
 30
0.0
 10
14.8854880695
 20
12.9620595783
 30
0.0
 10
14.8851364733
 20
12.9616793425
 30
0.0
 10
14.8847968074
 20
12.9612357713
 30
0.0
 10
14.8844706124
 20
12.9607310947
 30
0.0
 10
14.884159445
 20
12.9601678209
 30
0.0
 10
14.8837552228
 20
12.9593182683
 30
0.0
 10
14.8833037039
 20
12.9581263646
 30
0.0
 10
14.8828581253
 20
12.9565553958
 30
0.0
 10
14.8826289114
 20
12.9554436484
 30
0.0
 10
14.8825283642
 20
12.9548646449
 30
0.0
  0
SPLINE
  5
2D5
100
AcDbEntity
  8
LAYER_FEATURE
100
AcDbSpline
 62
7
  6
CONTINUOUS
 70
0
 71
3
 72
18
 73
14
 74
0
 42
0.0000001
 43
0.0000001
 44
0.0000000001
 40
0.0
 40
0.0
 40
0.0
 40
0.0
 40
0.0402725329
 40
0.0814524843
 40
0.124374849
 40
0.1697529929
 40
0.2181544353
 40
0.2700038577
 40
0.3850175297
 40
0.5160481353
 40
0.6629757809
 40
0.8248183816
 40
1.0
 40
1.0
 40
1.0
 40
1.0
 10
14.9122815353
 20
13.1026879921
 30
0.0
 10
14.9121679489
 20
13.1026879871
 30
0.0
 10
14.9119377877
 20
13.1026688291
 30
0.0
 10
14.9115961701
 20
13.1025832562
 30
0.0
 10
14.9112581969
 20
13.1024415356
 30
0.0
 10
14.9109254207
 20
13.1022447283
 30
0.0
 10
14.9105989674
 20
13.1019940105
 30
0.0
 10
14.9101584933
 20
13.1015747971
 30
0.0
 10
14.9096347732
 20
13.1009125582
 30
0.0
 10
14.9090716128
 20
13.0999551457
 30
0.0
 10
14.9085604716
 20
13.0988227177
 30
0.0
 10
14.9081093139
 20
13.0975330234
 30
0.0
 10
14.9078620591
 20
13.0966142819
 30
0.0
 10
14.9077485012
 20
13.0961334186
 30
0.0
  0
SPLINE
  5
2D6
100
AcDbEntity
  8
02___PRT_ALL_AXES
100
AcDbSpline
 62
7
  6
CONTINUOUS
 70
0
 71
3
 72
38
 73
34
 74
0
 42
0.0000001
 43
0.0000001
 44
0.0000000001
 40
0.0
 40
0.0
 40
0.0
 40
0.0
 40
0.087963918
 40
0.130730792
 40
0.17265931
 40
0.2137306821
 40
0.2539278642
 40
0.2932354808
 40
0.3316400173
 40
0.3691299381
 40
0.405695846
 40
0.4413306497
 40
0.4760297523
 40
0.5097912576
 40
0.5426161997
 40
0.5745087967
 40
0.6054767289
 40
0.6355314449
 40
0.6646884918
 40
0.6929678703
 40
0.7203944085
 40
0.7469981483
 40
0.7728147278
 40
0.7978857459
 40
0.8222590813
 40
0.8459891357
 40
0.8691369614
 40
0.8917702308
 40
0.9139630027
 40
0.9357952504
 40
0.9573521248
 40
0.9787229532
 40
1.0
 40
1.0
 40
1.0
 40
1.0
 10
15.5277750378
 20
13.0951183631
 30
0.0
 10
15.5319660657
 20
13.1086805344
 30
0.0
 10
15.5385173885
 20
13.1287395216
 30
0.0
 10
15.5478662352
 20
13.1549879116
 30
0.0
 10
15.5550230372
 20
13.1739808174
 30
0.0
 10
15.562384845
 20
13.1924494961
 30
0.0
 10
15.5699459041
 20
13.2103794716
 30
0.0
 10
15.5777002366
 20
13.2277565788
 30
0.0
 10
15.5856417327
 20
13.2445671231
 30
0.0
 10
15.5937641368
 20
13.2607978537
 30
0.0
 10
15.6020610581
 20
13.2764359836
 30
0.0
 10
15.610525976
 20
13.2914691974
 30
0.0
 10
15.6191522469
 20
13.3058856615
 30
0.0
 10
15.6279331125
 20
13.3196740312
 30
0.0
 10
15.6368617062
 20
13.3328234595
 30
0.0
 10
15.6459310619
 20
13.3453236023
 30
0.0
 10
15.6551341218
 20
13.3571646247
 30
0.0
 10
15.6644637443
 20
13.3683372039
 30
0.0
 10
15.6739127119
 20
13.3788325315
 30
0.0
 10
15.6834737382
 20
13.3886423133
 30
0.0
 10
15.6931394738
 20
13.3977587672
 30
0.0
 10
15.7029025087
 20
13.4061746193
 30
0.0
 10
15.7127553733
 20
13.4138830977
 30
0.0
 10
15.7226905331
 20
13.4208779251
 30
0.0
 10
15.7327003792
 20
13.4271533132
 30
0.0
 10
15.7427772111
 20
13.4327039593
 30
0.0
 10
15.7529132162
 20
13.4375250506
 30
0.0
 10
15.7631004377
 20
13.4416122777
 30
0.0
 10
15.7733307727
 20
13.4449618611
 30
0.0
 10
15.7835958682
 20
13.4475705925
 30
0.0
 10
15.7938874292
 20
13.4494358867
 30
0.0
 10
15.8041960871
 20
13.4505558431
 30
0.0
 10
15.8110808589
 20
13.4508049894
 30
0.0
 10
15.8145143924
 20
13.4508049909
 30
0.0
  0
SPLINE
  5
2D7
100
AcDbEntity
  8
LAYER_FEATURE
100
AcDbSpline
 62
7
  6
CONTINUOUS
 70
0
 71
3
 72
100
 73
96
 74
0
 42
0.0000001
 43
0.0000001
 44
0.0000000001
 40
0.0
 40
0.0
 40
0.0
 40
0.0
 40
0.0178454061
 40
0.0361906577
 40
0.0550043806
 40
0.0742529385
 40
0.0939009845
 40
0.1139115439
 40
0.1342462313
 40
0.1548654321
 40
0.1757284752
 40
0.1967938
 40
0.2180191173
 40
0.2393615692
 40
0.2607778853
 40
0.2822245362
 40
0.3036578863
 40
0.3250343466
 40
0.3463105272
 40
0.3674433909
 40
0.3883904078
 40
0.4091097134
 40
0.4295602696
 40
0.4497020295
 40
0.4694961066
 40
0.4889049543
 40
0.5078925555
 40
0.5264246219
 40
0.5444688088
 40
0.5619949502
 40
0.5789753228
 40
0.5953849422
 40
0.611201895
 40
0.6188825385
 40
0.626408411
 40
0.6337778189
 40
0.6409893558
 40
0.6480419014
 40
0.6549346598
 40
0.661667175
 40
0.6682393488
 40
0.6746514865
 40
0.6809043043
 40
0.6869989775
 40
0.6929371712
 40
0.6987210679
 40
0.7043534257
 40
0.709837601
 40
0.7151776021
 40
0.7203781351
 40
0.7254446333
 40
0.7303833169
 40
0.7352012131
 40
0.739906191
 40
0.7445069845
 40
0.7490131841
 40
0.7534352357
 40
0.7577843961
 40
0.7620726738
 40
0.7663127468
 40
0.7705178428
 40
0.7747016083
 40
0.7788779495
 40
0.7830608646
 40
0.7872642697
 40
0.7915018318
 40
0.7957868094
 40
0.8001319148
 40
0.8045492035
 40
0.8090499773
 40
0.8136447327
 40
0.8231511076
 40
0.8280822349
 40
0.8331407728
 40
0.8383329872
 40
0.8436643645
 40
0.8491396462
 40
0.8547628877
 40
0.8605374823
 40
0.8664662194
 40
0.8725513229
 40
0.8787944807
 40
0.8851969013
 40
0.8917593286
 40
0.898482086
 40
0.9053651078
 40
0.9124079517
 40
0.9196098448
 40
0.9269696879
 40
0.9344860854
 40
0.9421573693
 40
0.9499815958
 40
0.9660793855
 40
0.9827598928
 40
1.0
 40
1.0
 40
1.0
 40
1.0
 10
15.2533404713
 20
13.2930591534
 30
0.0
 10
15.2482935952
 20
13.2767274565
 30
0.0
 10
15.2385341923
 20
13.2434578928
 30
0.0
 10
15.2250592176
 20
13.1925168957
 30
0.0
 10
15.2125699806
 20
13.1399428357
 30
0.0
 10
15.2010966348
 20
13.0858619128
 30
0.0
 10
15.1906666942
 20
13.030403434
 30
0.0
 10
15.1813052322
 20
12.9737001713
 30
0.0
 10
15.173034735
 20
12.9158878835
 30
0.0
 10
15.1658750813
 20
12.8571050271
 30
0.0
 10
15.1598434819
 20
12.7974924035
 30
0.0
 10
15.1549544424
 20
12.7371928231
 30
0.0
 10
15.1512197136
 20
12.6763507591
 30
0.0
 10
15.148648271
 20
12.6151119966
 30
0.0
 10
15.1472462968
 20
12.553623279
 30
0.0
 10
15.1470171649
 20
12.4920319531
 30
0.0
 10
15.1479614302
 20
12.4304856144
 30
0.0
 10
15.1500768171
 20
12.3691317493
 30
0.0
 10
15.1533582378
 20
12.3081173789
 30
0.0
 10
15.1577978033
 20
12.2475887042
 30
0.0
 10
15.1633848453
 20
12.187690753
 30
0.0
 10
15.1701059326
 20
12.1285670268
 30
0.0
 10
15.1779449034
 20
12.0703591525
 30
0.0
 10
15.1868829156
 20
12.0132065405
 30
0.0
 10
15.1968984902
 20
11.9572460466
 30
0.0
 10
15.2079675685
 20
11.9026116374
 30
0.0
 10
15.2200635583
 20
11.8494340564
 30
0.0
 10
15.2331574131
 20
11.7978405095
 30
0.0
 10
15.2472177146
 20
11.7479543366
 30
0.0
 10
15.262210744
 20
11.6998947682
 30
0.0
 10
15.2781006277
 20
11.6537763989
 30
0.0
 10
15.2948492435
 20
11.6097096912
 30
0.0
 10
15.3096298863
 20
11.5744472207
 30
0.0
 10
15.321869168
 20
11.5473664132
 30
0.0
 10
15.3311480107
 20
11.5278317497
 30
0.0
 10
15.3406102914
 20
11.5088862218
 30
0.0
 10
15.3502503786
 20
11.490541093
 30
0.0
 10
15.3600625351
 20
11.4728073559
 30
0.0
 10
15.370040899
 20
11.4556955995
 30
0.0
 10
15.3801795132
 20
11.4392160423
 30
0.0
 10
15.3904723772
 20
11.4233785457
 30
0.0
 10
15.4009133353
 20
11.4081925476
 30
0.0
 10
15.4114962206
 20
11.3936671334
 30
0.0
 10
15.4222147593
 20
11.3798109781
 30
0.0
 10
15.4330625936
 20
11.366632347
 30
0.0
 10
15.444033361
 20
11.3541391506
 30
0.0
 10
15.4551205635
 20
11.342338842
 30
0.0
 10
15.4663177078
 20
11.3312385188
 30
0.0
 10
15.4776182323
 20
11.3208448703
 30
0.0
 10
15.4890154938
 20
11.3111641527
 30
0.0
 10
15.5005028661
 20
11.3022022972
 30
0.0
 10
15.512073601
 20
11.2939647645
 30
0.0
 10
15.52372094
 20
11.2864566725
 30
0.0
 10
15.5354380611
 20
11.2796827586
 30
0.0
 10
15.5472180321
 20
11.2736473022
 30
0.0
 10
15.5590538954
 20
11.268354287
 30
0.0
 10
15.5709385454
 20
11.2638071968
 30
0.0
 10
15.5828647957
 20
11.260009131
 30
0.0
 10
15.594825351
 20
11.2569627798
 30
0.0
 10
15.606812776
 20
11.2546702566
 30
0.0
 10
15.6188195606
 20
11.253133295
 30
0.0
 10
15.6308380865
 20
11.2523530023
 30
0.0
 10
15.6428606907
 20
11.2523299505
 30
0.0
 10
15.6548796834
 20
11.2530642106
 30
0.0
 10
15.6668873998
 20
11.2545551621
 30
0.0
 10
15.6788762227
 20
11.2568017546
 30
0.0
 10
15.6908386149
 20
11.2598023251
 30
0.0
 10
15.7027671857
 20
11.2635547166
 30
0.0
 10
15.7146545085
 20
11.2680563049
 30
0.0
 10
15.7264937678
 20
11.2733041787
 30
0.0
 10
15.7423834476
 20
11.2813818442
 30
0.0
 10
15.757979277
 20
11.2908887141
 30
0.0
 10
15.7732253474
 20
11.3016802391
 30
0.0
 10
15.7847183963
 20
11.3105984397
 30
0.0
 10
15.7961212266
 20
11.320235508
 30
0.0
 10
15.8074278427
 20
11.330585996
 30
0.0
 10
15.8186314669
 20
11.3416434999
 30
0.0
 10
15.8297255435
 20
11.3534014293
 30
0.0
 10
15.8407035707
 20
11.3658526899
 30
0.0
 10
15.851559082
 20
11.3789898342
 30
0.0
 10
15.862285653
 20
11.3928050157
 30
0.0
 10
15.8728769792
 20
11.4072899547
 30
0.0
 10
15.8833267497
 20
11.4224360224
 30
0.0
 10
15.8936287879
 20
11.4382341579
 30
0.0
 10
15.9037769742
 20
11.4546749256
 30
0.0
 10
15.9137652444
 20
11.4717485175
 30
0.0
 10
15.9235876859
 20
11.4894447147
 30
0.0
 10
15.9332384074
 20
11.5077529559
 30
0.0
 10
15.9427116662
 20
11.5266622938
 30
0.0
 10
15.9520018002
 20
11.5461614055
 30
0.0
 10
15.9611032785
 20
11.5662386903
 30
0.0
 10
15.9730931354
 20
11.5940262397
 30
0.0
 10
15.9875502264
 20
11.6301405915
 30
0.0
 10
16.0039003896
 20
11.6751837365
 30
0.0
 10
16.014054017
 20
11.7060541862
 30
0.0
 10
16.0189925972
 20
11.7218123559
 30
0.0
  0
SPLINE
  5
2D8
100
AcDbEntity
  8
LAYER_FEATURE
100
AcDbSpline
 62
7
  6
CONTINUOUS
 70
0
 71
3
 72
68
 73
64
 74
0
 42
0.0000001
 43
0.0000001
 44
0.0000000001
 40
0.0
 40
0.0
 40
0.0
 40
0.0
 40
0.0163580858
 40
0.0330510049
 40
0.0500641651
 40
0.0673825756
 40
0.0849903746
 40
0.1028711641
 40
0.1210079486
 40
0.1393832211
 40
0.1579789974
 40
0.176776863
 40
0.1957580148
 40
0.2149033029
 40
0.2536072195
 40
0.2927309867
 40
0.3321129044
 40
0.3715894139
 40
0.4109962794
 40
0.450169764
 40
0.4889478082
 40
0.5081391481
 40
0.5271722354
 40
0.5460278227
 40
0.5646869974
 40
0.5831312226
 40
0.6013423791
 40
0.6193028086
 40
0.6369953594
 40
0.6544034334
 40
0.6715110358
 40
0.6883028277
 40
0.7047641825
 40
0.7208812464
 40
0.7366410033
 40
0.7520313453
 40
0.767041151
 40
0.7816603709
 40
0.7958801233
 40
0.8096928013
 40
0.8230921932
 40
0.836073619
 40
0.8486340848
 40
0.8607724581
 40
0.8724896662
 40
0.8837889208
 40
0.8946759706
 40
0.9051593824
 40
0.9152508473
 40
0.9249655082
 40
0.9343222939
 40
0.9433442428
 40
0.9520587819
 40
0.9604979211
 40
0.9686983093
 40
0.9727225116
 40
0.9767028171
 40
0.9806450085
 40
0.9845550798
 40
0.9884392169
 40
0.9923037608
 40
0.9961551735
 40
1.0
 40
1.0
 40
1.0
 40
1.0
 10
15.2430622463
 20
13.351532475
 30
0.0
 10
15.2391993906
 20
13.3390322692
 30
0.0
 10
15.2316531859
 20
13.3136953737
 30
0.0
 10
15.2209710955
 20
13.2751020234
 30
0.0
 10
15.2108213599
 20
13.2355717232
 30
0.0
 10
15.2012164844
 20
13.1951531922
 30
0.0
 10
15.1921682426
 20
13.1538957939
 30
0.0
 10
15.1836877397
 20
13.1118501239
 30
0.0
 10
15.1757853879
 20
13.0690676765
 30
0.0
 10
15.1684708882
 20
13.0256008825
 30
0.0
 10
15.1617532193
 20
12.9815029999
 30
0.0
 10
15.1556406417
 20
12.9368281031
 30
0.0
 10
15.1501406172
 20
12.8916308422
 30
0.0
 10
15.1436098249
 20
12.8305269264
 30
0.0
 10
15.1370363413
 20
12.7532340208
 30
0.0
 10
15.1317089423
 20
12.6596277369
 30
0.0
 10
15.1289405739
 20
12.5652924485
 30
0.0
 10
15.1287448641
 20
12.4706905565
 30
0.0
 10
15.1311227742
 20
12.3762849043
 30
0.0
 10
15.1360626037
 20
12.2825382371
 30
0.0
 10
15.1423149632
 20
12.2050824343
 30
0.0
 10
15.1485911635
 20
12.1438134769
 30
0.0
 10
15.1539035979
 20
12.0984684042
 30
0.0
 10
15.1598307196
 20
12.0536289199
 30
0.0
 10
15.1663652923
 20
12.0093498764
 30
0.0
 10
15.1734992805
 20
11.9656855709
 30
0.0
 10
15.1812239277
 20
11.9226895068
 30
0.0
 10
15.1895297496
 20
11.8804143726
 30
0.0
 10
15.1984065504
 20
11.838911965
 30
0.0
 10
15.2078434345
 20
11.7982331276
 30
0.0
 10
15.2178288215
 20
11.7584276868
 30
0.0
 10
15.2283504599
 20
11.7195443903
 30
0.0
 10
15.2393954446
 20
11.6816308452
 30
0.0
 10
15.2509502312
 20
11.644733458
 30
0.0
 10
15.2630006564
 20
11.6088973769
 30
0.0
 10
15.2755319579
 20
11.5741664349
 30
0.0
 10
15.2885287942
 20
11.5405830954
 30
0.0
 10
15.3019752679
 20
11.5081883984
 30
0.0
 10
15.3158549489
 20
11.4770219088
 30
0.0
 10
15.3301509006
 20
11.4471216673
 30
0.0
 10
15.3448457072
 20
11.4185241431
 30
0.0
 10
15.359921505
 20
11.3912641898
 30
0.0
 10
15.3753600125
 20
11.3653750039
 30
0.0
 10
15.3911425672
 20
11.3408880895
 30
0.0
 10
15.4072501642
 20
11.3178332302
 30
0.0
 10
15.4236634952
 20
11.2962384674
 30
0.0
 10
15.4403629899
 20
11.2761300893
 30
0.0
 10
15.4573288539
 20
11.2575326322
 30
0.0
 10
15.4745411052
 20
11.2404688959
 30
0.0
 10
15.4919795847
 20
11.2249599799
 30
0.0
 10
15.5096239906
 20
11.2110253217
 30
0.0
 10
15.5274537191
 20
11.1986827854
 30
0.0
 10
15.5454482228
 20
11.1879485974
 30
0.0
 10
15.5635853273
 20
11.1788377817
 30
0.0
 10
15.5788982513
 20
11.1725695383
 30
0.0
 10
15.5911741413
 20
11.168401953
 30
0.0
 10
15.6003445725
 20
11.1657075444
 30
0.0
 10
15.6095322933
 20
11.1634261356
 30
0.0
 10
15.6187346061
 20
11.1615584714
 30
0.0
 10
15.6279485571
 20
11.1601051718
 30
0.0
 10
15.6371713253
 20
11.1590667382
 30
0.0
 10
15.6463997489
 20
11.1584435505
 30
0.0
 10
15.652556218
 20
11.1583049912
 30
0.0
 10
15.655631371
 20
11.1583049937
 30
0.0
  0
SPLINE
  5
2D9
100
AcDbEntity
  8
LAYER_FEATURE
100
AcDbSpline
 62
7
  6
CONTINUOUS
 70
0
 71
3
 72
16
 73
12
 74
0
 42
0.0000001
 43
0.0000001
 44
0.0000000001
 40
0.0
 40
0.0
 40
0.0
 40
0.0
 40
0.0426527257
 40
0.0860484769
 40
0.17759946
 40
0.2793792901
 40
0.3942713203
 40
0.5237379918
 40
0.6681800605
 40
0.8272402624
 40
1.0
 40
1.0
 40
1.0
 40
1.0
 10
14.9438174373
 20
13.2333225063
 30
0.0
 10
14.9437178289
 20
13.2333225035
 30
0.0
 10
14.9435165741
 20
13.2333078268
 30
0.0
 10
14.9431102433
 20
13.233218896
 30
0.0
 10
14.9426002996
 20
13.2329890491
 30
0.0
 10
14.9420239382
 20
13.232550298
 30
0.0
 10
14.9414745736
 20
13.2319528309
 30
0.0
 10
14.9409567699
 20
13.231204247
 30
0.0
 10
14.9404753466
 20
13.2303132187
 30
0.0
 10
14.9400357652
 20
13.2292902487
 30
0.0
 10
14.9397838015
 20
13.2285566794
 30
0.0
 10
14.9396646834
 20
13.2281712133
 30
0.0
  0
SPLINE
  5
2DA
100
AcDbEntity
  8
02___PRT_ALL_AXES
100
AcDbSpline
 62
7
  6
CONTINUOUS
 70
0
 71
3
 72
57
 73
53
 74
0
 42
0.0000001
 43
0.0000001
 44
0.0000000001
 40
0.0
 40
0.0
 40
0.0
 40
0.0
 40
0.0079137948
 40
0.0160386224
 40
0.0244066075
 40
0.0330461571
 40
0.0419819702
 40
0.0512351574
 40
0.060823432
 40
0.0707613426
 40
0.0810605192
 40
0.0917299277
 40
0.102776113
 40
0.1142034249
 40
0.1260142245
 40
0.1382090663
 40
0.1507868671
 40
0.1637450566
 40
0.1770797101
 40
0.1907856645
 40
0.2048566199
 40
0.2192852323
 40
0.2340631995
 40
0.2491813359
 40
0.2646296392
 40
0.2803973498
 40
0.2964730049
 40
0.3128444936
 40
0.3294991045
 40
0.3464235694
 40
0.3636041039
 40
0.3810264443
 40
0.4165363507
 40
0.4528320753
 40
0.4897859412
 40
0.5272658765
 40
0.5651363777
 40
0.6032594276
 40
0.6414954076
 40
0.679703984
 40
0.7177449974
 40
0.7554793466
 40
0.792769888
 40
0.8294823461
 40
0.8654862462
 40
0.9006559014
 40
0.9178907024
 40
0.9348725183
 40
0.9515874851
 40
0.9680221102
 40
0.9841638365
 40
1.0
 40
1.0
 40
1.0
 40
1.0
 10
15.6020254454
 20
11.4368345609
 30
0.0
 10
15.597385304
 20
11.4384668126
 30
0.0
 10
15.5881062466
 20
11.4421408808
 30
0.0
 10
15.5744357687
 20
11.448744904
 30
0.0
 10
15.5608614599
 20
11.4564991671
 30
0.0
 10
15.5473986986
 20
11.4653938799
 30
0.0
 10
15.5340611437
 20
11.4754187559
 30
0.0
 10
15.5208626686
 20
11.4865623885
 30
0.0
 10
15.5078168877
 20
11.4988124042
 30
0.0
 10
15.4949373331
 20
11.5121553834
 30
0.0
 10
15.4822374079
 20
11.526576836
 30
0.0
 10
15.4697303996
 20
11.5420611874
 30
0.0
 10
15.4574294619
 20
11.5585917718
 30
0.0
 10
15.4453475948
 20
11.5761508273
 30
0.0
 10
15.4334976249
 20
11.5947194982
 30
0.0
 10
15.4218921732
 20
11.6142778363
 30
0.0
 10
15.410543637
 20
11.634804819
 30
0.0
 10
15.3994641736
 20
11.6562783728
 30
0.0
 10
15.3886656777
 20
11.6786753945
 30
0.0
 10
15.3781597662
 20
11.7019717735
 30
0.0
 10
15.3679577537
 20
11.7261424118
 30
0.0
 10
15.3580706365
 20
11.7511612521
 30
0.0
 10
15.3485090845
 20
11.7770013118
 30
0.0
 10
15.3392834249
 20
11.8036347127
 30
0.0
 10
15.3304036305
 20
11.8310327119
 30
0.0
 10
15.3218793041
 20
11.8591657288
 30
0.0
 10
15.3137196618
 20
11.8880033778
 30
0.0
 10
15.3059335323
 20
11.9175145046
 30
0.0
 10
15.2985293391
 20
11.9476672288
 30
0.0
 10
15.2915151116
 20
11.9784289481
 30
0.0
 10
15.2848984007
 20
12.0097664883
 30
0.0
 10
15.2765632548
 20
12.0525423832
 30
0.0
 10
15.2672070017
 20
12.1072166715
 30
0.0
 10
15.2577389908
 20
12.1741592161
 30
0.0
 10
15.2500017312
 20
12.2425561331
 30
0.0
 10
15.2440288267
 20
12.3121116612
 30
0.0
 10
15.2398462544
 20
12.3825255484
 30
0.0
 10
15.2374721702
 20
12.4534936083
 30
0.0
 10
15.2369168987
 20
12.5247092679
 30
0.0
 10
15.238182863
 20
12.5958648576
 30
0.0
 10
15.2412645398
 20
12.666652971
 30
0.0
 10
15.2461485593
 20
12.7367678244
 30
0.0
 10
15.2528136836
 20
12.8059065435
 30
0.0
 10
15.2612309513
 20
12.8737707122
 30
0.0
 10
15.2713638073
 20
12.9400668922
 30
0.0
 10
15.2812662709
 20
12.9941273417
 30
0.0
 10
15.2900296962
 20
13.0363565237
 30
0.0
 10
15.296957412
 20
13.0672474511
 30
0.0
 10
15.3042767439
 20
13.0975364973
 30
0.0
 10
15.3119798281
 20
13.1271911718
 30
0.0
 10
15.3200582829
 20
13.1561791128
 30
0.0
 10
15.3257440987
 20
13.1752259493
 30
0.0
 10
15.3286502315
 20
13.1846301985
 30
0.0
  0
SPLINE
  5
2DB
100
AcDbEntity
  8
02___PRT_ALL_AXES
100
AcDbSpline
 62
7
  6
CONTINUOUS
 70
0
 71
3
 72
25
 73
21
 74
0
 42
0.0000001
 43
0.0000001
 44
0.0000000001
 40
0.0
 40
0.0
 40
0.0
 40
0.0
 40
0.0894531595
 40
0.1761707946
 40
0.2598089763
 40
0.3400533476
 40
0.416623282
 40
0.4892787522
 40
0.5578276997
 40
0.6221356541
 40
0.6821379005
 40
0.7378552855
 40
0.7894145675
 40
0.8370737775
 40
0.881251209
 40
0.9225523612
 40
0.9423863812
 40
0.9618192779
 40
0.9809788771
 40
1.0
 40
1.0
 40
1.0
 40
1.0
 10
15.8313070394
 20
13.1975883739
 30
0.0
 10
15.8309006108
 20
13.1999726456
 30
0.0
 10
15.8300246663
 20
13.2046558412
 30
0.0
 10
15.8284956799
 20
13.2115136826
 30
0.0
 10
15.8267781635
 20
13.2180699251
 30
0.0
 10
15.824881137
 20
13.2242903867
 30
0.0
 10
15.8228145009
 20
13.2301428399
 30
0.0
 10
15.8205889993
 20
13.2355970315
 30
0.0
 10
15.8182161046
 20
13.2406249069
 30
0.0
 10
15.8157078903
 20
13.2452007572
 30
0.0
 10
15.8130768654
 20
13.2493013449
 30
0.0
 10
15.8103357081
 20
13.2529059607
 30
0.0
 10
15.8074971177
 20
13.2559963073
 30
0.0
 10
15.8045731556
 20
13.258556211
 30
0.0
 10
15.8015767027
 20
13.2605706607
 30
0.0
 10
15.7989933907
 20
13.2617993922
 30
0.0
 10
15.7969212831
 20
13.2624792545
 30
0.0
 10
15.7953809081
 20
13.2628394375
 30
0.0
 10
15.7938361482
 20
13.2630558002
 30
0.0
 10
15.7928031674
 20
13.2631039708
 30
0.0
 10
15.792288868
 20
13.2631039749
 30
0.0
  0
SPLINE
  5
2DC
100
AcDbEntity
  8
02___PRT_ALL_AXES
100
AcDbSpline
 62
7
  6
CONTINUOUS
 70
0
 71
3
 72
33
 73
29
 74
0
 42
0.0000001
 43
0.0000001
 44
0.0000000001
 40
0.0
 40
0.0
 40
0.0
 40
0.0
 40
0.0161690664
 40
0.0326006172
 40
0.0495419716
 40
0.0672133727
 40
0.0763858214
 40
0.0858075729
 40
0.1054621709
 40
0.1262993332
 40
0.1484034977
 40
0.1718318085
 40
0.1966179848
 40
0.222775688
 40
0.2503016182
 40
0.2791780431
 40
0.3093747779
 40
0.3408507722
 40
0.3735556363
 40
0.4074308199
 40
0.4424105214
 40
0.5153822181
 40
0.5918375523
 40
0.6710656261
 40
0.7523037822
 40
0.834753237
 40
0.9175936205
 40
1.0
 40
1.0
 40
1.0
 40
1.0
 10
15.9374639926
 20
11.79112178
 30
0.0
 10
15.9382359018
 20
11.7911217837
 30
0.0
 10
15.9397943621
 20
11.7912312231
 30
0.0
 10
15.9421151504
 20
11.7917214091
 30
0.0
 10
15.9444190773
 20
11.7925350624
 30
0.0
 10
15.946295338
 20
11.7934677666
 30
0.0
 10
15.9477779019
 20
11.7943631364
 30
0.0
 10
15.9492899182
 20
11.7953882426
 30
0.0
 10
15.9511587412
 20
11.7968728522
 30
0.0
 10
15.9533276863
 20
11.7989333215
 30
0.0
 10
15.9554485539
 20
11.8012912248
 30
0.0
 10
15.9575154941
 20
11.803939509
 30
0.0
 10
15.9595229003
 20
11.8068705572
 30
0.0
 10
15.9614651654
 20
11.8100758945
 30
0.0
 10
15.9633367901
 20
11.8135462664
 30
0.0
 10
15.9651323995
 20
11.8172716313
 30
0.0
 10
15.9668467891
 20
11.8212411781
 30
0.0
 10
15.9684749811
 20
11.8254433466
 30
0.0
 10
15.9700122063
 20
11.8298658703
 30
0.0
 10
15.9714539902
 20
11.8344958521
 30
0.0
 10
15.9732688991
 20
11.8410197651
 30
0.0
 10
15.9752579501
 20
11.8496006428
 30
0.0
 10
15.9771731613
 20
11.8603515805
 30
0.0
 10
15.9786264704
 20
11.8715725048
 30
0.0
 10
15.9796005952
 20
11.8831319697
 30
0.0
 10
15.9800839672
 20
11.8948948545
 30
0.0
 10
15.9800708306
 20
11.906723143
 30
0.0
 10
15.9797291104
 20
11.9146074385
 30
0.0
 10
15.9794735114
 20
11.9185331968
 30
0.0
  0
SPLINE
  5
2DD
100
AcDbEntity
  8
02___PRT_ALL_AXES
100
AcDbSpline
 62
7
  6
CONTINUOUS
 70
0
 71
3
 72
76
 73
72
 74
0
 42
0.0000001
 43
0.0000001
 44
0.0000000001
 40
0.0
 40
0.0
 40
0.0
 40
0.0
 40
0.0176374996
 40
0.0357017195
 40
0.0541703035
 40
0.0730194647
 40
0.0922242852
 40
0.111758778
 40
0.1315959995
 40
0.1517081481
 40
0.1720666592
 40
0.1926422996
 40
0.2134052548
 40
0.2343252148
 40
0.2553714601
 40
0.2765129448
 40
0.3189548893
 40
0.3614006524
 40
0.382546901
 40
0.4035997988
 40
0.4245282823
 40
0.4453016102
 40
0.4658894457
 40
0.486261941
 40
0.5063898254
 40
0.5262444923
 40
0.54579809
 40
0.5650236202
 40
0.583895036
 40
0.6023873459
 40
0.620476729
 40
0.6381406563
 40
0.6553580186
 40
0.6721092736
 40
0.6883766082
 40
0.7041441142
 40
0.7193979924
 40
0.7341267899
 40
0.7483216635
 40
0.7619766893
 40
0.7750892279
 40
0.787660342
 40
0.79969528
 40
0.8112040383
 40
0.822201994
 40
0.8327105948
 40
0.8427580902
 40
0.8523802448
 40
0.8616209322
 40
0.8705324894
 40
0.8748847927
 40
0.8791782746
 40
0.8834217288
 40
0.8876243508
 40
0.8917956789
 40
0.8959455228
 40
0.9000838823
 40
0.904220861
 40
0.9083665746
 40
0.9125310605
 40
0.9167241883
 40
0.9209555775
 40
0.9252345245
 40
0.9295699371
 40
0.938441133
 40
0.9476336617
 40
0.9572010233
 40
0.9671882315
 40
0.9776321234
 40
0.9885619356
 40
1.0
 40
1.0
 40
1.0
 40
1.0
 10
15.5663972779
 20
13.0755376491
 30
0.0
 10
15.563290988
 20
13.0654856914
 30
0.0
 10
15.557252529
 20
13.0450607536
 30
0.0
 10
15.5488070452
 20
13.0138680645
 30
0.0
 10
15.5408764507
 20
12.9817954338
 30
0.0
 10
15.5334747139
 20
12.9488990977
 30
0.0
 10
15.5266147836
 20
12.9152364931
 30
0.0
 10
15.5203086858
 20
12.8808664733
 30
0.0
 10
15.5145674765
 20
12.845849119
 30
0.0
 10
15.5094012219
 20
12.810245661
 30
0.0
 10
15.5048189767
 20
12.7741183621
 30
0.0
 10
15.5008287787
 20
12.737530411
 30
0.0
 10
15.497437625
 20
12.7005457978
 30
0.0
 10
15.4946514692
 20
12.6632292507
 30
0.0
 10
15.4924751583
 20
12.6256459374
 30
0.0
 10
15.4903892305
 20
12.5752045513
 30
0.0
 10
15.4893299853
 20
12.5119538239
 30
0.0
 10
15.4903269619
 20
12.4486992477
 30
0.0
 10
15.4923630616
 20
12.3982467322
 30
0.0
 10
15.4945023105
 20
12.3606493791
 30
0.0
 10
15.4972516694
 20
12.3233148237
 30
0.0
 10
15.5006063519
 20
12.2863082649
 30
0.0
 10
15.5045604657
 20
12.2496944692
 30
0.0
 10
15.5091070828
 20
12.2135374733
 30
0.0
 10
15.5142382259
 20
12.1779005176
 30
0.0
 10
15.5199448978
 20
12.1428459238
 30
0.0
 10
15.5262170976
 20
12.1084349877
 30
0.0
 10
15.5330438277
 20
12.0747278677
 30
0.0
 10
15.5404131213
 20
12.0417834791
 30
0.0
 10
15.5483120696
 20
12.0096593909
 30
0.0
 10
15.5567268364
 20
11.9784117198
 30
0.0
 10
15.5656426853
 20
11.9480950295
 30
0.0
 10
15.575044017
 20
11.9187622356
 30
0.0
 10
15.584914396
 20
11.890464508
 30
0.0
 10
15.5952365765
 20
11.8632511746
 30
0.0
 10
15.6059925528
 20
11.8371696369
 30
0.0
 10
15.6171635987
 20
11.8122652834
 30
0.0
 10
15.6287303012
 20
11.7885814019
 30
0.0
 10
15.6406726222
 20
11.7661591084
 30
0.0
 10
15.6529699594
 20
11.7450372808
 30
0.0
 10
15.6656011961
 20
11.7252524917
 30
0.0
 10
15.6785447779
 20
11.7068389657
 30
0.0
 10
15.6917787954
 20
11.6898285594
 30
0.0
 10
15.7052810564
 20
11.6742507543
 30
0.0
 10
15.7190291408
 20
11.6601326901
 30
0.0
 10
15.7330005033
 20
11.6474992407
 30
0.0
 10
15.7471723187
 20
11.6363731738
 30
0.0
 10
15.7615219026
 20
11.6267751381
 30
0.0
 10
15.7760246957
 20
11.6187243186
 30
0.0
 10
15.7883166505
 20
11.6132755794
 30
0.0
 10
15.7981763834
 20
11.609733402
 30
0.0
 10
15.8055344995
 20
11.6074921597
 30
0.0
 10
15.8129097654
 20
11.6056470181
 30
0.0
 10
15.8202990273
 20
11.6041988137
 30
0.0
 10
15.8276989017
 20
11.6031483096
 30
0.0
 10
15.8351060288
 20
11.6024960237
 30
0.0
 10
15.8425170191
 20
11.6022423053
 30
0.0
 10
15.8499284729
 20
11.6023872862
 30
0.0
 10
15.857336991
 20
11.6029308802
 30
0.0
 10
15.8647391778
 20
11.6038728172
 30
0.0
 10
15.8721316688
 20
11.6052126167
 30
0.0
 10
15.8795110741
 20
11.6069495644
 30
0.0
 10
15.8868742288
 20
11.609082897
 30
0.0
 10
15.8967397381
 20
11.6124797224
 30
0.0
 10
15.9090423978
 20
11.6177471836
 30
0.0
 10
15.9235643382
 20
11.6255856712
 30
0.0
 10
15.937936334
 20
11.6349738128
 30
0.0
 10
15.9521337002
 20
11.6458926427
 30
0.0
 10
15.9661338294
 20
11.6583219017
 30
0.0
 10
15.9799133981
 20
11.6722385604
 30
0.0
 10
15.988734243
 20
11.6822604774
 30
0.0
 10
15.9931063735
 20
11.6874985082
 30
0.0
  0
SPLINE
  5
2DE
100
AcDbEntity
  8
02___PRT_ALL_AXES
100
AcDbSpline
 62
7
  6
CONTINUOUS
 70
0
 71
3
 72
67
 73
63
 74
0
 42
0.0000001
 43
0.0000001
 44
0.0000000001
 40
0.0
 40
0.0
 40
0.0
 40
0.0
 40
0.003921388
 40
0.0078387425
 40
0.011761264
 40
0.015698285
 40
0.0196589862
 40
0.0236522803
 40
0.0317684449
 40
0.0401144562
 40
0.0487486848
 40
0.0577220237
 40
0.0670776684
 40
0.076851312
 40
0.0870716132
 40
0.0977608016
 40
0.1089353296
 40
0.1206065088
 40
0.1327811002
 40
0.1454618438
 40
0.1586479233
 40
0.1723353691
 40
0.1865174052
 40
0.2011847486
 40
0.2163258679
 40
0.2319272068
 40
0.2479733794
 40
0.2644473422
 40
0.2813305481
 40
0.2986030833
 40
0.3162437919
 40
0.3342303893
 40
0.3525395673
 40
0.3711470923
 40
0.3900278973
 40
0.4091561695
 40
0.4285054351
 40
0.4677568339
 40
0.507561557
 40
0.5476919822
 40
0.5879172343
 40
0.6280054974
 40
0.6677263167
 40
0.7068529127
 40
0.7261248297
 40
0.7451660438
 40
0.7639503129
 40
0.7824520863
 40
0.8006465901
 40
0.8185099163
 40
0.8360191175
 40
0.8531523069
 40
0.8698887667
 40
0.8862090652
 40
0.9020951867
 40
0.9175306732
 40
0.9325007863
 40
0.9469926748
 40
0.9609956226
 40
0.9745011581
 40
0.9875036462
 40
1.0
 40
1.0
 40
1.0
 40
1.0
 10
15.835612633
 20
13.1980044528
 30
0.0
 10
15.8374488588
 20
13.1981439132
 30
0.0
 10
15.8411275087
 20
13.1983261263
 30
0.0
 10
15.8466531152
 20
13.1983069251
 30
0.0
 10
15.8521774451
 20
13.1979948826
 30
0.0
 10
15.8576978169
 20
13.197390205
 30
0.0
 10
15.8632120276
 20
13.1964930911
 30
0.0
 10
15.8705913847
 20
13.1948995836
 30
0.0
 10
15.8798158595
 20
13.1921580176
 30
0.0
 10
15.8907530384
 20
13.1877232129
 30
0.0
 10
15.9016022298
 20
13.1821355173
 30
0.0
 10
15.9123447032
 20
13.175406806
 30
0.0
 10
15.9229635103
 20
13.1675501744
 30
0.0
 10
15.9334417981
 20
13.158580077
 30
0.0
 10
15.9437630313
 20
13.1485123552
 30
0.0
 10
15.953910787
 20
13.1373643497
 30
0.0
 10
15.9638687669
 20
13.1251549885
 30
0.0
 10
15.9736208096
 20
13.111904853
 30
0.0
 10
15.9831509388
 20
13.0976362135
 30
0.0
 10
15.9924434129
 20
13.0823730361
 30
0.0
 10
16.0014827793
 20
13.0661409708
 30
0.0
 10
16.0102539255
 20
13.0489673255
 30
0.0
 10
16.0187421256
 20
13.0308810282
 30
0.0
 10
16.0269330814
 20
13.0119125818
 30
0.0
 10
16.0348129606
 20
12.9920940131
 30
0.0
 10
16.0423684299
 20
12.9714588179
 30
0.0
 10
16.049586687
 20
12.9500419032
 30
0.0
 10
16.0564554877
 20
12.9278795249
 30
0.0
 10
16.0629631704
 20
12.9050092232
 30
0.0
 10
16.069098679
 20
12.8814697562
 30
0.0
 10
16.0748515846
 20
12.857301032
 30
0.0
 10
16.0802121046
 20
12.8325440391
 30
0.0
 10
16.0851711202
 20
12.807240777
 30
0.0
 10
16.089720197
 20
12.7814341743
 30
0.0
 10
16.0938515821
 20
12.7551680513
 30
0.0
 10
16.0975582885
 20
12.7284869067
 30
0.0
 10
16.1019464684
 20
12.6922479718
 30
0.0
 10
16.1063155037
 20
12.646233376
 30
0.0
 10
16.1097588956
 20
12.5903587646
 30
0.0
 10
16.1114037821
 20
12.5339446509
 30
0.0
 10
16.1112389342
 20
12.4773738481
 30
0.0
 10
16.1092654856
 20
12.4210294782
 30
0.0
 10
16.10549691
 20
12.3652938777
 30
0.0
 10
16.1008590489
 20
12.3194405167
 30
0.0
 10
16.0962584769
 20
12.2833648214
 30
0.0
 10
16.0923963853
 20
12.2568295315
 30
0.0
 10
16.0881120932
 20
12.23072558
 30
0.0
 10
16.0834128472
 20
12.2050971874
 30
0.0
 10
16.0783066549
 20
12.1799878683
 30
0.0
 10
16.0728021999
 20
12.1554402191
 30
0.0
 10
16.0669088446
 20
12.1314958807
 30
0.0
 10
16.0606366085
 20
12.108195457
 30
0.0
 10
16.0539961511
 20
12.0855784463
 30
0.0
 10
16.0469987507
 20
12.0636831713
 30
0.0
 10
16.0396562847
 20
12.0425467118
 30
0.0
 10
16.0319812052
 20
12.0222048364
 30
0.0
 10
16.0239865108
 20
12.0026919512
 30
0.0
 10
16.0156857177
 20
11.9840410033
 30
0.0
 10
16.0070928464
 20
11.9662835336
 30
0.0
 10
15.9982222874
 20
11.9494493029
 30
0.0
 10
15.9890891585
 20
11.9335671323
 30
0.0
 10
15.9827083698
 20
11.9234294841
 30
0.0
 10
15.9794735114
 20
11.9185331968
 30
0.0
  0
SPLINE
  5
2DF
100
AcDbEntity
  8
LAYER_FEATURE
100
AcDbSpline
 62
7
  6
CONTINUOUS
 70
0
 71
3
 72
38
 73
34
 74
0
 42
0.0000001
 43
0.0000001
 44
0.0000000001
 40
0.0
 40
0.0
 40
0.0
 40
0.0
 40
0.0218283761
 40
0.0437421154
 40
0.0658253513
 40
0.0881598421
 40
0.1108239258
 40
0.1338916823
 40
0.1574322964
 40
0.1815095703
 40
0.2061817008
 40
0.2315011928
 40
0.2575148551
 40
0.2842640047
 40
0.3117846797
 40
0.3401078645
 40
0.369259859
 40
0.3992625581
 40
0.4301337278
 40
0.4618873777
 40
0.4945339978
 40
0.5280808095
 40
0.5625320829
 40
0.5978892997
 40
0.6341513669
 40
0.6713148672
 40
0.7093741605
 40
0.7483215449
 40
0.7881474793
 40
0.8288406894
 40
0.8703879994
 40
0.9127748941
 40
1.0
 40
1.0
 40
1.0
 40
1.0
 10
15.3323389621
 20
13.7483049916
 30
0.0
 10
15.328082421
 20
13.748304987
 30
0.0
 10
15.3195498648
 20
13.7480142758
 30
0.0
 10
15.3067712883
 20
13.7467072926
 30
0.0
 10
15.2940113447
 20
13.7445303312
 30
0.0
 10
15.2812802986
 20
13.7414852625
 30
0.0
 10
15.2685872546
 20
13.7375747517
 30
0.0
 10
15.2559414109
 20
13.7328020914
 30
0.0
 10
15.2433517428
 20
13.727171128
 30
0.0
 10
15.2308270505
 20
13.7206863555
 30
0.0
 10
15.2183759982
 20
13.7133527652
 30
0.0
 10
15.2060071552
 20
13.7051758411
 30
0.0
 10
15.1937289454
 20
13.6961616492
 30
0.0
 10
15.1815497375
 20
13.6863167217
 30
0.0
 10
15.1694778417
 20
13.6756480983
 30
0.0
 10
15.1575214561
 20
13.6641633906
 30
0.0
 10
15.1456887549
 20
13.6518706923
 30
0.0
 10
15.1339878475
 20
13.6387786331
 30
0.0
 10
15.1224267343
 20
13.6248964101
 30
0.0
 10
15.1110133865
 20
13.6102337162
 30
0.0
 10
15.0997556808
 20
13.5948007925
 30
0.0
 10
15.0886613757
 20
13.5786084307
 30
0.0
 10
15.0777381799
 20
13.5616679188
 30
0.0
 10
15.0669936734
 20
13.5439910858
 30
0.0
 10
15.056435307
 20
13.5255902849
 30
0.0
 10
15.0460704572
 20
13.5064783535
 30
0.0
 10
15.0359063423
 20
13.4866686504
 30
0.0
 10
15.0259500423
 20
13.4661750307
 30
0.0
 10
15.0162085261
 20
13.445011791
 30
0.0
 10
15.0066886274
 20
13.4231937864
 30
0.0
 10
14.9973969102
 20
13.400736187
 30
0.0
 10
14.9852050205
 20
13.369665105
 30
0.0
 10
14.976602596
 20
13.3458928047
 30
0.0
 10
14.9710727889
 20
13.3298078798
 30
0.0
  0
SPLINE
  5
2E0
100
AcDbEntity
  8
LAYER_FEATURE
100
AcDbSpline
 62
7
  6
CONTINUOUS
 70
0
 71
3
 72
71
 73
67
 74
0
 42
0.0000001
 43
0.0000001
 44
0.0000000001
 40
0.0
 40
0.0
 40
0.0
 40
0.0
 40
0.0222285864
 40
0.0440603204
 40
0.0654834849
 40
0.0864885812
 40
0.1070662231
 40
0.1272078682
 40
0.1469058919
 40
0.1661535412
 40
0.1849450611
 40
0.203275744
 40
0.2211420146
 40
0.2385415445
 40
0.2554733292
 40
0.2719378
 40
0.2879369728
 40
0.3034745676
 40
0.3185561486
 40
0.3331893077
 40
0.3473838352
 40
0.3611518858
 40
0.3745081823
 40
0.3874702147
 40
0.4000584
 40
0.4122962478
 40
0.4242104999
 40
0.4358311827
 40
0.4471915991
 40
0.4583282381
 40
0.4692805468
 40
0.4800905768
 40
0.4908025117
 40
0.5014620673
 40
0.5121157965
 40
0.522810348
 40
0.5335917118
 40
0.5445045132
 40
0.5555913903
 40
0.5668924739
 40
0.5784450117
 40
0.5902831231
 40
0.6024376553
 40
0.6149361555
 40
0.6278029369
 40
0.6410591798
 40
0.6547230748
 40
0.6688100198
 40
0.6833328042
 40
0.6983017787
 40
0.7137250626
 40
0.7296087242
 40
0.7459569236
 40
0.7627720774
 40
0.7800550124
 40
0.7978050741
 40
0.8160202393
 40
0.8346972424
 40
0.8538316587
 40
0.8734179734
 40
0.893449683
 40
0.9139193633
 40
0.9348187107
 40
0.9561386184
 40
0.9778692364
 40
1.0
 40
1.0
 40
1.0
 40
1.0
 10
15.2533404713
 20
13.2930591534
 30
0.0
 10
15.2561604452
 20
13.3021845925
 30
0.0
 10
15.261895618
 20
13.3202279863
 30
0.0
 10
15.2708686236
 20
13.3468973355
 30
0.0
 10
15.2801289543
 20
13.3729110804
 30
0.0
 10
15.2896692099
 20
13.3982485485
 30
0.0
 10
15.2994819906
 20
13.4228900859
 30
0.0
 10
15.3095595889
 20
13.4468163576
 30
0.0
 10
15.319894118
 20
13.4700086302
 30
0.0
 10
15.3304775045
 20
13.4924487653
 30
0.0
 10
15.34130146
 20
13.5141192186
 30
0.0
 10
15.3523575383
 20
13.5350030459
 30
0.0
 10
15.3636371305
 20
13.55508392
 30
0.0
 10
15.375131435
 20
13.5743461648
 30
0.0
 10
15.3868315136
 20
13.5927747407
 30
0.0
 10
15.3987283046
 20
13.6103552481
 30
0.0
 10
15.4108125828
 20
13.6270739727
 30
0.0
 10
15.4230750071
 20
13.6429178691
 30
0.0
 10
15.4355061484
 20
13.6578745463
 30
0.0
 10
15.448096458
 20
13.6719323062
 30
0.0
 10
15.4608362848
 20
13.6850801421
 30
0.0
 10
15.4737159173
 20
13.697307699
 30
0.0
 10
15.4867255626
 20
13.7086052906
 30
0.0
 10
15.4998553236
 20
13.7189639247
 30
0.0
 10
15.5130952393
 20
13.7283752406
 30
0.0
 10
15.5264352625
 20
13.7368315013
 30
0.0
 10
15.539865199
 20
13.7443256569
 30
0.0
 10
15.5533747223
 20
13.7508512895
 30
0.0
 10
15.5669533409
 20
13.7564026057
 30
0.0
 10
15.5805903302
 20
13.760974549
 30
0.0
 10
15.5942747316
 20
13.7645628162
 30
0.0
 10
15.6079953519
 20
13.7671638735
 30
0.0
 10
15.62174076
 20
13.7687750942
 30
0.0
 10
15.6354993438
 20
13.7693948494
 30
0.0
 10
15.6492593926
 20
13.7690224787
 30
0.0
 10
15.6630091767
 20
13.7676583461
 30
0.0
 10
15.6767370543
 20
13.7653038975
 30
0.0
 10
15.6904315496
 20
13.7619615181
 30
0.0
 10
15.7040813931
 20
13.7576344708
 30
0.0
 10
15.7176755741
 20
13.752326908
 30
0.0
 10
15.7312033247
 20
13.7460437277
 30
0.0
 10
15.7446540789
 20
13.738790498
 30
0.0
 10
15.7580174715
 20
13.7305734899
 30
0.0
 10
15.7712833014
 20
13.7213996334
 30
0.0
 10
15.784441471
 20
13.7112764649
 30
0.0
 10
15.7974819847
 20
13.7002121737
 30
0.0
 10
15.8103949587
 20
13.68821563
 30
0.0
 10
15.823170569
 20
13.6752963361
 30
0.0
 10
15.8357990574
 20
13.661464454
 30
0.0
 10
15.8482707818
 20
13.6467308533
 30
0.0
 10
15.860576175
 20
13.6311070649
 30
0.0
 10
15.8727057485
 20
13.6146052822
 30
0.0
 10
15.884650149
 20
13.5972383983
 30
0.0
 10
15.8964001425
 20
13.5790199767
 30
0.0
 10
15.9079466016
 20
13.5599642284
 30
0.0
 10
15.9192805507
 20
13.540086032
 30
0.0
 10
15.9303931813
 20
13.5194009236
 30
0.0
 10
15.9412758221
 20
13.4979250604
 30
0.0
 10
15.9519199664
 20
13.4756752236
 30
0.0
 10
15.9623173138
 20
13.4526688218
 30
0.0
 10
15.9724597316
 20
13.4289238517
 30
0.0
 10
15.9823392663
 20
13.4044588856
 30
0.0
 10
15.9919481917
 20
13.3792930868
 30
0.0
 10
16.0012789916
 20
13.3534461389
 30
0.0
 10
16.0103243096
 20
13.3269383719
 30
0.0
 10
16.0161077711
 20
13.3090001764
 30
0.0
 10
16.0189522394
 20
13.2999263828
 30
0.0
  0
SPLINE
  5
2E1
100
AcDbEntity
  8
LAYER_FEATURE
100
AcDbSpline
 62
7
  6
CONTINUOUS
 70
0
 71
3
 72
39
 73
35
 74
0
 42
0.0000001
 43
0.0000001
 44
0.0000000001
 40
0.0
 40
0.0
 40
0.0
 40
0.0
 40
0.0443813067
 40
0.0879669132
 40
0.1307335
 40
0.1726618866
 40
0.2137331556
 40
0.2539301966
 40
0.2932376985
 40
0.3316421098
 40
0.369131909
 40
0.4056977074
 40
0.4413324012
 40
0.4760313905
 40
0.5097927922
 40
0.5426176374
 40
0.5745101304
 40
0.6054779621
 40
0.6355325877
 40
0.6646895438
 40
0.692968828
 40
0.7203952814
 40
0.7469989433
 40
0.7728154398
 40
0.7978863773
 40
0.8222596396
 40
0.8459896209
 40
0.8691373705
 40
0.8917705686
 40
0.9139632732
 40
0.9357954514
 40
0.9573522573
 40
0.9787230195
 40
1.0
 40
1.0
 40
1.0
 40
1.0
 10
15.2430622463
 20
13.351532475
 30
0.0
 10
15.2461047202
 20
13.3613779239
 30
0.0
 10
15.2522927748
 20
13.3808440423
 30
0.0
 10
15.2619758726
 20
13.409614499
 30
0.0
 10
15.2719701173
 20
13.4376746657
 30
0.0
 10
15.2822674645
 20
13.4650020979
 30
0.0
 10
15.2928598715
 20
13.4915754101
 30
0.0
 10
15.3037389474
 20
13.5173735895
 30
0.0
 10
15.3148961061
 20
13.5423762909
 30
0.0
 10
15.3263225722
 20
13.5665637997
 30
0.0
 10
15.3380093318
 20
13.5899170559
 30
0.0
 10
15.3499471848
 20
13.6124176659
 30
0.0
 10
15.3621267594
 20
13.6340479031
 30
0.0
 10
15.3745384998
 20
13.6547907379
 30
0.0
 10
15.3871726695
 20
13.6746298565
 30
0.0
 10
15.4000193905
 20
13.6935496505
 30
0.0
 10
15.413068654
 20
13.7115352248
 30
0.0
 10
15.4263102934
 20
13.7285724371
 30
0.0
 10
15.4397340281
 20
13.7446478803
 30
0.0
 10
15.4533294828
 20
13.7597488711
 30
0.0
 10
15.4670861777
 20
13.7738634707
 30
0.0
 10
15.480993525
 20
13.786980497
 30
0.0
 10
15.4950408649
 20
13.7990894838
 30
0.0
 10
15.5092174634
 20
13.8101806683
 30
0.0
 10
15.5235124696
 20
13.8202450304
 30
0.0
 10
15.5379149309
 20
13.829274252
 30
0.0
 10
15.5524137755
 20
13.8372606902
 30
0.0
 10
15.5669977656
 20
13.8441974101
 30
0.0
 10
15.5816554427
 20
13.8500782334
 30
0.0
 10
15.5963751507
 20
13.8548977231
 30
0.0
 10
15.6111448777
 20
13.8586512371
 30
0.0
 10
15.6259526827
 20
13.8613350719
 30
0.0
 10
15.6407850856
 20
13.8629465088
 30
0.0
 10
15.6506911005
 20
13.8633049881
 30
0.0
 10
15.655631371
 20
13.8633049922
 30
0.0
  0
SPLINE
  5
2E2
100
AcDbEntity
  8
02___PRT_ALL_AXES
100
AcDbSpline
 62
7
  6
CONTINUOUS
 70
0
 71
3
 72
60
 73
56
 74
0
 42
0.0000001
 43
0.0000001
 44
0.0000000001
 40
0.0
 40
0.0
 40
0.0
 40
0.0
 40
0.0163583287
 40
0.0330513579
 40
0.0500647546
 40
0.0673833504
 40
0.0849913579
 40
0.1028723529
 40
0.1210093478
 40
0.139384833
 40
0.176777827
 40
0.2149036883
 40
0.2536080525
 40
0.2927322724
 40
0.3321146457
 40
0.3715916117
 40
0.4109989331
 40
0.450172871
 40
0.4889513637
 40
0.5271752209
 40
0.564689347
 40
0.5831337859
 40
0.6013451534
 40
0.6193057909
 40
0.6369985463
 40
0.6544068213
 40
0.6715146209
 40
0.6883066065
 40
0.7047681517
 40
0.7208854024
 40
0.7366453422
 40
0.7520358629
 40
0.7670458426
 40
0.7816652316
 40
0.7958851479
 40
0.8096979848
 40
0.8230975309
 40
0.8360791067
 40
0.8486397183
 40
0.8607782328
 40
0.8724955772
 40
0.883794963
 40
0.8946821388
 40
0.9051656712
 40
0.915257252
 40
0.9249720244
 40
0.9343289182
 40
0.9433509718
 40
0.9520656123
 40
0.9605048496
 40
0.968705333
 40
0.9767082105
 40
0.9845587388
 40
0.99230561
 40
1.0
 40
1.0
 40
1.0
 40
1.0
 10
15.5277750378
 20
13.0951183631
 30
0.0
 10
15.5250903085
 20
13.086430576
 30
0.0
 10
15.5198456273
 20
13.0688212161
 30
0.0
 10
15.5124214829
 20
13.0419984731
 30
0.0
 10
15.5053673224
 20
13.0145245824
 30
0.0
 10
15.4986918464
 20
12.9864333135
 30
0.0
 10
15.4924032317
 20
12.9577590439
 30
0.0
 10
15.4865092116
 20
12.9285369243
 30
0.0
 10
15.4810169773
 20
12.8988026816
 30
0.0
 10
15.4741994843
 20
12.8582887971
 30
0.0
 10
15.4667451572
 20
12.806621597
 30
0.0
 10
15.4595489138
 20
12.7435283295
 30
0.0
 10
15.4540860444
 20
12.6792955787
 30
0.0
 10
15.4503834631
 20
12.6142381287
 30
0.0
 10
15.4484594206
 20
12.5486742939
 30
0.0
 10
15.4483234003
 20
12.4829250733
 30
0.0
 10
15.449976071
 20
12.4173123343
 30
0.0
 10
15.4534092872
 20
12.3521573187
 30
0.0
 10
15.458606127
 20
12.2877788295
 30
0.0
 10
15.4655409893
 20
12.224492371
 30
0.0
 10
15.4727800104
 20
12.1726329611
 30
0.0
 10
15.479428112
 20
12.1319419925
 30
0.0
 10
15.4847968388
 20
12.1020592833
 30
0.0
 10
15.4905694547
 20
12.0726776862
 30
0.0
 10
15.4967389152
 20
12.0438331262
 30
0.0
 10
15.503297637
 20
12.0155609597
 30
0.0
 10
15.5102375743
 20
11.9878958113
 30
0.0
 10
15.5175502109
 20
11.9608715617
 30
0.0
 10
15.5252265772
 20
11.9345212975
 30
0.0
 10
15.5332572601
 20
11.9088772716
 30
0.0
 10
15.5416324164
 20
11.8839708627
 30
0.0
 10
15.5503417862
 20
11.8598325359
 30
0.0
 10
15.5593747073
 20
11.8364918038
 30
0.0
 10
15.5687201308
 20
11.81397719
 30
0.0
 10
15.5783666379
 20
11.7923161928
 30
0.0
 10
15.5883024573
 20
11.7715352504
 30
0.0
 10
15.5985154845
 20
11.7516597083
 30
0.0
 10
15.6089933033
 20
11.732713789
 30
0.0
 10
15.6197232081
 20
11.7147205644
 30
0.0
 10
15.630692229
 20
11.6977019309
 30
0.0
 10
15.6418871573
 20
11.6816785888
 30
0.0
 10
15.6532945737
 20
11.6666700279
 30
0.0
 10
15.6649008768
 20
11.6526945193
 30
0.0
 10
15.6766923098
 20
11.6397691161
 30
0.0
 10
15.6886549835
 20
11.6279096643
 30
0.0
 10
15.700774891
 20
11.6171308258
 30
0.0
 10
15.7130379074
 20
11.6074461126
 30
0.0
 10
15.7254297644
 20
11.598867926
 30
0.0
 10
15.7379359992
 20
11.5914075936
 30
0.0
 10
15.7505418499
 20
11.5850753842
 30
0.0
 10
15.7632321823
 20
11.579880479
 30
0.0
 10
15.7759911893
 20
11.575830875
 30
0.0
 10
15.7888029058
 20
11.5729332057
 30
0.0
 10
15.8016489595
 20
11.5711924978
 30
0.0
 10
15.8102372893
 20
11.570804993
 30
0.0
 10
15.8145143924
 20
11.5708049949
 30
0.0
  0
SPLINE
  5
2E3
100
AcDbEntity
  8
LAYER_FEATURE
100
AcDbSpline
 62
7
  6
CONTINUOUS
 70
0
 71
3
 72
67
 73
63
 74
0
 42
0.0000001
 43
0.0000001
 44
0.0000000001
 40
0.0
 40
0.0
 40
0.0
 40
0.0
 40
0.0163581013
 40
0.0330510694
 40
0.0500642491
 40
0.0673826926
 40
0.0849905208
 40
0.1028713409
 40
0.1210081566
 40
0.1393834611
 40
0.15797927
 40
0.1767771682
 40
0.1957583526
 40
0.2149036734
 40
0.2536076561
 40
0.292731491
 40
0.3321134768
 40
0.371590054
 40
0.4109969877
 40
0.45017054
 40
0.4889486503
 40
0.5081400228
 40
0.5271731428
 40
0.546028763
 40
0.5646879707
 40
0.5831322282
 40
0.601343416
 40
0.6193038759
 40
0.6369964566
 40
0.65440456
 40
0.6715121917
 40
0.6883040129
 40
0.7047653969
 40
0.720882489
 40
0.7366422729
 40
0.7520326412
 40
0.7670424724
 40
0.7816617173
 40
0.7958814943
 40
0.8096941963
 40
0.8230936114
 40
0.8360750592
 40
0.8486355463
 40
0.8607739405
 40
0.872491169
 40
0.8837904436
 40
0.8946775128
 40
0.905160943
 40
0.9152524249
 40
0.9249671014
 40
0.9343239024
 40
0.9433458667
 40
0.9520604213
 40
0.9604995757
 40
0.9686999787
 40
0.9767027777
 40
0.9806449746
 40
0.9845550535
 40
0.9884391969
 40
0.9923037475
 40
0.9961551669
 40
1.0
 40
1.0
 40
1.0
 40
1.0
 10
14.9013535238
 20
13.351532475
 30
0.0
 10
14.8974906711
 20
13.3390322789
 30
0.0
 10
14.8899444662
 20
13.3136953771
 30
0.0
 10
14.8792623737
 20
13.2751020294
 30
0.0
 10
14.8691126383
 20
13.2355717179
 30
0.0
 10
14.8595077623
 20
13.1951531935
 30
0.0
 10
14.85045952
 20
13.1538957937
 30
0.0
 10
14.8419790162
 20
13.1118501251
 30
0.0
 10
14.8340766638
 20
13.0690676777
 30
0.0
 10
14.8267621649
 20
13.0256008828
 30
0.0
 10
14.8200444981
 20
12.981502999
 30
0.0
 10
14.8139319217
 20
12.9368281015
 30
0.0
 10
14.808431897
 20
12.8916308408
 30
0.0
 10
14.8019011033
 20
12.830526926
 30
0.0
 10
14.7953276159
 20
12.7532340213
 30
0.0
 10
14.790000217
 20
12.6596277373
 30
0.0
 10
14.7872318556
 20
12.5652924486
 30
0.0
 10
14.7870361448
 20
12.4706905565
 30
0.0
 10
14.7894140485
 20
12.3762849039
 30
0.0
 10
14.7943538778
 20
12.2825382368
 30
0.0
 10
14.8006062424
 20
12.2050824352
 30
0.0
 10
14.8068824445
 20
12.143813479
 30
0.0
 10
14.8121948786
 20
12.0984684063
 30
0.0
 10
14.8181219981
 20
12.0536289208
 30
0.0
 10
14.8246565682
 20
12.0093498754
 30
0.0
 10
14.8317905551
 20
11.9656855688
 30
0.0
 10
14.8395152032
 20
11.9226895048
 30
0.0
 10
14.8478210266
 20
11.880414372
 30
0.0
 10
14.8566978288
 20
11.8389119661
 30
0.0
 10
14.866134714
 20
11.79823313
 30
0.0
 10
14.876120101
 20
11.7584276896
 30
0.0
 10
14.8866417387
 20
11.719544392
 30
0.0
 10
14.8976867215
 20
11.6816308449
 30
0.0
 10
14.9092415074
 20
11.6447334566
 30
0.0
 10
14.9212919332
 20
11.6088973756
 30
0.0
 10
14.9338232353
 20
11.5741664346
 30
0.0
 10
14.9468200721
 20
11.540583096
 30
0.0
 10
14.960266546
 20
11.5081883994
 30
0.0
 10
14.9741462268
 20
11.4770219096
 30
0.0
 10
14.988442178
 20
11.4471216675
 30
0.0
 10
15.0031369844
 20
11.4185241432
 30
0.0
 10
15.0182127827
 20
11.3912641908
 30
0.0
 10
15.0336512906
 20
11.3653750058
 30
0.0
 10
15.0494338455
 20
11.3408880917
 30
0.0
 10
15.0655414422
 20
11.3178332315
 30
0.0
 10
15.0819547727
 20
11.2962384669
 30
0.0
 10
15.0986542665
 20
11.2761300867
 30
0.0
 10
15.1156201303
 20
11.2575326283
 30
0.0
 10
15.1328323806
 20
11.240468894
 30
0.0
 10
15.1502708665
 20
11.2249599815
 30
0.0
 10
15.1679152565
 20
11.211025331
 30
0.0
 10
15.1857450439
 20
11.1986827806
 30
0.0
 10
15.2037393371
 20
11.1879486413
 30
0.0
 10
15.2218771881
 20
11.1788376392
 30
0.0
 10
15.2401357796
 20
11.1713631577
 30
0.0
 10
15.2555129107
 20
11.1664828715
 30
0.0
 10
15.2678234953
 20
11.1634261919
 30
0.0
 10
15.2770259019
 20
11.1615584479
 30
0.0
 10
15.2862398301
 20
11.1601051813
 30
0.0
 10
15.2954626041
 20
11.1590667401
 30
0.0
 10
15.3046910257
 20
11.1584435398
 30
0.0
 10
15.3108474956
 20
11.1583050035
 30
0.0
 10
15.3139226485
 20
11.1583050005
 30
0.0
  0
SPLINE
  5
2E4
100
AcDbEntity
  8
LAYER_FEATURE
100
AcDbSpline
 62
7
  6
CONTINUOUS
 70
0
 71
3
 72
40
 73
36
 74
0
 42
0.0000001
 43
0.0000001
 44
0.0000000001
 40
0.0
 40
0.0
 40
0.0
 40
0.0
 40
0.046361409
 40
0.0917446593
 40
0.1361181465
 40
0.1794547488
 40
0.22172877
 40
0.2629177251
 40
0.3030020967
 40
0.341965693
 40
0.3797959491
 40
0.4164842522
 40
0.4520263325
 40
0.486422704
 40
0.5196791442
 40
0.5518072291
 40
0.5828249342
 40
0.6127572952
 40
0.6416371288
 40
0.6695057758
 40
0.6964138438
 40
0.7095276969
 40
0.7224250192
 40
0.7476042676
 40
0.7720368612
 40
0.7958160846
 40
0.8190460233
 40
0.8418407348
 40
0.8643228274
 40
0.8866214408
 40
0.9088697089
 40
0.9312018818
 40
0.953750352
 40
0.9766428455
 40
1.0
 40
1.0
 40
1.0
 40
1.0
 10
14.948464376
 20
13.2930591534
 30
0.0
 10
14.9517685598
 20
13.3037514962
 30
0.0
 10
14.9585067273
 20
13.3248496217
 30
0.0
 10
14.969122731
 20
13.3559474086
 30
0.0
 10
14.9801308675
 20
13.3861327991
 30
0.0
 10
14.9915190955
 20
13.4153729733
 30
0.0
 10
15.0032752392
 20
13.4436365913
 30
0.0
 10
15.0153865995
 20
13.4708931593
 30
0.0
 10
15.027840154
 20
13.4971133645
 30
0.0
 10
15.040622518
 20
13.522269009
 30
0.0
 10
15.0537199792
 20
13.5463330567
 30
0.0
 10
15.0671185182
 20
13.5692796588
 30
0.0
 10
15.0808038324
 20
13.591084178
 30
0.0
 10
15.0947613493
 20
13.6117232208
 30
0.0
 10
15.1089762586
 20
13.6311746524
 30
0.0
 10
15.1234335387
 20
13.6494175994
 30
0.0
 10
15.1381179955
 20
13.6664324663
 30
0.0
 10
15.1530142353
 20
13.6822008914
 30
0.0
 10
15.1681068686
 20
13.6967058898
 30
0.0
 10
15.1833798388
 20
13.7099313263
 30
0.0
 10
15.1963545943
 20
13.7199591246
 30
0.0
 10
15.2068058132
 20
13.7273075725
 30
0.0
 10
15.2171301673
 20
13.7341003167
 30
0.0
 10
15.2301252835
 20
13.7417921262
 30
0.0
 10
15.245961362
 20
13.7497657109
 30
0.0
 10
15.2618972835
 20
13.7563986106
 30
0.0
 10
15.2779153915
 20
13.761681877
 30
0.0
 10
15.2939978652
 20
13.7656082203
 30
0.0
 10
15.3101261627
 20
13.7681718811
 30
0.0
 10
15.3262812174
 20
13.7693689563
 30
0.0
 10
15.3424436138
 20
13.769197578
 30
0.0
 10
15.3585937347
 20
13.76765805
 30
0.0
 10
15.3747125112
 20
13.7647526516
 30
0.0
 10
15.3907798827
 20
13.760486191
 30
0.0
 10
15.4013248865
 20
13.7567806983
 30
0.0
 10
15.4065714713
 20
13.7547160451
 30
0.0
  0
SPLINE
  5
2E5
100
AcDbEntity
  8
LAYER_FEATURE
100
AcDbSpline
 62
7
  6
CONTINUOUS
 70
0
 71
3
 72
75
 73
71
 74
0
 42
0.0000001
 43
0.0000001
 44
0.0000000001
 40
0.0
 40
0.0
 40
0.0
 40
0.0
 40
0.016903362
 40
0.0341748169
 40
0.0517971662
 40
0.0697525745
 40
0.0880222117
 40
0.1065865562
 40
0.1254253675
 40
0.1445177824
 40
0.1638423652
 40
0.1833771685
 40
0.2030997884
 40
0.2229874194
 40
0.243016907
 40
0.2631648
 40
0.3037197226
 40
0.3444616853
 40
0.3851975285
 40
0.4257341424
 40
0.4458683543
 40
0.4658811779
 40
0.4857491968
 40
0.5054492978
 40
0.5249587232
 40
0.544255124
 40
0.5633166141
 40
0.5821218275
 40
0.6006499754
 40
0.6188809079
 40
0.6367951772
 40
0.6543741047
 40
0.671599853
 40
0.6884555024
 40
0.7049251338
 40
0.7209939194
 40
0.7366482222
 40
0.7518757056
 40
0.7666654569
 40
0.7810081256
 40
0.7948960804
 40
0.8083235876
 40
0.8212870154
 40
0.8337850673
 40
0.8458190497
 40
0.8573931768
 40
0.8685149148
 40
0.8791953679
 40
0.8894496974
 40
0.8992975668
 40
0.9087635869
 40
0.9178777257
 40
0.9266756266
 40
0.9351987607
 40
0.9393728096
 40
0.9434963307
 40
0.9475760439
 40
0.9516189493
 40
0.9556322905
 40
0.959623516
 40
0.9636002272
 40
0.9675701312
 40
0.9715409833
 40
0.9755205319
 40
0.9795164638
 40
0.9835363471
 40
0.9875875848
 40
0.9916773644
 40
0.9958126206
 40
1.0
 40
1.0
 40
1.0
 40
1.0
 10
14.948464376
 20
13.2930591534
 30
0.0
 10
14.9446239778
 20
13.2806316205
 30
0.0
 10
14.9371343722
 20
13.2554202041
 30
0.0
 10
14.9265764059
 20
13.2169825873
 30
0.0
 10
14.9165849013
 20
13.1775581026
 30
0.0
 10
14.9071738966
 20
13.1372020998
 30
0.0
 10
14.8983565452
 20
13.0959707899
 30
0.0
 10
14.890145187
 20
13.0539217993
 30
0.0
 10
14.8825513172
 20
13.0111138391
 30
0.0
 10
14.875585565
 20
12.9676067122
 30
0.0
 10
14.8692576831
 20
12.9234611971
 30
0.0
 10
14.8635765319
 20
12.8787389757
 30
0.0
 10
14.8585500634
 20
12.8335025291
 30
0.0
 10
14.8541853272
 20
12.7878151031
 30
0.0
 10
14.8504883942
 20
12.741740422
 30
0.0
 10
14.8464480398
 20
12.6797453128
 30
0.0
 10
14.8431065717
 20
12.6017412709
 30
0.0
 10
14.8418279393
 20
12.5078309531
 30
0.0
 10
14.8432792488
 20
12.4139372313
 30
0.0
 10
14.8467643761
 20
12.3359688115
 30
0.0
 10
14.850919204
 20
12.2740187878
 30
0.0
 10
14.8547009697
 20
12.2279895601
 30
0.0
 10
14.8591498164
 20
12.1823557002
 30
0.0
 10
14.8642595556
 20
12.1371808576
 30
0.0
 10
14.8700230211
 20
12.0925281911
 30
0.0
 10
14.8764321457
 20
12.0484600844
 30
0.0
 10
14.8834779551
 20
12.0050381098
 30
0.0
 10
14.8911505854
 20
11.9623229279
 30
0.0
 10
14.8994392959
 20
11.9203742052
 30
0.0
 10
14.9083324852
 20
11.8792505291
 30
0.0
 10
14.9178177078
 20
11.8390093245
 30
0.0
 10
14.9278816927
 20
11.7997067728
 30
0.0
 10
14.9385103628
 20
11.7613977314
 30
0.0
 10
14.9496888563
 20
11.7241356555
 30
0.0
 10
14.9614015499
 20
11.687972521
 30
0.0
 10
14.973632082
 20
11.6529587499
 30
0.0
 10
14.9863633804
 20
11.6191431373
 30
0.0
 10
14.9995776905
 20
11.586572782
 30
0.0
 10
15.0132566063
 20
11.5552930176
 30
0.0
 10
15.0273811033
 20
11.5253473488
 30
0.0
 10
15.0419315755
 20
11.4967773888
 30
0.0
 10
15.0568878748
 20
11.4696228023
 30
0.0
 10
15.072229355
 20
11.4439212535
 30
0.0
 10
15.0879349187
 20
11.4197083609
 30
0.0
 10
15.1039830696
 20
11.397017661
 30
0.0
 10
15.1203519669
 20
11.3758805847
 30
0.0
 10
15.1370194799
 20
11.3563264492
 30
0.0
 10
15.1539632422
 20
11.3383824684
 30
0.0
 10
15.1711606814
 20
11.3220737931
 30
0.0
 10
15.1885890753
 20
11.3074235619
 30
0.0
 10
15.2062253854
 20
11.2944530239
 30
0.0
 10
15.2240466679
 20
11.2831814846
 30
0.0
 10
15.2420281539
 20
11.2736268678
 30
0.0
 10
15.2572336929
 20
11.2670625737
 30
0.0
 10
15.269427853
 20
11.2627112153
 30
0.0
 10
15.2785335233
 20
11.2599067422
 30
0.0
 10
15.287658454
 20
11.2575402379
 30
0.0
 10
15.2967995511
 20
11.2556125131
 30
0.0
 10
15.3059535029
 20
11.2541243874
 30
0.0
 10
15.3151170145
 20
11.2530763824
 30
0.0
 10
15.3242867782
 20
11.2524689976
 30
0.0
 10
15.3334594637
 20
11.252302382
 30
0.0
 10
15.3426317418
 20
11.2525767037
 30
0.0
 10
15.351800286
 20
11.2532917521
 30
0.0
 10
15.3609617656
 20
11.2544473329
 30
0.0
 10
15.3701128838
 20
11.2560429101
 30
0.0
 10
15.3792503244
 20
11.2580779057
 30
0.0
 10
15.3883708787
 20
11.2605515096
 30
0.0
 10
15.3974710901
 20
11.2634626921
 30
0.0
 10
15.403482021
 20
11.2656796671
 30
0.0
 10
15.4064809573
 20
11.2668583466
 30
0.0
  0
SPLINE
  5
2E6
100
AcDbEntity
  8
LAYER_FEATURE
100
AcDbSpline
 62
7
  6
CONTINUOUS
 70
0
 71
3
 72
15
 73
11
 74
0
 42
0.0000001
 43
0.0000001
 44
0.0000000001
 40
0.0
 40
0.0
 40
0.0
 40
0.0
 40
0.1207889382
 40
0.2482170018
 40
0.3796553187
 40
0.5123119652
 40
0.6433528953
 40
0.7700039763
 40
0.8896569734
 40
1.0
 40
1.0
 40
1.0
 40
1.0
 10
14.9339483575
 20
13.2070772629
 30
0.0
 10
14.9337975825
 20
13.2064388031
 30
0.0
 10
14.9335415903
 20
13.2051137054
 30
0.0
 10
14.9332918803
 20
13.2030655159
 30
0.0
 10
14.9331700563
 20
13.2009411731
 30
0.0
 10
14.9331793073
 20
13.1987938117
 30
0.0
 10
14.9333193629
 20
13.1966770175
 30
0.0
 10
14.933586648
 20
13.1946435038
 30
0.0
 10
14.9339742094
 20
13.1927440035
 30
0.0
 10
14.9343223185
 20
13.1915422624
 30
0.0
 10
14.9345182717
 20
13.1909759157
 30
0.0
  0
SPLINE
  5
2E7
100
AcDbEntity
  8
LAYER_FEATURE
100
AcDbSpline
 62
7
  6
CONTINUOUS
 70
0
 71
3
 72
15
 73
11
 74
0
 42
0.0000001
 43
0.0000001
 44
0.0000000001
 40
0.0
 40
0.0
 40
0.0
 40
0.0
 40
0.1322252673
 40
0.2650596797
 40
0.3971275503
 40
0.5270587766
 40
0.6535253668
 40
0.7752643173
 40
0.8911030695
 40
1.0
 40
1.0
 40
1.0
 40
1.0
 10
14.9458069354
 20
13.1323276022
 30
0.0
 10
14.9459151751
 20
13.1340510266
 30
0.0
 10
14.9460557687
 20
13.1375110607
 30
0.0
 10
14.9460431248
 20
13.1426989183
 30
0.0
 10
14.9458083754
 20
13.1478516194
 30
0.0
 10
14.9453543982
 20
13.1529062146
 30
0.0
 10
14.9446868385
 20
13.1578010806
 30
0.0
 10
14.9438139383
 20
13.1624767168
 30
0.0
 10
14.9427465884
 20
13.1668761374
 30
0.0
 10
14.9418850512
 20
13.1696843457
 30
0.0
 10
14.9414200384
 20
13.1710283325
 30
0.0
  0
SPLINE
  5
2E8
100
AcDbEntity
  8
LAYER_FEATURE
100
AcDbSpline
 62
7
  6
CONTINUOUS
 70
0
 71
3
 72
15
 73
11
 74
0
 42
0.0000001
 43
0.0000001
 44
0.0000000001
 40
0.0
 40
0.0
 40
0.0
 40
0.0
 40
0.1282380269
 40
0.261118935
 40
0.395840941
 40
0.529522833
 40
0.6593254563
 40
0.7825567321
 40
0.8967874124
 40
1.0
 40
1.0
 40
1.0
 40
1.0
 10
14.9031067839
 20
13.0733660163
 30
0.0
 10
14.9029894648
 20
13.072690431
 30
0.0
 10
14.902800951
 20
13.0713056913
 30
0.0
 10
14.9026519952
 20
13.0691930431
 30
0.0
 10
14.9026336958
 20
13.0670460532
 30
0.0
 10
14.9027465633
 20
13.0649184321
 30
0.0
 10
14.9029876507
 20
13.0628632505
 30
0.0
 10
14.9033508046
 20
13.0609314867
 30
0.0
 10
14.9038266039
 20
13.0591711339
 30
0.0
 10
14.904233623
 20
13.058079243
 30
0.0
 10
14.9044580636
 20
13.0575750584
 30
0.0
  0
SPLINE
  5
2E9
100
AcDbEntity
  8
LAYER_FEATURE
100
AcDbSpline
 62
7
  6
CONTINUOUS
 70
0
 71
3
 72
15
 73
11
 74
0
 42
0.0000001
 43
0.0000001
 44
0.0000000001
 40
0.0
 40
0.0
 40
0.0
 40
0.0
 40
0.1377818707
 40
0.2745709908
 40
0.4089585104
 40
0.5395708575
 40
0.6651089939
 40
0.7843744899
 40
0.8963004339
 40
1.0
 40
1.0
 40
1.0
 40
1.0
 10
14.9185201645
 20
13.00302243
 30
0.0
 10
14.918543298
 20
13.0047567928
 30
0.0
 10
14.9185149604
 20
13.0082144782
 30
0.0
 10
14.9182505304
 20
13.0133575603
 30
0.0
 10
14.9177675043
 20
13.0183942563
 30
0.0
 10
14.917071838
 20
13.0232631079
 30
0.0
 10
14.9161721686
 20
13.0279048632
 30
0.0
 10
14.915079562
 20
13.0322633346
 30
0.0
 10
14.9138076092
 20
13.0362855855
 30
0.0
 10
14.9128098962
 20
13.0388134535
 30
0.0
 10
14.9122789907
 20
13.0400060826
 30
0.0
  0
SPLINE
  5
2EA
100
AcDbEntity
  8
02___PRT_ALL_AXES
100
AcDbSpline
 62
7
  6
CONTINUOUS
 70
0
 71
3
 72
60
 73
56
 74
0
 42
0.0000001
 43
0.0000001
 44
0.0000000001
 40
0.0
 40
0.0
 40
0.0
 40
0.0
 40
0.0163583287
 40
0.0330513579
 40
0.0500647546
 40
0.0673833504
 40
0.0849913579
 40
0.1028723529
 40
0.1210093478
 40
0.139384833
 40
0.176777827
 40
0.2149036883
 40
0.2536080525
 40
0.2927322724
 40
0.3321146457
 40
0.3715916117
 40
0.4109989331
 40
0.450172871
 40
0.4889513637
 40
0.5271752209
 40
0.564689347
 40
0.5831337859
 40
0.6013451534
 40
0.6193057909
 40
0.6369985463
 40
0.6544068213
 40
0.6715146209
 40
0.6883066065
 40
0.7047681517
 40
0.7208854024
 40
0.7366453422
 40
0.7520358629
 40
0.7670458426
 40
0.7816652316
 40
0.7958851479
 40
0.8096979848
 40
0.8230975309
 40
0.8360791067
 40
0.8486397183
 40
0.8607782328
 40
0.8724955772
 40
0.883794963
 40
0.8946821388
 40
0.9051656712
 40
0.915257252
 40
0.9249720244
 40
0.9343289182
 40
0.9433509718
 40
0.9520656123
 40
0.9605048496
 40
0.968705333
 40
0.9767082105
 40
0.9845587388
 40
0.99230561
 40
1.0
 40
1.0
 40
1.0
 40
1.0
 10
15.3725762603
 20
13.0951183631
 30
0.0
 10
15.369891531
 20
13.086430576
 30
0.0
 10
15.3646468499
 20
13.0688212161
 30
0.0
 10
15.3572227055
 20
13.0419984731
 30
0.0
 10
15.3501685449
 20
13.0145245824
 30
0.0
 10
15.3434930689
 20
12.9864333135
 30
0.0
 10
15.3372044542
 20
12.9577590439
 30
0.0
 10
15.3313104341
 20
12.9285369243
 30
0.0
 10
15.3258181998
 20
12.8988026816
 30
0.0
 10
15.3190007068
 20
12.8582887971
 30
0.0
 10
15.3115463797
 20
12.806621597
 30
0.0
 10
15.3043501363
 20
12.7435283295
 30
0.0
 10
15.2988872669
 20
12.6792955787
 30
0.0
 10
15.2951846856
 20
12.6142381287
 30
0.0
 10
15.2932606431
 20
12.5486742939
 30
0.0
 10
15.2931246229
 20
12.4829250733
 30
0.0
 10
15.2947772935
 20
12.4173123343
 30
0.0
 10
15.2982105097
 20
12.3521573187
 30
0.0
 10
15.3034073495
 20
12.2877788295
 30
0.0
 10
15.3103422118
 20
12.224492371
 30
0.0
 10
15.3175812329
 20
12.1726329611
 30
0.0
 10
15.3242293345
 20
12.1319419925
 30
0.0
 10
15.3295980613
 20
12.1020592833
 30
0.0
 10
15.3353706773
 20
12.0726776862
 30
0.0
 10
15.3415401377
 20
12.0438331262
 30
0.0
 10
15.3480988595
 20
12.0155609597
 30
0.0
 10
15.3550387968
 20
11.9878958113
 30
0.0
 10
15.3623514334
 20
11.9608715617
 30
0.0
 10
15.3700277997
 20
11.9345212975
 30
0.0
 10
15.3780584826
 20
11.9088772716
 30
0.0
 10
15.3864336389
 20
11.8839708627
 30
0.0
 10
15.3951430087
 20
11.8598325359
 30
0.0
 10
15.4041759298
 20
11.8364918038
 30
0.0
 10
15.4135213533
 20
11.81397719
 30
0.0
 10
15.4231678604
 20
11.7923161928
 30
0.0
 10
15.4331036798
 20
11.7715352504
 30
0.0
 10
15.443316707
 20
11.7516597083
 30
0.0
 10
15.4537945258
 20
11.732713789
 30
0.0
 10
15.4645244306
 20
11.7147205644
 30
0.0
 10
15.4754934515
 20
11.6977019309
 30
0.0
 10
15.4866883798
 20
11.6816785888
 30
0.0
 10
15.4980957963
 20
11.6666700279
 30
0.0
 10
15.5097020993
 20
11.6526945193
 30
0.0
 10
15.5214935323
 20
11.6397691161
 30
0.0
 10
15.533456206
 20
11.6279096643
 30
0.0
 10
15.5455761135
 20
11.6171308258
 30
0.0
 10
15.5578391299
 20
11.6074461126
 30
0.0
 10
15.5702309869
 20
11.598867926
 30
0.0
 10
15.5827372217
 20
11.5914075936
 30
0.0
 10
15.5953430724
 20
11.5850753842
 30
0.0
 10
15.6080334048
 20
11.579880479
 30
0.0
 10
15.6207924118
 20
11.575830875
 30
0.0
 10
15.6336041283
 20
11.5729332057
 30
0.0
 10
15.646450182
 20
11.5711924978
 30
0.0
 10
15.6550385118
 20
11.570804993
 30
0.0
 10
15.6593156149
 20
11.5708049949
 30
0.0
  0
SPLINE
  5
2EB
100
AcDbEntity
  8
LAYER_FEATURE
100
AcDbSpline
 62
7
  6
CONTINUOUS
 70
0
 71
3
 72
16
 73
12
 74
0
 42
0.0000001
 43
0.0000001
 44
0.0000000001
 40
0.0
 40
0.0
 40
0.0
 40
0.0
 40
0.1359524966
 40
0.2744057507
 40
0.4124126187
 40
0.5470308462
 40
0.6754499034
 40
0.7951047132
 40
0.9038107587
 40
0.9535520763
 40
1.0
 40
1.0
 40
1.0
 40
1.0
 10
14.8790344582
 20
12.9307828463
 30
0.0
 10
14.8789517804
 20
12.9300811343
 30
0.0
 10
14.878832545
 20
12.9286588269
 30
0.0
 10
14.8787867501
 20
12.9265146735
 30
0.0
 10
14.8788722702
 20
12.9243785546
 30
0.0
 10
14.8790869311
 20
12.9223038961
 30
0.0
 10
14.8794251703
 20
12.9203421983
 30
0.0
 10
14.8798783634
 20
12.9185422544
 30
0.0
 10
14.88035539
 20
12.917174953
 30
0.0
 10
14.8807914393
 20
12.9162028541
 30
0.0
 10
14.8810250255
 20
12.9157603267
 30
0.0
 10
14.8811457929
 20
12.9155513106
 30
0.0
  0
SPLINE
  5
2EC
100
AcDbEntity
  8
LAYER_FEATURE
100
AcDbSpline
 62
7
  6
CONTINUOUS
 70
0
 71
3
 72
15
 73
11
 74
0
 42
0.0000001
 43
0.0000001
 44
0.0000000001
 40
0.0
 40
0.0
 40
0.0
 40
0.0
 40
0.1436478097
 40
0.2845662959
 40
0.4213279457
 40
0.5525750263
 40
0.6770635807
 40
0.7936957036
 40
0.9015607529
 40
1.0
 40
1.0
 40
1.0
 40
1.0
 10
14.8977595633
 20
12.8659546948
 30
0.0
 10
14.8976982295
 20
12.8676726254
 30
0.0
 10
14.8975034047
 20
12.8710737252
 30
0.0
 10
14.8969914074
 20
12.8760913355
 30
0.0
 10
14.8962678086
 20
12.8809330836
 30
0.0
 10
14.8953415326
 20
12.8855400217
 30
0.0
 10
14.8942240491
 20
12.8898562767
 30
0.0
 10
14.8929289815
 20
12.8938299903
 30
0.0
 10
14.8914723255
 20
12.8974132057
 30
0.0
 10
14.8903518841
 20
12.8996180171
 30
0.0
 10
14.8897625396
 20
12.9006380155
 30
0.0
  0
SPLINE
  5
2ED
100
AcDbEntity
  8
LAYER_FEATURE
100
AcDbSpline
 62
7
  6
CONTINUOUS
 70
0
 71
3
 72
22
 73
18
 74
0
 42
0.0000001
 43
0.0000001
 44
0.0000000001
 40
0.0
 40
0.0
 40
0.0
 40
0.0
 40
0.0427497929
 40
0.0862973754
 40
0.1313044644
 40
0.1783686052
 40
0.2279858158
 40
0.2805505072
 40
0.3363620397
 40
0.3956341799
 40
0.458507144
 40
0.5250567429
 40
0.5953065221
 40
0.669234809
 40
0.746777716
 40
0.8278426479
 40
1.0
 40
1.0
 40
1.0
 40
1.0
 10
14.8798384123
 20
12.8164089182
 30
0.0
 10
14.8801773093
 20
12.8164136506
 30
0.0
 10
14.8808616938
 20
12.8164724097
 30
0.0
 10
14.8818792676
 20
12.8167062864
 30
0.0
 10
14.8828887929
 20
12.817084925
 30
0.0
 10
14.8838866838
 20
12.8176062756
 30
0.0
 10
14.8848701961
 20
12.8182680407
 30
0.0
 10
14.8858365993
 20
12.8190678131
 30
0.0
 10
14.8867833268
 20
12.8200028932
 30
0.0
 10
14.887707817
 20
12.8210703468
 30
0.0
 10
14.8886074619
 20
12.8222669484
 30
0.0
 10
14.8894797223
 20
12.8235890737
 30
0.0
 10
14.8903220437
 20
12.8250327691
 30
0.0
 10
14.8911319013
 20
12.8265936796
 30
0.0
 10
14.8919069413
 20
12.828267102
 30
0.0
 10
14.8929107933
 20
12.830690315
 30
0.0
 10
14.8935723929
 20
12.8325881008
 30
0.0
 10
14.8939816285
 20
12.8338902089
 30
0.0
  0
SPLINE
  5
2EE
100
AcDbEntity
  8
LAYER_FEATURE
100
AcDbSpline
 62
7
  6
CONTINUOUS
 70
0
 71
3
 72
20
 73
16
 74
0
 42
0.0000001
 43
0.0000001
 44
0.0000000001
 40
0.0
 40
0.0
 40
0.0
 40
0.0
 40
0.0365233417
 40
0.0743851236
 40
0.1146620255
 40
0.1582153076
 40
0.2056483648
 40
0.257343389
 40
0.313502683
 40
0.3741829197
 40
0.4393266618
 40
0.5087866061
 40
0.6596672928
 40
0.8244387034
 40
1.0
 40
1.0
 40
1.0
 40
1.0
 10
14.8694474396
 20
12.8162638171
 30
0.0
 10
14.8693062651
 20
12.8162618458
 30
0.0
 10
14.8690183756
 20
12.8162278369
 30
0.0
 10
14.868594714
 20
12.8160892207
 30
0.0
 10
14.8681787392
 20
12.815864862
 30
0.0
 10
14.8677729798
 20
12.8155573918
 30
0.0
 10
14.8673792523
 20
12.815169281
 30
0.0
 10
14.8669994825
 20
12.8147031039
 30
0.0
 10
14.8666356628
 20
12.814161713
 30
0.0
 10
14.8662898486
 20
12.8135483806
 30
0.0
 10
14.8659640464
 20
12.8128668345
 30
0.0
 10
14.865547549
 20
12.8118442826
 30
0.0
 10
14.8650970899
 20
12.8104227052
 30
0.0
 10
14.8646776299
 20
12.8085689817
 30
0.0
 10
14.8644814224
 20
12.8072667907
 30
0.0
 10
14.864402009
 20
12.8065927853
 30
0.0
  0
SPLINE
  5
2EF
100
AcDbEntity
  8
LAYER_FEATURE
100
AcDbSpline
 62
7
  6
CONTINUOUS
 70
0
 71
3
 72
56
 73
52
 74
0
 42
0.0000001
 43
0.0000001
 44
0.0000000001
 40
0.0
 40
0.0
 40
0.0
 40
0.0
 40
0.0401310188
 40
0.0806218642
 40
0.1213635535
 40
0.1622455121
 40
0.2031566264
 40
0.2439856449
 40
0.284621698
 40
0.3249548206
 40
0.3648764813
 40
0.4042801211
 40
0.4430616928
 40
0.4811202439
 40
0.5183584943
 40
0.5546834682
 40
0.5900071718
 40
0.607268099
 40
0.6242483638
 40
0.640938706
 40
0.657330323
 40
0.6734149167
 40
0.6891847164
 40
0.7046325083
 40
0.7197516902
 40
0.7345363133
 40
0.7489811165
 40
0.763081588
 40
0.7768340331
 40
0.7902356209
 40
0.8032844571
 40
0.8159796804
 40
0.8283215337
 40
0.8403114557
 40
0.8519522039
 40
0.8632479652
 40
0.87420447
 40
0.8848291395
 40
0.8951312351
 40
0.9051219904
 40
0.9148147632
 40
0.9242251904
 40
0.9333712979
 40
0.9422735952
 40
0.9509551399
 40
0.9594415226
 40
0.9677607757
 40
0.9759432023
 40
0.9840210963
 40
0.9920283535
 40
1.0
 40
1.0
 40
1.0
 40
1.0
 10
14.864402009
 20
12.8065927853
 30
0.0
 10
14.8622159806
 20
12.7837877842
 30
0.0
 10
14.8583575345
 20
12.7379205269
 30
0.0
 10
14.8541163336
 20
12.6687622869
 30
0.0
 10
14.8514040691
 20
12.5990979288
 30
0.0
 10
14.8502295255
 20
12.5291508981
 30
0.0
 10
14.8505964474
 20
12.4591450985
 30
0.0
 10
14.8525036866
 20
12.3893047277
 30
0.0
 10
14.855945082
 20
12.3198534043
 30
0.0
 10
14.8609095782
 20
12.2510135017
 30
0.0
 10
14.867381215
 20
12.1830054078
 30
0.0
 10
14.8753391593
 20
12.1160468171
 30
0.0
 10
14.8847578535
 20
12.0503520109
 30
0.0
 10
14.8956069912
 20
11.9861312063
 30
0.0
 10
14.9078517232
 20
11.9235896747
 30
0.0
 10
14.9214526877
 20
11.8629277874
 30
0.0
 10
14.9339749265
 20
11.8137326264
 30
0.0
 10
14.9446544541
 20
11.77548173
 30
0.0
 10
14.9529132426
 20
11.7476027974
 30
0.0
 10
14.9614758686
 20
11.7203353877
 30
0.0
 10
14.9703355343
 20
11.6937012722
 30
0.0
 10
14.9794851181
 20
11.6677217757
 30
0.0
 10
14.9889172906
 20
11.6424176765
 30
0.0
 10
14.9986245149
 20
11.617809222
 30
0.0
 10
15.0085990222
 20
11.5939160893
 30
0.0
 10
15.0188328243
 20
11.570757372
 30
0.0
 10
15.0293177528
 20
11.5483515816
 30
0.0
 10
15.0400454453
 20
11.5267166215
 30
0.0
 10
15.0510073293
 20
11.5058697581
 30
0.0
 10
15.0621946738
 20
11.4858276316
 30
0.0
 10
15.0735985958
 20
11.4666062436
 30
0.0
 10
15.0852100234
 20
11.4482209151
 30
0.0
 10
15.097019748
 20
11.4306863008
 30
0.0
 10
15.1090184462
 20
11.4140163925
 30
0.0
 10
15.1211966475
 20
11.3982244793
 30
0.0
 10
15.1335447608
 20
11.3833231491
 30
0.0
 10
15.1460531149
 20
11.3693243163
 30
0.0
 10
15.1587119407
 20
11.3562391977
 30
0.0
 10
15.1715113595
 20
11.3440782922
 30
0.0
 10
15.1844414327
 20
11.3328514324
 30
0.0
 10
15.1974921523
 20
11.3225677904
 30
0.0
 10
15.2106533923
 20
11.3132358294
 30
0.0
 10
15.2239149409
 20
11.3048633653
 30
0.0
 10
15.2372664802
 20
11.2974575907
 30
0.0
 10
15.2506975183
 20
11.2910250016
 30
0.0
 10
15.2641973703
 20
11.2855714077
 30
0.0
 10
15.2777551683
 20
11.2811019442
 30
0.0
 10
15.2913596946
 20
11.2776209635
 30
0.0
 10
15.3049997984
 20
11.2751319398
 30
0.0
 10
15.3186628933
 20
11.273637456
 30
0.0
 10
15.3277882001
 20
11.2733050046
 30
0.0
 10
15.3323389621
 20
11.2733049998
 30
0.0
  0
SPLINE
  5
2F0
100
AcDbEntity
  8
LAYER_FEATURE
100
AcDbSpline
 62
7
  6
CONTINUOUS
 70
0
 71
3
 72
15
 73
11
 74
0
 42
0.0000001
 43
0.0000001
 44
0.0000000001
 40
0.0
 40
0.0
 40
0.0
 40
0.0
 40
0.1135221525
 40
0.2355595209
 40
0.3636921872
 40
0.495247625
 40
0.627426586
 40
0.7574067911
 40
0.8824451299
 40
1.0
 40
1.0
 40
1.0
 40
1.0
 10
14.9710727889
 20
13.3298078798
 30
0.0
 10
14.9708902384
 20
13.3292171461
 30
0.0
 10
14.9705695933
 20
13.3279730159
 30
0.0
 10
14.9702231571
 20
13.3260211325
 30
0.0
 10
14.9699997731
 20
13.3239525743
 30
0.0
 10
14.9699052594
 20
13.3218190071
 30
0.0
 10
14.9699420206
 20
13.3196736156
 30
0.0
 10
14.97010914
 20
13.3175699216
 30
0.0
 10
14.9704022558
 20
13.315560519
 30
0.0
 10
14.9706872735
 20
13.3142686858
 30
0.0
 10
14.9708523498
 20
13.3136500712
 30
0.0
  0
SPLINE
  5
2F1
100
AcDbEntity
  8
LAYER_FEATURE
100
AcDbSpline
 62
7
  6
CONTINUOUS
 70
0
 71
3
 72
15
 73
11
 74
0
 42
0.0000001
 43
0.0000001
 44
0.0000000001
 40
0.0
 40
0.0
 40
0.0
 40
0.0
 40
0.1268997237
 40
0.2559111064
 40
0.3857038519
 40
0.5149258567
 40
0.6422383017
 40
0.7663370526
 40
0.8859752718
 40
1.0
 40
1.0
 40
1.0
 40
1.0
 10
14.9791895472
 20
13.2518309915
 30
0.0
 10
14.9793822076
 20
13.2535161257
 30
0.0
 10
14.9796914893
 20
13.2569239455
 30
0.0
 10
14.979930832
 20
13.262075148
 30
0.0
 10
14.9799481059
 20
13.267263006
 30
0.0
 10
14.9797430578
 20
13.2724241069
 30
0.0
 10
14.9793182452
 20
13.2774954795
 30
0.0
 10
14.9786789182
 20
13.2824153348
 30
0.0
 10
14.9778330681
 20
13.2871236003
 30
0.0
 10
14.9771190458
 20
13.2901659637
 30
0.0
 10
14.976726111
 20
13.2916384658
 30
0.0
  0
SPLINE
  5
2F2
100
AcDbEntity
  8
02___PRT_ALL_AXES
100
AcDbSpline
 62
7
  6
CONTINUOUS
 70
0
 71
3
 72
15
 73
11
 74
0
 42
0.0000001
 43
0.0000001
 44
0.0000000001
 40
0.0
 40
0.0
 40
0.0
 40
0.0
 40
0.1336139935
 40
0.2636882879
 40
0.3907018447
 40
0.5151946309
 40
0.6377451191
 40
0.7589671508
 40
0.8795009225
 40
1.0
 40
1.0
 40
1.0
 40
1.0
 10
15.9020044455
 20
11.8399048432
 30
0.0
 10
15.8993245892
 20
11.8383645508
 30
0.0
 10
15.8939391987
 20
11.8354887632
 30
0.0
 10
15.8856930538
 20
11.8317717263
 30
0.0
 10
15.8774026674
 20
11.8287175441
 30
0.0
 10
15.8690767861
 20
11.8263300999
 30
0.0
 10
15.860723765
 20
11.8246122877
 30
0.0
 10
15.8523521746
 20
11.823566398
 30
0.0
 10
15.843971625
 20
11.8231938172
 30
0.0
 10
15.8383922068
 20
11.8233944051
 30
0.0
 10
15.8356126329
 20
11.8236055255
 30
0.0
  0
SPLINE
  5
2F3
100
AcDbEntity
  8
02___PRT_ALL_AXES
100
AcDbSpline
 62
7
  6
CONTINUOUS
 70
0
 71
3
 72
38
 73
34
 74
0
 42
0.0000001
 43
0.0000001
 44
0.0000000001
 40
0.0
 40
0.0
 40
0.0
 40
0.0
 40
0.087963918
 40
0.130730792
 40
0.17265931
 40
0.2137306821
 40
0.2539278642
 40
0.2932354808
 40
0.3316400173
 40
0.3691299381
 40
0.405695846
 40
0.4413306497
 40
0.4760297523
 40
0.5097912576
 40
0.5426161997
 40
0.5745087967
 40
0.6054767289
 40
0.6355314449
 40
0.6646884918
 40
0.6929678703
 40
0.7203944085
 40
0.7469981483
 40
0.7728147278
 40
0.7978857459
 40
0.8222590813
 40
0.8459891357
 40
0.8691369614
 40
0.8917702308
 40
0.9139630027
 40
0.9357952504
 40
0.9573521248
 40
0.9787229532
 40
1.0
 40
1.0
 40
1.0
 40
1.0
 10
15.3725762603
 20
13.0951183631
 30
0.0
 10
15.3767672882
 20
13.1086805344
 30
0.0
 10
15.383318611
 20
13.1287395216
 30
0.0
 10
15.3926674577
 20
13.1549879116
 30
0.0
 10
15.3998242597
 20
13.1739808174
 30
0.0
 10
15.4071860675
 20
13.1924494961
 30
0.0
 10
15.4147471266
 20
13.2103794716
 30
0.0
 10
15.4225014591
 20
13.2277565788
 30
0.0
 10
15.4304429552
 20
13.2445671231
 30
0.0
 10
15.4385653593
 20
13.2607978537
 30
0.0
 10
15.4468622806
 20
13.2764359836
 30
0.0
 10
15.4553271985
 20
13.2914691974
 30
0.0
 10
15.4639534695
 20
13.3058856615
 30
0.0
 10
15.472734335
 20
13.3196740312
 30
0.0
 10
15.4816629287
 20
13.3328234595
 30
0.0
 10
15.4907322844
 20
13.3453236023
 30
0.0
 10
15.4999353444
 20
13.3571646247
 30
0.0
 10
15.5092649668
 20
13.3683372039
 30
0.0
 10
15.5187139344
 20
13.3788325315
 30
0.0
 10
15.5282749607
 20
13.3886423133
 30
0.0
 10
15.5379406963
 20
13.3977587672
 30
0.0
 10
15.5477037312
 20
13.4061746193
 30
0.0
 10
15.5575565958
 20
13.4138830977
 30
0.0
 10
15.5674917556
 20
13.4208779251
 30
0.0
 10
15.5775016017
 20
13.4271533132
 30
0.0
 10
15.5875784336
 20
13.4327039593
 30
0.0
 10
15.5977144387
 20
13.4375250506
 30
0.0
 10
15.6079016602
 20
13.4416122777
 30
0.0
 10
15.6181319952
 20
13.4449618611
 30
0.0
 10
15.6283970907
 20
13.4475705925
 30
0.0
 10
15.6386886517
 20
13.4494358867
 30
0.0
 10
15.6489973096
 20
13.4505558431
 30
0.0
 10
15.6558820814
 20
13.4508049894
 30
0.0
 10
15.6593156149
 20
13.4508049909
 30
0.0
  0
SPLINE
  5
2F4
100
AcDbEntity
  8
02___PRT_ALL_AXES
100
AcDbSpline
 62
7
  6
CONTINUOUS
 70
0
 71
3
 72
33
 73
29
 74
0
 42
0.0000001
 43
0.0000001
 44
0.0000000001
 40
0.0
 40
0.0
 40
0.0
 40
0.0
 40
0.0836172349
 40
0.1646218007
 40
0.2429045888
 40
0.3183696848
 40
0.3909377495
 40
0.426117224
 40
0.4605511258
 40
0.4942350054
 40
0.5271659453
 40
0.5593425476
 40
0.5907651169
 40
0.6214357738
 40
0.6513585327
 40
0.6805395503
 40
0.7089871557
 40
0.7367121245
 40
0.7637277901
 40
0.7900502297
 40
0.81569851
 40
0.8406947793
 40
0.8650645648
 40
0.9120323269
 40
0.9347113725
 40
0.9569022697
 40
0.9786491742
 40
1.0
 40
1.0
 40
1.0
 40
1.0
 10
15.3286502315
 20
13.1846301985
 30
0.0
 10
15.3327635967
 20
13.1979410531
 30
0.0
 10
15.3412188202
 20
13.2240384288
 30
0.0
 10
15.3548191213
 20
13.2621627884
 30
0.0
 10
15.3691114683
 20
13.2985789179
 30
0.0
 10
15.3840632812
 20
13.3332036452
 30
0.0
 10
15.3971768705
 20
13.3607784138
 30
0.0
 10
15.4079848933
 20
13.3818604246
 30
0.0
 10
15.4161503433
 20
13.3970125288
 30
0.0
 10
15.4244542989
 20
13.4116600506
 30
0.0
 10
15.4328920747
 20
13.4257947321
 30
0.0
 10
15.4414589041
 20
13.4394085278
 30
0.0
 10
15.4501499451
 20
13.4524937143
 30
0.0
 10
15.4589602724
 20
13.4650428749
 30
0.0
 10
15.4678849545
 20
13.4770488664
 30
0.0
 10
15.4769189273
 20
13.4885048993
 30
0.0
 10
15.486057152
 20
13.4994044422
 30
0.0
 10
15.4952944853
 20
13.5097413158
 30
0.0
 10
15.5046257484
 20
13.5195096291
 30
0.0
 10
15.5140457875
 20
13.5287038168
 30
0.0
 10
15.5235491791
 20
13.5373185553
 30
0.0
 10
15.5331311603
 20
13.5453491936
 30
0.0
 10
15.545846165
 20
13.5551496825
 30
0.0
 10
15.5588577268
 20
13.5639179786
 30
0.0
 10
15.5721321406
 20
13.5715389747
 30
0.0
 10
15.5820242017
 20
13.5765842621
 30
0.0
 10
15.5919612241
 20
13.5810217201
 30
0.0
 10
15.598669638
 20
13.5835949606
 30
0.0
 10
15.6020254453
 20
13.584775427
 30
0.0
  0
SPLINE
  5
2F5
100
AcDbEntity
  8
LAYER_FEATURE
100
AcDbSpline
 62
7
  6
CONTINUOUS
 70
0
 71
3
 72
39
 73
35
 74
0
 42
0.0000001
 43
0.0000001
 44
0.0000000001
 40
0.0
 40
0.0
 40
0.0
 40
0.0
 40
0.0443812481
 40
0.0879669295
 40
0.1307335086
 40
0.172661876
 40
0.2137331571
 40
0.2539301992
 40
0.2932376968
 40
0.3316421073
 40
0.369131911
 40
0.4056977099
 40
0.4413323968
 40
0.4760313903
 40
0.5097927974
 40
0.5426176342
 40
0.5745101269
 40
0.6054779669
 40
0.6355325892
 40
0.664689538
 40
0.6929688298
 40
0.7203952869
 40
0.7469989387
 40
0.7728154376
 40
0.7978863828
 40
0.8222596394
 40
0.8459896168
 40
0.869137373
 40
0.8917705712
 40
0.9139632708
 40
0.935795451
 40
0.9573522592
 40
0.9787230199
 40
1.0
 40
1.0
 40
1.0
 40
1.0
 10
14.9013535238
 20
13.351532475
 30
0.0
 10
14.9043959937
 20
13.3613779109
 30
0.0
 10
14.9105840512
 20
13.3808440323
 30
0.0
 10
14.9202671471
 20
13.4096144917
 30
0.0
 10
14.9302613943
 20
13.4376746694
 30
0.0
 10
14.9405587443
 20
13.4650020968
 30
0.0
 10
14.9511511491
 20
13.4915754083
 30
0.0
 10
14.9620302229
 20
13.5173735908
 30
0.0
 10
14.9731873844
 20
13.54237629
 30
0.0
 10
14.9846138522
 20
13.5665637977
 30
0.0
 10
14.9963006079
 20
13.5899170569
 30
0.0
 10
15.0082384594
 20
13.6124176673
 30
0.0
 10
15.0204180414
 20
13.6340478998
 30
0.0
 10
15.0328297779
 20
13.6547907374
 30
0.0
 10
15.0454639416
 20
13.6746298603
 30
0.0
 10
15.0583106715
 20
13.6935496473
 30
0.0
 10
15.0713599349
 20
13.7115352213
 30
0.0
 10
15.0846015663
 20
13.7285724412
 30
0.0
 10
15.098025304
 20
13.7446478815
 30
0.0
 10
15.1116207667
 20
13.759748864
 30
0.0
 10
15.1253774537
 20
13.7738634722
 30
0.0
 10
15.1392847964
 20
13.7869805043
 30
0.0
 10
15.1533321482
 20
13.7990894759
 30
0.0
 10
15.1675087433
 20
13.8101806639
 30
0.0
 10
15.1818037409
 20
13.8202450405
 30
0.0
 10
15.1962062095
 20
13.8292742503
 30
0.0
 10
15.2107050581
 20
13.8372606787
 30
0.0
 10
15.2252890398
 20
13.8441974171
 30
0.0
 10
15.2399467179
 20
13.8500782411
 30
0.0
 10
15.2546664319
 20
13.8548977095
 30
0.0
 10
15.269436155
 20
13.8586512351
 30
0.0
 10
15.2842439584
 20
13.8613350874
 30
0.0
 10
15.2990763641
 20
13.8629464963
 30
0.0
 10
15.3089823781
 20
13.8633049902
 30
0.0
 10
15.3139226485
 20
13.8633049853
 30
0.0
  0
ENDSEC
  0
SECTION
  2
OBJECTS
  0
DICTIONARY
  5
C
100
AcDbDictionary
280
0
281
1
  3
ACAD_GROUP
350
D
  3
ACAD_MLINESTYLE
350
17
  3
ACAD_LAYOUT
350
1A
  3
ACAD_PLOTSETTINGS
350
19
  3
ACAD_PLOTSTYLENAME
350
E
  0
DICTIONARY
  5
D
102
{ACAD_REACTORS
330
C
102
}
100
AcDbDictionary
280
0
281
1
  0
ACDBDICTIONARYWDFLT
  5
E
102
{ACAD_REACTORS
330
C
102
}
100
AcDbDictionary
281
1
  3
Normal
350
F
100
AcDbDictionaryWithDefault
340
F
  0
DICTIONARY
  5
17
102
{ACAD_REACTORS
330
C
102
}
100
AcDbDictionary
280
0
281
1
  3
Standard
350
18
  0
DICTIONARY
  5
19
102
{ACAD_REACTORS
330
C
102
}
100
AcDbDictionary
281
1
  0
DICTIONARY
  5
1A
102
{ACAD_REACTORS
330
C
102
}
100
AcDbDictionary
281
1
  3
Model
350
2F6
  3
Layout1
350
2F7
  0
ACDBPLACEHOLDER
  5
F
102
{ACAD_REACTORS
330
E
102
}
  0
MLINESTYLE
  5
18
102
{ACAD_REACTORS
330
17
102
}
100
AcDbMlineStyle
  2
STANDARD
 70
0
  3

 62
256
 51
90.0
 52
90.0
 71
2
 49
0.5
 62
256
  6
BYLAYER
 49
-0.5
 62
256
  6
BYLAYER
  0
LAYOUT
  5
2F6
102
{ACAD_REACTORS
330
1A
102
}
100
AcDbPlotSettings
  1

  2
none_device
  4
ANSI_C_(22.00_x_17.00_Inches)
  6

 40
0.0
 41
0.0
 42
0.0
 43
0.0
 44
558.8
 45
431.8
 46
0.0
 47
0.0
 48
0.0
 49
0.0
140
0.0
141
0.0
142
1.0
143
1.0
 70
1024
 72
0
 73
0
 74
0
  7

 75
0
147
1.0
148
0.0
149
0.0
100
AcDbLayout
  1
Model
 70
0
 71
0
 10
0.0
 20
0.0
 11
22.0
 21
17.0
 12
0.0
 22
0.0
 32
0.0
 14
0.0
 24
0.0
 34
0.0
 15
0.0
 25
0.0
 35
0.0
146
0.0
 13
0.0
 23
0.0
 33
0.0
 16
1.0
 26
0.0
 36
0.0
 17
0.0
 27
1.0
 37
0.0
 76
0
330
222
345
0
346
0
  0
LAYOUT
  5
2F7
102
{ACAD_REACTORS
330
1A
102
}
100
AcDbPlotSettings
  1

  2
none_device
  4
ANSI_C_(22.00_x_17.00_Inches)
  6

 40
0.0
 41
0.0
 42
0.0
 43
0.0
 44
558.8
 45
431.8
 46
0.0
 47
0.0
 48
0.0
 49
0.0
140
0.0
141
0.0
142
1.0
143
1.0
 70
0
 72
0
 73
0
 74
0
  7

 75
0
147
1.0
148
0.0
149
0.0
100
AcDbLayout
  1
Layout1
 70
0
 71
1
 10
0.0
 20
0.0
 11
22.0
 21
17.0
 12
0.0
 22
0.0
 32
0.0
 14
0.0
 24
0.0
 34
0.0
 15
0.0
 25
0.0
 35
0.0
146
0.0
 13
0.0
 23
0.0
 33
0.0
 16
1.0
 26
0.0
 36
0.0
 17
0.0
 27
1.0
 37
0.0
 76
0
330
223
345
0
346
0
  0
ENDSEC
  0
EOF