999
DXF file: _cgs_temp_output.dxf
999
Pro/ENGINEER 2015110 by Parametric Technology Corporation
  0
SECTION
  2
HEADER
  9
$ACADVER
  1
AC1021
  9
$DWGCODEPAGE
  3
ANSI_1252
  9
$EXTMAX
 10
22.0
 20
17.0
 30
0.0
  9
$EXTMIN
 10
0.0
 20
0.0
 30
0.0
  9
$LIMMIN
 10
0.0
 20
0.0
  9
$LIMMAX
 10
22.0
 20
17.0
  9
$VIEWCTR
 10
11.0
 20
8.5
  9
$VIEWSIZE
 40
17.0
  9
$CLAYER
  8
0
  9
$LTSCALE
 40
1.21
  9
$CELTYPE
  6
BYLAYER
  9
$DIMSCALE
 40
1.0
  9
$DIMASZ
 40
0.1875
  9
$DIMEXO
 40
0.0625
  9
$DIMDLI
 40
0.836
  9
$DIMEXE
 40
0.125
  9
$DIMCEN
 40
0.198
  9
$DIMLFAC
 40
1.0
  9
$DIMBLK
  1
_CLOSED
  9
$DIMALT
 70
0
  9
$DIMALTF
 40
25.4
  9
$DIMTXT
 40
0.15625
  9
$DIMTOL
 70
0
  9
$DIMLIM
 70
0
  9
$DIMTFAC
 40
1.0
  9
$DIMGAP
 40
0.09
  9
$DIMDSEP
 70
46
  9
$AUNITS
 70
0
  9
$PDMODE
 70
3
  9
$PDSIZE
 40
0.3125
  9
$HANDSEED
  5
2A8
  9
$TILEMODE
 70
1
  9
$MEASUREMENT
 70
0
  9
$INSUNITS
 70
1
  0
ENDSEC
  0
SECTION
  2
CLASSES
  0
CLASS
  1
ACDBDICTIONARYWDFLT
  2
AcDbDictionaryWithDefault
  3
AutoCAD 2000
 90
0
 91
1
280
0
281
0
  0
CLASS
  1
ACDBPLACEHOLDER
  2
AcDbPlaceHolder
  3
AutoCAD 2000
 90
0
 91
1
280
0
281
0
  0
CLASS
  1
LAYOUT
  2
AcDbLayout
  3
AutoCAD 2000
 90
0
 91
0
280
0
281
0
  0
ENDSEC
  0
SECTION
  2
TABLES
  0
TABLE
  2
VPORT
  5
8
100
AcDbSymbolTable
 70
2
  0
VPORT
  5
1F4
100
AcDbSymbolTableRecord
100
AcDbViewportTableRecord
  2
*ACTIVE
 70
0
 10
0.0
 20
0.0
 11
1.0
 21
1.0
 12
11.0
 22
8.5
 13
0.0
 23
0.0
 14
1.0
 24
1.0
 15
0.0
 25
0.0
 16
0.0
 26
0.0
 36
1.0
 17
0.0
 27
0.0
 37
0.0
 40
17.0
 41
1.2941176471
 42
50.0
 43
0.0
 44
0.0
 50
0.0
 51
0.0
 71
0
 72
100
 73
1
 74
1
 75
0
 76
0
 77
0
 78
0
  0
ENDTAB
  0
TABLE
  2
LTYPE
  5
5
100
AcDbSymbolTable
 70
6
  0
LTYPE
  5
14
100
AcDbSymbolTableRecord
100
AcDbLinetypeTableRecord
  2
BYBLOCK
 70
0
  3

 72
65
 73
0
 40
0.0
  0
LTYPE
  5
15
100
AcDbSymbolTableRecord
100
AcDbLinetypeTableRecord
  2
BYLAYER
 70
0
  3

 72
65
 73
0
 40
0.0
  0
LTYPE
  5
16
100
AcDbSymbolTableRecord
100
AcDbLinetypeTableRecord
  2
CONTINUOUS
 70
64
  3
Solid line
 72
65
 73
0
 40
0.0
  0
LTYPE
  5
1F5
100
AcDbSymbolTableRecord
100
AcDbLinetypeTableRecord
  2
CENTER
 70
64
  3
____ _ ____ _ ____ _ ____ _ ____ _ ____ _ ____
 72
65
 73
4
 40
0.6
 49
0.375
 74
0
 49
-0.075
 74
0
 49
0.075
 74
0
 49
-0.075
 74
0
  0
LTYPE
  5
1F6
100
AcDbSymbolTableRecord
100
AcDbLinetypeTableRecord
  2
HIDDEN
 70
64
  3
- - - - - - - - - - - - - - - - - - - -
 72
65
 73
2
 40
0.2
 49
0.1
 74
0
 49
-0.1
 74
0
  0
LTYPE
  5
1F7
100
AcDbSymbolTableRecord
100
AcDbLinetypeTableRecord
  2
PHANTOM
 70
64
  3
_____ _ _ _____ _ _ _____ _ _ _____
 72
65
 73
6
 40
0.8
 49
0.45
 74
0
 49
-0.05
 74
0
 49
0.1
 74
0
 49
-0.05
 74
0
 49
0.1
 74
0
 49
-0.05
 74
0
  0
LTYPE
  5
1F8
100
AcDbSymbolTableRecord
100
AcDbLinetypeTableRecord
  2
DOT
 70
64
  3
. . . . . . . . . . . . . . . . . . . .
 72
65
 73
2
 40
0.2
 49
0.1
 74
0
 49
-0.1
 74
0
  0
LTYPE
  5
1F9
100
AcDbSymbolTableRecord
100
AcDbLinetypeTableRecord
  2
DASHED
 70
64
  3
- - - - - - - - - - - - - - - - - - - -
 72
65
 73
2
 40
0.2
 49
0.1
 74
0
 49
-0.1
 74
0
  0
ENDTAB
  0
TABLE
  2
LAYER
  5
2
100
AcDbSymbolTable
 70
36
  0
LAYER
  5
10
100
AcDbSymbolTableRecord
100
AcDbLayerTableRecord
  2
0
 70
0
 62
7
  6
CONTINUOUS
370
-3
390
F
  0
LAYER
  5
1FA
100
AcDbSymbolTableRecord
100
AcDbLayerTableRecord
  2
DEFAULT_1
 70
0
 62
7
  6
CENTER
370
-3
390
F
  0
LAYER
  5
1FB
100
AcDbSymbolTableRecord
100
AcDbLayerTableRecord
  2
DEFAULT_2
 70
0
 62
8
  6
HIDDEN
370
-3
390
F
  0
LAYER
  5
1FC
100
AcDbSymbolTableRecord
100
AcDbLayerTableRecord
  2
DEFAULT_3
 70
0
 62
7
  6
PHANTOM
370
-3
390
F
  0
LAYER
  5
1FD
100
AcDbSymbolTableRecord
100
AcDbLayerTableRecord
  2
01_ALL_DTM_PLN
 70
0
 62
7
  6
CONTINUOUS
370
-3
390
F
  0
LAYER
  5
1FE
100
AcDbSymbolTableRecord
100
AcDbLayerTableRecord
  2
01__ASM_ALL_DTM_PLN
 70
0
 62
7
  6
CONTINUOUS
370
-3
390
F
  0
LAYER
  5
1FF
100
AcDbSymbolTableRecord
100
AcDbLayerTableRecord
  2
01__ASM_DEF_DTM_PLN
 70
0
 62
7
  6
CONTINUOUS
370
-3
390
F
  0
LAYER
  5
200
100
AcDbSymbolTableRecord
100
AcDbLayerTableRecord
  2
01___PRT_ALL_DTM_PLN
 70
0
 62
7
  6
CONTINUOUS
370
-3
390
F
  0
LAYER
  5
201
100
AcDbSymbolTableRecord
100
AcDbLayerTableRecord
  2
01___PRT_DEF_DTM_PLN
 70
0
 62
7
  6
CONTINUOUS
370
-3
390
F
  0
LAYER
  5
202
100
AcDbSymbolTableRecord
100
AcDbLayerTableRecord
  2
02_ALL_AXES
 70
0
 62
7
  6
CONTINUOUS
370
-3
390
F
  0
LAYER
  5
203
100
AcDbSymbolTableRecord
100
AcDbLayerTableRecord
  2
02__ASM_ALL_AXES
 70
0
 62
7
  6
CONTINUOUS
370
-3
390
F
  0
LAYER
  5
204
100
AcDbSymbolTableRecord
100
AcDbLayerTableRecord
  2
02___PRT_ALL_AXES
 70
0
 62
7
  6
CONTINUOUS
370
-3
390
F
  0
LAYER
  5
205
100
AcDbSymbolTableRecord
100
AcDbLayerTableRecord
  2
03_ALL_CURVES
 70
0
 62
7
  6
CONTINUOUS
370
-3
390
F
  0
LAYER
  5
206
100
AcDbSymbolTableRecord
100
AcDbLayerTableRecord
  2
03__ASM_ALL_CURVES
 70
0
 62
7
  6
CONTINUOUS
370
-3
390
F
  0
LAYER
  5
207
100
AcDbSymbolTableRecord
100
AcDbLayerTableRecord
  2
03___PRT_ALL_CURVES
 70
0
 62
7
  6
CONTINUOUS
370
-3
390
F
  0
LAYER
  5
208
100
AcDbSymbolTableRecord
100
AcDbLayerTableRecord
  2
04_ALL_DTM_PNT
 70
0
 62
7
  6
CONTINUOUS
370
-3
390
F
  0
LAYER
  5
209
100
AcDbSymbolTableRecord
100
AcDbLayerTableRecord
  2
04__ASM_ALL_DTM_PNT
 70
0
 62
7
  6
CONTINUOUS
370
-3
390
F
  0
LAYER
  5
20A
100
AcDbSymbolTableRecord
100
AcDbLayerTableRecord
  2
04___PRT_ALL_DTM_PNT
 70
0
 62
7
  6
CONTINUOUS
370
-3
390
F
  0
LAYER
  5
20B
100
AcDbSymbolTableRecord
100
AcDbLayerTableRecord
  2
05_ALL_DTM_CSYS
 70
0
 62
7
  6
CONTINUOUS
370
-3
390
F
  0
LAYER
  5
20C
100
AcDbSymbolTableRecord
100
AcDbLayerTableRecord
  2
05__ASM_ALL_DTM_CSYS
 70
0
 62
7
  6
CONTINUOUS
370
-3
390
F
  0
LAYER
  5
20D
100
AcDbSymbolTableRecord
100
AcDbLayerTableRecord
  2
05__ASM_DEF_DTM_CSYS
 70
0
 62
7
  6
CONTINUOUS
370
-3
390
F
  0
LAYER
  5
20E
100
AcDbSymbolTableRecord
100
AcDbLayerTableRecord
  2
05___PRT_ALL_DTM_CSYS
 70
0
 62
7
  6
CONTINUOUS
370
-3
390
F
  0
LAYER
  5
20F
100
AcDbSymbolTableRecord
100
AcDbLayerTableRecord
  2
05___PRT_DEF_DTM_CSYS
 70
0
 62
7
  6
CONTINUOUS
370
-3
390
F
  0
LAYER
  5
210
100
AcDbSymbolTableRecord
100
AcDbLayerTableRecord
  2
06_ALL_SURFS
 70
0
 62
7
  6
CONTINUOUS
370
-3
390
F
  0
LAYER
  5
211
100
AcDbSymbolTableRecord
100
AcDbLayerTableRecord
  2
06__ASM_ALL_SURFS
 70
0
 62
7
  6
CONTINUOUS
370
-3
390
F
  0
LAYER
  5
212
100
AcDbSymbolTableRecord
100
AcDbLayerTableRecord
  2
06___PRT_ALL_SURFS
 70
0
 62
7
  6
CONTINUOUS
370
-3
390
F
  0
LAYER
  5
213
100
AcDbSymbolTableRecord
100
AcDbLayerTableRecord
  2
07__ASM_ALL_SKELETONS
 70
0
 62
7
  6
CONTINUOUS
370
-3
390
F
  0
ENDTAB
  0
TABLE
  2
STYLE
  5
3
100
AcDbSymbolTable
 70
1
  0
STYLE
  5
11
100
AcDbSymbolTableRecord
100
AcDbTextStyleTableRecord
  2
STANDARD
 70
0
 40
0.0
 41
0.8
 50
0.0
 71
0
 42
0.2
  3
txt
  4

  0
STYLE
  5
214
100
AcDbSymbolTableRecord
100
AcDbTextStyleTableRecord
  2
TEXTSTYLE_1
 70
0
 40
0.0
 41
0.8
 50
0.0
 71
0
 42
0.2
  3
gdt
  4

  0
ENDTAB
  0
TABLE
  2
VIEW
  5
6
100
AcDbSymbolTable
 70
0
  0
ENDTAB
  0
TABLE
  2
UCS
  5
7
100
AcDbSymbolTable
 70
0
  0
ENDTAB
  0
TABLE
  2
APPID
  5
9
100
AcDbSymbolTable
 70
1
  0
APPID
  5
215
100
AcDbSymbolTableRecord
100
AcDbRegAppTableRecord
  2
ACAD
 70
0
  0
ENDTAB
  0
TABLE
  2
BLOCK_RECORD
  5
1
100
AcDbSymbolTable
 70
0
  0
BLOCK_RECORD
  5
216
100
AcDbSymbolTableRecord
100
AcDbBlockTableRecord
  2
*Model_Space
  0
BLOCK_RECORD
  5
217
100
AcDbSymbolTableRecord
100
AcDbBlockTableRecord
  2
*Paper_Space
  0
ENDTAB
  0
TABLE
  2
DIMSTYLE
  5
A
100
AcDbSymbolTable
 70
1
100
AcDbDimStyleTable
 71
0
  0
DIMSTYLE
105
218
100
AcDbSymbolTableRecord
100
AcDbDimStyleTableRecord
  2
STANDARD
 70
0
  3

  4

 40
1.0
 41
0.1875
 42
0.0625
 43
0.38
 44
0.125
 45
0.0
 46
0.0
 47
0.0001
 48
0.0001
140
0.15625
141
0.09
142
0.0
143
25.4
144
1.0
145
0.0
146
1.0
147
0.09
 71
0.0
 72
0.0
 73
1
 74
1
 75
0
 76
0
 77
0
 78
4
170
0
171
2
172
0
173
0
174
0
175
0
176
0
177
0
178
0
270
2
271
4
272
4
273
2
274
2
275
0
280
0
281
0
282
0
283
1
284
4
285
0
286
0
287
3
288
0
340
11
278
46
  0
ENDTAB
  0
ENDSEC
  0
SECTION
  2
BLOCKS
  0
BLOCK
  5
20
100
AcDbEntity
  8
0
100
AcDbBlockBegin
  2
*Model_Space
 70
0
 10
0.0
 20
0.0
 30
0.0
  3
*Model_Space
  1

  0
ENDBLK
  5
21
100
AcDbEntity
  8
0
100
AcDbBlockEnd
  0
BLOCK
  5
1C
100
AcDbEntity
  8
0
100
AcDbBlockBegin
  2
*Paper_Space
 70
0
 10
0.0
 20
0.0
 30
0.0
  3
*Paper_Space
  1

  0
ENDBLK
  5
1D
100
AcDbEntity
  8
0
100
AcDbBlockEnd
  0
ENDSEC
  0
SECTION
  2
ENTITIES
  0
MTEXT
  5
219
100
AcDbEntity
  8
0
100
AcDbMText
 62
7
  6
CONTINUOUS
  7
STANDARD
 71
1
 72
1
 10
15.9560215477
 20
0.9479130325
 30
0.0
 11
1.0
 21
0.0
 31
0.0
 44
0.9
  1
SCALE: 1:2.000
 40
0.3
 41
3.36
  0
LINE
  5
21A
100
AcDbEntity
  8
0
100
AcDbLine
 62
7
  6
CONTINUOUS
 10
0.0
 20
0.0
 11
0.0
 21
17.0
  0
LINE
  5
21B
100
AcDbEntity
  8
0
100
AcDbLine
 62
7
  6
CONTINUOUS
 10
0.0
 20
0.0
 11
22.0
 21
0.0
  0
LINE
  5
21C
100
AcDbEntity
  8
0
100
AcDbLine
 62
7
  6
CONTINUOUS
 10
0.0
 20
17.0
 11
22.0
 21
17.0
  0
LINE
  5
21D
100
AcDbEntity
  8
0
100
AcDbLine
 62
7
  6
CONTINUOUS
 10
22.0
 20
0.0
 11
22.0
 21
17.0
  0
LINE
  5
21E
100
AcDbEntity
  8
0
100
AcDbLine
 62
7
  6
CONTINUOUS
 10
4.2406034966
 20
5.7524033613
 11
4.2406034966
 21
5.5555529676
  0
LINE
  5
21F
100
AcDbEntity
  8
0
100
AcDbLine
 62
7
  6
CONTINUOUS
 10
4.4887070192
 20
5.2878364322
 11
4.6224212339
 21
5.2878364322
  0
LINE
  5
220
100
AcDbEntity
  8
0
100
AcDbLine
 62
7
  6
CONTINUOUS
 10
5.118628279
 20
5.2878364322
 11
5.2523424938
 21
5.2878364322
  0
LINE
  5
221
100
AcDbEntity
  8
0
100
AcDbLine
 62
7
  6
CONTINUOUS
 10
5.7485495389
 20
5.2878364322
 11
5.8822637536
 21
5.2878364322
  0
LINE
  5
222
100
AcDbEntity
  8
0
100
AcDbLine
 62
7
  6
CONTINUOUS
 10
6.3784707987
 20
5.2878364322
 11
6.5121850135
 21
5.2878364322
  0
LINE
  5
223
100
AcDbEntity
  8
0
100
AcDbLine
 62
7
  6
CONTINUOUS
 10
7.0083920585
 20
5.2878364322
 11
7.1421062733
 21
5.2878364322
  0
LINE
  5
224
100
AcDbEntity
  8
0
100
AcDbLine
 62
7
  6
CONTINUOUS
 10
7.6383133184
 20
5.2878364322
 11
7.7720275332
 21
5.2878364322
  0
LINE
  5
225
100
AcDbEntity
  8
0
100
AcDbLine
 62
7
  6
CONTINUOUS
 10
4.2406034966
 20
5.5555529676
 11
4.3089546253
 21
5.5555529676
  0
LINE
  5
226
100
AcDbEntity
  8
0
100
AcDbLine
 62
7
  6
CONTINUOUS
 10
4.8021736278
 20
5.5555529676
 11
4.9388758851
 21
5.5555529676
  0
LINE
  5
227
100
AcDbEntity
  8
0
100
AcDbLine
 62
7
  6
CONTINUOUS
 10
5.4320948877
 20
5.5555529676
 11
5.568797145
 21
5.5555529676
  0
LINE
  5
228
100
AcDbEntity
  8
0
100
AcDbLine
 62
7
  6
CONTINUOUS
 10
6.0620161475
 20
5.5555529676
 11
6.1987184048
 21
5.5555529676
  0
LINE
  5
229
100
AcDbEntity
  8
0
100
AcDbLine
 62
7
  6
CONTINUOUS
 10
6.6919374074
 20
5.5555529676
 11
6.8286396647
 21
5.5555529676
  0
LINE
  5
22A
100
AcDbEntity
  8
0
100
AcDbLine
 62
7
  6
CONTINUOUS
 10
7.3218586672
 20
5.5555529676
 11
7.4585609245
 21
5.5555529676
  0
LINE
  5
22B
100
AcDbEntity
  8
0
100
AcDbLine
 62
7
  6
CONTINUOUS
 10
7.951779927
 20
5.5555529676
 11
8.0201310557
 21
5.5555529676
  0
LINE
  5
22C
100
AcDbEntity
  8
0
100
AcDbLine
 62
7
  6
CONTINUOUS
 10
8.0201310557
 20
5.7524033613
 11
4.2406034966
 21
5.7524033613
  0
LINE
  5
22D
100
AcDbEntity
  8
0
100
AcDbLine
 62
7
  6
CONTINUOUS
 10
8.0201310557
 20
5.5555529676
 11
8.0201310557
 21
5.7524033613
  0
LINE
  5
22E
100
AcDbEntity
  8
0
100
AcDbLine
 62
7
  6
CONTINUOUS
 10
4.1811083043
 20
14.017370616
 11
4.1811083043
 21
11.1827249467
  0
LINE
  5
22F
100
AcDbEntity
  8
0
100
AcDbLine
 62
7
  6
CONTINUOUS
 10
7.9606358634
 20
11.1827249467
 11
4.1811083043
 21
11.1827249467
  0
LINE
  5
230
100
AcDbEntity
  8
0
100
AcDbLine
 62
7
  6
CONTINUOUS
 10
4.1811083043
 20
14.017370616
 11
7.9606358634
 21
14.017370616
  0
LINE
  5
231
100
AcDbEntity
  8
0
100
AcDbLine
 62
7
  6
CONTINUOUS
 10
7.9606358634
 20
14.017370616
 11
7.9606358634
 21
11.1827249467
  0
LINE
  5
232
100
AcDbEntity
  8
0
100
AcDbLine
 62
7
  6
CONTINUOUS
 10
14.1430324223
 20
5.2283412399
 11
14.1430324223
 21
5.692908169
  0
LINE
  5
233
100
AcDbEntity
  8
0
100
AcDbLine
 62
7
  6
CONTINUOUS
 10
14.1430324223
 20
5.2283412399
 11
16.9776780916
 21
5.2283412399
  0
LINE
  5
234
100
AcDbEntity
  8
0
100
AcDbLine
 62
7
  6
CONTINUOUS
 10
16.9776780916
 20
5.4960577753
 11
14.1430324223
 21
5.4960577753
  0
LINE
  5
235
100
AcDbEntity
  8
0
100
AcDbLine
 62
7
  6
CONTINUOUS
 10
16.9776780916
 20
5.692908169
 11
14.1430324223
 21
5.692908169
  0
LINE
  5
236
100
AcDbEntity
  8
0
100
AcDbLine
 62
7
  6
CONTINUOUS
 10
16.9776780916
 20
5.2283412399
 11
16.9776780916
 21
5.692908169
  0
LINE
  5
237
100
AcDbEntity
  8
0
100
AcDbLine
 62
7
  6
CONTINUOUS
 10
13.3574148298
 20
11.5449675939
 11
13.4174624414
 21
11.422603427
  0
LINE
  5
238
100
AcDbEntity
  8
0
100
AcDbLine
 62
7
  6
CONTINUOUS
 10
14.0435870852
 20
13.765421826
 11
13.3574148298
 21
11.5449675939
  0
LINE
  5
239
100
AcDbEntity
  8
0
100
AcDbLine
 62
7
  6
CONTINUOUS
 10
13.9457369332
 20
11.422603427
 11
13.9044282367
 21
11.2889284359
  0
LINE
  5
23A
100
AcDbEntity
  8
0
100
AcDbLine
 62
7
  6
CONTINUOUS
 10
13.7276456702
 20
11.2561881599
 11
13.8508046177
 21
11.2561881599
  0
LINE
  5
23B
100
AcDbEntity
  8
0
100
AcDbLine
 62
7
  6
CONTINUOUS
 10
14.3078415719
 20
11.2561881599
 11
14.4310005195
 21
11.2561881599
  0
LINE
  5
23C
100
AcDbEntity
  8
0
100
AcDbLine
 62
7
  6
CONTINUOUS
 10
14.8880374736
 20
11.2561881599
 11
15.0111964212
 21
11.2561881599
  0
LINE
  5
23D
100
AcDbEntity
  8
0
100
AcDbLine
 62
7
  6
CONTINUOUS
 10
15.4682333754
 20
11.2561881599
 11
15.5913923229
 21
11.2561881599
  0
LINE
  5
23E
100
AcDbEntity
  8
0
100
AcDbLine
 62
7
  6
CONTINUOUS
 10
16.0484292771
 20
11.2561881599
 11
16.1715882247
 21
11.2561881599
  0
LINE
  5
23F
100
AcDbEntity
  8
0
100
AcDbLine
 62
7
  6
CONTINUOUS
 10
16.6286251788
 20
11.2561881599
 11
16.7517841264
 21
11.2561881599
  0
LINE
  5
240
100
AcDbEntity
  8
0
100
AcDbLine
 62
7
  6
CONTINUOUS
 10
13.9015076291
 20
11.2804033845
 11
13.9044238922
 21
11.2889297783
  0
LINE
  5
241
100
AcDbEntity
  8
0
100
AcDbLine
 62
7
  6
CONTINUOUS
 10
13.4174624414
 20
11.422603427
 11
13.4804179999
 21
11.422603427
  0
LINE
  5
242
100
AcDbEntity
  8
0
100
AcDbLine
 62
7
  6
CONTINUOUS
 10
13.9347027846
 20
11.422603427
 11
14.0606139016
 21
11.422603427
  0
LINE
  5
243
100
AcDbEntity
  8
0
100
AcDbLine
 62
7
  6
CONTINUOUS
 10
14.5148986864
 20
11.422603427
 11
14.6408098033
 21
11.422603427
  0
LINE
  5
244
100
AcDbEntity
  8
0
100
AcDbLine
 62
7
  6
CONTINUOUS
 10
15.0950945881
 20
11.422603427
 11
15.2210057051
 21
11.422603427
  0
LINE
  5
245
100
AcDbEntity
  8
0
100
AcDbLine
 62
7
  6
CONTINUOUS
 10
15.6752904898
 20
11.422603427
 11
15.8012016068
 21
11.422603427
  0
LINE
  5
246
100
AcDbEntity
  8
0
100
AcDbLine
 62
7
  6
CONTINUOUS
 10
16.2554863916
 20
11.422603427
 11
16.3813975085
 21
11.422603427
  0
LINE
  5
247
100
AcDbEntity
  8
0
100
AcDbLine
 62
7
  6
CONTINUOUS
 10
16.8356822933
 20
11.422603427
 11
16.8986378518
 21
11.422603427
  0
LINE
  5
248
100
AcDbEntity
  8
0
100
AcDbLine
 62
7
  6
CONTINUOUS
 10
16.8385902402
 20
11.5449675939
 11
13.3574148298
 21
11.5449675939
  0
LINE
  5
249
100
AcDbEntity
  8
0
100
AcDbLine
 62
7
  6
CONTINUOUS
 10
14.5259328349
 20
11.422603427
 11
14.4846241384
 21
11.2889284359
  0
LINE
  5
24A
100
AcDbEntity
  8
0
100
AcDbLine
 62
7
  6
CONTINUOUS
 10
14.4817035308
 20
11.2804033845
 11
14.484619794
 21
11.2889297783
  0
LINE
  5
24B
100
AcDbEntity
  8
0
100
AcDbLine
 62
7
  6
CONTINUOUS
 10
15.1061287367
 20
11.422603427
 11
15.0648200401
 21
11.2889284359
  0
LINE
  5
24C
100
AcDbEntity
  8
0
100
AcDbLine
 62
7
  6
CONTINUOUS
 10
15.0618994326
 20
11.2804033845
 11
15.0648156957
 21
11.2889297783
  0
LINE
  5
24D
100
AcDbEntity
  8
0
100
AcDbLine
 62
7
  6
CONTINUOUS
 10
15.6863246384
 20
11.422603427
 11
15.6450159419
 21
11.2889284359
  0
LINE
  5
24E
100
AcDbEntity
  8
0
100
AcDbLine
 62
7
  6
CONTINUOUS
 10
15.6420953343
 20
11.2804033845
 11
15.6450115974
 21
11.2889297783
  0
LINE
  5
24F
100
AcDbEntity
  8
0
100
AcDbLine
 62
7
  6
CONTINUOUS
 10
16.8986378518
 20
11.422603427
 11
16.8385902402
 21
11.5449675939
  0
LINE
  5
250
100
AcDbEntity
  8
0
100
AcDbLine
 62
7
  6
CONTINUOUS
 10
16.2665205401
 20
11.422603427
 11
16.2252118436
 21
11.2889284359
  0
LINE
  5
251
100
AcDbEntity
  8
0
100
AcDbLine
 62
7
  6
CONTINUOUS
 10
16.222291236
 20
11.2804033845
 11
16.2252074992
 21
11.2889297783
  0
LINE
  5
252
100
AcDbEntity
  8
0
100
AcDbLine
 62
7
  6
CONTINUOUS
 10
14.0435870852
 20
13.765421826
 11
17.5247624956
 21
13.765421826
  0
LINE
  5
253
100
AcDbEntity
  8
0
100
AcDbLine
 62
7
  6
CONTINUOUS
 10
17.5247624956
 20
13.765421826
 11
16.8385902402
 21
11.5449675939
  0
LINE
  5
254
100
AcDbEntity
  8
0
100
AcDbLine
 62
7
  6
CONTINUOUS
 10
16.8467164419
 20
11.422603427
 11
16.8054077453
 21
11.2889284359
  0
LINE
  5
255
100
AcDbEntity
  8
0
100
AcDbLine
 62
7
  6
CONTINUOUS
 10
16.8024871378
 20
11.2804033845
 11
16.8054069591
 21
11.2889286789
  0
LINE
  5
256
100
AcDbEntity
  8
0
100
AcDbLine
 62
7
  6
CONTINUOUS
 10
17.5848101071
 20
13.643057659
 11
16.8986378518
 21
11.422603427
  0
LINE
  5
257
100
AcDbEntity
  8
0
100
AcDbLine
 62
7
  6
CONTINUOUS
 10
17.5848101071
 20
13.643057659
 11
17.5247624956
 21
13.765421826
  0
ARC
  5
258
100
AcDbEntity
  8
0
100
AcDbCircle
 62
7
  6
CONTINUOUS
 10
4.2996586147
 20
5.5555529676
 40
0.4527559055
100
AcDbArc
 50
329.6511770724
 51
354.0364298817
  0
ARC
  5
259
100
AcDbEntity
  8
0
100
AcDbCircle
 62
7
  6
CONTINUOUS
 10
5.4413908982
 20
5.5555529676
 40
0.4527559055
100
AcDbArc
 50
185.9635701183
 51
210.3488229276
  0
ARC
  5
25A
100
AcDbEntity
  8
0
100
AcDbCircle
 62
7
  6
CONTINUOUS
 10
4.9295798746
 20
5.5555529676
 40
0.4527559055
100
AcDbArc
 50
329.6511770724
 51
354.0364298817
  0
ARC
  5
25B
100
AcDbEntity
  8
0
100
AcDbCircle
 62
7
  6
CONTINUOUS
 10
6.0713121581
 20
5.5555529676
 40
0.4527559055
100
AcDbArc
 50
185.9635701183
 51
210.3488229276
  0
ARC
  5
25C
100
AcDbEntity
  8
0
100
AcDbCircle
 62
7
  6
CONTINUOUS
 10
5.5595011344
 20
5.5555529676
 40
0.4527559055
100
AcDbArc
 50
329.6511770724
 51
354.0364298817
  0
ARC
  5
25D
100
AcDbEntity
  8
0
100
AcDbCircle
 62
7
  6
CONTINUOUS
 10
6.7012334179
 20
5.5555529676
 40
0.4527559055
100
AcDbArc
 50
185.9635701183
 51
210.3488229276
  0
ARC
  5
25E
100
AcDbEntity
  8
0
100
AcDbCircle
 62
7
  6
CONTINUOUS
 10
4.8114696384
 20
5.5555529676
 40
0.4527559055
100
AcDbArc
 50
185.9635701183
 51
210.3488229276
  0
ARC
  5
25F
100
AcDbEntity
  8
0
100
AcDbCircle
 62
7
  6
CONTINUOUS
 10
7.449264914
 20
5.5555529676
 40
0.4527559055
100
AcDbArc
 50
329.6511770724
 51
354.0364298817
  0
ARC
  5
260
100
AcDbEntity
  8
0
100
AcDbCircle
 62
7
  6
CONTINUOUS
 10
7.9610759376
 20
5.5555529676
 40
0.4527559055
100
AcDbArc
 50
185.9635701183
 51
210.3488229276
  0
ARC
  5
261
100
AcDbEntity
  8
0
100
AcDbCircle
 62
7
  6
CONTINUOUS
 10
6.8193436541
 20
5.5555529676
 40
0.4527559055
100
AcDbArc
 50
329.6511770724
 51
354.0364298817
  0
ARC
  5
262
100
AcDbEntity
  8
0
100
AcDbCircle
 62
7
  6
CONTINUOUS
 10
7.3311546777
 20
5.5555529676
 40
0.4527559055
100
AcDbArc
 50
185.9635701183
 51
210.3488229276
  0
ARC
  5
263
100
AcDbEntity
  8
0
100
AcDbCircle
 62
7
  6
CONTINUOUS
 10
6.1894223943
 20
5.5555529676
 40
0.4527559055
100
AcDbArc
 50
329.6511770724
 51
354.0364298817
  0
ARC
  5
264
100
AcDbEntity
  8
0
100
AcDbCircle
 62
7
  6
CONTINUOUS
 10
4.4887070192
 20
5.3665765897
 40
0.0787401575
100
AcDbArc
 50
210.3488229276
 51
270.0
  0
ARC
  5
265
100
AcDbEntity
  8
0
100
AcDbCircle
 62
7
  6
CONTINUOUS
 10
4.6224212339
 20
5.3665765897
 40
0.0787401575
100
AcDbArc
 50
270.0
 51
329.6511770724
  0
ARC
  5
266
100
AcDbEntity
  8
0
100
AcDbCircle
 62
7
  6
CONTINUOUS
 10
5.118628279
 20
5.3665765897
 40
0.0787401575
100
AcDbArc
 50
210.3488229276
 51
270.0
  0
ARC
  5
267
100
AcDbEntity
  8
0
100
AcDbCircle
 62
7
  6
CONTINUOUS
 10
5.2523424938
 20
5.3665765897
 40
0.0787401575
100
AcDbArc
 50
270.0
 51
329.6511770724
  0
ARC
  5
268
100
AcDbEntity
  8
0
100
AcDbCircle
 62
7
  6
CONTINUOUS
 10
5.7485495389
 20
5.3665765897
 40
0.0787401575
100
AcDbArc
 50
210.3488229276
 51
270.0
  0
ARC
  5
269
100
AcDbEntity
  8
0
100
AcDbCircle
 62
7
  6
CONTINUOUS
 10
5.8822637536
 20
5.3665765897
 40
0.0787401575
100
AcDbArc
 50
270.0
 51
329.6511770724
  0
ARC
  5
26A
100
AcDbEntity
  8
0
100
AcDbCircle
 62
7
  6
CONTINUOUS
 10
6.3784707987
 20
5.3665765897
 40
0.0787401575
100
AcDbArc
 50
210.3488229276
 51
270.0
  0
ARC
  5
26B
100
AcDbEntity
  8
0
100
AcDbCircle
 62
7
  6
CONTINUOUS
 10
7.7720275332
 20
5.3665765897
 40
0.0787401575
100
AcDbArc
 50
270.0
 51
329.6511770724
  0
ARC
  5
26C
100
AcDbEntity
  8
0
100
AcDbCircle
 62
7
  6
CONTINUOUS
 10
7.6383133184
 20
5.3665765897
 40
0.0787401575
100
AcDbArc
 50
210.3488229276
 51
270.0
  0
ARC
  5
26D
100
AcDbEntity
  8
0
100
AcDbCircle
 62
7
  6
CONTINUOUS
 10
7.1421062733
 20
5.3665765897
 40
0.0787401575
100
AcDbArc
 50
270.0
 51
329.6511770724
  0
ARC
  5
26E
100
AcDbEntity
  8
0
100
AcDbCircle
 62
7
  6
CONTINUOUS
 10
7.0083920585
 20
5.3665765897
 40
0.0787401575
100
AcDbArc
 50
210.3488229276
 51
270.0
  0
ARC
  5
26F
100
AcDbEntity
  8
0
100
AcDbCircle
 62
7
  6
CONTINUOUS
 10
6.5121850135
 20
5.3665765897
 40
0.0787401575
100
AcDbArc
 50
270.0
 51
329.6511770724
  0
ARC
  5
270
100
AcDbEntity
  8
0
100
AcDbCircle
 62
7
  6
CONTINUOUS
 10
4.3089546253
 20
5.5030595293
 40
0.0524934383
100
AcDbArc
 50
5.9635701183
 51
90.0
  0
ARC
  5
271
100
AcDbEntity
  8
0
100
AcDbCircle
 62
7
  6
CONTINUOUS
 10
4.8021736278
 20
5.5030595293
 40
0.0524934383
100
AcDbArc
 50
90.0
 51
174.0364298817
  0
ARC
  5
272
100
AcDbEntity
  8
0
100
AcDbCircle
 62
7
  6
CONTINUOUS
 10
4.9388758851
 20
5.5030595293
 40
0.0524934383
100
AcDbArc
 50
5.9635701183
 51
90.0
  0
ARC
  5
273
100
AcDbEntity
  8
0
100
AcDbCircle
 62
7
  6
CONTINUOUS
 10
5.4320948877
 20
5.5030595293
 40
0.0524934383
100
AcDbArc
 50
90.0
 51
174.0364298817
  0
ARC
  5
274
100
AcDbEntity
  8
0
100
AcDbCircle
 62
7
  6
CONTINUOUS
 10
5.568797145
 20
5.5030595293
 40
0.0524934383
100
AcDbArc
 50
5.9635701183
 51
90.0
  0
ARC
  5
275
100
AcDbEntity
  8
0
100
AcDbCircle
 62
7
  6
CONTINUOUS
 10
6.0620161475
 20
5.5030595293
 40
0.0524934383
100
AcDbArc
 50
90.0
 51
174.0364298817
  0
ARC
  5
276
100
AcDbEntity
  8
0
100
AcDbCircle
 62
7
  6
CONTINUOUS
 10
6.1987184048
 20
5.5030595293
 40
0.0524934383
100
AcDbArc
 50
5.9635701183
 51
90.0
  0
ARC
  5
277
100
AcDbEntity
  8
0
100
AcDbCircle
 62
7
  6
CONTINUOUS
 10
6.6919374074
 20
5.5030595293
 40
0.0524934383
100
AcDbArc
 50
90.0
 51
174.0364298817
  0
ARC
  5
278
100
AcDbEntity
  8
0
100
AcDbCircle
 62
7
  6
CONTINUOUS
 10
6.8286396647
 20
5.5030595293
 40
0.0524934383
100
AcDbArc
 50
5.9635701183
 51
90.0
  0
ARC
  5
279
100
AcDbEntity
  8
0
100
AcDbCircle
 62
7
  6
CONTINUOUS
 10
7.3218586672
 20
5.5030595293
 40
0.0524934383
100
AcDbArc
 50
90.0
 51
174.0364298817
  0
ARC
  5
27A
100
AcDbEntity
  8
0
100
AcDbCircle
 62
7
  6
CONTINUOUS
 10
7.4585609245
 20
5.5030595293
 40
0.0524934383
100
AcDbArc
 50
5.9635701183
 51
90.0
  0
ARC
  5
27B
100
AcDbEntity
  8
0
100
AcDbCircle
 62
7
  6
CONTINUOUS
 10
7.951779927
 20
5.5030595293
 40
0.0524934383
100
AcDbArc
 50
90.0
 51
174.0364298817
  0
SPLINE
  5
27C
100
AcDbEntity
  8
0
100
AcDbSpline
 62
7
  6
CONTINUOUS
 70
0
 71
3
 72
11
 73
7
 74
0
 42
0.0000001
 43
0.0000001
 44
0.0000000001
 40
0.0
 40
0.0
 40
0.0
 40
0.0
 40
0.2022220632
 40
0.4300661249
 40
0.6961864547
 40
1.0
 40
1.0
 40
1.0
 40
1.0
 10
13.900562279
 20
11.4054715064
 30
0.0
 10
13.9013698201
 20
11.4080849644
 30
0.0
 10
13.9045266673
 20
11.4132536872
 30
0.0
 10
13.912454731
 20
11.4186819162
 30
0.0
 10
13.9228536552
 20
11.4219521175
 30
0.0
 10
13.9305932208
 20
11.422603427
 30
0.0
 10
13.9347027846
 20
11.422603427
 30
0.0
  0
SPLINE
  5
27D
100
AcDbEntity
  8
0
100
AcDbSpline
 62
7
  6
CONTINUOUS
 70
0
 71
3
 72
11
 73
7
 74
0
 42
0.0000001
 43
0.0000001
 44
0.0000000001
 40
0.0
 40
0.0
 40
0.0
 40
0.0
 40
0.2022220632
 40
0.4300661249
 40
0.6961864547
 40
1.0
 40
1.0
 40
1.0
 40
1.0
 10
14.4807581807
 20
11.4054715064
 30
0.0
 10
14.4815657218
 20
11.4080849644
 30
0.0
 10
14.484722569
 20
11.4132536872
 30
0.0
 10
14.4926506327
 20
11.4186819162
 30
0.0
 10
14.5030495569
 20
11.4219521175
 30
0.0
 10
14.5107891225
 20
11.422603427
 30
0.0
 10
14.5148986864
 20
11.422603427
 30
0.0
  0
SPLINE
  5
27E
100
AcDbEntity
  8
0
100
AcDbSpline
 62
7
  6
CONTINUOUS
 70
0
 71
3
 72
11
 73
7
 74
0
 42
0.0000001
 43
0.0000001
 44
0.0000000001
 40
0.0
 40
0.0
 40
0.0
 40
0.0
 40
0.2022220632
 40
0.4300661249
 40
0.6961864547
 40
1.0
 40
1.0
 40
1.0
 40
1.0
 10
15.0609540824
 20
11.4054715064
 30
0.0
 10
15.0617616236
 20
11.4080849644
 30
0.0
 10
15.0649184708
 20
11.4132536872
 30
0.0
 10
15.0728465344
 20
11.4186819162
 30
0.0
 10
15.0832454587
 20
11.4219521175
 30
0.0
 10
15.0909850242
 20
11.422603427
 30
0.0
 10
15.0950945881
 20
11.422603427
 30
0.0
  0
SPLINE
  5
27F
100
AcDbEntity
  8
0
100
AcDbSpline
 62
7
  6
CONTINUOUS
 70
0
 71
3
 72
11
 73
7
 74
0
 42
0.0000001
 43
0.0000001
 44
0.0000000001
 40
0.0
 40
0.0
 40
0.0
 40
0.0
 40
0.2022220632
 40
0.4300661249
 40
0.6961864547
 40
1.0
 40
1.0
 40
1.0
 40
1.0
 10
15.6411499842
 20
11.4054715064
 30
0.0
 10
15.6419575253
 20
11.4080849644
 30
0.0
 10
15.6451143725
 20
11.4132536872
 30
0.0
 10
15.6530424362
 20
11.4186819162
 30
0.0
 10
15.6634413604
 20
11.4219521175
 30
0.0
 10
15.671180926
 20
11.422603427
 30
0.0
 10
15.6752904898
 20
11.422603427
 30
0.0
  0
SPLINE
  5
280
100
AcDbEntity
  8
0
100
AcDbSpline
 62
7
  6
CONTINUOUS
 70
0
 71
3
 72
11
 73
7
 74
0
 42
0.0000001
 43
0.0000001
 44
0.0000000001
 40
0.0
 40
0.0
 40
0.0
 40
0.0
 40
0.2022220632
 40
0.4300661249
 40
0.6961864547
 40
1.0
 40
1.0
 40
1.0
 40
1.0
 10
16.2213458859
 20
11.4054715064
 30
0.0
 10
16.222153427
 20
11.4080849644
 30
0.0
 10
16.2253102742
 20
11.4132536872
 30
0.0
 10
16.2332383379
 20
11.4186819162
 30
0.0
 10
16.2436372621
 20
11.4219521175
 30
0.0
 10
16.2513768277
 20
11.422603427
 30
0.0
 10
16.2554863916
 20
11.422603427
 30
0.0
  0
SPLINE
  5
281
100
AcDbEntity
  8
0
100
AcDbSpline
 62
7
  6
CONTINUOUS
 70
0
 71
3
 72
11
 73
7
 74
0
 42
0.0000001
 43
0.0000001
 44
0.0000000001
 40
0.0
 40
0.0
 40
0.0
 40
0.0
 40
0.2022220632
 40
0.4300661249
 40
0.6961864547
 40
1.0
 40
1.0
 40
1.0
 40
1.0
 10
16.8015417876
 20
11.4054715064
 30
0.0
 10
16.8023493288
 20
11.4080849644
 30
0.0
 10
16.805506176
 20
11.4132536872
 30
0.0
 10
16.8134342396
 20
11.4186819162
 30
0.0
 10
16.8238331639
 20
11.4219521175
 30
0.0
 10
16.8315727294
 20
11.422603427
 30
0.0
 10
16.8356822933
 20
11.422603427
 30
0.0
  0
SPLINE
  5
282
100
AcDbEntity
  8
0
100
AcDbSpline
 62
7
  6
CONTINUOUS
 70
0
 71
3
 72
11
 73
7
 74
0
 42
0.0000001
 43
0.0000001
 44
0.0000000001
 40
0.0
 40
0.0
 40
0.0
 40
0.0
 40
0.2600306801
 40
0.5283883505
 40
0.7814357347
 40
1.0
 40
1.0
 40
1.0
 40
1.0
 10
13.4804179999
 20
11.422603427
 30
0.0
 10
13.4865936412
 20
11.422603427
 30
0.0
 10
13.4991662083
 20
11.4210171162
 30
0.0
 10
13.5168401519
 20
11.4149575978
 30
0.0
 10
13.5320314237
 20
11.4058780262
 30
0.0
 10
13.5400398674
 20
11.3977242952
 30
0.0
 10
13.5428550372
 20
11.3933631585
 30
0.0
  0
SPLINE
  5
283
100
AcDbEntity
  8
0
100
AcDbSpline
 62
7
  6
CONTINUOUS
 70
0
 71
3
 72
11
 73
7
 74
0
 42
0.0000001
 43
0.0000001
 44
0.0000000001
 40
0.0
 40
0.0
 40
0.0
 40
0.0
 40
0.2600306801
 40
0.5283883505
 40
0.7814357347
 40
1.0
 40
1.0
 40
1.0
 40
1.0
 10
14.0606139016
 20
11.422603427
 30
0.0
 10
14.066789543
 20
11.422603427
 30
0.0
 10
14.07936211
 20
11.4210171162
 30
0.0
 10
14.0970360536
 20
11.4149575978
 30
0.0
 10
14.1122273254
 20
11.4058780262
 30
0.0
 10
14.1202357691
 20
11.3977242952
 30
0.0
 10
14.1230509389
 20
11.3933631585
 30
0.0
  0
SPLINE
  5
284
100
AcDbEntity
  8
0
100
AcDbSpline
 62
7
  6
CONTINUOUS
 70
0
 71
3
 72
9
 73
5
 74
0
 42
0.0000001
 43
0.0000001
 44
0.0000000001
 40
0.0
 40
0.0
 40
0.0
 40
0.0
 40
0.4739157681
 40
1.0
 40
1.0
 40
1.0
 40
1.0
 10
13.5428550372
 20
11.3933631585
 30
0.0
 10
13.5564369438
 20
11.3723226684
 30
0.0
 10
13.5903527769
 20
11.3312612708
 30
0.0
 10
13.6307891969
 20
11.2968854529
 30
0.0
 10
13.6531764462
 20
11.2804033845
 30
0.0
  0
SPLINE
  5
285
100
AcDbEntity
  8
0
100
AcDbSpline
 62
7
  6
CONTINUOUS
 70
0
 71
3
 72
11
 73
7
 74
0
 42
0.0000001
 43
0.0000001
 44
0.0000000001
 40
0.0
 40
0.0
 40
0.0
 40
0.0
 40
0.3022249162
 40
0.5683779054
 40
0.797411042
 40
1.0
 40
1.0
 40
1.0
 40
1.0
 10
16.7517841264
 20
11.2561881599
 30
0.0
 10
16.7577613755
 20
11.2561881599
 30
0.0
 10
16.7690432252
 20
11.2571096518
 30
0.0
 10
16.7842792352
 20
11.2617204003
 30
0.0
 10
16.7960730318
 20
11.2693483706
 30
0.0
 10
16.8010743052
 20
11.2766540444
 30
0.0
 10
16.8024871378
 20
11.2804033845
 30
0.0
  0
SPLINE
  5
286
100
AcDbEntity
  8
0
100
AcDbSpline
 62
7
  6
CONTINUOUS
 70
0
 71
3
 72
11
 73
7
 74
0
 42
0.0000001
 43
0.0000001
 44
0.0000000001
 40
0.0
 40
0.0
 40
0.0
 40
0.0
 40
0.242682993
 40
0.4977869068
 40
0.7540359853
 40
1.0
 40
1.0
 40
1.0
 40
1.0
 10
16.5541559549
 20
11.2804033845
 30
0.0
 10
16.5593320583
 20
11.2765926041
 30
0.0
 10
16.5706922638
 20
11.2697585191
 30
0.0
 10
16.5892487418
 20
11.2621908416
 30
0.0
 10
16.6087929503
 20
11.2573831741
 30
0.0
 10
16.622110675
 20
11.2561881599
 30
0.0
 10
16.6286251788
 20
11.2561881599
 30
0.0
  0
SPLINE
  5
287
100
AcDbEntity
  8
0
100
AcDbSpline
 62
7
  6
CONTINUOUS
 70
0
 71
3
 72
9
 73
5
 74
0
 42
0.0000001
 43
0.0000001
 44
0.0000000001
 40
0.0
 40
0.0
 40
0.0
 40
0.0
 40
0.473916843
 40
1.0
 40
1.0
 40
1.0
 40
1.0
 10
16.4438345458
 20
11.3933631585
 30
0.0
 10
16.457416477
 20
11.3723226303
 30
0.0
 10
16.4913329113
 20
11.3312617885
 30
0.0
 10
16.5317687615
 20
11.2968854117
 30
0.0
 10
16.5541559549
 20
11.2804033845
 30
0.0
  0
SPLINE
  5
288
100
AcDbEntity
  8
0
100
AcDbSpline
 62
7
  6
CONTINUOUS
 70
0
 71
3
 72
11
 73
7
 74
0
 42
0.0000001
 43
0.0000001
 44
0.0000000001
 40
0.0
 40
0.0
 40
0.0
 40
0.0
 40
0.3022249162
 40
0.5683779054
 40
0.797411042
 40
1.0
 40
1.0
 40
1.0
 40
1.0
 10
16.1715882247
 20
11.2561881599
 30
0.0
 10
16.1775654737
 20
11.2561881599
 30
0.0
 10
16.1888473234
 20
11.2571096518
 30
0.0
 10
16.2040833335
 20
11.2617204003
 30
0.0
 10
16.2158771301
 20
11.2693483706
 30
0.0
 10
16.2208784034
 20
11.2766540444
 30
0.0
 10
16.222291236
 20
11.2804033845
 30
0.0
  0
SPLINE
  5
289
100
AcDbEntity
  8
0
100
AcDbSpline
 62
7
  6
CONTINUOUS
 70
0
 71
3
 72
11
 73
7
 74
0
 42
0.0000001
 43
0.0000001
 44
0.0000000001
 40
0.0
 40
0.0
 40
0.0
 40
0.0
 40
0.242682993
 40
0.4977869068
 40
0.7540359853
 40
1.0
 40
1.0
 40
1.0
 40
1.0
 10
15.9739600532
 20
11.2804033845
 30
0.0
 10
15.9791361566
 20
11.2765926041
 30
0.0
 10
15.9904963621
 20
11.2697585191
 30
0.0
 10
16.00905284
 20
11.2621908416
 30
0.0
 10
16.0285970485
 20
11.2573831741
 30
0.0
 10
16.0419147732
 20
11.2561881599
 30
0.0
 10
16.0484292771
 20
11.2561881599
 30
0.0
  0
SPLINE
  5
28A
100
AcDbEntity
  8
0
100
AcDbSpline
 62
7
  6
CONTINUOUS
 70
0
 71
3
 72
9
 73
5
 74
0
 42
0.0000001
 43
0.0000001
 44
0.0000000001
 40
0.0
 40
0.0
 40
0.0
 40
0.0
 40
0.4739157681
 40
1.0
 40
1.0
 40
1.0
 40
1.0
 10
15.8636386441
 20
11.3933631585
 30
0.0
 10
15.8772205507
 20
11.3723226684
 30
0.0
 10
15.9111363839
 20
11.3312612708
 30
0.0
 10
15.9515728038
 20
11.2968854529
 30
0.0
 10
15.9739600532
 20
11.2804033845
 30
0.0
  0
SPLINE
  5
28B
100
AcDbEntity
  8
0
100
AcDbSpline
 62
7
  6
CONTINUOUS
 70
0
 71
3
 72
11
 73
7
 74
0
 42
0.0000001
 43
0.0000001
 44
0.0000000001
 40
0.0
 40
0.0
 40
0.0
 40
0.0
 40
0.3022249162
 40
0.5683779054
 40
0.797411042
 40
1.0
 40
1.0
 40
1.0
 40
1.0
 10
15.5913923229
 20
11.2561881599
 30
0.0
 10
15.597369572
 20
11.2561881599
 30
0.0
 10
15.6086514217
 20
11.2571096518
 30
0.0
 10
15.6238874317
 20
11.2617204003
 30
0.0
 10
15.6356812283
 20
11.2693483706
 30
0.0
 10
15.6406825017
 20
11.2766540444
 30
0.0
 10
15.6420953343
 20
11.2804033845
 30
0.0
  0
SPLINE
  5
28C
100
AcDbEntity
  8
0
100
AcDbSpline
 62
7
  6
CONTINUOUS
 70
0
 71
3
 72
11
 73
7
 74
0
 42
0.0000001
 43
0.0000001
 44
0.0000000001
 40
0.0
 40
0.0
 40
0.0
 40
0.0
 40
0.242682993
 40
0.4977869068
 40
0.7540359853
 40
1.0
 40
1.0
 40
1.0
 40
1.0
 10
15.3937641514
 20
11.2804033845
 30
0.0
 10
15.3989402548
 20
11.2765926041
 30
0.0
 10
15.4103004604
 20
11.2697585191
 30
0.0
 10
15.4288569383
 20
11.2621908416
 30
0.0
 10
15.4484011468
 20
11.2573831741
 30
0.0
 10
15.4617188715
 20
11.2561881599
 30
0.0
 10
15.4682333754
 20
11.2561881599
 30
0.0
  0
SPLINE
  5
28D
100
AcDbEntity
  8
0
100
AcDbSpline
 62
7
  6
CONTINUOUS
 70
0
 71
3
 72
9
 73
5
 74
0
 42
0.0000001
 43
0.0000001
 44
0.0000000001
 40
0.0
 40
0.0
 40
0.0
 40
0.0
 40
0.4739157681
 40
1.0
 40
1.0
 40
1.0
 40
1.0
 10
15.2834427424
 20
11.3933631585
 30
0.0
 10
15.297024649
 20
11.3723226684
 30
0.0
 10
15.3309404821
 20
11.3312612708
 30
0.0
 10
15.3713769021
 20
11.2968854529
 30
0.0
 10
15.3937641514
 20
11.2804033845
 30
0.0
  0
SPLINE
  5
28E
100
AcDbEntity
  8
0
100
AcDbSpline
 62
7
  6
CONTINUOUS
 70
0
 71
3
 72
11
 73
7
 74
0
 42
0.0000001
 43
0.0000001
 44
0.0000000001
 40
0.0
 40
0.0
 40
0.0
 40
0.0
 40
0.3022249162
 40
0.5683779054
 40
0.797411042
 40
1.0
 40
1.0
 40
1.0
 40
1.0
 10
15.0111964212
 20
11.2561881599
 30
0.0
 10
15.0171736703
 20
11.2561881599
 30
0.0
 10
15.02845552
 20
11.2571096518
 30
0.0
 10
15.04369153
 20
11.2617204003
 30
0.0
 10
15.0554853266
 20
11.2693483706
 30
0.0
 10
15.0604866
 20
11.2766540444
 30
0.0
 10
15.0618994326
 20
11.2804033845
 30
0.0
  0
SPLINE
  5
28F
100
AcDbEntity
  8
0
100
AcDbSpline
 62
7
  6
CONTINUOUS
 70
0
 71
3
 72
11
 73
7
 74
0
 42
0.0000001
 43
0.0000001
 44
0.0000000001
 40
0.0
 40
0.0
 40
0.0
 40
0.0
 40
0.242682993
 40
0.4977869068
 40
0.7540359853
 40
1.0
 40
1.0
 40
1.0
 40
1.0
 10
14.8135682497
 20
11.2804033845
 30
0.0
 10
14.8187443531
 20
11.2765926041
 30
0.0
 10
14.8301045586
 20
11.2697585191
 30
0.0
 10
14.8486610366
 20
11.2621908416
 30
0.0
 10
14.8682052451
 20
11.2573831741
 30
0.0
 10
14.8815229698
 20
11.2561881599
 30
0.0
 10
14.8880374736
 20
11.2561881599
 30
0.0
  0
SPLINE
  5
290
100
AcDbEntity
  8
0
100
AcDbSpline
 62
7
  6
CONTINUOUS
 70
0
 71
3
 72
9
 73
5
 74
0
 42
0.0000001
 43
0.0000001
 44
0.0000000001
 40
0.0
 40
0.0
 40
0.0
 40
0.0
 40
0.4739157681
 40
1.0
 40
1.0
 40
1.0
 40
1.0
 10
14.7032468406
 20
11.3933631585
 30
0.0
 10
14.7168287472
 20
11.3723226684
 30
0.0
 10
14.7507445804
 20
11.3312612708
 30
0.0
 10
14.7911810004
 20
11.2968854529
 30
0.0
 10
14.8135682497
 20
11.2804033845
 30
0.0
  0
SPLINE
  5
291
100
AcDbEntity
  8
0
100
AcDbSpline
 62
7
  6
CONTINUOUS
 70
0
 71
3
 72
11
 73
7
 74
0
 42
0.0000001
 43
0.0000001
 44
0.0000000001
 40
0.0
 40
0.0
 40
0.0
 40
0.0
 40
0.3022249162
 40
0.5683779054
 40
0.797411042
 40
1.0
 40
1.0
 40
1.0
 40
1.0
 10
14.4310005195
 20
11.2561881599
 30
0.0
 10
14.4369777685
 20
11.2561881599
 30
0.0
 10
14.4482596182
 20
11.2571096518
 30
0.0
 10
14.4634956283
 20
11.2617204003
 30
0.0
 10
14.4752894249
 20
11.2693483706
 30
0.0
 10
14.4802906982
 20
11.2766540444
 30
0.0
 10
14.4817035308
 20
11.2804033845
 30
0.0
  0
SPLINE
  5
292
100
AcDbEntity
  8
0
100
AcDbSpline
 62
7
  6
CONTINUOUS
 70
0
 71
3
 72
11
 73
7
 74
0
 42
0.0000001
 43
0.0000001
 44
0.0000000001
 40
0.0
 40
0.0
 40
0.0
 40
0.0
 40
0.242682993
 40
0.4977869068
 40
0.7540359853
 40
1.0
 40
1.0
 40
1.0
 40
1.0
 10
14.233372348
 20
11.2804033845
 30
0.0
 10
14.2385484514
 20
11.2765926041
 30
0.0
 10
14.2499086569
 20
11.2697585191
 30
0.0
 10
14.2684651348
 20
11.2621908416
 30
0.0
 10
14.2880093433
 20
11.2573831741
 30
0.0
 10
14.301327068
 20
11.2561881599
 30
0.0
 10
14.3078415719
 20
11.2561881599
 30
0.0
  0
SPLINE
  5
293
100
AcDbEntity
  8
0
100
AcDbSpline
 62
7
  6
CONTINUOUS
 70
0
 71
3
 72
9
 73
5
 74
0
 42
0.0000001
 43
0.0000001
 44
0.0000000001
 40
0.0
 40
0.0
 40
0.0
 40
0.0
 40
0.4739157681
 40
1.0
 40
1.0
 40
1.0
 40
1.0
 10
14.1230509389
 20
11.3933631585
 30
0.0
 10
14.1366328455
 20
11.3723226684
 30
0.0
 10
14.1705486787
 20
11.3312612708
 30
0.0
 10
14.2109850986
 20
11.2968854529
 30
0.0
 10
14.233372348
 20
11.2804033845
 30
0.0
  0
SPLINE
  5
294
100
AcDbEntity
  8
0
100
AcDbSpline
 62
7
  6
CONTINUOUS
 70
0
 71
3
 72
11
 73
7
 74
0
 42
0.0000001
 43
0.0000001
 44
0.0000000001
 40
0.0
 40
0.0
 40
0.0
 40
0.0
 40
0.3022249162
 40
0.5683779054
 40
0.797411042
 40
1.0
 40
1.0
 40
1.0
 40
1.0
 10
13.8508046177
 20
11.2561881599
 30
0.0
 10
13.8567818668
 20
11.2561881599
 30
0.0
 10
13.8680637165
 20
11.2571096518
 30
0.0
 10
13.8832997265
 20
11.2617204003
 30
0.0
 10
13.8950935231
 20
11.2693483706
 30
0.0
 10
13.9000947965
 20
11.2766540444
 30
0.0
 10
13.9015076291
 20
11.2804033845
 30
0.0
  0
SPLINE
  5
295
100
AcDbEntity
  8
0
100
AcDbSpline
 62
7
  6
CONTINUOUS
 70
0
 71
3
 72
11
 73
7
 74
0
 42
0.0000001
 43
0.0000001
 44
0.0000000001
 40
0.0
 40
0.0
 40
0.0
 40
0.0
 40
0.242682993
 40
0.4977869068
 40
0.7540359853
 40
1.0
 40
1.0
 40
1.0
 40
1.0
 10
13.6531764462
 20
11.2804033845
 30
0.0
 10
13.6583525496
 20
11.2765926041
 30
0.0
 10
13.6697127552
 20
11.2697585191
 30
0.0
 10
13.6882692331
 20
11.2621908416
 30
0.0
 10
13.7078134416
 20
11.2573831741
 30
0.0
 10
13.7211311663
 20
11.2561881599
 30
0.0
 10
13.7276456702
 20
11.2561881599
 30
0.0
  0
SPLINE
  5
296
100
AcDbEntity
  8
0
100
AcDbSpline
 62
7
  6
CONTINUOUS
 70
0
 71
3
 72
11
 73
7
 74
0
 42
0.0000001
 43
0.0000001
 44
0.0000000001
 40
0.0
 40
0.0
 40
0.0
 40
0.0
 40
0.2600306801
 40
0.5283883505
 40
0.7814357347
 40
1.0
 40
1.0
 40
1.0
 40
1.0
 10
14.6408098033
 20
11.422603427
 30
0.0
 10
14.6469854447
 20
11.422603427
 30
0.0
 10
14.6595580117
 20
11.4210171162
 30
0.0
 10
14.6772319553
 20
11.4149575978
 30
0.0
 10
14.6924232272
 20
11.4058780262
 30
0.0
 10
14.7004316709
 20
11.3977242952
 30
0.0
 10
14.7032468406
 20
11.3933631585
 30
0.0
  0
SPLINE
  5
297
100
AcDbEntity
  8
0
100
AcDbSpline
 62
7
  6
CONTINUOUS
 70
0
 71
3
 72
11
 73
7
 74
0
 42
0.0000001
 43
0.0000001
 44
0.0000000001
 40
0.0
 40
0.0
 40
0.0
 40
0.0
 40
0.2600306801
 40
0.5283883505
 40
0.7814357347
 40
1.0
 40
1.0
 40
1.0
 40
1.0
 10
15.2210057051
 20
11.422603427
 30
0.0
 10
15.2271813464
 20
11.422603427
 30
0.0
 10
15.2397539135
 20
11.4210171162
 30
0.0
 10
15.2574278571
 20
11.4149575978
 30
0.0
 10
15.2726191289
 20
11.4058780262
 30
0.0
 10
15.2806275726
 20
11.3977242952
 30
0.0
 10
15.2834427424
 20
11.3933631585
 30
0.0
  0
SPLINE
  5
298
100
AcDbEntity
  8
0
100
AcDbSpline
 62
7
  6
CONTINUOUS
 70
0
 71
3
 72
11
 73
7
 74
0
 42
0.0000001
 43
0.0000001
 44
0.0000000001
 40
0.0
 40
0.0
 40
0.0
 40
0.0
 40
0.2600306801
 40
0.5283883505
 40
0.7814357347
 40
1.0
 40
1.0
 40
1.0
 40
1.0
 10
15.8012016068
 20
11.422603427
 30
0.0
 10
15.8073772482
 20
11.422603427
 30
0.0
 10
15.8199498152
 20
11.4210171162
 30
0.0
 10
15.8376237588
 20
11.4149575978
 30
0.0
 10
15.8528150306
 20
11.4058780262
 30
0.0
 10
15.8608234743
 20
11.3977242952
 30
0.0
 10
15.8636386441
 20
11.3933631585
 30
0.0
  0
SPLINE
  5
299
100
AcDbEntity
  8
0
100
AcDbSpline
 62
7
  6
CONTINUOUS
 70
0
 71
3
 72
11
 73
7
 74
0
 42
0.0000001
 43
0.0000001
 44
0.0000000001
 40
0.0
 40
0.0
 40
0.0
 40
0.0
 40
0.2600306801
 40
0.5283883505
 40
0.7814357347
 40
1.0
 40
1.0
 40
1.0
 40
1.0
 10
16.3813975085
 20
11.422603427
 30
0.0
 10
16.3875731499
 20
11.422603427
 30
0.0
 10
16.4001457169
 20
11.4210171162
 30
0.0
 10
16.4178196605
 20
11.4149575978
 30
0.0
 10
16.4330109324
 20
11.4058780262
 30
0.0
 10
16.4410193761
 20
11.3977242952
 30
0.0
 10
16.4438345458
 20
11.3933631585
 30
0.0
  0
SPLINE
  5
29A
100
AcDbEntity
  8
0
100
AcDbSpline
 62
7
  6
CONTINUOUS
 70
0
 71
3
 72
10
 73
6
 74
0
 42
0.0000001
 43
0.0000001
 44
0.0000000001
 40
0.0
 40
0.0
 40
0.0
 40
0.0
 40
0.2395052868
 40
0.4835577342
 40
1.0
 40
1.0
 40
1.0
 40
1.0
 10
16.2252112638
 20
11.2889286151
 30
0.0
 10
16.2277086474
 20
11.2970128998
 30
0.0
 10
16.2313525351
 20
11.3138070299
 30
0.0
 10
16.2329602503
 20
11.3492232961
 30
0.0
 10
16.2275575968
 20
11.3760681546
 30
0.0
 10
16.2217474335
 20
11.3933631585
 30
0.0
  0
SPLINE
  5
29B
100
AcDbEntity
  8
0
100
AcDbSpline
 62
7
  6
CONTINUOUS
 70
0
 71
3
 72
9
 73
5
 74
0
 42
0.0000001
 43
0.0000001
 44
0.0000000001
 40
0.0
 40
0.0
 40
0.0
 40
0.0
 40
0.5171848319
 40
1.0
 40
1.0
 40
1.0
 40
1.0
 10
15.6415515318
 20
11.3933631585
 30
0.0
 10
15.6408780692
 20
11.3953678419
 30
0.0
 10
15.6400512617
 20
11.3994385295
 30
0.0
 10
15.6405671453
 20
11.4035852561
 30
0.0
 10
15.6411499842
 20
11.4054715064
 30
0.0
  0
SPLINE
  5
29C
100
AcDbEntity
  8
0
100
AcDbSpline
 62
7
  6
CONTINUOUS
 70
0
 71
3
 72
9
 73
5
 74
0
 42
0.0000001
 43
0.0000001
 44
0.0000000001
 40
0.0
 40
0.0
 40
0.0
 40
0.0
 40
0.5171848319
 40
1.0
 40
1.0
 40
1.0
 40
1.0
 10
13.9009638266
 20
11.3933631585
 30
0.0
 10
13.900290364
 20
11.3953678419
 30
0.0
 10
13.8994635565
 20
11.3994385295
 30
0.0
 10
13.8999794401
 20
11.4035852561
 30
0.0
 10
13.900562279
 20
11.4054715064
 30
0.0
  0
SPLINE
  5
29D
100
AcDbEntity
  8
0
100
AcDbSpline
 62
7
  6
CONTINUOUS
 70
0
 71
3
 72
9
 73
5
 74
0
 42
0.0000001
 43
0.0000001
 44
0.0000000001
 40
0.0
 40
0.0
 40
0.0
 40
0.0
 40
0.5171848319
 40
1.0
 40
1.0
 40
1.0
 40
1.0
 10
16.2217474335
 20
11.3933631585
 30
0.0
 10
16.221073971
 20
11.3953678419
 30
0.0
 10
16.2202471635
 20
11.3994385295
 30
0.0
 10
16.2207630471
 20
11.4035852561
 30
0.0
 10
16.2213458859
 20
11.4054715064
 30
0.0
  0
SPLINE
  5
29E
100
AcDbEntity
  8
0
100
AcDbSpline
 62
7
  6
CONTINUOUS
 70
0
 71
3
 72
10
 73
6
 74
0
 42
0.0000001
 43
0.0000001
 44
0.0000000001
 40
0.0
 40
0.0
 40
0.0
 40
0.0
 40
0.2395052868
 40
0.4835577342
 40
1.0
 40
1.0
 40
1.0
 40
1.0
 10
14.4846235586
 20
11.2889286151
 30
0.0
 10
14.4871209422
 20
11.2970128998
 30
0.0
 10
14.4907648299
 20
11.3138070299
 30
0.0
 10
14.4923725451
 20
11.3492232961
 30
0.0
 10
14.4869698916
 20
11.3760681546
 30
0.0
 10
14.4811597283
 20
11.3933631585
 30
0.0
  0
SPLINE
  5
29F
100
AcDbEntity
  8
0
100
AcDbSpline
 62
7
  6
CONTINUOUS
 70
0
 71
3
 72
9
 73
5
 74
0
 42
0.0000001
 43
0.0000001
 44
0.0000000001
 40
0.0
 40
0.0
 40
0.0
 40
0.0
 40
0.5171848319
 40
1.0
 40
1.0
 40
1.0
 40
1.0
 10
16.8019433353
 20
11.3933631585
 30
0.0
 10
16.8012698727
 20
11.3953678419
 30
0.0
 10
16.8004430652
 20
11.3994385295
 30
0.0
 10
16.8009589488
 20
11.4035852561
 30
0.0
 10
16.8015417876
 20
11.4054715064
 30
0.0
  0
SPLINE
  5
2A0
100
AcDbEntity
  8
0
100
AcDbSpline
 62
7
  6
CONTINUOUS
 70
0
 71
3
 72
10
 73
6
 74
0
 42
0.0000001
 43
0.0000001
 44
0.0000000001
 40
0.0
 40
0.0
 40
0.0
 40
0.0
 40
0.2395052868
 40
0.4835577342
 40
1.0
 40
1.0
 40
1.0
 40
1.0
 10
15.6450153621
 20
11.2889286151
 30
0.0
 10
15.6475127457
 20
11.2970128998
 30
0.0
 10
15.6511566334
 20
11.3138070299
 30
0.0
 10
15.6527643486
 20
11.3492232961
 30
0.0
 10
15.6473616951
 20
11.3760681546
 30
0.0
 10
15.6415515318
 20
11.3933631585
 30
0.0
  0
SPLINE
  5
2A1
100
AcDbEntity
  8
0
100
AcDbSpline
 62
7
  6
CONTINUOUS
 70
0
 71
3
 72
10
 73
6
 74
0
 42
0.0000001
 43
0.0000001
 44
0.0000000001
 40
0.0
 40
0.0
 40
0.0
 40
0.0
 40
0.2394881141
 40
0.4835465698
 40
1.0
 40
1.0
 40
1.0
 40
1.0
 10
16.8054076225
 20
11.2889284739
 30
0.0
 10
16.8079055122
 20
11.2970119629
 30
0.0
 10
16.8115483539
 20
11.313806035
 30
0.0
 10
16.8131553288
 20
11.3492221339
 30
0.0
 10
16.8077536213
 20
11.3760677891
 30
0.0
 10
16.8019433353
 20
11.3933631585
 30
0.0
  0
SPLINE
  5
2A2
100
AcDbEntity
  8
0
100
AcDbSpline
 62
7
  6
CONTINUOUS
 70
0
 71
3
 72
10
 73
6
 74
0
 42
0.0000001
 43
0.0000001
 44
0.0000000001
 40
0.0
 40
0.0
 40
0.0
 40
0.0
 40
0.2395052868
 40
0.4835577342
 40
1.0
 40
1.0
 40
1.0
 40
1.0
 10
15.0648194603
 20
11.2889286151
 30
0.0
 10
15.067316844
 20
11.2970128998
 30
0.0
 10
15.0709607317
 20
11.3138070299
 30
0.0
 10
15.0725684468
 20
11.3492232961
 30
0.0
 10
15.0671657933
 20
11.3760681546
 30
0.0
 10
15.0613556301
 20
11.3933631585
 30
0.0
  0
SPLINE
  5
2A3
100
AcDbEntity
  8
0
100
AcDbSpline
 62
7
  6
CONTINUOUS
 70
0
 71
3
 72
9
 73
5
 74
0
 42
0.0000001
 43
0.0000001
 44
0.0000000001
 40
0.0
 40
0.0
 40
0.0
 40
0.0
 40
0.5171848319
 40
1.0
 40
1.0
 40
1.0
 40
1.0
 10
14.4811597283
 20
11.3933631585
 30
0.0
 10
14.4804862658
 20
11.3953678419
 30
0.0
 10
14.4796594583
 20
11.3994385295
 30
0.0
 10
14.4801753419
 20
11.4035852561
 30
0.0
 10
14.4807581807
 20
11.4054715064
 30
0.0
  0
SPLINE
  5
2A4
100
AcDbEntity
  8
0
100
AcDbSpline
 62
7
  6
CONTINUOUS
 70
0
 71
3
 72
10
 73
6
 74
0
 42
0.0000001
 43
0.0000001
 44
0.0000000001
 40
0.0
 40
0.0
 40
0.0
 40
0.0
 40
0.2395052868
 40
0.4835577342
 40
1.0
 40
1.0
 40
1.0
 40
1.0
 10
13.9044276569
 20
11.2889286151
 30
0.0
 10
13.9069250405
 20
11.2970128998
 30
0.0
 10
13.9105689282
 20
11.3138070299
 30
0.0
 10
13.9121766434
 20
11.3492232961
 30
0.0
 10
13.9067739899
 20
11.3760681546
 30
0.0
 10
13.9009638266
 20
11.3933631585
 30
0.0
  0
SPLINE
  5
2A5
100
AcDbEntity
  8
0
100
AcDbSpline
 62
7
  6
CONTINUOUS
 70
0
 71
3
 72
9
 73
5
 74
0
 42
0.0000001
 43
0.0000001
 44
0.0000000001
 40
0.0
 40
0.0
 40
0.0
 40
0.0
 40
0.5171848319
 40
1.0
 40
1.0
 40
1.0
 40
1.0
 10
15.0613556301
 20
11.3933631585
 30
0.0
 10
15.0606821675
 20
11.3953678419
 30
0.0
 10
15.05985536
 20
11.3994385295
 30
0.0
 10
15.0603712436
 20
11.4035852561
 30
0.0
 10
15.0609540824
 20
11.4054715064
 30
0.0
  0
ENDSEC
  0
SECTION
  2
OBJECTS
  0
DICTIONARY
  5
C
100
AcDbDictionary
280
0
281
1
  3
ACAD_GROUP
350
D
  3
ACAD_MLINESTYLE
350
17
  3
ACAD_LAYOUT
350
1A
  3
ACAD_PLOTSETTINGS
350
19
  3
ACAD_PLOTSTYLENAME
350
E
  0
DICTIONARY
  5
D
102
{ACAD_REACTORS
330
C
102
}
100
AcDbDictionary
280
0
281
1
  0
ACDBDICTIONARYWDFLT
  5
E
102
{ACAD_REACTORS
330
C
102
}
100
AcDbDictionary
281
1
  3
Normal
350
F
100
AcDbDictionaryWithDefault
340
F
  0
DICTIONARY
  5
17
102
{ACAD_REACTORS
330
C
102
}
100
AcDbDictionary
280
0
281
1
  3
Standard
350
18
  0
DICTIONARY
  5
19
102
{ACAD_REACTORS
330
C
102
}
100
AcDbDictionary
281
1
  0
DICTIONARY
  5
1A
102
{ACAD_REACTORS
330
C
102
}
100
AcDbDictionary
281
1
  3
Model
350
2A6
  3
Layout1
350
2A7
  0
ACDBPLACEHOLDER
  5
F
102
{ACAD_REACTORS
330
E
102
}
  0
MLINESTYLE
  5
18
102
{ACAD_REACTORS
330
17
102
}
100
AcDbMlineStyle
  2
STANDARD
 70
0
  3

 62
256
 51
90.0
 52
90.0
 71
2
 49
0.5
 62
256
  6
BYLAYER
 49
-0.5
 62
256
  6
BYLAYER
  0
LAYOUT
  5
2A6
102
{ACAD_REACTORS
330
1A
102
}
100
AcDbPlotSettings
  1

  2
none_device
  4
ANSI_C_(22.00_x_17.00_Inches)
  6

 40
0.0
 41
0.0
 42
0.0
 43
0.0
 44
558.8
 45
431.8
 46
0.0
 47
0.0
 48
0.0
 49
0.0
140
0.0
141
0.0
142
1.0
143
1.0
 70
1024
 72
0
 73
0
 74
0
  7

 75
0
147
1.0
148
0.0
149
0.0
100
AcDbLayout
  1
Model
 70
0
 71
0
 10
0.0
 20
0.0
 11
22.0
 21
17.0
 12
0.0
 22
0.0
 32
0.0
 14
0.0
 24
0.0
 34
0.0
 15
0.0
 25
0.0
 35
0.0
146
0.0
 13
0.0
 23
0.0
 33
0.0
 16
1.0
 26
0.0
 36
0.0
 17
0.0
 27
1.0
 37
0.0
 76
0
330
216
345
0
346
0
  0
LAYOUT
  5
2A7
102
{ACAD_REACTORS
330
1A
102
}
100
AcDbPlotSettings
  1

  2
none_device
  4
ANSI_C_(22.00_x_17.00_Inches)
  6

 40
0.0
 41
0.0
 42
0.0
 43
0.0
 44
558.8
 45
431.8
 46
0.0
 47
0.0
 48
0.0
 49
0.0
140
0.0
141
0.0
142
1.0
143
1.0
 70
0
 72
0
 73
0
 74
0
  7

 75
0
147
1.0
148
0.0
149
0.0
100
AcDbLayout
  1
Layout1
 70
0
 71
1
 10
0.0
 20
0.0
 11
22.0
 21
17.0
 12
0.0
 22
0.0
 32
0.0
 14
0.0
 24
0.0
 34
0.0
 15
0.0
 25
0.0
 35
0.0
146
0.0
 13
0.0
 23
0.0
 33
0.0
 16
1.0
 26
0.0
 36
0.0
 17
0.0
 27
1.0
 37
0.0
 76
0
330
217
345
0
346
0
  0
ENDSEC
  0
EOF