999
DXF file: _cgs_temp_output.dxf
999
Pro/ENGINEER 2016360 by Parametric Technology Corporation
  0
SECTION
  2
HEADER
  9
$ACADVER
  1
AC1021
  9
$DWGCODEPAGE
  3
ANSI_1252
  9
$EXTMAX
 10
22.0
 20
17.0
 30
0.0
  9
$EXTMIN
 10
0.0
 20
0.0
 30
0.0
  9
$LIMMIN
 10
0.0
 20
0.0
  9
$LIMMAX
 10
22.0
 20
17.0
  9
$VIEWCTR
 10
11.0
 20
8.5
  9
$VIEWSIZE
 40
17.0
  9
$CLAYER
  8
0
  9
$LTSCALE
 40
1.21
  9
$CELTYPE
  6
BYLAYER
  9
$DIMSCALE
 40
1.0
  9
$DIMASZ
 40
0.1875
  9
$DIMEXO
 40
0.0625
  9
$DIMDLI
 40
0.836
  9
$DIMEXE
 40
0.125
  9
$DIMCEN
 40
0.198
  9
$DIMLFAC
 40
1.0
  9
$DIMBLK
  1
_CLOSED
  9
$DIMALT
 70
0
  9
$DIMALTF
 40
25.4
  9
$DIMTXT
 40
0.15625
  9
$DIMTOL
 70
0
  9
$DIMLIM
 70
0
  9
$DIMTFAC
 40
1.0
  9
$DIMGAP
 40
0.09
  9
$DIMDSEP
 70
46
  9
$AUNITS
 70
0
  9
$PDMODE
 70
3
  9
$PDSIZE
 40
0.3125
  9
$HANDSEED
  5
290
  9
$TILEMODE
 70
1
  9
$MEASUREMENT
 70
0
  9
$INSUNITS
 70
1
  0
ENDSEC
  0
SECTION
  2
CLASSES
  0
CLASS
  1
ACDBDICTIONARYWDFLT
  2
AcDbDictionaryWithDefault
  3
AutoCAD 2000
 90
0
 91
1
280
0
281
0
  0
CLASS
  1
ACDBPLACEHOLDER
  2
AcDbPlaceHolder
  3
AutoCAD 2000
 90
0
 91
1
280
0
281
0
  0
CLASS
  1
LAYOUT
  2
AcDbLayout
  3
AutoCAD 2000
 90
0
 91
0
280
0
281
0
  0
ENDSEC
  0
SECTION
  2
TABLES
  0
TABLE
  2
VPORT
  5
8
100
AcDbSymbolTable
 70
2
  0
VPORT
  5
1F4
100
AcDbSymbolTableRecord
100
AcDbViewportTableRecord
  2
*ACTIVE
 70
0
 10
0.0
 20
0.0
 11
1.0
 21
1.0
 12
11.0
 22
8.5
 13
0.0
 23
0.0
 14
1.0
 24
1.0
 15
0.0
 25
0.0
 16
0.0
 26
0.0
 36
1.0
 17
0.0
 27
0.0
 37
0.0
 40
17.0
 41
1.2941176471
 42
50.0
 43
0.0
 44
0.0
 50
0.0
 51
0.0
 71
0
 72
100
 73
1
 74
1
 75
0
 76
0
 77
0
 78
0
  0
ENDTAB
  0
TABLE
  2
LTYPE
  5
5
100
AcDbSymbolTable
 70
6
  0
LTYPE
  5
14
100
AcDbSymbolTableRecord
100
AcDbLinetypeTableRecord
  2
BYBLOCK
 70
0
  3

 72
65
 73
0
 40
0.0
  0
LTYPE
  5
15
100
AcDbSymbolTableRecord
100
AcDbLinetypeTableRecord
  2
BYLAYER
 70
0
  3

 72
65
 73
0
 40
0.0
  0
LTYPE
  5
16
100
AcDbSymbolTableRecord
100
AcDbLinetypeTableRecord
  2
CONTINUOUS
 70
64
  3
Solid line
 72
65
 73
0
 40
0.0
  0
LTYPE
  5
1F5
100
AcDbSymbolTableRecord
100
AcDbLinetypeTableRecord
  2
CENTER
 70
64
  3
____ _ ____ _ ____ _ ____ _ ____ _ ____ _ ____
 72
65
 73
4
 40
0.6
 49
0.375
 74
0
 49
-0.075
 74
0
 49
0.075
 74
0
 49
-0.075
 74
0
  0
LTYPE
  5
1F6
100
AcDbSymbolTableRecord
100
AcDbLinetypeTableRecord
  2
HIDDEN
 70
64
  3
- - - - - - - - - - - - - - - - - - - -
 72
65
 73
2
 40
0.2
 49
0.1
 74
0
 49
-0.1
 74
0
  0
LTYPE
  5
1F7
100
AcDbSymbolTableRecord
100
AcDbLinetypeTableRecord
  2
PHANTOM
 70
64
  3
_____ _ _ _____ _ _ _____ _ _ _____
 72
65
 73
6
 40
0.8
 49
0.45
 74
0
 49
-0.05
 74
0
 49
0.1
 74
0
 49
-0.05
 74
0
 49
0.1
 74
0
 49
-0.05
 74
0
  0
LTYPE
  5
1F8
100
AcDbSymbolTableRecord
100
AcDbLinetypeTableRecord
  2
DOT
 70
64
  3
. . . . . . . . . . . . . . . . . . . .
 72
65
 73
2
 40
0.2
 49
0.1
 74
0
 49
-0.1
 74
0
  0
LTYPE
  5
1F9
100
AcDbSymbolTableRecord
100
AcDbLinetypeTableRecord
  2
DASHED
 70
64
  3
- - - - - - - - - - - - - - - - - - - -
 72
65
 73
2
 40
0.2
 49
0.1
 74
0
 49
-0.1
 74
0
  0
ENDTAB
  0
TABLE
  2
LAYER
  5
2
100
AcDbSymbolTable
 70
36
  0
LAYER
  5
10
100
AcDbSymbolTableRecord
100
AcDbLayerTableRecord
  2
0
 70
0
 62
7
  6
CONTINUOUS
370
-3
390
F
  0
LAYER
  5
1FA
100
AcDbSymbolTableRecord
100
AcDbLayerTableRecord
  2
DEFAULT_1
 70
0
 62
7
  6
CENTER
370
-3
390
F
  0
LAYER
  5
1FB
100
AcDbSymbolTableRecord
100
AcDbLayerTableRecord
  2
DEFAULT_2
 70
0
 62
8
  6
HIDDEN
370
-3
390
F
  0
LAYER
  5
1FC
100
AcDbSymbolTableRecord
100
AcDbLayerTableRecord
  2
DEFAULT_3
 70
0
 62
7
  6
PHANTOM
370
-3
390
F
  0
LAYER
  5
1FD
100
AcDbSymbolTableRecord
100
AcDbLayerTableRecord
  2
01_ALL_DTM_PLN
 70
0
 62
7
  6
CONTINUOUS
370
-3
390
F
  0
LAYER
  5
1FE
100
AcDbSymbolTableRecord
100
AcDbLayerTableRecord
  2
01__ASM_ALL_DTM_PLN
 70
0
 62
7
  6
CONTINUOUS
370
-3
390
F
  0
LAYER
  5
1FF
100
AcDbSymbolTableRecord
100
AcDbLayerTableRecord
  2
01__ASM_DEF_DTM_PLN
 70
0
 62
7
  6
CONTINUOUS
370
-3
390
F
  0
LAYER
  5
200
100
AcDbSymbolTableRecord
100
AcDbLayerTableRecord
  2
01___PRT_ALL_DTM_PLN
 70
0
 62
7
  6
CONTINUOUS
370
-3
390
F
  0
LAYER
  5
201
100
AcDbSymbolTableRecord
100
AcDbLayerTableRecord
  2
01___PRT_DEF_DTM_PLN
 70
0
 62
7
  6
CONTINUOUS
370
-3
390
F
  0
LAYER
  5
202
100
AcDbSymbolTableRecord
100
AcDbLayerTableRecord
  2
02_ALL_AXES
 70
0
 62
7
  6
CONTINUOUS
370
-3
390
F
  0
LAYER
  5
203
100
AcDbSymbolTableRecord
100
AcDbLayerTableRecord
  2
02__ASM_ALL_AXES
 70
0
 62
7
  6
CONTINUOUS
370
-3
390
F
  0
LAYER
  5
204
100
AcDbSymbolTableRecord
100
AcDbLayerTableRecord
  2
02___PRT_ALL_AXES
 70
0
 62
7
  6
CONTINUOUS
370
-3
390
F
  0
LAYER
  5
205
100
AcDbSymbolTableRecord
100
AcDbLayerTableRecord
  2
03_ALL_CURVES
 70
0
 62
7
  6
CONTINUOUS
370
-3
390
F
  0
LAYER
  5
206
100
AcDbSymbolTableRecord
100
AcDbLayerTableRecord
  2
03__ASM_ALL_CURVES
 70
0
 62
7
  6
CONTINUOUS
370
-3
390
F
  0
LAYER
  5
207
100
AcDbSymbolTableRecord
100
AcDbLayerTableRecord
  2
03___PRT_ALL_CURVES
 70
0
 62
7
  6
CONTINUOUS
370
-3
390
F
  0
LAYER
  5
208
100
AcDbSymbolTableRecord
100
AcDbLayerTableRecord
  2
04_ALL_DTM_PNT
 70
0
 62
7
  6
CONTINUOUS
370
-3
390
F
  0
LAYER
  5
209
100
AcDbSymbolTableRecord
100
AcDbLayerTableRecord
  2
04__ASM_ALL_DTM_PNT
 70
0
 62
7
  6
CONTINUOUS
370
-3
390
F
  0
LAYER
  5
20A
100
AcDbSymbolTableRecord
100
AcDbLayerTableRecord
  2
04___PRT_ALL_DTM_PNT
 70
0
 62
7
  6
CONTINUOUS
370
-3
390
F
  0
LAYER
  5
20B
100
AcDbSymbolTableRecord
100
AcDbLayerTableRecord
  2
05_ALL_DTM_CSYS
 70
0
 62
7
  6
CONTINUOUS
370
-3
390
F
  0
LAYER
  5
20C
100
AcDbSymbolTableRecord
100
AcDbLayerTableRecord
  2
05__ASM_ALL_DTM_CSYS
 70
0
 62
7
  6
CONTINUOUS
370
-3
390
F
  0
LAYER
  5
20D
100
AcDbSymbolTableRecord
100
AcDbLayerTableRecord
  2
05__ASM_DEF_DTM_CSYS
 70
0
 62
7
  6
CONTINUOUS
370
-3
390
F
  0
LAYER
  5
20E
100
AcDbSymbolTableRecord
100
AcDbLayerTableRecord
  2
05___PRT_ALL_DTM_CSYS
 70
0
 62
7
  6
CONTINUOUS
370
-3
390
F
  0
LAYER
  5
20F
100
AcDbSymbolTableRecord
100
AcDbLayerTableRecord
  2
05___PRT_DEF_DTM_CSYS
 70
0
 62
7
  6
CONTINUOUS
370
-3
390
F
  0
LAYER
  5
210
100
AcDbSymbolTableRecord
100
AcDbLayerTableRecord
  2
06_ALL_SURFS
 70
0
 62
7
  6
CONTINUOUS
370
-3
390
F
  0
LAYER
  5
211
100
AcDbSymbolTableRecord
100
AcDbLayerTableRecord
  2
06__ASM_ALL_SURFS
 70
0
 62
7
  6
CONTINUOUS
370
-3
390
F
  0
LAYER
  5
212
100
AcDbSymbolTableRecord
100
AcDbLayerTableRecord
  2
06___PRT_ALL_SURFS
 70
0
 62
7
  6
CONTINUOUS
370
-3
390
F
  0
LAYER
  5
213
100
AcDbSymbolTableRecord
100
AcDbLayerTableRecord
  2
07__ASM_ALL_SKELETONS
 70
0
 62
7
  6
CONTINUOUS
370
-3
390
F
  0
ENDTAB
  0
TABLE
  2
STYLE
  5
3
100
AcDbSymbolTable
 70
1
  0
STYLE
  5
11
100
AcDbSymbolTableRecord
100
AcDbTextStyleTableRecord
  2
STANDARD
 70
0
 40
0.0
 41
0.8
 50
0.0
 71
0
 42
0.2
  3
txt
  4

  0
STYLE
  5
214
100
AcDbSymbolTableRecord
100
AcDbTextStyleTableRecord
  2
TEXTSTYLE_1
 70
0
 40
0.0
 41
0.8
 50
0.0
 71
0
 42
0.2
  3
gdt
  4

  0
ENDTAB
  0
TABLE
  2
VIEW
  5
6
100
AcDbSymbolTable
 70
0
  0
ENDTAB
  0
TABLE
  2
UCS
  5
7
100
AcDbSymbolTable
 70
0
  0
ENDTAB
  0
TABLE
  2
APPID
  5
9
100
AcDbSymbolTable
 70
1
  0
APPID
  5
215
100
AcDbSymbolTableRecord
100
AcDbRegAppTableRecord
  2
ACAD
 70
0
  0
ENDTAB
  0
TABLE
  2
BLOCK_RECORD
  5
1
100
AcDbSymbolTable
 70
0
  0
BLOCK_RECORD
  5
216
100
AcDbSymbolTableRecord
100
AcDbBlockTableRecord
  2
*Model_Space
  0
BLOCK_RECORD
  5
217
100
AcDbSymbolTableRecord
100
AcDbBlockTableRecord
  2
*Paper_Space
  0
ENDTAB
  0
TABLE
  2
DIMSTYLE
  5
A
100
AcDbSymbolTable
 70
1
100
AcDbDimStyleTable
 71
0
  0
DIMSTYLE
105
218
100
AcDbSymbolTableRecord
100
AcDbDimStyleTableRecord
  2
STANDARD
 70
0
  3

  4

 40
1.0
 41
0.1875
 42
0.0625
 43
0.38
 44
0.125
 45
0.0
 46
0.0
 47
0.0001
 48
0.0001
140
0.15625
141
0.09
142
0.0
143
25.4
144
1.0
145
0.0
146
1.0
147
0.09
 71
0.0
 72
0.0
 73
1
 74
1
 75
0
 76
0
 77
0
 78
4
 79
1
170
0
171
3
172
0
173
0
174
0
175
0
176
0
177
0
178
0
270
2
179
4
271
4
272
4
273
2
274
2
275
0
280
0
281
0
282
0
283
1
284
4
285
0
286
0
287
3
288
0
340
11
278
46
  0
ENDTAB
  0
ENDSEC
  0
SECTION
  2
BLOCKS
  0
BLOCK
  5
20
100
AcDbEntity
  8
0
100
AcDbBlockBegin
  2
*Model_Space
 70
0
 10
0.0
 20
0.0
 30
0.0
  3
*Model_Space
  1

  0
ENDBLK
  5
21
100
AcDbEntity
  8
0
100
AcDbBlockEnd
  0
BLOCK
  5
1C
100
AcDbEntity
  8
0
100
AcDbBlockBegin
  2
*Paper_Space
 70
0
 10
0.0
 20
0.0
 30
0.0
  3
*Paper_Space
  1

  0
ENDBLK
  5
1D
100
AcDbEntity
  8
0
100
AcDbBlockEnd
  0
ENDSEC
  0
SECTION
  2
ENTITIES
  0
MTEXT
  5
219
100
AcDbEntity
  8
0
100
AcDbMText
 62
7
  6
CONTINUOUS
  7
STANDARD
 71
1
 72
1
 10
15.9560215477
 20
0.9479130325
 30
0.0
 11
1.0
 21
0.0
 31
0.0
 44
0.9
  1
SCALE: 1:2.000
 40
0.3
 41
3.36
  0
LINE
  5
21A
100
AcDbEntity
  8
0
100
AcDbLine
 62
7
  6
CONTINUOUS
 10
0.0
 20
0.0
 11
0.0
 21
17.0
  0
LINE
  5
21B
100
AcDbEntity
  8
0
100
AcDbLine
 62
7
  6
CONTINUOUS
 10
0.0
 20
0.0
 11
22.0
 21
0.0
  0
LINE
  5
21C
100
AcDbEntity
  8
0
100
AcDbLine
 62
7
  6
CONTINUOUS
 10
0.0
 20
17.0
 11
22.0
 21
17.0
  0
LINE
  5
21D
100
AcDbEntity
  8
0
100
AcDbLine
 62
7
  6
CONTINUOUS
 10
22.0
 20
0.0
 11
22.0
 21
17.0
  0
LINE
  5
21E
100
AcDbEntity
  8
0
100
AcDbLine
 62
7
  6
CONTINUOUS
 10
4.2406034966
 20
5.7563403692
 11
4.2406034966
 21
5.5516159597
  0
LINE
  5
21F
100
AcDbEntity
  8
0
100
AcDbLine
 62
7
  6
CONTINUOUS
 10
4.3587137329
 20
5.4991225214
 11
4.3587137329
 21
5.480749818
  0
LINE
  5
220
100
AcDbEntity
  8
0
100
AcDbLine
 62
7
  6
CONTINUOUS
 10
4.7524145203
 20
5.480749818
 11
4.7524145203
 21
5.4991225214
  0
LINE
  5
221
100
AcDbEntity
  8
0
100
AcDbLine
 62
7
  6
CONTINUOUS
 10
4.9886349927
 20
5.4991225214
 11
4.9886349927
 21
5.480749818
  0
LINE
  5
222
100
AcDbEntity
  8
0
100
AcDbLine
 62
7
  6
CONTINUOUS
 10
5.3823357801
 20
5.480749818
 11
5.3823357801
 21
5.4991225214
  0
LINE
  5
223
100
AcDbEntity
  8
0
100
AcDbLine
 62
7
  6
CONTINUOUS
 10
5.6185562525
 20
5.4991225214
 11
5.6185562525
 21
5.480749818
  0
LINE
  5
224
100
AcDbEntity
  8
0
100
AcDbLine
 62
7
  6
CONTINUOUS
 10
6.0122570399
 20
5.480749818
 11
6.0122570399
 21
5.4991225214
  0
LINE
  5
225
100
AcDbEntity
  8
0
100
AcDbLine
 62
7
  6
CONTINUOUS
 10
6.2484775124
 20
5.4991225214
 11
6.2484775124
 21
5.480749818
  0
LINE
  5
226
100
AcDbEntity
  8
0
100
AcDbLine
 62
7
  6
CONTINUOUS
 10
4.2406034966
 20
5.5516159597
 11
4.3062202945
 21
5.5516159597
  0
LINE
  5
227
100
AcDbEntity
  8
0
100
AcDbLine
 62
7
  6
CONTINUOUS
 10
4.8049079586
 20
5.5516159597
 11
4.9361415544
 21
5.5516159597
  0
LINE
  5
228
100
AcDbEntity
  8
0
100
AcDbLine
 62
7
  6
CONTINUOUS
 10
5.4348292184
 20
5.5516159597
 11
5.5660628142
 21
5.5516159597
  0
LINE
  5
229
100
AcDbEntity
  8
0
100
AcDbLine
 62
7
  6
CONTINUOUS
 10
6.0647504783
 20
5.5516159597
 11
6.1959840741
 21
5.5516159597
  0
LINE
  5
22A
100
AcDbEntity
  8
0
100
AcDbLine
 62
7
  6
CONTINUOUS
 10
6.6946717381
 20
5.5516159597
 11
6.8259053339
 21
5.5516159597
  0
LINE
  5
22B
100
AcDbEntity
  8
0
100
AcDbLine
 62
7
  6
CONTINUOUS
 10
7.324592998
 20
5.5516159597
 11
7.4558265938
 21
5.5516159597
  0
LINE
  5
22C
100
AcDbEntity
  8
0
100
AcDbLine
 62
7
  6
CONTINUOUS
 10
7.9545142578
 20
5.5516159597
 11
8.0201310557
 21
5.5516159597
  0
LINE
  5
22D
100
AcDbEntity
  8
0
100
AcDbLine
 62
7
  6
CONTINUOUS
 10
8.0201310557
 20
5.7563403692
 11
4.2406034966
 21
5.7563403692
  0
LINE
  5
22E
100
AcDbEntity
  8
0
100
AcDbLine
 62
7
  6
CONTINUOUS
 10
6.6421782998
 20
5.480749818
 11
6.6421782998
 21
5.4991225214
  0
LINE
  5
22F
100
AcDbEntity
  8
0
100
AcDbLine
 62
7
  6
CONTINUOUS
 10
6.8783987722
 20
5.4991225214
 11
6.8783987722
 21
5.480749818
  0
LINE
  5
230
100
AcDbEntity
  8
0
100
AcDbLine
 62
7
  6
CONTINUOUS
 10
7.2720995596
 20
5.480749818
 11
7.2720995596
 21
5.4991225214
  0
LINE
  5
231
100
AcDbEntity
  8
0
100
AcDbLine
 62
7
  6
CONTINUOUS
 10
7.5083200321
 20
5.4991225214
 11
7.5083200321
 21
5.480749818
  0
LINE
  5
232
100
AcDbEntity
  8
0
100
AcDbLine
 62
7
  6
CONTINUOUS
 10
7.9020208195
 20
5.480749818
 11
7.9020208195
 21
5.4991225214
  0
LINE
  5
233
100
AcDbEntity
  8
0
100
AcDbLine
 62
7
  6
CONTINUOUS
 10
8.0201310557
 20
5.5516159597
 11
8.0201310557
 21
5.7563403692
  0
LINE
  5
234
100
AcDbEntity
  8
0
100
AcDbLine
 62
7
  6
CONTINUOUS
 10
4.1811083043
 20
13.5842997499
 11
4.1811083043
 21
11.6157958129
  0
LINE
  5
235
100
AcDbEntity
  8
0
100
AcDbLine
 62
7
  6
CONTINUOUS
 10
7.9606358634
 20
11.6157958129
 11
4.1811083043
 21
11.6157958129
  0
LINE
  5
236
100
AcDbEntity
  8
0
100
AcDbLine
 62
7
  6
CONTINUOUS
 10
4.1811083043
 20
13.5842997499
 11
7.9606358634
 21
13.5842997499
  0
LINE
  5
237
100
AcDbEntity
  8
0
100
AcDbLine
 62
7
  6
CONTINUOUS
 10
7.9606358634
 20
13.5842997499
 11
7.9606358634
 21
11.6157958129
  0
LINE
  5
238
100
AcDbEntity
  8
0
100
AcDbLine
 62
7
  6
CONTINUOUS
 10
14.5761032884
 20
5.224404232
 11
14.5761032884
 21
5.6968451769
  0
LINE
  5
239
100
AcDbEntity
  8
0
100
AcDbLine
 62
7
  6
CONTINUOUS
 10
16.5446072254
 20
5.224404232
 11
14.5761032884
 21
5.224404232
  0
LINE
  5
23A
100
AcDbEntity
  8
0
100
AcDbLine
 62
7
  6
CONTINUOUS
 10
16.5446072254
 20
5.4921207674
 11
14.5761032884
 21
5.4921207674
  0
LINE
  5
23B
100
AcDbEntity
  8
0
100
AcDbLine
 62
7
  6
CONTINUOUS
 10
16.5446072254
 20
5.6968451769
 11
14.5761032884
 21
5.6968451769
  0
LINE
  5
23C
100
AcDbEntity
  8
0
100
AcDbLine
 62
7
  6
CONTINUOUS
 10
16.5446072254
 20
5.224404232
 11
16.5446072254
 21
5.6968451769
  0
LINE
  5
23D
100
AcDbEntity
  8
0
100
AcDbLine
 62
7
  6
CONTINUOUS
 10
13.4610457499
 20
11.8866509405
 11
13.523495266
 21
11.7593922068
  0
LINE
  5
23E
100
AcDbEntity
  8
0
100
AcDbLine
 62
7
  6
CONTINUOUS
 10
13.6482946939
 20
11.7267617623
 11
13.6538991377
 21
11.7153411067
  0
LINE
  5
23F
100
AcDbEntity
  8
0
100
AcDbLine
 62
7
  6
CONTINUOUS
 10
13.9375542606
 20
13.4286330461
 11
13.4610457499
 21
11.8866509405
  0
LINE
  5
240
100
AcDbEntity
  8
0
100
AcDbLine
 62
7
  6
CONTINUOUS
 10
14.0165215763
 20
11.7153411067
 11
14.0109171325
 21
11.7267617623
  0
LINE
  5
241
100
AcDbEntity
  8
0
100
AcDbLine
 62
7
  6
CONTINUOUS
 10
14.2284905957
 20
11.7267617623
 11
14.2340950394
 21
11.7153411067
  0
LINE
  5
242
100
AcDbEntity
  8
0
100
AcDbLine
 62
7
  6
CONTINUOUS
 10
14.0548584487
 20
11.7593922068
 11
14.0232853263
 21
11.6572215454
  0
LINE
  5
243
100
AcDbEntity
  8
0
100
AcDbLine
 62
7
  6
CONTINUOUS
 10
14.596717478
 20
11.7153411067
 11
14.5911130343
 21
11.7267617623
  0
LINE
  5
244
100
AcDbEntity
  8
0
100
AcDbLine
 62
7
  6
CONTINUOUS
 10
14.8086864974
 20
11.7267617623
 11
14.8142909412
 21
11.7153411067
  0
LINE
  5
245
100
AcDbEntity
  8
0
100
AcDbLine
 62
7
  6
CONTINUOUS
 10
13.523495266
 20
11.7593922068
 11
13.583932339
 21
11.7593922068
  0
LINE
  5
246
100
AcDbEntity
  8
0
100
AcDbLine
 62
7
  6
CONTINUOUS
 10
14.0432540946
 20
11.7593922068
 11
14.1641282408
 21
11.7593922068
  0
LINE
  5
247
100
AcDbEntity
  8
0
100
AcDbLine
 62
7
  6
CONTINUOUS
 10
14.6234499963
 20
11.7593922068
 11
14.7443241425
 21
11.7593922068
  0
LINE
  5
248
100
AcDbEntity
  8
0
100
AcDbLine
 62
7
  6
CONTINUOUS
 10
15.2036458981
 20
11.7593922068
 11
15.3245200443
 21
11.7593922068
  0
LINE
  5
249
100
AcDbEntity
  8
0
100
AcDbLine
 62
7
  6
CONTINUOUS
 10
15.7838417998
 20
11.7593922068
 11
15.904715946
 21
11.7593922068
  0
LINE
  5
24A
100
AcDbEntity
  8
0
100
AcDbLine
 62
7
  6
CONTINUOUS
 10
16.3640377015
 20
11.7593922068
 11
16.4849118477
 21
11.7593922068
  0
LINE
  5
24B
100
AcDbEntity
  8
0
100
AcDbLine
 62
7
  6
CONTINUOUS
 10
16.9442336033
 20
11.7593922068
 11
17.0046706764
 21
11.7593922068
  0
LINE
  5
24C
100
AcDbEntity
  8
0
100
AcDbLine
 62
7
  6
CONTINUOUS
 10
14.6350543504
 20
11.7593922068
 11
14.603481228
 21
11.6572215454
  0
LINE
  5
24D
100
AcDbEntity
  8
0
100
AcDbLine
 62
7
  6
CONTINUOUS
 10
16.9422211604
 20
11.8866509405
 11
13.4610457499
 21
11.8866509405
  0
LINE
  5
24E
100
AcDbEntity
  8
0
100
AcDbLine
 62
7
  6
CONTINUOUS
 10
15.1769133797
 20
11.7153411067
 11
15.171308936
 21
11.7267617623
  0
LINE
  5
24F
100
AcDbEntity
  8
0
100
AcDbLine
 62
7
  6
CONTINUOUS
 10
15.3888823991
 20
11.7267617623
 11
15.3944868429
 21
11.7153411067
  0
LINE
  5
250
100
AcDbEntity
  8
0
100
AcDbLine
 62
7
  6
CONTINUOUS
 10
15.2152502522
 20
11.7593922068
 11
15.1836771298
 21
11.6572215454
  0
LINE
  5
251
100
AcDbEntity
  8
0
100
AcDbLine
 62
7
  6
CONTINUOUS
 10
15.7571092815
 20
11.7153411067
 11
15.7515048377
 21
11.7267617623
  0
LINE
  5
252
100
AcDbEntity
  8
0
100
AcDbLine
 62
7
  6
CONTINUOUS
 10
15.9690783009
 20
11.7267617623
 11
15.9746827446
 21
11.7153411067
  0
LINE
  5
253
100
AcDbEntity
  8
0
100
AcDbLine
 62
7
  6
CONTINUOUS
 10
16.3373051832
 20
11.7153411067
 11
16.3317007395
 21
11.7267617623
  0
LINE
  5
254
100
AcDbEntity
  8
0
100
AcDbLine
 62
7
  6
CONTINUOUS
 10
15.7954461539
 20
11.7593922068
 11
15.7638730315
 21
11.6572215454
  0
LINE
  5
255
100
AcDbEntity
  8
0
100
AcDbLine
 62
7
  6
CONTINUOUS
 10
16.5492742026
 20
11.7267617623
 11
16.5548786464
 21
11.7153411067
  0
LINE
  5
256
100
AcDbEntity
  8
0
100
AcDbLine
 62
7
  6
CONTINUOUS
 10
13.9375542606
 20
13.4286330461
 11
17.418729671
 21
13.4286330461
  0
LINE
  5
257
100
AcDbEntity
  8
0
100
AcDbLine
 62
7
  6
CONTINUOUS
 10
16.9175010849
 20
11.7153411067
 11
16.9118966412
 21
11.7267617623
  0
LINE
  5
258
100
AcDbEntity
  8
0
100
AcDbLine
 62
7
  6
CONTINUOUS
 10
17.0046706764
 20
11.7593922068
 11
16.9422211604
 21
11.8866509405
  0
LINE
  5
259
100
AcDbEntity
  8
0
100
AcDbLine
 62
7
  6
CONTINUOUS
 10
16.3756420556
 20
11.7593922068
 11
16.3440689333
 21
11.6572215454
  0
LINE
  5
25A
100
AcDbEntity
  8
0
100
AcDbLine
 62
7
  6
CONTINUOUS
 10
17.418729671
 20
13.4286330461
 11
16.9422211604
 21
11.8866509405
  0
LINE
  5
25B
100
AcDbEntity
  8
0
100
AcDbLine
 62
7
  6
CONTINUOUS
 10
16.9558379574
 20
11.7593922068
 11
16.924264835
 21
11.6572215454
  0
LINE
  5
25C
100
AcDbEntity
  8
0
100
AcDbLine
 62
7
  6
CONTINUOUS
 10
17.481179187
 20
13.3013743124
 11
17.0046706764
 21
11.7593922068
  0
LINE
  5
25D
100
AcDbEntity
  8
0
100
AcDbLine
 62
7
  6
CONTINUOUS
 10
17.481179187
 20
13.3013743124
 11
17.418729671
 21
13.4286330461
  0
ARC
  5
25E
100
AcDbEntity
  8
0
100
AcDbCircle
 62
7
  6
CONTINUOUS
 10
4.5555641266
 20
5.480749818
 40
0.1968503937
100
AcDbArc
 50
180.0
 51
360.0
  0
ARC
  5
25F
100
AcDbEntity
  8
0
100
AcDbCircle
 62
7
  6
CONTINUOUS
 10
5.1854853864
 20
5.480749818
 40
0.1968503937
100
AcDbArc
 50
180.0
 51
360.0
  0
ARC
  5
260
100
AcDbEntity
  8
0
100
AcDbCircle
 62
7
  6
CONTINUOUS
 10
7.7051704258
 20
5.480749818
 40
0.1968503937
100
AcDbArc
 50
180.0
 51
360.0
  0
ARC
  5
261
100
AcDbEntity
  8
0
100
AcDbCircle
 62
7
  6
CONTINUOUS
 10
7.0752491659
 20
5.480749818
 40
0.1968503937
100
AcDbArc
 50
180.0
 51
360.0
  0
ARC
  5
262
100
AcDbEntity
  8
0
100
AcDbCircle
 62
7
  6
CONTINUOUS
 10
6.4453279061
 20
5.480749818
 40
0.1968503937
100
AcDbArc
 50
180.0
 51
360.0
  0
ARC
  5
263
100
AcDbEntity
  8
0
100
AcDbCircle
 62
7
  6
CONTINUOUS
 10
5.8154066462
 20
5.480749818
 40
0.1968503937
100
AcDbArc
 50
180.0
 51
360.0
  0
ARC
  5
264
100
AcDbEntity
  8
0
100
AcDbCircle
 62
7
  6
CONTINUOUS
 10
4.3062202945
 20
5.4991225214
 40
0.0524934383
100
AcDbArc
 50
0.0
 51
90.0
  0
ARC
  5
265
100
AcDbEntity
  8
0
100
AcDbCircle
 62
7
  6
CONTINUOUS
 10
4.8049079586
 20
5.4991225214
 40
0.0524934383
100
AcDbArc
 50
90.0
 51
180.0
  0
ARC
  5
266
100
AcDbEntity
  8
0
100
AcDbCircle
 62
7
  6
CONTINUOUS
 10
4.9361415544
 20
5.4991225214
 40
0.0524934383
100
AcDbArc
 50
0.0
 51
90.0
  0
ARC
  5
267
100
AcDbEntity
  8
0
100
AcDbCircle
 62
7
  6
CONTINUOUS
 10
5.4348292184
 20
5.4991225214
 40
0.0524934383
100
AcDbArc
 50
90.0
 51
180.0
  0
ARC
  5
268
100
AcDbEntity
  8
0
100
AcDbCircle
 62
7
  6
CONTINUOUS
 10
5.5660628142
 20
5.4991225214
 40
0.0524934383
100
AcDbArc
 50
0.0
 51
90.0
  0
ARC
  5
269
100
AcDbEntity
  8
0
100
AcDbCircle
 62
7
  6
CONTINUOUS
 10
6.0647504783
 20
5.4991225214
 40
0.0524934383
100
AcDbArc
 50
90.0
 51
180.0
  0
ARC
  5
26A
100
AcDbEntity
  8
0
100
AcDbCircle
 62
7
  6
CONTINUOUS
 10
6.1959840741
 20
5.4991225214
 40
0.0524934383
100
AcDbArc
 50
0.0
 51
90.0
  0
ARC
  5
26B
100
AcDbEntity
  8
0
100
AcDbCircle
 62
7
  6
CONTINUOUS
 10
6.6946717381
 20
5.4991225214
 40
0.0524934383
100
AcDbArc
 50
90.0
 51
180.0
  0
ARC
  5
26C
100
AcDbEntity
  8
0
100
AcDbCircle
 62
7
  6
CONTINUOUS
 10
6.8259053339
 20
5.4991225214
 40
0.0524934383
100
AcDbArc
 50
0.0
 51
90.0
  0
ARC
  5
26D
100
AcDbEntity
  8
0
100
AcDbCircle
 62
7
  6
CONTINUOUS
 10
7.324592998
 20
5.4991225214
 40
0.0524934383
100
AcDbArc
 50
90.0
 51
180.0
  0
ARC
  5
26E
100
AcDbEntity
  8
0
100
AcDbCircle
 62
7
  6
CONTINUOUS
 10
7.4558265938
 20
5.4991225214
 40
0.0524934383
100
AcDbArc
 50
0.0
 51
90.0
  0
ARC
  5
26F
100
AcDbEntity
  8
0
100
AcDbCircle
 62
7
  6
CONTINUOUS
 10
7.9545142578
 20
5.4991225214
 40
0.0524934383
100
AcDbArc
 50
90.0
 51
180.0
  0
SPLINE
  5
270
100
AcDbEntity
  8
0
100
AcDbSpline
 62
7
  6
CONTINUOUS
 70
0
 71
3
 72
11
 73
7
 74
0
 42
0.0000001
 43
0.0000001
 44
0.0000000001
 40
0.0
 40
0.0
 40
0.0
 40
0.0
 40
0.2022280995
 40
0.4300667004
 40
0.6962043361
 40
1.0
 40
1.0
 40
1.0
 40
1.0
 10
14.0091134536
 20
11.7422603251
 30
0.0
 10
14.0099209434
 20
11.7448738996
 30
0.0
 10
14.0130777183
 20
11.750042765
 30
0.0
 10
14.0210061755
 20
11.7554709944
 30
0.0
 10
14.0314051787
 20
11.7587408317
 30
0.0
 10
14.0391447508
 20
11.7593922068
 30
0.0
 10
14.0432540946
 20
11.7593922068
 30
0.0
  0
SPLINE
  5
271
100
AcDbEntity
  8
0
100
AcDbSpline
 62
7
  6
CONTINUOUS
 70
0
 71
3
 72
11
 73
7
 74
0
 42
0.0000001
 43
0.0000001
 44
0.0000000001
 40
0.0
 40
0.0
 40
0.0
 40
0.0
 40
0.2022280995
 40
0.4300667004
 40
0.6962043361
 40
1.0
 40
1.0
 40
1.0
 40
1.0
 10
14.5893093553
 20
11.7422603251
 30
0.0
 10
14.5901168451
 20
11.7448738996
 30
0.0
 10
14.5932736201
 20
11.750042765
 30
0.0
 10
14.6012020773
 20
11.7554709944
 30
0.0
 10
14.6116010804
 20
11.7587408317
 30
0.0
 10
14.6193406525
 20
11.7593922068
 30
0.0
 10
14.6234499963
 20
11.7593922068
 30
0.0
  0
SPLINE
  5
272
100
AcDbEntity
  8
0
100
AcDbSpline
 62
7
  6
CONTINUOUS
 70
0
 71
3
 72
11
 73
7
 74
0
 42
0.0000001
 43
0.0000001
 44
0.0000000001
 40
0.0
 40
0.0
 40
0.0
 40
0.0
 40
0.2022280995
 40
0.4300667004
 40
0.6962043361
 40
1.0
 40
1.0
 40
1.0
 40
1.0
 10
15.169505257
 20
11.7422603251
 30
0.0
 10
15.1703127468
 20
11.7448738996
 30
0.0
 10
15.1734695218
 20
11.750042765
 30
0.0
 10
15.181397979
 20
11.7554709944
 30
0.0
 10
15.1917969822
 20
11.7587408317
 30
0.0
 10
15.1995365542
 20
11.7593922068
 30
0.0
 10
15.2036458981
 20
11.7593922068
 30
0.0
  0
SPLINE
  5
273
100
AcDbEntity
  8
0
100
AcDbSpline
 62
7
  6
CONTINUOUS
 70
0
 71
3
 72
11
 73
7
 74
0
 42
0.0000001
 43
0.0000001
 44
0.0000000001
 40
0.0
 40
0.0
 40
0.0
 40
0.0
 40
0.2022280995
 40
0.4300667004
 40
0.6962043361
 40
1.0
 40
1.0
 40
1.0
 40
1.0
 10
15.7497011588
 20
11.7422603251
 30
0.0
 10
15.7505086486
 20
11.7448738996
 30
0.0
 10
15.7536654235
 20
11.750042765
 30
0.0
 10
15.7615938807
 20
11.7554709944
 30
0.0
 10
15.7719928839
 20
11.7587408317
 30
0.0
 10
15.779732456
 20
11.7593922068
 30
0.0
 10
15.7838417998
 20
11.7593922068
 30
0.0
  0
SPLINE
  5
274
100
AcDbEntity
  8
0
100
AcDbSpline
 62
7
  6
CONTINUOUS
 70
0
 71
3
 72
11
 73
7
 74
0
 42
0.0000001
 43
0.0000001
 44
0.0000000001
 40
0.0
 40
0.0
 40
0.0
 40
0.0
 40
0.2022280995
 40
0.4300667004
 40
0.6962043361
 40
1.0
 40
1.0
 40
1.0
 40
1.0
 10
16.3298970605
 20
11.7422603251
 30
0.0
 10
16.3307045503
 20
11.7448738996
 30
0.0
 10
16.3338613253
 20
11.750042765
 30
0.0
 10
16.3417897825
 20
11.7554709944
 30
0.0
 10
16.3521887857
 20
11.7587408317
 30
0.0
 10
16.3599283577
 20
11.7593922068
 30
0.0
 10
16.3640377015
 20
11.7593922068
 30
0.0
  0
SPLINE
  5
275
100
AcDbEntity
  8
0
100
AcDbSpline
 62
7
  6
CONTINUOUS
 70
0
 71
3
 72
11
 73
7
 74
0
 42
0.0000001
 43
0.0000001
 44
0.0000000001
 40
0.0
 40
0.0
 40
0.0
 40
0.0
 40
0.2022280995
 40
0.4300667004
 40
0.6962043361
 40
1.0
 40
1.0
 40
1.0
 40
1.0
 10
16.9100929622
 20
11.7422603251
 30
0.0
 10
16.910900452
 20
11.7448738996
 30
0.0
 10
16.914057227
 20
11.750042765
 30
0.0
 10
16.9219856842
 20
11.7554709944
 30
0.0
 10
16.9323846874
 20
11.7587408317
 30
0.0
 10
16.9401242594
 20
11.7593922068
 30
0.0
 10
16.9442336033
 20
11.7593922068
 30
0.0
  0
SPLINE
  5
276
100
AcDbEntity
  8
0
100
AcDbSpline
 62
7
  6
CONTINUOUS
 70
0
 71
3
 72
21
 73
17
 74
0
 42
0.0000001
 43
0.0000001
 44
0.0000000001
 40
0.0
 40
0.0
 40
0.0
 40
0.0
 40
0.0543735795
 40
0.1140101516
 40
0.1786178538
 40
0.2474788896
 40
0.3935211486
 40
0.5422962535
 40
0.6144167033
 40
0.6833078875
 40
0.747952252
 40
0.8076310572
 40
0.8620456295
 40
0.9114641588
 40
0.9568685624
 40
1.0
 40
1.0
 40
1.0
 40
1.0
 10
16.5548786464
 20
11.7153411067
 30
0.0
 10
16.5583500359
 20
11.7082671586
 30
0.0
 10
16.5671665333
 20
11.6941677612
 30
0.0
 10
16.5842976401
 20
11.6746503516
 30
0.0
 10
16.6054839418
 20
11.6562488513
 30
0.0
 10
16.6390334768
 20
11.6334177517
 30
0.0
 10
16.6870772802
 20
11.6108764065
 30
0.0
 10
16.7388609378
 20
11.5974070955
 30
0.0
 10
16.7806753278
 20
11.5928763146
 30
0.0
 10
16.8105411479
 20
11.5927996856
 30
0.0
 10
16.8384301458
 20
11.5960112483
 30
0.0
 10
16.8636180611
 20
11.6024416446
 30
0.0
 10
16.8854538634
 20
11.6119558347
 30
0.0
 10
16.9033604168
 20
11.6243858127
 30
0.0
 10
16.916778407
 20
11.6394929257
 30
0.0
 10
16.9224190679
 20
11.6512496883
 30
0.0
 10
16.9242647878
 20
11.6572215601
 30
0.0
  0
SPLINE
  5
277
100
AcDbEntity
  8
0
100
AcDbSpline
 62
7
  6
CONTINUOUS
 70
0
 71
3
 72
21
 73
17
 74
0
 42
0.0000001
 43
0.0000001
 44
0.0000000001
 40
0.0
 40
0.0
 40
0.0
 40
0.0
 40
0.0543681926
 40
0.1140134872
 40
0.1786170312
 40
0.2474790029
 40
0.3935205933
 40
0.5422957927
 40
0.6144159676
 40
0.683306939
 40
0.7479514197
 40
0.8076306346
 40
0.8620454607
 40
0.9114638286
 40
0.9568677918
 40
1.0
 40
1.0
 40
1.0
 40
1.0
 10
15.9746827446
 20
11.7153411067
 30
0.0
 10
15.9781537862
 20
11.7082678677
 30
0.0
 10
15.986971364
 20
11.6941686786
 30
0.0
 10
16.0041009298
 20
11.6746500974
 30
0.0
 10
16.0252891273
 20
11.6562495243
 30
0.0
 10
16.0588372315
 20
11.6334176148
 30
0.0
 10
16.1068812577
 20
11.6108763461
 30
0.0
 10
16.1586647124
 20
11.5974071685
 30
0.0
 10
16.200479027
 20
11.5928766222
 30
0.0
 10
16.2303447477
 20
11.5927999639
 30
0.0
 10
16.258233778
 20
11.5960113144
 30
0.0
 10
16.2834218456
 20
11.6024414047
 30
0.0
 10
16.3052578184
 20
11.6119554178
 30
0.0
 10
16.3231640531
 20
11.624385729
 30
0.0
 10
16.3365820517
 20
11.6394927863
 30
0.0
 10
16.3422225427
 20
11.6512497714
 30
0.0
 10
16.34406789
 20
11.6572218676
 30
0.0
  0
SPLINE
  5
278
100
AcDbEntity
  8
0
100
AcDbSpline
 62
7
  6
CONTINUOUS
 70
0
 71
3
 72
21
 73
17
 74
0
 42
0.0000001
 43
0.0000001
 44
0.0000000001
 40
0.0
 40
0.0
 40
0.0
 40
0.0
 40
0.0543650764
 40
0.1140151811
 40
0.1786164447
 40
0.247478452
 40
0.3935205273
 40
0.5422950384
 40
0.6144157916
 40
0.6833072611
 40
0.7479511373
 40
0.807629455
 40
0.8620442162
 40
0.9114633109
 40
0.9568676285
 40
1.0
 40
1.0
 40
1.0
 40
1.0
 10
15.3944868429
 20
11.7153411067
 30
0.0
 10
15.3979576843
 20
11.7082682755
 30
0.0
 10
15.4067759688
 20
11.6941692843
 30
0.0
 10
15.4239046487
 20
11.6746500706
 30
0.0
 10
15.4450935745
 20
11.6562497432
 30
0.0
 10
15.4786408336
 20
11.633417124
 30
0.0
 10
15.5266854922
 20
11.6108769758
 30
0.0
 10
15.5784687702
 20
11.5974076769
 30
0.0
 10
15.6202830347
 20
11.5928761739
 30
0.0
 10
15.6501488482
 20
11.592799434
 30
0.0
 10
15.6780376569
 20
11.5960114812
 30
0.0
 10
15.703225351
 20
11.6024419881
 30
0.0
 10
15.7250612838
 20
11.6119558799
 30
0.0
 10
15.7429681952
 20
11.6243852682
 30
0.0
 10
15.7563869915
 20
11.6394923415
 30
0.0
 10
15.7620257193
 20
11.6512500357
 30
0.0
 10
15.7638718027
 20
11.6572219269
 30
0.0
  0
SPLINE
  5
279
100
AcDbEntity
  8
0
100
AcDbSpline
 62
7
  6
CONTINUOUS
 70
0
 71
3
 72
21
 73
17
 74
0
 42
0.0000001
 43
0.0000001
 44
0.0000000001
 40
0.0
 40
0.0
 40
0.0
 40
0.0
 40
0.0543650764
 40
0.1140151811
 40
0.1786164447
 40
0.247478452
 40
0.3935205273
 40
0.5422950384
 40
0.6144157916
 40
0.6833072611
 40
0.7479511373
 40
0.807629455
 40
0.8620442162
 40
0.9114633109
 40
0.9568676285
 40
1.0
 40
1.0
 40
1.0
 40
1.0
 10
14.8142909412
 20
11.7153411067
 30
0.0
 10
14.8177617826
 20
11.7082682755
 30
0.0
 10
14.8265800671
 20
11.6941692843
 30
0.0
 10
14.8437087469
 20
11.6746500706
 30
0.0
 10
14.8648976727
 20
11.6562497432
 30
0.0
 10
14.8984449318
 20
11.633417124
 30
0.0
 10
14.9464895905
 20
11.6108769758
 30
0.0
 10
14.9982728685
 20
11.5974076769
 30
0.0
 10
15.0400871329
 20
11.5928761739
 30
0.0
 10
15.0699529465
 20
11.592799434
 30
0.0
 10
15.0978417551
 20
11.5960114812
 30
0.0
 10
15.1230294493
 20
11.6024419881
 30
0.0
 10
15.144865382
 20
11.6119558799
 30
0.0
 10
15.1627722934
 20
11.6243852682
 30
0.0
 10
15.1761910898
 20
11.6394923415
 30
0.0
 10
15.1818298175
 20
11.6512500357
 30
0.0
 10
15.183675901
 20
11.6572219269
 30
0.0
  0
SPLINE
  5
27A
100
AcDbEntity
  8
0
100
AcDbSpline
 62
7
  6
CONTINUOUS
 70
0
 71
3
 72
21
 73
17
 74
0
 42
0.0000001
 43
0.0000001
 44
0.0000000001
 40
0.0
 40
0.0
 40
0.0
 40
0.0
 40
0.0543607555
 40
0.1140170833
 40
0.1786160276
 40
0.2474781386
 40
0.3935203394
 40
0.5422956356
 40
0.6144155689
 40
0.6833062668
 40
0.7479514499
 40
0.8076304655
 40
0.8620440569
 40
0.9114624135
 40
0.9568676168
 40
1.0
 40
1.0
 40
1.0
 40
1.0
 10
14.2340950394
 20
11.7153411067
 30
0.0
 10
14.2375656022
 20
11.7082688433
 30
0.0
 10
14.2463848781
 20
11.6941702079
 30
0.0
 10
14.263512322
 20
11.6746500941
 30
0.0
 10
14.2847018559
 20
11.6562495097
 30
0.0
 10
14.3182488666
 20
11.6334171114
 30
0.0
 10
14.36629398
 20
11.6108780072
 30
0.0
 10
14.4180767554
 20
11.5974065367
 30
0.0
 10
14.4598911404
 20
11.5928769917
 30
0.0
 10
14.4897567956
 20
11.5928003725
 30
0.0
 10
14.5176459251
 20
11.5960109109
 30
0.0
 10
14.5428338691
 20
11.6024412605
 30
0.0
 10
14.5646690751
 20
11.6119564788
 30
0.0
 10
14.5825754488
 20
11.6243859184
 30
0.0
 10
14.5959956463
 20
11.6394920176
 30
0.0
 10
14.6016334879
 20
11.6512501719
 30
0.0
 10
14.6034802768
 20
11.6572218415
 30
0.0
  0
SPLINE
  5
27B
100
AcDbEntity
  8
0
100
AcDbSpline
 62
7
  6
CONTINUOUS
 70
0
 71
3
 72
21
 73
17
 74
0
 42
0.0000001
 43
0.0000001
 44
0.0000000001
 40
0.0
 40
0.0
 40
0.0
 40
0.0
 40
0.0543607555
 40
0.1140170833
 40
0.1786160276
 40
0.2474781386
 40
0.3935203394
 40
0.5422956356
 40
0.6144155689
 40
0.6833062668
 40
0.7479514499
 40
0.8076304655
 40
0.8620440569
 40
0.9114624135
 40
0.9568676168
 40
1.0
 40
1.0
 40
1.0
 40
1.0
 10
13.6538991377
 20
11.7153411067
 30
0.0
 10
13.6573697005
 20
11.7082688433
 30
0.0
 10
13.6661889764
 20
11.6941702079
 30
0.0
 10
13.6833164203
 20
11.6746500941
 30
0.0
 10
13.7045059542
 20
11.6562495097
 30
0.0
 10
13.7380529649
 20
11.6334171114
 30
0.0
 10
13.7860980782
 20
11.6108780072
 30
0.0
 10
13.8378808537
 20
11.5974065367
 30
0.0
 10
13.8796952386
 20
11.5928769917
 30
0.0
 10
13.9095608939
 20
11.5928003725
 30
0.0
 10
13.9374500234
 20
11.5960109109
 30
0.0
 10
13.9626379674
 20
11.6024412605
 30
0.0
 10
13.9844731734
 20
11.6119564788
 30
0.0
 10
14.0023795471
 20
11.6243859184
 30
0.0
 10
14.0157997445
 20
11.6394920176
 30
0.0
 10
14.0214375862
 20
11.6512501719
 30
0.0
 10
14.023284375
 20
11.6572218415
 30
0.0
  0
SPLINE
  5
27C
100
AcDbEntity
  8
0
100
AcDbSpline
 62
7
  6
CONTINUOUS
 70
0
 71
3
 72
11
 73
7
 74
0
 42
0.0000001
 43
0.0000001
 44
0.0000000001
 40
0.0
 40
0.0
 40
0.0
 40
0.0
 40
0.2647183494
 40
0.5366516308
 40
0.7885345288
 40
1.0
 40
1.0
 40
1.0
 40
1.0
 10
13.583932339
 20
11.7593922068
 30
0.0
 10
13.5905584443
 20
11.7593922068
 30
0.0
 10
13.6040184799
 20
11.7575764989
 30
0.0
 10
13.6226928455
 20
11.7507243332
 30
0.0
 10
13.6382472919
 20
11.7406099721
 30
0.0
 10
13.6459628377
 20
11.7315135856
 30
0.0
 10
13.6482946939
 20
11.7267617623
 30
0.0
  0
SPLINE
  5
27D
100
AcDbEntity
  8
0
100
AcDbSpline
 62
7
  6
CONTINUOUS
 70
0
 71
3
 72
11
 73
7
 74
0
 42
0.0000001
 43
0.0000001
 44
0.0000000001
 40
0.0
 40
0.0
 40
0.0
 40
0.0
 40
0.2647183494
 40
0.5366516308
 40
0.7885345288
 40
1.0
 40
1.0
 40
1.0
 40
1.0
 10
14.1641282408
 20
11.7593922068
 30
0.0
 10
14.170754346
 20
11.7593922068
 30
0.0
 10
14.1842143816
 20
11.7575764989
 30
0.0
 10
14.2028887472
 20
11.7507243332
 30
0.0
 10
14.2184431936
 20
11.7406099721
 30
0.0
 10
14.2261587395
 20
11.7315135856
 30
0.0
 10
14.2284905957
 20
11.7267617623
 30
0.0
  0
SPLINE
  5
27E
100
AcDbEntity
  8
0
100
AcDbSpline
 62
7
  6
CONTINUOUS
 70
0
 71
3
 72
11
 73
7
 74
0
 42
0.0000001
 43
0.0000001
 44
0.0000000001
 40
0.0
 40
0.0
 40
0.0
 40
0.0
 40
0.2647183494
 40
0.5366516308
 40
0.7885345288
 40
1.0
 40
1.0
 40
1.0
 40
1.0
 10
14.7443241425
 20
11.7593922068
 30
0.0
 10
14.7509502477
 20
11.7593922068
 30
0.0
 10
14.7644102833
 20
11.7575764989
 30
0.0
 10
14.783084649
 20
11.7507243332
 30
0.0
 10
14.7986390953
 20
11.7406099721
 30
0.0
 10
14.8063546412
 20
11.7315135856
 30
0.0
 10
14.8086864974
 20
11.7267617623
 30
0.0
  0
SPLINE
  5
27F
100
AcDbEntity
  8
0
100
AcDbSpline
 62
7
  6
CONTINUOUS
 70
0
 71
3
 72
11
 73
7
 74
0
 42
0.0000001
 43
0.0000001
 44
0.0000000001
 40
0.0
 40
0.0
 40
0.0
 40
0.0
 40
0.2647183494
 40
0.5366516308
 40
0.7885345288
 40
1.0
 40
1.0
 40
1.0
 40
1.0
 10
15.3245200443
 20
11.7593922068
 30
0.0
 10
15.3311461495
 20
11.7593922068
 30
0.0
 10
15.3446061851
 20
11.7575764989
 30
0.0
 10
15.3632805507
 20
11.7507243332
 30
0.0
 10
15.3788349971
 20
11.7406099721
 30
0.0
 10
15.3865505429
 20
11.7315135856
 30
0.0
 10
15.3888823991
 20
11.7267617623
 30
0.0
  0
SPLINE
  5
280
100
AcDbEntity
  8
0
100
AcDbSpline
 62
7
  6
CONTINUOUS
 70
0
 71
3
 72
11
 73
7
 74
0
 42
0.0000001
 43
0.0000001
 44
0.0000000001
 40
0.0
 40
0.0
 40
0.0
 40
0.0
 40
0.2647183494
 40
0.5366516308
 40
0.7885345288
 40
1.0
 40
1.0
 40
1.0
 40
1.0
 10
15.904715946
 20
11.7593922068
 30
0.0
 10
15.9113420512
 20
11.7593922068
 30
0.0
 10
15.9248020868
 20
11.7575764989
 30
0.0
 10
15.9434764524
 20
11.7507243332
 30
0.0
 10
15.9590308988
 20
11.7406099721
 30
0.0
 10
15.9667464447
 20
11.7315135856
 30
0.0
 10
15.9690783009
 20
11.7267617623
 30
0.0
  0
SPLINE
  5
281
100
AcDbEntity
  8
0
100
AcDbSpline
 62
7
  6
CONTINUOUS
 70
0
 71
3
 72
11
 73
7
 74
0
 42
0.0000001
 43
0.0000001
 44
0.0000000001
 40
0.0
 40
0.0
 40
0.0
 40
0.0
 40
0.2647183494
 40
0.5366516308
 40
0.7885345288
 40
1.0
 40
1.0
 40
1.0
 40
1.0
 10
16.4849118477
 20
11.7593922068
 30
0.0
 10
16.4915379529
 20
11.7593922068
 30
0.0
 10
16.5049979885
 20
11.7575764989
 30
0.0
 10
16.5236723542
 20
11.7507243332
 30
0.0
 10
16.5392268005
 20
11.7406099721
 30
0.0
 10
16.5469423464
 20
11.7315135856
 30
0.0
 10
16.5492742026
 20
11.7267617623
 30
0.0
  0
SPLINE
  5
282
100
AcDbEntity
  8
0
100
AcDbSpline
 62
7
  6
CONTINUOUS
 70
0
 71
3
 72
10
 73
6
 74
0
 42
0.0000001
 43
0.0000001
 44
0.0000000001
 40
0.0
 40
0.0
 40
0.0
 40
0.0
 40
0.2341292337
 40
0.4753454604
 40
1.0
 40
1.0
 40
1.0
 40
1.0
 10
16.34406789
 20
11.6572218676
 30
0.0
 10
16.3454446348
 20
11.6616774255
 30
0.0
 10
16.3472531043
 20
11.671062015
 30
0.0
 10
16.3468240096
 20
11.6910896134
 30
0.0
 10
16.3419089117
 20
11.7059596945
 30
0.0
 10
16.3373051832
 20
11.7153411067
 30
0.0
  0
SPLINE
  5
283
100
AcDbEntity
  8
0
100
AcDbSpline
 62
7
  6
CONTINUOUS
 70
0
 71
3
 72
10
 73
6
 74
0
 42
0.0000001
 43
0.0000001
 44
0.0000000001
 40
0.0
 40
0.0
 40
0.0
 40
0.0
 40
0.2341451507
 40
0.4753625673
 40
1.0
 40
1.0
 40
1.0
 40
1.0
 10
16.9242647878
 20
11.6572215601
 30
0.0
 10
16.9256419266
 20
11.6616773259
 30
0.0
 10
16.9274476612
 20
11.6710628357
 30
0.0
 10
16.9270203587
 20
11.6910901193
 30
0.0
 10
16.9221046613
 20
11.7059600045
 30
0.0
 10
16.9175010849
 20
11.7153411067
 30
0.0
  0
SPLINE
  5
284
100
AcDbEntity
  8
0
100
AcDbSpline
 62
7
  6
CONTINUOUS
 70
0
 71
3
 72
10
 73
6
 74
0
 42
0.0000001
 43
0.0000001
 44
0.0000000001
 40
0.0
 40
0.0
 40
0.0
 40
0.0
 40
0.2341179692
 40
0.4753435184
 40
1.0
 40
1.0
 40
1.0
 40
1.0
 10
15.183675901
 20
11.6572219269
 30
0.0
 10
15.1850531238
 20
11.6616771021
 30
0.0
 10
15.186861033
 20
11.6710618323
 30
0.0
 10
15.1864326305
 20
11.6910893527
 30
0.0
 10
15.1815171252
 20
11.7059596599
 30
0.0
 10
15.1769133797
 20
11.7153411067
 30
0.0
  0
SPLINE
  5
285
100
AcDbEntity
  8
0
100
AcDbSpline
 62
7
  6
CONTINUOUS
 70
0
 71
3
 72
9
 73
5
 74
0
 42
0.0000001
 43
0.0000001
 44
0.0000000001
 40
0.0
 40
0.0
 40
0.0
 40
0.0
 40
0.5259284423
 40
1.0
 40
1.0
 40
1.0
 40
1.0
 10
14.0109171325
 20
11.7267617623
 30
0.0
 10
14.009689686
 20
11.7292630354
 30
0.0
 10
14.0079705723
 20
11.7343951894
 30
0.0
 10
14.0083720811
 20
11.7398607503
 30
0.0
 10
14.0091134536
 20
11.7422603251
 30
0.0
  0
SPLINE
  5
286
100
AcDbEntity
  8
0
100
AcDbSpline
 62
7
  6
CONTINUOUS
 70
0
 71
3
 72
11
 73
7
 74
0
 42
0.0000001
 43
0.0000001
 44
0.0000000001
 40
0.0
 40
0.0
 40
0.0
 40
0.0
 40
0.2336627515
 40
0.4744485601
 40
0.7285753422
 40
1.0
 40
1.0
 40
1.0
 40
1.0
 10
14.023284375
 20
11.6572218415
 30
0.0
 10
14.0246620529
 20
11.6616766213
 30
0.0
 10
14.0264696203
 20
11.6710589354
 30
0.0
 10
14.0261532429
 20
11.6856913341
 30
0.0
 10
14.0228646525
 20
11.7007113822
 30
0.0
 10
14.0189077835
 20
11.7104785277
 30
0.0
 10
14.0165215763
 20
11.7153411067
 30
0.0
  0
SPLINE
  5
287
100
AcDbEntity
  8
0
100
AcDbSpline
 62
7
  6
CONTINUOUS
 70
0
 71
3
 72
9
 73
5
 74
0
 42
0.0000001
 43
0.0000001
 44
0.0000000001
 40
0.0
 40
0.0
 40
0.0
 40
0.0
 40
0.5259284423
 40
1.0
 40
1.0
 40
1.0
 40
1.0
 10
14.5911130343
 20
11.7267617623
 30
0.0
 10
14.5898855877
 20
11.7292630354
 30
0.0
 10
14.588166474
 20
11.7343951894
 30
0.0
 10
14.5885679828
 20
11.7398607503
 30
0.0
 10
14.5893093553
 20
11.7422603251
 30
0.0
  0
SPLINE
  5
288
100
AcDbEntity
  8
0
100
AcDbSpline
 62
7
  6
CONTINUOUS
 70
0
 71
3
 72
9
 73
5
 74
0
 42
0.0000001
 43
0.0000001
 44
0.0000000001
 40
0.0
 40
0.0
 40
0.0
 40
0.0
 40
0.5259284423
 40
1.0
 40
1.0
 40
1.0
 40
1.0
 10
15.171308936
 20
11.7267617623
 30
0.0
 10
15.1700814894
 20
11.7292630354
 30
0.0
 10
15.1683623758
 20
11.7343951894
 30
0.0
 10
15.1687638845
 20
11.7398607503
 30
0.0
 10
15.169505257
 20
11.7422603251
 30
0.0
  0
SPLINE
  5
289
100
AcDbEntity
  8
0
100
AcDbSpline
 62
7
  6
CONTINUOUS
 70
0
 71
3
 72
9
 73
5
 74
0
 42
0.0000001
 43
0.0000001
 44
0.0000000001
 40
0.0
 40
0.0
 40
0.0
 40
0.0
 40
0.5259284423
 40
1.0
 40
1.0
 40
1.0
 40
1.0
 10
15.7515048377
 20
11.7267617623
 30
0.0
 10
15.7502773912
 20
11.7292630354
 30
0.0
 10
15.7485582775
 20
11.7343951894
 30
0.0
 10
15.7489597863
 20
11.7398607503
 30
0.0
 10
15.7497011588
 20
11.7422603251
 30
0.0
  0
SPLINE
  5
28A
100
AcDbEntity
  8
0
100
AcDbSpline
 62
7
  6
CONTINUOUS
 70
0
 71
3
 72
10
 73
6
 74
0
 42
0.0000001
 43
0.0000001
 44
0.0000000001
 40
0.0
 40
0.0
 40
0.0
 40
0.0
 40
0.2341179692
 40
0.4753435184
 40
1.0
 40
1.0
 40
1.0
 40
1.0
 10
15.7638718027
 20
11.6572219269
 30
0.0
 10
15.7652490256
 20
11.6616771021
 30
0.0
 10
15.7670569347
 20
11.6710618323
 30
0.0
 10
15.7666285322
 20
11.6910893527
 30
0.0
 10
15.7617130269
 20
11.7059596599
 30
0.0
 10
15.7571092815
 20
11.7153411067
 30
0.0
  0
SPLINE
  5
28B
100
AcDbEntity
  8
0
100
AcDbSpline
 62
7
  6
CONTINUOUS
 70
0
 71
3
 72
9
 73
5
 74
0
 42
0.0000001
 43
0.0000001
 44
0.0000000001
 40
0.0
 40
0.0
 40
0.0
 40
0.0
 40
0.5259284423
 40
1.0
 40
1.0
 40
1.0
 40
1.0
 10
16.3317007395
 20
11.7267617623
 30
0.0
 10
16.3304732929
 20
11.7292630354
 30
0.0
 10
16.3287541792
 20
11.7343951894
 30
0.0
 10
16.329155688
 20
11.7398607503
 30
0.0
 10
16.3298970605
 20
11.7422603251
 30
0.0
  0
SPLINE
  5
28C
100
AcDbEntity
  8
0
100
AcDbSpline
 62
7
  6
CONTINUOUS
 70
0
 71
3
 72
11
 73
7
 74
0
 42
0.0000001
 43
0.0000001
 44
0.0000000001
 40
0.0
 40
0.0
 40
0.0
 40
0.0
 40
0.2336627515
 40
0.4744485601
 40
0.7285753422
 40
1.0
 40
1.0
 40
1.0
 40
1.0
 10
14.6034802768
 20
11.6572218415
 30
0.0
 10
14.6048579547
 20
11.6616766213
 30
0.0
 10
14.606665522
 20
11.6710589354
 30
0.0
 10
14.6063491446
 20
11.6856913341
 30
0.0
 10
14.6030605542
 20
11.7007113822
 30
0.0
 10
14.5991036852
 20
11.7104785277
 30
0.0
 10
14.596717478
 20
11.7153411067
 30
0.0
  0
SPLINE
  5
28D
100
AcDbEntity
  8
0
100
AcDbSpline
 62
7
  6
CONTINUOUS
 70
0
 71
3
 72
9
 73
5
 74
0
 42
0.0000001
 43
0.0000001
 44
0.0000000001
 40
0.0
 40
0.0
 40
0.0
 40
0.0
 40
0.5259284423
 40
1.0
 40
1.0
 40
1.0
 40
1.0
 10
16.9118966412
 20
11.7267617623
 30
0.0
 10
16.9106691946
 20
11.7292630354
 30
0.0
 10
16.908950081
 20
11.7343951894
 30
0.0
 10
16.9093515897
 20
11.7398607503
 30
0.0
 10
16.9100929622
 20
11.7422603251
 30
0.0
  0
ENDSEC
  0
SECTION
  2
OBJECTS
  0
DICTIONARY
  5
C
100
AcDbDictionary
280
0
281
1
  3
ACAD_GROUP
350
D
  3
ACAD_MLINESTYLE
350
17
  3
ACAD_LAYOUT
350
1A
  3
ACAD_PLOTSETTINGS
350
19
  3
ACAD_PLOTSTYLENAME
350
E
  0
DICTIONARY
  5
D
102
{ACAD_REACTORS
330
C
102
}
100
AcDbDictionary
280
0
281
1
  0
ACDBDICTIONARYWDFLT
  5
E
102
{ACAD_REACTORS
330
C
102
}
100
AcDbDictionary
281
1
  3
Normal
350
F
100
AcDbDictionaryWithDefault
340
F
  0
DICTIONARY
  5
17
102
{ACAD_REACTORS
330
C
102
}
100
AcDbDictionary
280
0
281
1
  3
Standard
350
18
  0
DICTIONARY
  5
19
102
{ACAD_REACTORS
330
C
102
}
100
AcDbDictionary
281
1
  0
DICTIONARY
  5
1A
102
{ACAD_REACTORS
330
C
102
}
100
AcDbDictionary
281
1
  3
Model
350
28E
  3
Layout1
350
28F
  0
ACDBPLACEHOLDER
  5
F
102
{ACAD_REACTORS
330
E
102
}
  0
MLINESTYLE
  5
18
102
{ACAD_REACTORS
330
17
102
}
100
AcDbMlineStyle
  2
STANDARD
 70
0
  3

 62
256
 51
90.0
 52
90.0
 71
2
 49
0.5
 62
256
  6
BYLAYER
 49
-0.5
 62
256
  6
BYLAYER
  0
LAYOUT
  5
28E
102
{ACAD_REACTORS
330
1A
102
}
100
AcDbPlotSettings
  1

  2
none_device
  4
ANSI_C_(22.00_x_17.00_Inches)
  6

 40
0.0
 41
0.0
 42
0.0
 43
0.0
 44
558.8
 45
431.8
 46
0.0
 47
0.0
 48
0.0
 49
0.0
140
0.0
141
0.0
142
1.0
143
1.0
 70
1024
 72
0
 73
0
 74
0
  7

 75
0
147
1.0
148
0.0
149
0.0
100
AcDbLayout
  1
Model
 70
0
 71
0
 10
0.0
 20
0.0
 11
22.0
 21
17.0
 12
0.0
 22
0.0
 32
0.0
 14
0.0
 24
0.0
 34
0.0
 15
0.0
 25
0.0
 35
0.0
146
0.0
 13
0.0
 23
0.0
 33
0.0
 16
1.0
 26
0.0
 36
0.0
 17
0.0
 27
1.0
 37
0.0
 76
0
330
216
345
0
346
0
  0
LAYOUT
  5
28F
102
{ACAD_REACTORS
330
1A
102
}
100
AcDbPlotSettings
  1

  2
none_device
  4
ANSI_C_(22.00_x_17.00_Inches)
  6

 40
0.0
 41
0.0
 42
0.0
 43
0.0
 44
558.8
 45
431.8
 46
0.0
 47
0.0
 48
0.0
 49
0.0
140
0.0
141
0.0
142
1.0
143
1.0
 70
0
 72
0
 73
0
 74
0
  7

 75
0
147
1.0
148
0.0
149
0.0
100
AcDbLayout
  1
Layout1
 70
0
 71
1
 10
0.0
 20
0.0
 11
22.0
 21
17.0
 12
0.0
 22
0.0
 32
0.0
 14
0.0
 24
0.0
 34
0.0
 15
0.0
 25
0.0
 35
0.0
146
0.0
 13
0.0
 23
0.0
 33
0.0
 16
1.0
 26
0.0
 36
0.0
 17
0.0
 27
1.0
 37
0.0
 76
0
330
217
345
0
346
0
  0
ENDSEC
  0
EOF