999
DXF file: _cgs_temp_output.dxf
999
Pro/ENGINEER 2016360 by Parametric Technology Corporation
  0
SECTION
  2
HEADER
  9
$ACADVER
  1
AC1021
  9
$DWGCODEPAGE
  3
ANSI_1252
  9
$EXTMAX
 10
22.0
 20
17.0
 30
0.0
  9
$EXTMIN
 10
0.0
 20
0.0
 30
0.0
  9
$LIMMIN
 10
0.0
 20
0.0
  9
$LIMMAX
 10
22.0
 20
17.0
  9
$VIEWCTR
 10
11.0
 20
8.5
  9
$VIEWSIZE
 40
17.0
  9
$CLAYER
  8
0
  9
$LTSCALE
 40
1.21
  9
$CELTYPE
  6
BYLAYER
  9
$DIMSCALE
 40
1.0
  9
$DIMASZ
 40
0.1875
  9
$DIMEXO
 40
0.0625
  9
$DIMDLI
 40
0.836
  9
$DIMEXE
 40
0.125
  9
$DIMCEN
 40
0.198
  9
$DIMLFAC
 40
1.0
  9
$DIMBLK
  1
_CLOSED
  9
$DIMALT
 70
0
  9
$DIMALTF
 40
25.4
  9
$DIMTXT
 40
0.15625
  9
$DIMTOL
 70
0
  9
$DIMLIM
 70
0
  9
$DIMTFAC
 40
1.0
  9
$DIMGAP
 40
0.09
  9
$DIMDSEP
 70
46
  9
$AUNITS
 70
0
  9
$PDMODE
 70
3
  9
$PDSIZE
 40
0.3125
  9
$HANDSEED
  5
290
  9
$TILEMODE
 70
1
  9
$MEASUREMENT
 70
0
  9
$INSUNITS
 70
1
  0
ENDSEC
  0
SECTION
  2
CLASSES
  0
CLASS
  1
ACDBDICTIONARYWDFLT
  2
AcDbDictionaryWithDefault
  3
AutoCAD 2000
 90
0
 91
1
280
0
281
0
  0
CLASS
  1
ACDBPLACEHOLDER
  2
AcDbPlaceHolder
  3
AutoCAD 2000
 90
0
 91
1
280
0
281
0
  0
CLASS
  1
LAYOUT
  2
AcDbLayout
  3
AutoCAD 2000
 90
0
 91
0
280
0
281
0
  0
ENDSEC
  0
SECTION
  2
TABLES
  0
TABLE
  2
VPORT
  5
8
100
AcDbSymbolTable
 70
2
  0
VPORT
  5
1F4
100
AcDbSymbolTableRecord
100
AcDbViewportTableRecord
  2
*ACTIVE
 70
0
 10
0.0
 20
0.0
 11
1.0
 21
1.0
 12
11.0
 22
8.5
 13
0.0
 23
0.0
 14
1.0
 24
1.0
 15
0.0
 25
0.0
 16
0.0
 26
0.0
 36
1.0
 17
0.0
 27
0.0
 37
0.0
 40
17.0
 41
1.2941176471
 42
50.0
 43
0.0
 44
0.0
 50
0.0
 51
0.0
 71
0
 72
100
 73
1
 74
1
 75
0
 76
0
 77
0
 78
0
  0
ENDTAB
  0
TABLE
  2
LTYPE
  5
5
100
AcDbSymbolTable
 70
6
  0
LTYPE
  5
14
100
AcDbSymbolTableRecord
100
AcDbLinetypeTableRecord
  2
BYBLOCK
 70
0
  3

 72
65
 73
0
 40
0.0
  0
LTYPE
  5
15
100
AcDbSymbolTableRecord
100
AcDbLinetypeTableRecord
  2
BYLAYER
 70
0
  3

 72
65
 73
0
 40
0.0
  0
LTYPE
  5
16
100
AcDbSymbolTableRecord
100
AcDbLinetypeTableRecord
  2
CONTINUOUS
 70
64
  3
Solid line
 72
65
 73
0
 40
0.0
  0
LTYPE
  5
1F5
100
AcDbSymbolTableRecord
100
AcDbLinetypeTableRecord
  2
CENTER
 70
64
  3
____ _ ____ _ ____ _ ____ _ ____ _ ____ _ ____
 72
65
 73
4
 40
0.6
 49
0.375
 74
0
 49
-0.075
 74
0
 49
0.075
 74
0
 49
-0.075
 74
0
  0
LTYPE
  5
1F6
100
AcDbSymbolTableRecord
100
AcDbLinetypeTableRecord
  2
HIDDEN
 70
64
  3
- - - - - - - - - - - - - - - - - - - -
 72
65
 73
2
 40
0.2
 49
0.1
 74
0
 49
-0.1
 74
0
  0
LTYPE
  5
1F7
100
AcDbSymbolTableRecord
100
AcDbLinetypeTableRecord
  2
PHANTOM
 70
64
  3
_____ _ _ _____ _ _ _____ _ _ _____
 72
65
 73
6
 40
0.8
 49
0.45
 74
0
 49
-0.05
 74
0
 49
0.1
 74
0
 49
-0.05
 74
0
 49
0.1
 74
0
 49
-0.05
 74
0
  0
LTYPE
  5
1F8
100
AcDbSymbolTableRecord
100
AcDbLinetypeTableRecord
  2
DOT
 70
64
  3
. . . . . . . . . . . . . . . . . . . .
 72
65
 73
2
 40
0.2
 49
0.1
 74
0
 49
-0.1
 74
0
  0
LTYPE
  5
1F9
100
AcDbSymbolTableRecord
100
AcDbLinetypeTableRecord
  2
DASHED
 70
64
  3
- - - - - - - - - - - - - - - - - - - -
 72
65
 73
2
 40
0.2
 49
0.1
 74
0
 49
-0.1
 74
0
  0
ENDTAB
  0
TABLE
  2
LAYER
  5
2
100
AcDbSymbolTable
 70
36
  0
LAYER
  5
10
100
AcDbSymbolTableRecord
100
AcDbLayerTableRecord
  2
0
 70
0
 62
7
  6
CONTINUOUS
370
-3
390
F
  0
LAYER
  5
1FA
100
AcDbSymbolTableRecord
100
AcDbLayerTableRecord
  2
DEFAULT_1
 70
0
 62
7
  6
CENTER
370
-3
390
F
  0
LAYER
  5
1FB
100
AcDbSymbolTableRecord
100
AcDbLayerTableRecord
  2
DEFAULT_2
 70
0
 62
8
  6
HIDDEN
370
-3
390
F
  0
LAYER
  5
1FC
100
AcDbSymbolTableRecord
100
AcDbLayerTableRecord
  2
DEFAULT_3
 70
0
 62
7
  6
PHANTOM
370
-3
390
F
  0
LAYER
  5
1FD
100
AcDbSymbolTableRecord
100
AcDbLayerTableRecord
  2
01_ALL_DTM_PLN
 70
0
 62
7
  6
CONTINUOUS
370
-3
390
F
  0
LAYER
  5
1FE
100
AcDbSymbolTableRecord
100
AcDbLayerTableRecord
  2
01__ASM_ALL_DTM_PLN
 70
0
 62
7
  6
CONTINUOUS
370
-3
390
F
  0
LAYER
  5
1FF
100
AcDbSymbolTableRecord
100
AcDbLayerTableRecord
  2
01__ASM_DEF_DTM_PLN
 70
0
 62
7
  6
CONTINUOUS
370
-3
390
F
  0
LAYER
  5
200
100
AcDbSymbolTableRecord
100
AcDbLayerTableRecord
  2
01___PRT_ALL_DTM_PLN
 70
0
 62
7
  6
CONTINUOUS
370
-3
390
F
  0
LAYER
  5
201
100
AcDbSymbolTableRecord
100
AcDbLayerTableRecord
  2
01___PRT_DEF_DTM_PLN
 70
0
 62
7
  6
CONTINUOUS
370
-3
390
F
  0
LAYER
  5
202
100
AcDbSymbolTableRecord
100
AcDbLayerTableRecord
  2
02_ALL_AXES
 70
0
 62
7
  6
CONTINUOUS
370
-3
390
F
  0
LAYER
  5
203
100
AcDbSymbolTableRecord
100
AcDbLayerTableRecord
  2
02__ASM_ALL_AXES
 70
0
 62
7
  6
CONTINUOUS
370
-3
390
F
  0
LAYER
  5
204
100
AcDbSymbolTableRecord
100
AcDbLayerTableRecord
  2
02___PRT_ALL_AXES
 70
0
 62
7
  6
CONTINUOUS
370
-3
390
F
  0
LAYER
  5
205
100
AcDbSymbolTableRecord
100
AcDbLayerTableRecord
  2
03_ALL_CURVES
 70
0
 62
7
  6
CONTINUOUS
370
-3
390
F
  0
LAYER
  5
206
100
AcDbSymbolTableRecord
100
AcDbLayerTableRecord
  2
03__ASM_ALL_CURVES
 70
0
 62
7
  6
CONTINUOUS
370
-3
390
F
  0
LAYER
  5
207
100
AcDbSymbolTableRecord
100
AcDbLayerTableRecord
  2
03___PRT_ALL_CURVES
 70
0
 62
7
  6
CONTINUOUS
370
-3
390
F
  0
LAYER
  5
208
100
AcDbSymbolTableRecord
100
AcDbLayerTableRecord
  2
04_ALL_DTM_PNT
 70
0
 62
7
  6
CONTINUOUS
370
-3
390
F
  0
LAYER
  5
209
100
AcDbSymbolTableRecord
100
AcDbLayerTableRecord
  2
04__ASM_ALL_DTM_PNT
 70
0
 62
7
  6
CONTINUOUS
370
-3
390
F
  0
LAYER
  5
20A
100
AcDbSymbolTableRecord
100
AcDbLayerTableRecord
  2
04___PRT_ALL_DTM_PNT
 70
0
 62
7
  6
CONTINUOUS
370
-3
390
F
  0
LAYER
  5
20B
100
AcDbSymbolTableRecord
100
AcDbLayerTableRecord
  2
05_ALL_DTM_CSYS
 70
0
 62
7
  6
CONTINUOUS
370
-3
390
F
  0
LAYER
  5
20C
100
AcDbSymbolTableRecord
100
AcDbLayerTableRecord
  2
05__ASM_ALL_DTM_CSYS
 70
0
 62
7
  6
CONTINUOUS
370
-3
390
F
  0
LAYER
  5
20D
100
AcDbSymbolTableRecord
100
AcDbLayerTableRecord
  2
05__ASM_DEF_DTM_CSYS
 70
0
 62
7
  6
CONTINUOUS
370
-3
390
F
  0
LAYER
  5
20E
100
AcDbSymbolTableRecord
100
AcDbLayerTableRecord
  2
05___PRT_ALL_DTM_CSYS
 70
0
 62
7
  6
CONTINUOUS
370
-3
390
F
  0
LAYER
  5
20F
100
AcDbSymbolTableRecord
100
AcDbLayerTableRecord
  2
05___PRT_DEF_DTM_CSYS
 70
0
 62
7
  6
CONTINUOUS
370
-3
390
F
  0
LAYER
  5
210
100
AcDbSymbolTableRecord
100
AcDbLayerTableRecord
  2
06_ALL_SURFS
 70
0
 62
7
  6
CONTINUOUS
370
-3
390
F
  0
LAYER
  5
211
100
AcDbSymbolTableRecord
100
AcDbLayerTableRecord
  2
06__ASM_ALL_SURFS
 70
0
 62
7
  6
CONTINUOUS
370
-3
390
F
  0
LAYER
  5
212
100
AcDbSymbolTableRecord
100
AcDbLayerTableRecord
  2
06___PRT_ALL_SURFS
 70
0
 62
7
  6
CONTINUOUS
370
-3
390
F
  0
LAYER
  5
213
100
AcDbSymbolTableRecord
100
AcDbLayerTableRecord
  2
07__ASM_ALL_SKELETONS
 70
0
 62
7
  6
CONTINUOUS
370
-3
390
F
  0
ENDTAB
  0
TABLE
  2
STYLE
  5
3
100
AcDbSymbolTable
 70
1
  0
STYLE
  5
11
100
AcDbSymbolTableRecord
100
AcDbTextStyleTableRecord
  2
STANDARD
 70
0
 40
0.0
 41
0.8
 50
0.0
 71
0
 42
0.2
  3
txt
  4

  0
STYLE
  5
214
100
AcDbSymbolTableRecord
100
AcDbTextStyleTableRecord
  2
TEXTSTYLE_1
 70
0
 40
0.0
 41
0.8
 50
0.0
 71
0
 42
0.2
  3
gdt
  4

  0
ENDTAB
  0
TABLE
  2
VIEW
  5
6
100
AcDbSymbolTable
 70
0
  0
ENDTAB
  0
TABLE
  2
UCS
  5
7
100
AcDbSymbolTable
 70
0
  0
ENDTAB
  0
TABLE
  2
APPID
  5
9
100
AcDbSymbolTable
 70
1
  0
APPID
  5
215
100
AcDbSymbolTableRecord
100
AcDbRegAppTableRecord
  2
ACAD
 70
0
  0
ENDTAB
  0
TABLE
  2
BLOCK_RECORD
  5
1
100
AcDbSymbolTable
 70
0
  0
BLOCK_RECORD
  5
216
100
AcDbSymbolTableRecord
100
AcDbBlockTableRecord
  2
*Model_Space
  0
BLOCK_RECORD
  5
217
100
AcDbSymbolTableRecord
100
AcDbBlockTableRecord
  2
*Paper_Space
  0
ENDTAB
  0
TABLE
  2
DIMSTYLE
  5
A
100
AcDbSymbolTable
 70
1
100
AcDbDimStyleTable
 71
0
  0
DIMSTYLE
105
218
100
AcDbSymbolTableRecord
100
AcDbDimStyleTableRecord
  2
STANDARD
 70
0
  3

  4

 40
1.0
 41
0.1875
 42
0.0625
 43
0.38
 44
0.125
 45
0.0
 46
0.0
 47
0.0001
 48
0.0001
140
0.15625
141
0.09
142
0.0
143
25.4
144
1.0
145
0.0
146
1.0
147
0.09
 71
0.0
 72
0.0
 73
1
 74
1
 75
0
 76
0
 77
0
 78
4
 79
1
170
0
171
3
172
0
173
0
174
0
175
0
176
0
177
0
178
0
270
2
179
4
271
4
272
4
273
2
274
2
275
0
280
0
281
0
282
0
283
1
284
4
285
0
286
0
287
3
288
0
340
11
278
46
  0
ENDTAB
  0
ENDSEC
  0
SECTION
  2
BLOCKS
  0
BLOCK
  5
20
100
AcDbEntity
  8
0
100
AcDbBlockBegin
  2
*Model_Space
 70
0
 10
0.0
 20
0.0
 30
0.0
  3
*Model_Space
  1

  0
ENDBLK
  5
21
100
AcDbEntity
  8
0
100
AcDbBlockEnd
  0
BLOCK
  5
1C
100
AcDbEntity
  8
0
100
AcDbBlockBegin
  2
*Paper_Space
 70
0
 10
0.0
 20
0.0
 30
0.0
  3
*Paper_Space
  1

  0
ENDBLK
  5
1D
100
AcDbEntity
  8
0
100
AcDbBlockEnd
  0
ENDSEC
  0
SECTION
  2
ENTITIES
  0
MTEXT
  5
219
100
AcDbEntity
  8
0
100
AcDbMText
 62
7
  6
CONTINUOUS
  7
STANDARD
 71
1
 72
1
 10
15.9560215477
 20
0.9479130325
 30
0.0
 11
1.0
 21
0.0
 31
0.0
 44
0.9
  1
SCALE: 1:2.000
 40
0.3
 41
3.36
  0
LINE
  5
21A
100
AcDbEntity
  8
0
100
AcDbLine
 62
7
  6
CONTINUOUS
 10
0.0
 20
0.0
 11
0.0
 21
17.0
  0
LINE
  5
21B
100
AcDbEntity
  8
0
100
AcDbLine
 62
7
  6
CONTINUOUS
 10
0.0
 20
0.0
 11
22.0
 21
0.0
  0
LINE
  5
21C
100
AcDbEntity
  8
0
100
AcDbLine
 62
7
  6
CONTINUOUS
 10
0.0
 20
17.0
 11
22.0
 21
17.0
  0
LINE
  5
21D
100
AcDbEntity
  8
0
100
AcDbLine
 62
7
  6
CONTINUOUS
 10
22.0
 20
0.0
 11
22.0
 21
17.0
  0
LINE
  5
21E
100
AcDbEntity
  8
0
100
AcDbLine
 62
7
  6
CONTINUOUS
 10
4.2406034966
 20
5.7563403692
 11
4.2406034966
 21
5.5516159597
  0
LINE
  5
21F
100
AcDbEntity
  8
0
100
AcDbLine
 62
7
  6
CONTINUOUS
 10
4.3587137329
 20
5.4991225214
 11
4.3587137329
 21
5.480749818
  0
LINE
  5
220
100
AcDbEntity
  8
0
100
AcDbLine
 62
7
  6
CONTINUOUS
 10
4.7524145203
 20
5.480749818
 11
4.7524145203
 21
5.4991225214
  0
LINE
  5
221
100
AcDbEntity
  8
0
100
AcDbLine
 62
7
  6
CONTINUOUS
 10
4.9886349927
 20
5.4991225214
 11
4.9886349927
 21
5.480749818
  0
LINE
  5
222
100
AcDbEntity
  8
0
100
AcDbLine
 62
7
  6
CONTINUOUS
 10
5.3823357801
 20
5.480749818
 11
5.3823357801
 21
5.4991225214
  0
LINE
  5
223
100
AcDbEntity
  8
0
100
AcDbLine
 62
7
  6
CONTINUOUS
 10
5.6185562525
 20
5.4991225214
 11
5.6185562525
 21
5.480749818
  0
LINE
  5
224
100
AcDbEntity
  8
0
100
AcDbLine
 62
7
  6
CONTINUOUS
 10
6.0122570399
 20
5.480749818
 11
6.0122570399
 21
5.4991225214
  0
LINE
  5
225
100
AcDbEntity
  8
0
100
AcDbLine
 62
7
  6
CONTINUOUS
 10
6.2484775124
 20
5.4991225214
 11
6.2484775124
 21
5.480749818
  0
LINE
  5
226
100
AcDbEntity
  8
0
100
AcDbLine
 62
7
  6
CONTINUOUS
 10
4.2406034966
 20
5.5516159597
 11
4.3062202945
 21
5.5516159597
  0
LINE
  5
227
100
AcDbEntity
  8
0
100
AcDbLine
 62
7
  6
CONTINUOUS
 10
4.8049079586
 20
5.5516159597
 11
4.9361415544
 21
5.5516159597
  0
LINE
  5
228
100
AcDbEntity
  8
0
100
AcDbLine
 62
7
  6
CONTINUOUS
 10
5.4348292184
 20
5.5516159597
 11
5.5660628142
 21
5.5516159597
  0
LINE
  5
229
100
AcDbEntity
  8
0
100
AcDbLine
 62
7
  6
CONTINUOUS
 10
6.0647504783
 20
5.5516159597
 11
6.1959840741
 21
5.5516159597
  0
LINE
  5
22A
100
AcDbEntity
  8
0
100
AcDbLine
 62
7
  6
CONTINUOUS
 10
6.6946717381
 20
5.5516159597
 11
6.8259053339
 21
5.5516159597
  0
LINE
  5
22B
100
AcDbEntity
  8
0
100
AcDbLine
 62
7
  6
CONTINUOUS
 10
7.324592998
 20
5.5516159597
 11
7.4558265938
 21
5.5516159597
  0
LINE
  5
22C
100
AcDbEntity
  8
0
100
AcDbLine
 62
7
  6
CONTINUOUS
 10
7.9545142578
 20
5.5516159597
 11
8.0201310557
 21
5.5516159597
  0
LINE
  5
22D
100
AcDbEntity
  8
0
100
AcDbLine
 62
7
  6
CONTINUOUS
 10
8.0201310557
 20
5.7563403692
 11
4.2406034966
 21
5.7563403692
  0
LINE
  5
22E
100
AcDbEntity
  8
0
100
AcDbLine
 62
7
  6
CONTINUOUS
 10
6.6421782998
 20
5.480749818
 11
6.6421782998
 21
5.4991225214
  0
LINE
  5
22F
100
AcDbEntity
  8
0
100
AcDbLine
 62
7
  6
CONTINUOUS
 10
6.8783987722
 20
5.4991225214
 11
6.8783987722
 21
5.480749818
  0
LINE
  5
230
100
AcDbEntity
  8
0
100
AcDbLine
 62
7
  6
CONTINUOUS
 10
7.2720995596
 20
5.480749818
 11
7.2720995596
 21
5.4991225214
  0
LINE
  5
231
100
AcDbEntity
  8
0
100
AcDbLine
 62
7
  6
CONTINUOUS
 10
7.5083200321
 20
5.4991225214
 11
7.5083200321
 21
5.480749818
  0
LINE
  5
232
100
AcDbEntity
  8
0
100
AcDbLine
 62
7
  6
CONTINUOUS
 10
7.9020208195
 20
5.480749818
 11
7.9020208195
 21
5.4991225214
  0
LINE
  5
233
100
AcDbEntity
  8
0
100
AcDbLine
 62
7
  6
CONTINUOUS
 10
8.0201310557
 20
5.5516159597
 11
8.0201310557
 21
5.7563403692
  0
LINE
  5
234
100
AcDbEntity
  8
0
100
AcDbLine
 62
7
  6
CONTINUOUS
 10
4.1811083043
 20
13.3874493562
 11
4.1811083043
 21
11.8126462066
  0
LINE
  5
235
100
AcDbEntity
  8
0
100
AcDbLine
 62
7
  6
CONTINUOUS
 10
7.9606358634
 20
11.8126462066
 11
4.1811083043
 21
11.8126462066
  0
LINE
  5
236
100
AcDbEntity
  8
0
100
AcDbLine
 62
7
  6
CONTINUOUS
 10
4.1811083043
 20
13.3874493562
 11
7.9606358634
 21
13.3874493562
  0
LINE
  5
237
100
AcDbEntity
  8
0
100
AcDbLine
 62
7
  6
CONTINUOUS
 10
7.9606358634
 20
13.3874493562
 11
7.9606358634
 21
11.8126462066
  0
LINE
  5
238
100
AcDbEntity
  8
0
100
AcDbLine
 62
7
  6
CONTINUOUS
 10
14.7729536821
 20
5.224404232
 11
14.7729536821
 21
5.6968451769
  0
LINE
  5
239
100
AcDbEntity
  8
0
100
AcDbLine
 62
7
  6
CONTINUOUS
 10
16.3477568317
 20
5.224404232
 11
14.7729536821
 21
5.224404232
  0
LINE
  5
23A
100
AcDbEntity
  8
0
100
AcDbLine
 62
7
  6
CONTINUOUS
 10
16.3477568317
 20
5.4921207674
 11
14.7729536821
 21
5.4921207674
  0
LINE
  5
23B
100
AcDbEntity
  8
0
100
AcDbLine
 62
7
  6
CONTINUOUS
 10
16.3477568317
 20
5.6968451769
 11
14.7729536821
 21
5.6968451769
  0
LINE
  5
23C
100
AcDbEntity
  8
0
100
AcDbLine
 62
7
  6
CONTINUOUS
 10
16.3477568317
 20
5.224404232
 11
16.3477568317
 21
5.6968451769
  0
LINE
  5
23D
100
AcDbEntity
  8
0
100
AcDbLine
 62
7
  6
CONTINUOUS
 10
13.508696601
 20
12.0408491511
 11
13.571146117
 21
11.9135904174
  0
LINE
  5
23E
100
AcDbEntity
  8
0
100
AcDbLine
 62
7
  6
CONTINUOUS
 10
13.695945545
 20
11.8809599729
 11
13.7015499887
 21
11.8695393173
  0
LINE
  5
23F
100
AcDbEntity
  8
0
100
AcDbLine
 62
7
  6
CONTINUOUS
 10
13.8899034095
 20
13.2744348355
 11
13.508696601
 21
12.0408491511
  0
LINE
  5
240
100
AcDbEntity
  8
0
100
AcDbLine
 62
7
  6
CONTINUOUS
 10
14.0641724273
 20
11.8695393173
 11
14.0585679836
 21
11.8809599729
  0
LINE
  5
241
100
AcDbEntity
  8
0
100
AcDbLine
 62
7
  6
CONTINUOUS
 10
14.2761414467
 20
11.8809599729
 11
14.2817458905
 21
11.8695393173
  0
LINE
  5
242
100
AcDbEntity
  8
0
100
AcDbLine
 62
7
  6
CONTINUOUS
 10
14.1025092997
 20
11.9135904174
 11
14.0709361774
 21
11.811419756
  0
LINE
  5
243
100
AcDbEntity
  8
0
100
AcDbLine
 62
7
  6
CONTINUOUS
 10
14.6443683291
 20
11.8695393173
 11
14.6387638853
 21
11.8809599729
  0
LINE
  5
244
100
AcDbEntity
  8
0
100
AcDbLine
 62
7
  6
CONTINUOUS
 10
14.8563373485
 20
11.8809599729
 11
14.8619417922
 21
11.8695393173
  0
LINE
  5
245
100
AcDbEntity
  8
0
100
AcDbLine
 62
7
  6
CONTINUOUS
 10
14.6827052015
 20
11.9135904174
 11
14.6511320791
 21
11.811419756
  0
LINE
  5
246
100
AcDbEntity
  8
0
100
AcDbLine
 62
7
  6
CONTINUOUS
 10
13.571146117
 20
11.9135904174
 11
13.6315831901
 21
11.9135904174
  0
LINE
  5
247
100
AcDbEntity
  8
0
100
AcDbLine
 62
7
  6
CONTINUOUS
 10
14.0909049457
 20
11.9135904174
 11
14.2117790918
 21
11.9135904174
  0
LINE
  5
248
100
AcDbEntity
  8
0
100
AcDbLine
 62
7
  6
CONTINUOUS
 10
14.6711008474
 20
11.9135904174
 11
14.7919749936
 21
11.9135904174
  0
LINE
  5
249
100
AcDbEntity
  8
0
100
AcDbLine
 62
7
  6
CONTINUOUS
 10
15.2512967491
 20
11.9135904174
 11
15.3721708953
 21
11.9135904174
  0
LINE
  5
24A
100
AcDbEntity
  8
0
100
AcDbLine
 62
7
  6
CONTINUOUS
 10
15.8314926509
 20
11.9135904174
 11
15.9523667971
 21
11.9135904174
  0
LINE
  5
24B
100
AcDbEntity
  8
0
100
AcDbLine
 62
7
  6
CONTINUOUS
 10
16.4116885526
 20
11.9135904174
 11
16.5325626988
 21
11.9135904174
  0
LINE
  5
24C
100
AcDbEntity
  8
0
100
AcDbLine
 62
7
  6
CONTINUOUS
 10
16.9918844543
 20
11.9135904174
 11
17.0523215274
 21
11.9135904174
  0
LINE
  5
24D
100
AcDbEntity
  8
0
100
AcDbLine
 62
7
  6
CONTINUOUS
 10
16.9898720114
 20
12.0408491511
 11
13.508696601
 21
12.0408491511
  0
LINE
  5
24E
100
AcDbEntity
  8
0
100
AcDbLine
 62
7
  6
CONTINUOUS
 10
15.2245642308
 20
11.8695393173
 11
15.2189597871
 21
11.8809599729
  0
LINE
  5
24F
100
AcDbEntity
  8
0
100
AcDbLine
 62
7
  6
CONTINUOUS
 10
15.4365332502
 20
11.8809599729
 11
15.4421376939
 21
11.8695393173
  0
LINE
  5
250
100
AcDbEntity
  8
0
100
AcDbLine
 62
7
  6
CONTINUOUS
 10
15.2629011032
 20
11.9135904174
 11
15.2313279808
 21
11.811419756
  0
LINE
  5
251
100
AcDbEntity
  8
0
100
AcDbLine
 62
7
  6
CONTINUOUS
 10
15.8047601325
 20
11.8695393173
 11
15.7991556888
 21
11.8809599729
  0
LINE
  5
252
100
AcDbEntity
  8
0
100
AcDbLine
 62
7
  6
CONTINUOUS
 10
16.0167291519
 20
11.8809599729
 11
16.0223335957
 21
11.8695393173
  0
LINE
  5
253
100
AcDbEntity
  8
0
100
AcDbLine
 62
7
  6
CONTINUOUS
 10
15.843097005
 20
11.9135904174
 11
15.8115238826
 21
11.811419756
  0
LINE
  5
254
100
AcDbEntity
  8
0
100
AcDbLine
 62
7
  6
CONTINUOUS
 10
16.3849560343
 20
11.8695393173
 11
16.3793515905
 21
11.8809599729
  0
LINE
  5
255
100
AcDbEntity
  8
0
100
AcDbLine
 62
7
  6
CONTINUOUS
 10
13.8899034095
 20
13.2744348355
 11
17.3710788199
 21
13.2744348355
  0
LINE
  5
256
100
AcDbEntity
  8
0
100
AcDbLine
 62
7
  6
CONTINUOUS
 10
16.5969250537
 20
11.8809599729
 11
16.6025294974
 21
11.8695393173
  0
LINE
  5
257
100
AcDbEntity
  8
0
100
AcDbLine
 62
7
  6
CONTINUOUS
 10
16.4232929067
 20
11.9135904174
 11
16.3917197843
 21
11.811419756
  0
LINE
  5
258
100
AcDbEntity
  8
0
100
AcDbLine
 62
7
  6
CONTINUOUS
 10
16.965151936
 20
11.8695393173
 11
16.9595474923
 21
11.8809599729
  0
LINE
  5
259
100
AcDbEntity
  8
0
100
AcDbLine
 62
7
  6
CONTINUOUS
 10
17.0523215274
 20
11.9135904174
 11
16.9898720114
 21
12.0408491511
  0
LINE
  5
25A
100
AcDbEntity
  8
0
100
AcDbLine
 62
7
  6
CONTINUOUS
 10
17.3710788199
 20
13.2744348355
 11
16.9898720114
 21
12.0408491511
  0
LINE
  5
25B
100
AcDbEntity
  8
0
100
AcDbLine
 62
7
  6
CONTINUOUS
 10
17.0034888084
 20
11.9135904174
 11
16.9719156861
 21
11.811419756
  0
LINE
  5
25C
100
AcDbEntity
  8
0
100
AcDbLine
 62
7
  6
CONTINUOUS
 10
17.4335283359
 20
13.1471761019
 11
17.0523215274
 21
11.9135904174
  0
LINE
  5
25D
100
AcDbEntity
  8
0
100
AcDbLine
 62
7
  6
CONTINUOUS
 10
17.4335283359
 20
13.1471761019
 11
17.3710788199
 21
13.2744348355
  0
ARC
  5
25E
100
AcDbEntity
  8
0
100
AcDbCircle
 62
7
  6
CONTINUOUS
 10
4.5555641266
 20
5.480749818
 40
0.1968503937
100
AcDbArc
 50
180.0
 51
360.0
  0
ARC
  5
25F
100
AcDbEntity
  8
0
100
AcDbCircle
 62
7
  6
CONTINUOUS
 10
5.1854853864
 20
5.480749818
 40
0.1968503937
100
AcDbArc
 50
180.0
 51
360.0
  0
ARC
  5
260
100
AcDbEntity
  8
0
100
AcDbCircle
 62
7
  6
CONTINUOUS
 10
7.7051704258
 20
5.480749818
 40
0.1968503937
100
AcDbArc
 50
180.0
 51
360.0
  0
ARC
  5
261
100
AcDbEntity
  8
0
100
AcDbCircle
 62
7
  6
CONTINUOUS
 10
7.0752491659
 20
5.480749818
 40
0.1968503937
100
AcDbArc
 50
180.0
 51
360.0
  0
ARC
  5
262
100
AcDbEntity
  8
0
100
AcDbCircle
 62
7
  6
CONTINUOUS
 10
6.4453279061
 20
5.480749818
 40
0.1968503937
100
AcDbArc
 50
180.0
 51
360.0
  0
ARC
  5
263
100
AcDbEntity
  8
0
100
AcDbCircle
 62
7
  6
CONTINUOUS
 10
5.8154066462
 20
5.480749818
 40
0.1968503937
100
AcDbArc
 50
180.0
 51
360.0
  0
ARC
  5
264
100
AcDbEntity
  8
0
100
AcDbCircle
 62
7
  6
CONTINUOUS
 10
4.3062202945
 20
5.4991225214
 40
0.0524934383
100
AcDbArc
 50
0.0
 51
90.0
  0
ARC
  5
265
100
AcDbEntity
  8
0
100
AcDbCircle
 62
7
  6
CONTINUOUS
 10
4.8049079586
 20
5.4991225214
 40
0.0524934383
100
AcDbArc
 50
90.0
 51
180.0
  0
ARC
  5
266
100
AcDbEntity
  8
0
100
AcDbCircle
 62
7
  6
CONTINUOUS
 10
4.9361415544
 20
5.4991225214
 40
0.0524934383
100
AcDbArc
 50
0.0
 51
90.0
  0
ARC
  5
267
100
AcDbEntity
  8
0
100
AcDbCircle
 62
7
  6
CONTINUOUS
 10
5.4348292184
 20
5.4991225214
 40
0.0524934383
100
AcDbArc
 50
90.0
 51
180.0
  0
ARC
  5
268
100
AcDbEntity
  8
0
100
AcDbCircle
 62
7
  6
CONTINUOUS
 10
5.5660628142
 20
5.4991225214
 40
0.0524934383
100
AcDbArc
 50
0.0
 51
90.0
  0
ARC
  5
269
100
AcDbEntity
  8
0
100
AcDbCircle
 62
7
  6
CONTINUOUS
 10
6.0647504783
 20
5.4991225214
 40
0.0524934383
100
AcDbArc
 50
90.0
 51
180.0
  0
ARC
  5
26A
100
AcDbEntity
  8
0
100
AcDbCircle
 62
7
  6
CONTINUOUS
 10
6.1959840741
 20
5.4991225214
 40
0.0524934383
100
AcDbArc
 50
0.0
 51
90.0
  0
ARC
  5
26B
100
AcDbEntity
  8
0
100
AcDbCircle
 62
7
  6
CONTINUOUS
 10
6.6946717381
 20
5.4991225214
 40
0.0524934383
100
AcDbArc
 50
90.0
 51
180.0
  0
ARC
  5
26C
100
AcDbEntity
  8
0
100
AcDbCircle
 62
7
  6
CONTINUOUS
 10
6.8259053339
 20
5.4991225214
 40
0.0524934383
100
AcDbArc
 50
0.0
 51
90.0
  0
ARC
  5
26D
100
AcDbEntity
  8
0
100
AcDbCircle
 62
7
  6
CONTINUOUS
 10
7.324592998
 20
5.4991225214
 40
0.0524934383
100
AcDbArc
 50
90.0
 51
180.0
  0
ARC
  5
26E
100
AcDbEntity
  8
0
100
AcDbCircle
 62
7
  6
CONTINUOUS
 10
7.4558265938
 20
5.4991225214
 40
0.0524934383
100
AcDbArc
 50
0.0
 51
90.0
  0
ARC
  5
26F
100
AcDbEntity
  8
0
100
AcDbCircle
 62
7
  6
CONTINUOUS
 10
7.9545142578
 20
5.4991225214
 40
0.0524934383
100
AcDbArc
 50
90.0
 51
180.0
  0
SPLINE
  5
270
100
AcDbEntity
  8
0
100
AcDbSpline
 62
7
  6
CONTINUOUS
 70
0
 71
3
 72
11
 73
7
 74
0
 42
0.0000001
 43
0.0000001
 44
0.0000000001
 40
0.0
 40
0.0
 40
0.0
 40
0.0
 40
0.2022279785
 40
0.430066414
 40
0.6962044308
 40
1.0
 40
1.0
 40
1.0
 40
1.0
 10
14.0567643051
 20
11.8964585357
 30
0.0
 10
14.0575717929
 20
11.8990721092
 30
0.0
 10
14.0607285667
 20
11.9042409708
 30
0.0
 10
14.0686570218
 20
11.9096692043
 30
0.0
 10
14.0790560275
 20
11.9129390418
 30
0.0
 10
14.0867956031
 20
11.9135904174
 30
0.0
 10
14.0909049457
 20
11.9135904174
 30
0.0
  0
SPLINE
  5
271
100
AcDbEntity
  8
0
100
AcDbSpline
 62
7
  6
CONTINUOUS
 70
0
 71
3
 72
11
 73
7
 74
0
 42
0.0000001
 43
0.0000001
 44
0.0000000001
 40
0.0
 40
0.0
 40
0.0
 40
0.0
 40
0.2022279785
 40
0.430066414
 40
0.6962044308
 40
1.0
 40
1.0
 40
1.0
 40
1.0
 10
14.6369602069
 20
11.8964585357
 30
0.0
 10
14.6377676947
 20
11.8990721092
 30
0.0
 10
14.6409244684
 20
11.9042409708
 30
0.0
 10
14.6488529235
 20
11.9096692043
 30
0.0
 10
14.6592519292
 20
11.9129390418
 30
0.0
 10
14.6669915049
 20
11.9135904174
 30
0.0
 10
14.6711008474
 20
11.9135904174
 30
0.0
  0
SPLINE
  5
272
100
AcDbEntity
  8
0
100
AcDbSpline
 62
7
  6
CONTINUOUS
 70
0
 71
3
 72
11
 73
7
 74
0
 42
0.0000001
 43
0.0000001
 44
0.0000000001
 40
0.0
 40
0.0
 40
0.0
 40
0.0
 40
0.2022279785
 40
0.430066414
 40
0.6962044308
 40
1.0
 40
1.0
 40
1.0
 40
1.0
 10
15.2171561086
 20
11.8964585357
 30
0.0
 10
15.2179635964
 20
11.8990721092
 30
0.0
 10
15.2211203701
 20
11.9042409708
 30
0.0
 10
15.2290488252
 20
11.9096692043
 30
0.0
 10
15.239447831
 20
11.9129390418
 30
0.0
 10
15.2471874066
 20
11.9135904174
 30
0.0
 10
15.2512967491
 20
11.9135904174
 30
0.0
  0
SPLINE
  5
273
100
AcDbEntity
  8
0
100
AcDbSpline
 62
7
  6
CONTINUOUS
 70
0
 71
3
 72
11
 73
7
 74
0
 42
0.0000001
 43
0.0000001
 44
0.0000000001
 40
0.0
 40
0.0
 40
0.0
 40
0.0
 40
0.2022279785
 40
0.430066414
 40
0.6962044308
 40
1.0
 40
1.0
 40
1.0
 40
1.0
 10
15.7973520103
 20
11.8964585357
 30
0.0
 10
15.7981594981
 20
11.8990721092
 30
0.0
 10
15.8013162719
 20
11.9042409708
 30
0.0
 10
15.809244727
 20
11.9096692043
 30
0.0
 10
15.8196437327
 20
11.9129390418
 30
0.0
 10
15.8273833083
 20
11.9135904174
 30
0.0
 10
15.8314926509
 20
11.9135904174
 30
0.0
  0
SPLINE
  5
274
100
AcDbEntity
  8
0
100
AcDbSpline
 62
7
  6
CONTINUOUS
 70
0
 71
3
 72
11
 73
7
 74
0
 42
0.0000001
 43
0.0000001
 44
0.0000000001
 40
0.0
 40
0.0
 40
0.0
 40
0.0
 40
0.2022279785
 40
0.430066414
 40
0.6962044308
 40
1.0
 40
1.0
 40
1.0
 40
1.0
 10
16.3775479121
 20
11.8964585357
 30
0.0
 10
16.3783553999
 20
11.8990721092
 30
0.0
 10
16.3815121736
 20
11.9042409708
 30
0.0
 10
16.3894406287
 20
11.9096692043
 30
0.0
 10
16.3998396345
 20
11.9129390418
 30
0.0
 10
16.4075792101
 20
11.9135904174
 30
0.0
 10
16.4116885526
 20
11.9135904174
 30
0.0
  0
SPLINE
  5
275
100
AcDbEntity
  8
0
100
AcDbSpline
 62
7
  6
CONTINUOUS
 70
0
 71
3
 72
11
 73
7
 74
0
 42
0.0000001
 43
0.0000001
 44
0.0000000001
 40
0.0
 40
0.0
 40
0.0
 40
0.0
 40
0.2022279785
 40
0.430066414
 40
0.6962044308
 40
1.0
 40
1.0
 40
1.0
 40
1.0
 10
16.9577438138
 20
11.8964585357
 30
0.0
 10
16.9585513016
 20
11.8990721092
 30
0.0
 10
16.9617080753
 20
11.9042409708
 30
0.0
 10
16.9696365304
 20
11.9096692043
 30
0.0
 10
16.9800355362
 20
11.9129390418
 30
0.0
 10
16.9877751118
 20
11.9135904174
 30
0.0
 10
16.9918844543
 20
11.9135904174
 30
0.0
  0
SPLINE
  5
276
100
AcDbEntity
  8
0
100
AcDbSpline
 62
7
  6
CONTINUOUS
 70
0
 71
3
 72
21
 73
17
 74
0
 42
0.0000001
 43
0.0000001
 44
0.0000000001
 40
0.0
 40
0.0
 40
0.0
 40
0.0
 40
0.0543735795
 40
0.1140101516
 40
0.1786178538
 40
0.2474788896
 40
0.3935211486
 40
0.5422962535
 40
0.6144167033
 40
0.6833078875
 40
0.747952252
 40
0.8076310572
 40
0.8620456295
 40
0.9114641588
 40
0.9568685624
 40
1.0
 40
1.0
 40
1.0
 40
1.0
 10
16.6025294974
 20
11.8695393173
 30
0.0
 10
16.606000887
 20
11.8624653692
 30
0.0
 10
16.6148173844
 20
11.8483659717
 30
0.0
 10
16.6319484912
 20
11.8288485622
 30
0.0
 10
16.6531347929
 20
11.8104470618
 30
0.0
 10
16.6866843279
 20
11.7876159623
 30
0.0
 10
16.7347281312
 20
11.765074617
 30
0.0
 10
16.7865117889
 20
11.751605306
 30
0.0
 10
16.8283261789
 20
11.7470745252
 30
0.0
 10
16.8581919989
 20
11.7469978962
 30
0.0
 10
16.8860809969
 20
11.7502094589
 30
0.0
 10
16.9112689121
 20
11.7566398551
 30
0.0
 10
16.9331047145
 20
11.7661540453
 30
0.0
 10
16.9510112679
 20
11.7785840232
 30
0.0
 10
16.9644292581
 20
11.7936911363
 30
0.0
 10
16.9700699189
 20
11.8054478989
 30
0.0
 10
16.9719156389
 20
11.8114197706
 30
0.0
  0
SPLINE
  5
277
100
AcDbEntity
  8
0
100
AcDbSpline
 62
7
  6
CONTINUOUS
 70
0
 71
3
 72
21
 73
17
 74
0
 42
0.0000001
 43
0.0000001
 44
0.0000000001
 40
0.0
 40
0.0
 40
0.0
 40
0.0
 40
0.0543704051
 40
0.1140121083
 40
0.1786174485
 40
0.2474792546
 40
0.3935209353
 40
0.5422960271
 40
0.6144166925
 40
0.6833080632
 40
0.7479524364
 40
0.8076310908
 40
0.8620454546
 40
0.9114638272
 40
0.9568679987
 40
1.0
 40
1.0
 40
1.0
 40
1.0
 10
16.0223335957
 20
11.8695393173
 30
0.0
 10
16.0258047793
 20
11.8624657888
 30
0.0
 10
16.0346218696
 20
11.8483664964
 30
0.0
 10
16.0517520492
 20
11.828848366
 30
0.0
 10
16.0729395354
 20
11.8104474327
 30
0.0
 10
16.1064882949
 20
11.7876159316
 30
0.0
 10
16.1545323224
 20
11.7650749246
 30
0.0
 10
16.2063157259
 20
11.751605289
 30
0.0
 10
16.2481301276
 20
11.7470743463
 30
0.0
 10
16.2779959814
 20
11.7469976826
 30
0.0
 10
16.305884955
 20
11.7502093229
 30
0.0
 10
16.331072763
 20
11.7566398487
 30
0.0
 10
16.3529084271
 20
11.7661540743
 30
0.0
 10
16.3708148552
 20
11.7785841404
 30
0.0
 10
16.3842326807
 20
11.7936911461
 30
0.0
 10
16.3898742494
 20
11.8054477469
 30
0.0
 10
16.3917191608
 20
11.8114199479
 30
0.0
  0
SPLINE
  5
278
100
AcDbEntity
  8
0
100
AcDbSpline
 62
7
  6
CONTINUOUS
 70
0
 71
3
 72
21
 73
17
 74
0
 42
0.0000001
 43
0.0000001
 44
0.0000000001
 40
0.0
 40
0.0
 40
0.0
 40
0.0
 40
0.0543681926
 40
0.1140134872
 40
0.1786170312
 40
0.2474790029
 40
0.3935205933
 40
0.5422957927
 40
0.6144159676
 40
0.683306939
 40
0.7479514197
 40
0.8076306346
 40
0.8620454607
 40
0.9114638286
 40
0.9568677918
 40
1.0
 40
1.0
 40
1.0
 40
1.0
 10
15.4421376939
 20
11.8695393173
 30
0.0
 10
15.4456087355
 20
11.8624660782
 30
0.0
 10
15.4544263134
 20
11.8483668892
 30
0.0
 10
15.4715558792
 20
11.8288483079
 30
0.0
 10
15.4927440767
 20
11.8104477349
 30
0.0
 10
15.5262921809
 20
11.7876158254
 30
0.0
 10
15.574336207
 20
11.7650745567
 30
0.0
 10
15.6261196617
 20
11.751605379
 30
0.0
 10
15.6679339763
 20
11.7470748327
 30
0.0
 10
15.697799697
 20
11.7469981744
 30
0.0
 10
15.7256887273
 20
11.750209525
 30
0.0
 10
15.7508767949
 20
11.7566396153
 30
0.0
 10
15.7727127677
 20
11.7661536283
 30
0.0
 10
15.7906190024
 20
11.7785839396
 30
0.0
 10
15.804037001
 20
11.7936909968
 30
0.0
 10
15.809677492
 20
11.805447982
 30
0.0
 10
15.8115228394
 20
11.8114200782
 30
0.0
  0
SPLINE
  5
279
100
AcDbEntity
  8
0
100
AcDbSpline
 62
7
  6
CONTINUOUS
 70
0
 71
3
 72
21
 73
17
 74
0
 42
0.0000001
 43
0.0000001
 44
0.0000000001
 40
0.0
 40
0.0
 40
0.0
 40
0.0
 40
0.0543650764
 40
0.1140151811
 40
0.1786164447
 40
0.247478452
 40
0.3935205273
 40
0.5422950384
 40
0.6144157916
 40
0.6833072611
 40
0.7479511373
 40
0.807629455
 40
0.8620442162
 40
0.9114633109
 40
0.9568676285
 40
1.0
 40
1.0
 40
1.0
 40
1.0
 10
14.8619417922
 20
11.8695393173
 30
0.0
 10
14.8654126336
 20
11.8624664861
 30
0.0
 10
14.8742309182
 20
11.8483674949
 30
0.0
 10
14.891359598
 20
11.8288482812
 30
0.0
 10
14.9125485238
 20
11.8104479537
 30
0.0
 10
14.9460957829
 20
11.7876153345
 30
0.0
 10
14.9941404415
 20
11.7650751864
 30
0.0
 10
15.0459237195
 20
11.7516058875
 30
0.0
 10
15.087737984
 20
11.7470743844
 30
0.0
 10
15.1176037975
 20
11.7469976445
 30
0.0
 10
15.1454926062
 20
11.7502096918
 30
0.0
 10
15.1706803003
 20
11.7566401986
 30
0.0
 10
15.1925162331
 20
11.7661540905
 30
0.0
 10
15.2104231445
 20
11.7785834787
 30
0.0
 10
15.2238419409
 20
11.793690552
 30
0.0
 10
15.2294806686
 20
11.8054482463
 30
0.0
 10
15.231326752
 20
11.8114201375
 30
0.0
  0
SPLINE
  5
27A
100
AcDbEntity
  8
0
100
AcDbSpline
 62
7
  6
CONTINUOUS
 70
0
 71
3
 72
21
 73
17
 74
0
 42
0.0000001
 43
0.0000001
 44
0.0000000001
 40
0.0
 40
0.0
 40
0.0
 40
0.0
 40
0.0543607555
 40
0.1140170833
 40
0.1786160276
 40
0.2474781386
 40
0.3935203394
 40
0.5422956356
 40
0.6144155689
 40
0.6833062668
 40
0.7479514499
 40
0.8076304655
 40
0.8620440569
 40
0.9114624135
 40
0.9568676168
 40
1.0
 40
1.0
 40
1.0
 40
1.0
 10
14.2817458905
 20
11.8695393173
 30
0.0
 10
14.2852164533
 20
11.8624670539
 30
0.0
 10
14.2940357292
 20
11.8483684185
 30
0.0
 10
14.3111631731
 20
11.8288483047
 30
0.0
 10
14.332352707
 20
11.8104477203
 30
0.0
 10
14.3658997177
 20
11.787615322
 30
0.0
 10
14.413944831
 20
11.7650762177
 30
0.0
 10
14.4657276065
 20
11.7516047473
 30
0.0
 10
14.5075419914
 20
11.7470752022
 30
0.0
 10
14.5374076467
 20
11.7469985831
 30
0.0
 10
14.5652967762
 20
11.7502091214
 30
0.0
 10
14.5904847202
 20
11.7566394711
 30
0.0
 10
14.6123199262
 20
11.7661546893
 30
0.0
 10
14.6302262999
 20
11.7785841289
 30
0.0
 10
14.6436464973
 20
11.7936902282
 30
0.0
 10
14.649284339
 20
11.8054483824
 30
0.0
 10
14.6511311278
 20
11.8114200521
 30
0.0
  0
SPLINE
  5
27B
100
AcDbEntity
  8
0
100
AcDbSpline
 62
7
  6
CONTINUOUS
 70
0
 71
3
 72
21
 73
17
 74
0
 42
0.0000001
 43
0.0000001
 44
0.0000000001
 40
0.0
 40
0.0
 40
0.0
 40
0.0
 40
0.0543607555
 40
0.1140170833
 40
0.1786160276
 40
0.2474781386
 40
0.3935203394
 40
0.5422956356
 40
0.6144155689
 40
0.6833062668
 40
0.7479514499
 40
0.8076304655
 40
0.8620440569
 40
0.9114624135
 40
0.9568676168
 40
1.0
 40
1.0
 40
1.0
 40
1.0
 10
13.7015499887
 20
11.8695393173
 30
0.0
 10
13.7050205515
 20
11.8624670539
 30
0.0
 10
13.7138398274
 20
11.8483684185
 30
0.0
 10
13.7309672713
 20
11.8288483047
 30
0.0
 10
13.7521568052
 20
11.8104477203
 30
0.0
 10
13.7857038159
 20
11.787615322
 30
0.0
 10
13.8337489293
 20
11.7650762177
 30
0.0
 10
13.8855317047
 20
11.7516047473
 30
0.0
 10
13.9273460897
 20
11.7470752022
 30
0.0
 10
13.9572117449
 20
11.7469985831
 30
0.0
 10
13.9851008745
 20
11.7502091214
 30
0.0
 10
14.0102888184
 20
11.7566394711
 30
0.0
 10
14.0321240244
 20
11.7661546893
 30
0.0
 10
14.0500303982
 20
11.7785841289
 30
0.0
 10
14.0634505956
 20
11.7936902282
 30
0.0
 10
14.0690884373
 20
11.8054483824
 30
0.0
 10
14.0709352261
 20
11.8114200521
 30
0.0
  0
SPLINE
  5
27C
100
AcDbEntity
  8
0
100
AcDbSpline
 62
7
  6
CONTINUOUS
 70
0
 71
3
 72
11
 73
7
 74
0
 42
0.0000001
 43
0.0000001
 44
0.0000000001
 40
0.0
 40
0.0
 40
0.0
 40
0.0
 40
0.2647184078
 40
0.5366515969
 40
0.7885345005
 40
1.0
 40
1.0
 40
1.0
 40
1.0
 10
13.6315831901
 20
11.9135904174
 30
0.0
 10
13.6382092967
 20
11.9135904174
 30
0.0
 10
13.651669331
 20
11.9117747076
 30
0.0
 10
13.6703436968
 20
11.9049225447
 30
0.0
 10
13.6858981397
 20
11.8948081818
 30
0.0
 10
13.6936136885
 20
11.8857117968
 30
0.0
 10
13.695945545
 20
11.8809599729
 30
0.0
  0
SPLINE
  5
27D
100
AcDbEntity
  8
0
100
AcDbSpline
 62
7
  6
CONTINUOUS
 70
0
 71
3
 72
11
 73
7
 74
0
 42
0.0000001
 43
0.0000001
 44
0.0000000001
 40
0.0
 40
0.0
 40
0.0
 40
0.0
 40
0.2647184078
 40
0.5366515969
 40
0.7885345005
 40
1.0
 40
1.0
 40
1.0
 40
1.0
 10
14.2117790918
 20
11.9135904174
 30
0.0
 10
14.2184051985
 20
11.9135904174
 30
0.0
 10
14.2318652327
 20
11.9117747076
 30
0.0
 10
14.2505395986
 20
11.9049225447
 30
0.0
 10
14.2660940415
 20
11.8948081818
 30
0.0
 10
14.2738095902
 20
11.8857117968
 30
0.0
 10
14.2761414467
 20
11.8809599729
 30
0.0
  0
SPLINE
  5
27E
100
AcDbEntity
  8
0
100
AcDbSpline
 62
7
  6
CONTINUOUS
 70
0
 71
3
 72
11
 73
7
 74
0
 42
0.0000001
 43
0.0000001
 44
0.0000000001
 40
0.0
 40
0.0
 40
0.0
 40
0.0
 40
0.2647184078
 40
0.5366515969
 40
0.7885345005
 40
1.0
 40
1.0
 40
1.0
 40
1.0
 10
14.7919749936
 20
11.9135904174
 30
0.0
 10
14.7986011002
 20
11.9135904174
 30
0.0
 10
14.8120611345
 20
11.9117747076
 30
0.0
 10
14.8307355003
 20
11.9049225447
 30
0.0
 10
14.8462899432
 20
11.8948081818
 30
0.0
 10
14.854005492
 20
11.8857117968
 30
0.0
 10
14.8563373485
 20
11.8809599729
 30
0.0
  0
SPLINE
  5
27F
100
AcDbEntity
  8
0
100
AcDbSpline
 62
7
  6
CONTINUOUS
 70
0
 71
3
 72
11
 73
7
 74
0
 42
0.0000001
 43
0.0000001
 44
0.0000000001
 40
0.0
 40
0.0
 40
0.0
 40
0.0
 40
0.2647184078
 40
0.5366515969
 40
0.7885345005
 40
1.0
 40
1.0
 40
1.0
 40
1.0
 10
15.3721708953
 20
11.9135904174
 30
0.0
 10
15.3787970019
 20
11.9135904174
 30
0.0
 10
15.3922570362
 20
11.9117747076
 30
0.0
 10
15.410931402
 20
11.9049225447
 30
0.0
 10
15.4264858449
 20
11.8948081818
 30
0.0
 10
15.4342013937
 20
11.8857117968
 30
0.0
 10
15.4365332502
 20
11.8809599729
 30
0.0
  0
SPLINE
  5
280
100
AcDbEntity
  8
0
100
AcDbSpline
 62
7
  6
CONTINUOUS
 70
0
 71
3
 72
11
 73
7
 74
0
 42
0.0000001
 43
0.0000001
 44
0.0000000001
 40
0.0
 40
0.0
 40
0.0
 40
0.0
 40
0.2647184078
 40
0.5366515969
 40
0.7885345005
 40
1.0
 40
1.0
 40
1.0
 40
1.0
 10
15.9523667971
 20
11.9135904174
 30
0.0
 10
15.9589929037
 20
11.9135904174
 30
0.0
 10
15.9724529379
 20
11.9117747076
 30
0.0
 10
15.9911273038
 20
11.9049225447
 30
0.0
 10
16.0066817467
 20
11.8948081818
 30
0.0
 10
16.0143972955
 20
11.8857117968
 30
0.0
 10
16.0167291519
 20
11.8809599729
 30
0.0
  0
SPLINE
  5
281
100
AcDbEntity
  8
0
100
AcDbSpline
 62
7
  6
CONTINUOUS
 70
0
 71
3
 72
11
 73
7
 74
0
 42
0.0000001
 43
0.0000001
 44
0.0000000001
 40
0.0
 40
0.0
 40
0.0
 40
0.0
 40
0.2647184078
 40
0.5366515969
 40
0.7885345005
 40
1.0
 40
1.0
 40
1.0
 40
1.0
 10
16.5325626988
 20
11.9135904174
 30
0.0
 10
16.5391888054
 20
11.9135904174
 30
0.0
 10
16.5526488397
 20
11.9117747076
 30
0.0
 10
16.5713232055
 20
11.9049225447
 30
0.0
 10
16.5868776484
 20
11.8948081818
 30
0.0
 10
16.5945931972
 20
11.8857117968
 30
0.0
 10
16.5969250537
 20
11.8809599729
 30
0.0
  0
SPLINE
  5
282
100
AcDbEntity
  8
0
100
AcDbSpline
 62
7
  6
CONTINUOUS
 70
0
 71
3
 72
10
 73
6
 74
0
 42
0.0000001
 43
0.0000001
 44
0.0000000001
 40
0.0
 40
0.0
 40
0.0
 40
0.0
 40
0.2341376902
 40
0.4753497772
 40
1.0
 40
1.0
 40
1.0
 40
1.0
 10
16.3917191608
 20
11.8114199479
 30
0.0
 10
16.3930956365
 20
11.8158757657
 30
0.0
 10
16.3949037874
 20
11.8252604602
 30
0.0
 10
16.3944747611
 20
11.8452880437
 30
0.0
 10
16.3895597253
 20
11.8601579812
 30
0.0
 10
16.3849560343
 20
11.8695393173
 30
0.0
  0
SPLINE
  5
283
100
AcDbEntity
  8
0
100
AcDbSpline
 62
7
  6
CONTINUOUS
 70
0
 71
3
 72
10
 73
6
 74
0
 42
0.0000001
 43
0.0000001
 44
0.0000000001
 40
0.0
 40
0.0
 40
0.0
 40
0.0
 40
0.2341451507
 40
0.4753625673
 40
1.0
 40
1.0
 40
1.0
 40
1.0
 10
16.9719156389
 20
11.8114197706
 30
0.0
 10
16.9732927776
 20
11.8158755364
 30
0.0
 10
16.9750985122
 20
11.8252610462
 30
0.0
 10
16.9746712097
 20
11.8452883299
 30
0.0
 10
16.9697555123
 20
11.8601582151
 30
0.0
 10
16.965151936
 20
11.8695393173
 30
0.0
  0
SPLINE
  5
284
100
AcDbEntity
  8
0
100
AcDbSpline
 62
7
  6
CONTINUOUS
 70
0
 71
3
 72
11
 73
7
 74
0
 42
0.0000001
 43
0.0000001
 44
0.0000000001
 40
0.0
 40
0.0
 40
0.0
 40
0.0
 40
0.2336745839
 40
0.4744432871
 40
0.7285352633
 40
1.0
 40
1.0
 40
1.0
 40
1.0
 10
15.231326752
 20
11.8114201375
 30
0.0
 10
15.2327039749
 20
11.8158753127
 30
0.0
 10
15.2345129276
 20
11.8252572348
 30
0.0
 10
15.2341953246
 20
11.8398888725
 30
0.0
 10
15.2309088718
 20
11.8549091057
 30
0.0
 10
15.2269507941
 20
11.8646760127
 30
0.0
 10
15.2245642308
 20
11.8695393173
 30
0.0
  0
SPLINE
  5
285
100
AcDbEntity
  8
0
100
AcDbSpline
 62
7
  6
CONTINUOUS
 70
0
 71
3
 72
9
 73
5
 74
0
 42
0.0000001
 43
0.0000001
 44
0.0000000001
 40
0.0
 40
0.0
 40
0.0
 40
0.0
 40
0.5259282087
 40
1.0
 40
1.0
 40
1.0
 40
1.0
 10
14.0585679836
 20
11.8809599729
 30
0.0
 10
14.0573405376
 20
11.8834612449
 30
0.0
 10
14.0556214222
 20
11.8885933989
 30
0.0
 10
14.0560229337
 20
11.8940589592
 30
0.0
 10
14.0567643051
 20
11.8964585357
 30
0.0
  0
SPLINE
  5
286
100
AcDbEntity
  8
0
100
AcDbSpline
 62
7
  6
CONTINUOUS
 70
0
 71
3
 72
11
 73
7
 74
0
 42
0.0000001
 43
0.0000001
 44
0.0000000001
 40
0.0
 40
0.0
 40
0.0
 40
0.0
 40
0.2336627515
 40
0.4744485601
 40
0.7285753422
 40
1.0
 40
1.0
 40
1.0
 40
1.0
 10
14.0709352261
 20
11.8114200521
 30
0.0
 10
14.072312904
 20
11.8158748318
 30
0.0
 10
14.0741204713
 20
11.825257146
 30
0.0
 10
14.073804094
 20
11.8398895447
 30
0.0
 10
14.0705155035
 20
11.8549095927
 30
0.0
 10
14.0665586345
 20
11.8646767382
 30
0.0
 10
14.0641724273
 20
11.8695393173
 30
0.0
  0
SPLINE
  5
287
100
AcDbEntity
  8
0
100
AcDbSpline
 62
7
  6
CONTINUOUS
 70
0
 71
3
 72
9
 73
5
 74
0
 42
0.0000001
 43
0.0000001
 44
0.0000000001
 40
0.0
 40
0.0
 40
0.0
 40
0.0
 40
0.5259282087
 40
1.0
 40
1.0
 40
1.0
 40
1.0
 10
14.6387638853
 20
11.8809599729
 30
0.0
 10
14.6375364393
 20
11.8834612449
 30
0.0
 10
14.6358173239
 20
11.8885933989
 30
0.0
 10
14.6362188354
 20
11.8940589592
 30
0.0
 10
14.6369602069
 20
11.8964585357
 30
0.0
  0
SPLINE
  5
288
100
AcDbEntity
  8
0
100
AcDbSpline
 62
7
  6
CONTINUOUS
 70
0
 71
3
 72
9
 73
5
 74
0
 42
0.0000001
 43
0.0000001
 44
0.0000000001
 40
0.0
 40
0.0
 40
0.0
 40
0.0
 40
0.5259282087
 40
1.0
 40
1.0
 40
1.0
 40
1.0
 10
15.2189597871
 20
11.8809599729
 30
0.0
 10
15.217732341
 20
11.8834612449
 30
0.0
 10
15.2160132256
 20
11.8885933989
 30
0.0
 10
15.2164147372
 20
11.8940589592
 30
0.0
 10
15.2171561086
 20
11.8964585357
 30
0.0
  0
SPLINE
  5
289
100
AcDbEntity
  8
0
100
AcDbSpline
 62
7
  6
CONTINUOUS
 70
0
 71
3
 72
9
 73
5
 74
0
 42
0.0000001
 43
0.0000001
 44
0.0000000001
 40
0.0
 40
0.0
 40
0.0
 40
0.0
 40
0.5259282087
 40
1.0
 40
1.0
 40
1.0
 40
1.0
 10
15.7991556888
 20
11.8809599729
 30
0.0
 10
15.7979282428
 20
11.8834612449
 30
0.0
 10
15.7962091274
 20
11.8885933989
 30
0.0
 10
15.7966106389
 20
11.8940589592
 30
0.0
 10
15.7973520103
 20
11.8964585357
 30
0.0
  0
SPLINE
  5
28A
100
AcDbEntity
  8
0
100
AcDbSpline
 62
7
  6
CONTINUOUS
 70
0
 71
3
 72
10
 73
6
 74
0
 42
0.0000001
 43
0.0000001
 44
0.0000000001
 40
0.0
 40
0.0
 40
0.0
 40
0.0
 40
0.2341292337
 40
0.4753454604
 40
1.0
 40
1.0
 40
1.0
 40
1.0
 10
15.8115228394
 20
11.8114200782
 30
0.0
 10
15.8128995841
 20
11.815875636
 30
0.0
 10
15.8147080537
 20
11.8252602256
 30
0.0
 10
15.8142789589
 20
11.845287824
 30
0.0
 10
15.809363861
 20
11.860157905
 30
0.0
 10
15.8047601325
 20
11.8695393173
 30
0.0
  0
SPLINE
  5
28B
100
AcDbEntity
  8
0
100
AcDbSpline
 62
7
  6
CONTINUOUS
 70
0
 71
3
 72
9
 73
5
 74
0
 42
0.0000001
 43
0.0000001
 44
0.0000000001
 40
0.0
 40
0.0
 40
0.0
 40
0.0
 40
0.5259282087
 40
1.0
 40
1.0
 40
1.0
 40
1.0
 10
16.3793515905
 20
11.8809599729
 30
0.0
 10
16.3781241445
 20
11.8834612449
 30
0.0
 10
16.3764050291
 20
11.8885933989
 30
0.0
 10
16.3768065406
 20
11.8940589592
 30
0.0
 10
16.3775479121
 20
11.8964585357
 30
0.0
  0
SPLINE
  5
28C
100
AcDbEntity
  8
0
100
AcDbSpline
 62
7
  6
CONTINUOUS
 70
0
 71
3
 72
11
 73
7
 74
0
 42
0.0000001
 43
0.0000001
 44
0.0000000001
 40
0.0
 40
0.0
 40
0.0
 40
0.0
 40
0.2336627515
 40
0.4744485601
 40
0.7285753422
 40
1.0
 40
1.0
 40
1.0
 40
1.0
 10
14.6511311278
 20
11.8114200521
 30
0.0
 10
14.6525088057
 20
11.8158748318
 30
0.0
 10
14.6543163731
 20
11.825257146
 30
0.0
 10
14.6539999957
 20
11.8398895447
 30
0.0
 10
14.6507114053
 20
11.8549095927
 30
0.0
 10
14.6467545363
 20
11.8646767382
 30
0.0
 10
14.6443683291
 20
11.8695393173
 30
0.0
  0
SPLINE
  5
28D
100
AcDbEntity
  8
0
100
AcDbSpline
 62
7
  6
CONTINUOUS
 70
0
 71
3
 72
9
 73
5
 74
0
 42
0.0000001
 43
0.0000001
 44
0.0000000001
 40
0.0
 40
0.0
 40
0.0
 40
0.0
 40
0.5259282087
 40
1.0
 40
1.0
 40
1.0
 40
1.0
 10
16.9595474923
 20
11.8809599729
 30
0.0
 10
16.9583200462
 20
11.8834612449
 30
0.0
 10
16.9566009309
 20
11.8885933989
 30
0.0
 10
16.9570024424
 20
11.8940589592
 30
0.0
 10
16.9577438138
 20
11.8964585357
 30
0.0
  0
ENDSEC
  0
SECTION
  2
OBJECTS
  0
DICTIONARY
  5
C
100
AcDbDictionary
280
0
281
1
  3
ACAD_GROUP
350
D
  3
ACAD_MLINESTYLE
350
17
  3
ACAD_LAYOUT
350
1A
  3
ACAD_PLOTSETTINGS
350
19
  3
ACAD_PLOTSTYLENAME
350
E
  0
DICTIONARY
  5
D
102
{ACAD_REACTORS
330
C
102
}
100
AcDbDictionary
280
0
281
1
  0
ACDBDICTIONARYWDFLT
  5
E
102
{ACAD_REACTORS
330
C
102
}
100
AcDbDictionary
281
1
  3
Normal
350
F
100
AcDbDictionaryWithDefault
340
F
  0
DICTIONARY
  5
17
102
{ACAD_REACTORS
330
C
102
}
100
AcDbDictionary
280
0
281
1
  3
Standard
350
18
  0
DICTIONARY
  5
19
102
{ACAD_REACTORS
330
C
102
}
100
AcDbDictionary
281
1
  0
DICTIONARY
  5
1A
102
{ACAD_REACTORS
330
C
102
}
100
AcDbDictionary
281
1
  3
Model
350
28E
  3
Layout1
350
28F
  0
ACDBPLACEHOLDER
  5
F
102
{ACAD_REACTORS
330
E
102
}
  0
MLINESTYLE
  5
18
102
{ACAD_REACTORS
330
17
102
}
100
AcDbMlineStyle
  2
STANDARD
 70
0
  3

 62
256
 51
90.0
 52
90.0
 71
2
 49
0.5
 62
256
  6
BYLAYER
 49
-0.5
 62
256
  6
BYLAYER
  0
LAYOUT
  5
28E
102
{ACAD_REACTORS
330
1A
102
}
100
AcDbPlotSettings
  1

  2
none_device
  4
ANSI_C_(22.00_x_17.00_Inches)
  6

 40
0.0
 41
0.0
 42
0.0
 43
0.0
 44
558.8
 45
431.8
 46
0.0
 47
0.0
 48
0.0
 49
0.0
140
0.0
141
0.0
142
1.0
143
1.0
 70
1024
 72
0
 73
0
 74
0
  7

 75
0
147
1.0
148
0.0
149
0.0
100
AcDbLayout
  1
Model
 70
0
 71
0
 10
0.0
 20
0.0
 11
22.0
 21
17.0
 12
0.0
 22
0.0
 32
0.0
 14
0.0
 24
0.0
 34
0.0
 15
0.0
 25
0.0
 35
0.0
146
0.0
 13
0.0
 23
0.0
 33
0.0
 16
1.0
 26
0.0
 36
0.0
 17
0.0
 27
1.0
 37
0.0
 76
0
330
216
345
0
346
0
  0
LAYOUT
  5
28F
102
{ACAD_REACTORS
330
1A
102
}
100
AcDbPlotSettings
  1

  2
none_device
  4
ANSI_C_(22.00_x_17.00_Inches)
  6

 40
0.0
 41
0.0
 42
0.0
 43
0.0
 44
558.8
 45
431.8
 46
0.0
 47
0.0
 48
0.0
 49
0.0
140
0.0
141
0.0
142
1.0
143
1.0
 70
0
 72
0
 73
0
 74
0
  7

 75
0
147
1.0
148
0.0
149
0.0
100
AcDbLayout
  1
Layout1
 70
0
 71
1
 10
0.0
 20
0.0
 11
22.0
 21
17.0
 12
0.0
 22
0.0
 32
0.0
 14
0.0
 24
0.0
 34
0.0
 15
0.0
 25
0.0
 35
0.0
146
0.0
 13
0.0
 23
0.0
 33
0.0
 16
1.0
 26
0.0
 36
0.0
 17
0.0
 27
1.0
 37
0.0
 76
0
330
217
345
0
346
0
  0
ENDSEC
  0
EOF