999
DXF file: _cgs_temp_output.dxf
999
Pro/ENGINEER 2016360 by Parametric Technology Corporation
  0
SECTION
  2
HEADER
  9
$ACADVER
  1
AC1021
  9
$DWGCODEPAGE
  3
ANSI_1252
  9
$EXTMAX
 10
22.0
 20
17.0
 30
0.0
  9
$EXTMIN
 10
0.0
 20
0.0
 30
0.0
  9
$LIMMIN
 10
0.0
 20
0.0
  9
$LIMMAX
 10
22.0
 20
17.0
  9
$VIEWCTR
 10
11.0
 20
8.5
  9
$VIEWSIZE
 40
17.0
  9
$CLAYER
  8
0
  9
$LTSCALE
 40
1.21
  9
$CELTYPE
  6
BYLAYER
  9
$DIMSCALE
 40
1.0
  9
$DIMASZ
 40
0.1875
  9
$DIMEXO
 40
0.0625
  9
$DIMDLI
 40
0.836
  9
$DIMEXE
 40
0.125
  9
$DIMCEN
 40
0.198
  9
$DIMLFAC
 40
1.0
  9
$DIMBLK
  1
_CLOSED
  9
$DIMALT
 70
0
  9
$DIMALTF
 40
25.4
  9
$DIMTXT
 40
0.15625
  9
$DIMTOL
 70
0
  9
$DIMLIM
 70
0
  9
$DIMTFAC
 40
1.0
  9
$DIMGAP
 40
0.09
  9
$DIMDSEP
 70
46
  9
$AUNITS
 70
0
  9
$PDMODE
 70
3
  9
$PDSIZE
 40
0.3125
  9
$HANDSEED
  5
290
  9
$TILEMODE
 70
1
  9
$MEASUREMENT
 70
0
  9
$INSUNITS
 70
1
  0
ENDSEC
  0
SECTION
  2
CLASSES
  0
CLASS
  1
ACDBDICTIONARYWDFLT
  2
AcDbDictionaryWithDefault
  3
AutoCAD 2000
 90
0
 91
1
280
0
281
0
  0
CLASS
  1
ACDBPLACEHOLDER
  2
AcDbPlaceHolder
  3
AutoCAD 2000
 90
0
 91
1
280
0
281
0
  0
CLASS
  1
LAYOUT
  2
AcDbLayout
  3
AutoCAD 2000
 90
0
 91
0
280
0
281
0
  0
ENDSEC
  0
SECTION
  2
TABLES
  0
TABLE
  2
VPORT
  5
8
100
AcDbSymbolTable
 70
2
  0
VPORT
  5
1F4
100
AcDbSymbolTableRecord
100
AcDbViewportTableRecord
  2
*ACTIVE
 70
0
 10
0.0
 20
0.0
 11
1.0
 21
1.0
 12
11.0
 22
8.5
 13
0.0
 23
0.0
 14
1.0
 24
1.0
 15
0.0
 25
0.0
 16
0.0
 26
0.0
 36
1.0
 17
0.0
 27
0.0
 37
0.0
 40
17.0
 41
1.2941176471
 42
50.0
 43
0.0
 44
0.0
 50
0.0
 51
0.0
 71
0
 72
100
 73
1
 74
1
 75
0
 76
0
 77
0
 78
0
  0
ENDTAB
  0
TABLE
  2
LTYPE
  5
5
100
AcDbSymbolTable
 70
6
  0
LTYPE
  5
14
100
AcDbSymbolTableRecord
100
AcDbLinetypeTableRecord
  2
BYBLOCK
 70
0
  3

 72
65
 73
0
 40
0.0
  0
LTYPE
  5
15
100
AcDbSymbolTableRecord
100
AcDbLinetypeTableRecord
  2
BYLAYER
 70
0
  3

 72
65
 73
0
 40
0.0
  0
LTYPE
  5
16
100
AcDbSymbolTableRecord
100
AcDbLinetypeTableRecord
  2
CONTINUOUS
 70
64
  3
Solid line
 72
65
 73
0
 40
0.0
  0
LTYPE
  5
1F5
100
AcDbSymbolTableRecord
100
AcDbLinetypeTableRecord
  2
CENTER
 70
64
  3
____ _ ____ _ ____ _ ____ _ ____ _ ____ _ ____
 72
65
 73
4
 40
0.6
 49
0.375
 74
0
 49
-0.075
 74
0
 49
0.075
 74
0
 49
-0.075
 74
0
  0
LTYPE
  5
1F6
100
AcDbSymbolTableRecord
100
AcDbLinetypeTableRecord
  2
HIDDEN
 70
64
  3
- - - - - - - - - - - - - - - - - - - -
 72
65
 73
2
 40
0.2
 49
0.1
 74
0
 49
-0.1
 74
0
  0
LTYPE
  5
1F7
100
AcDbSymbolTableRecord
100
AcDbLinetypeTableRecord
  2
PHANTOM
 70
64
  3
_____ _ _ _____ _ _ _____ _ _ _____
 72
65
 73
6
 40
0.8
 49
0.45
 74
0
 49
-0.05
 74
0
 49
0.1
 74
0
 49
-0.05
 74
0
 49
0.1
 74
0
 49
-0.05
 74
0
  0
LTYPE
  5
1F8
100
AcDbSymbolTableRecord
100
AcDbLinetypeTableRecord
  2
DOT
 70
64
  3
. . . . . . . . . . . . . . . . . . . .
 72
65
 73
2
 40
0.2
 49
0.1
 74
0
 49
-0.1
 74
0
  0
LTYPE
  5
1F9
100
AcDbSymbolTableRecord
100
AcDbLinetypeTableRecord
  2
DASHED
 70
64
  3
- - - - - - - - - - - - - - - - - - - -
 72
65
 73
2
 40
0.2
 49
0.1
 74
0
 49
-0.1
 74
0
  0
ENDTAB
  0
TABLE
  2
LAYER
  5
2
100
AcDbSymbolTable
 70
36
  0
LAYER
  5
10
100
AcDbSymbolTableRecord
100
AcDbLayerTableRecord
  2
0
 70
0
 62
7
  6
CONTINUOUS
370
-3
390
F
  0
LAYER
  5
1FA
100
AcDbSymbolTableRecord
100
AcDbLayerTableRecord
  2
DEFAULT_1
 70
0
 62
7
  6
CENTER
370
-3
390
F
  0
LAYER
  5
1FB
100
AcDbSymbolTableRecord
100
AcDbLayerTableRecord
  2
DEFAULT_2
 70
0
 62
8
  6
HIDDEN
370
-3
390
F
  0
LAYER
  5
1FC
100
AcDbSymbolTableRecord
100
AcDbLayerTableRecord
  2
DEFAULT_3
 70
0
 62
7
  6
PHANTOM
370
-3
390
F
  0
LAYER
  5
1FD
100
AcDbSymbolTableRecord
100
AcDbLayerTableRecord
  2
01_ALL_DTM_PLN
 70
0
 62
7
  6
CONTINUOUS
370
-3
390
F
  0
LAYER
  5
1FE
100
AcDbSymbolTableRecord
100
AcDbLayerTableRecord
  2
01__ASM_ALL_DTM_PLN
 70
0
 62
7
  6
CONTINUOUS
370
-3
390
F
  0
LAYER
  5
1FF
100
AcDbSymbolTableRecord
100
AcDbLayerTableRecord
  2
01__ASM_DEF_DTM_PLN
 70
0
 62
7
  6
CONTINUOUS
370
-3
390
F
  0
LAYER
  5
200
100
AcDbSymbolTableRecord
100
AcDbLayerTableRecord
  2
01___PRT_ALL_DTM_PLN
 70
0
 62
7
  6
CONTINUOUS
370
-3
390
F
  0
LAYER
  5
201
100
AcDbSymbolTableRecord
100
AcDbLayerTableRecord
  2
01___PRT_DEF_DTM_PLN
 70
0
 62
7
  6
CONTINUOUS
370
-3
390
F
  0
LAYER
  5
202
100
AcDbSymbolTableRecord
100
AcDbLayerTableRecord
  2
02_ALL_AXES
 70
0
 62
7
  6
CONTINUOUS
370
-3
390
F
  0
LAYER
  5
203
100
AcDbSymbolTableRecord
100
AcDbLayerTableRecord
  2
02__ASM_ALL_AXES
 70
0
 62
7
  6
CONTINUOUS
370
-3
390
F
  0
LAYER
  5
204
100
AcDbSymbolTableRecord
100
AcDbLayerTableRecord
  2
02___PRT_ALL_AXES
 70
0
 62
7
  6
CONTINUOUS
370
-3
390
F
  0
LAYER
  5
205
100
AcDbSymbolTableRecord
100
AcDbLayerTableRecord
  2
03_ALL_CURVES
 70
0
 62
7
  6
CONTINUOUS
370
-3
390
F
  0
LAYER
  5
206
100
AcDbSymbolTableRecord
100
AcDbLayerTableRecord
  2
03__ASM_ALL_CURVES
 70
0
 62
7
  6
CONTINUOUS
370
-3
390
F
  0
LAYER
  5
207
100
AcDbSymbolTableRecord
100
AcDbLayerTableRecord
  2
03___PRT_ALL_CURVES
 70
0
 62
7
  6
CONTINUOUS
370
-3
390
F
  0
LAYER
  5
208
100
AcDbSymbolTableRecord
100
AcDbLayerTableRecord
  2
04_ALL_DTM_PNT
 70
0
 62
7
  6
CONTINUOUS
370
-3
390
F
  0
LAYER
  5
209
100
AcDbSymbolTableRecord
100
AcDbLayerTableRecord
  2
04__ASM_ALL_DTM_PNT
 70
0
 62
7
  6
CONTINUOUS
370
-3
390
F
  0
LAYER
  5
20A
100
AcDbSymbolTableRecord
100
AcDbLayerTableRecord
  2
04___PRT_ALL_DTM_PNT
 70
0
 62
7
  6
CONTINUOUS
370
-3
390
F
  0
LAYER
  5
20B
100
AcDbSymbolTableRecord
100
AcDbLayerTableRecord
  2
05_ALL_DTM_CSYS
 70
0
 62
7
  6
CONTINUOUS
370
-3
390
F
  0
LAYER
  5
20C
100
AcDbSymbolTableRecord
100
AcDbLayerTableRecord
  2
05__ASM_ALL_DTM_CSYS
 70
0
 62
7
  6
CONTINUOUS
370
-3
390
F
  0
LAYER
  5
20D
100
AcDbSymbolTableRecord
100
AcDbLayerTableRecord
  2
05__ASM_DEF_DTM_CSYS
 70
0
 62
7
  6
CONTINUOUS
370
-3
390
F
  0
LAYER
  5
20E
100
AcDbSymbolTableRecord
100
AcDbLayerTableRecord
  2
05___PRT_ALL_DTM_CSYS
 70
0
 62
7
  6
CONTINUOUS
370
-3
390
F
  0
LAYER
  5
20F
100
AcDbSymbolTableRecord
100
AcDbLayerTableRecord
  2
05___PRT_DEF_DTM_CSYS
 70
0
 62
7
  6
CONTINUOUS
370
-3
390
F
  0
LAYER
  5
210
100
AcDbSymbolTableRecord
100
AcDbLayerTableRecord
  2
06_ALL_SURFS
 70
0
 62
7
  6
CONTINUOUS
370
-3
390
F
  0
LAYER
  5
211
100
AcDbSymbolTableRecord
100
AcDbLayerTableRecord
  2
06__ASM_ALL_SURFS
 70
0
 62
7
  6
CONTINUOUS
370
-3
390
F
  0
LAYER
  5
212
100
AcDbSymbolTableRecord
100
AcDbLayerTableRecord
  2
06___PRT_ALL_SURFS
 70
0
 62
7
  6
CONTINUOUS
370
-3
390
F
  0
LAYER
  5
213
100
AcDbSymbolTableRecord
100
AcDbLayerTableRecord
  2
07__ASM_ALL_SKELETONS
 70
0
 62
7
  6
CONTINUOUS
370
-3
390
F
  0
ENDTAB
  0
TABLE
  2
STYLE
  5
3
100
AcDbSymbolTable
 70
1
  0
STYLE
  5
11
100
AcDbSymbolTableRecord
100
AcDbTextStyleTableRecord
  2
STANDARD
 70
0
 40
0.0
 41
0.8
 50
0.0
 71
0
 42
0.2
  3
txt
  4

  0
STYLE
  5
214
100
AcDbSymbolTableRecord
100
AcDbTextStyleTableRecord
  2
TEXTSTYLE_1
 70
0
 40
0.0
 41
0.8
 50
0.0
 71
0
 42
0.2
  3
gdt
  4

  0
ENDTAB
  0
TABLE
  2
VIEW
  5
6
100
AcDbSymbolTable
 70
0
  0
ENDTAB
  0
TABLE
  2
UCS
  5
7
100
AcDbSymbolTable
 70
0
  0
ENDTAB
  0
TABLE
  2
APPID
  5
9
100
AcDbSymbolTable
 70
1
  0
APPID
  5
215
100
AcDbSymbolTableRecord
100
AcDbRegAppTableRecord
  2
ACAD
 70
0
  0
ENDTAB
  0
TABLE
  2
BLOCK_RECORD
  5
1
100
AcDbSymbolTable
 70
0
  0
BLOCK_RECORD
  5
216
100
AcDbSymbolTableRecord
100
AcDbBlockTableRecord
  2
*Model_Space
  0
BLOCK_RECORD
  5
217
100
AcDbSymbolTableRecord
100
AcDbBlockTableRecord
  2
*Paper_Space
  0
ENDTAB
  0
TABLE
  2
DIMSTYLE
  5
A
100
AcDbSymbolTable
 70
1
100
AcDbDimStyleTable
 71
0
  0
DIMSTYLE
105
218
100
AcDbSymbolTableRecord
100
AcDbDimStyleTableRecord
  2
STANDARD
 70
0
  3

  4

 40
1.0
 41
0.1875
 42
0.0625
 43
0.38
 44
0.125
 45
0.0
 46
0.0
 47
0.0001
 48
0.0001
140
0.15625
141
0.09
142
0.0
143
25.4
144
1.0
145
0.0
146
1.0
147
0.09
 71
0.0
 72
0.0
 73
1
 74
1
 75
0
 76
0
 77
0
 78
4
 79
1
170
0
171
3
172
0
173
0
174
0
175
0
176
0
177
0
178
0
270
2
179
4
271
4
272
4
273
2
274
2
275
0
280
0
281
0
282
0
283
1
284
4
285
0
286
0
287
3
288
0
340
11
278
46
  0
ENDTAB
  0
ENDSEC
  0
SECTION
  2
BLOCKS
  0
BLOCK
  5
20
100
AcDbEntity
  8
0
100
AcDbBlockBegin
  2
*Model_Space
 70
0
 10
0.0
 20
0.0
 30
0.0
  3
*Model_Space
  1

  0
ENDBLK
  5
21
100
AcDbEntity
  8
0
100
AcDbBlockEnd
  0
BLOCK
  5
1C
100
AcDbEntity
  8
0
100
AcDbBlockBegin
  2
*Paper_Space
 70
0
 10
0.0
 20
0.0
 30
0.0
  3
*Paper_Space
  1

  0
ENDBLK
  5
1D
100
AcDbEntity
  8
0
100
AcDbBlockEnd
  0
ENDSEC
  0
SECTION
  2
ENTITIES
  0
MTEXT
  5
219
100
AcDbEntity
  8
0
100
AcDbMText
 62
7
  6
CONTINUOUS
  7
STANDARD
 71
1
 72
1
 10
15.9560215477
 20
0.9479130325
 30
0.0
 11
1.0
 21
0.0
 31
0.0
 44
0.9
  1
SCALE: 1:2.000
 40
0.3
 41
3.36
  0
LINE
  5
21A
100
AcDbEntity
  8
0
100
AcDbLine
 62
7
  6
CONTINUOUS
 10
0.0
 20
0.0
 11
0.0
 21
17.0
  0
LINE
  5
21B
100
AcDbEntity
  8
0
100
AcDbLine
 62
7
  6
CONTINUOUS
 10
0.0
 20
0.0
 11
22.0
 21
0.0
  0
LINE
  5
21C
100
AcDbEntity
  8
0
100
AcDbLine
 62
7
  6
CONTINUOUS
 10
0.0
 20
17.0
 11
22.0
 21
17.0
  0
LINE
  5
21D
100
AcDbEntity
  8
0
100
AcDbLine
 62
7
  6
CONTINUOUS
 10
22.0
 20
0.0
 11
22.0
 21
17.0
  0
LINE
  5
21E
100
AcDbEntity
  8
0
100
AcDbLine
 62
7
  6
CONTINUOUS
 10
4.2406034966
 20
5.7563403692
 11
4.2406034966
 21
5.5516159597
  0
LINE
  5
21F
100
AcDbEntity
  8
0
100
AcDbLine
 62
7
  6
CONTINUOUS
 10
4.3587137329
 20
5.4991225214
 11
4.3587137329
 21
5.480749818
  0
LINE
  5
220
100
AcDbEntity
  8
0
100
AcDbLine
 62
7
  6
CONTINUOUS
 10
4.7524145203
 20
5.480749818
 11
4.7524145203
 21
5.4991225214
  0
LINE
  5
221
100
AcDbEntity
  8
0
100
AcDbLine
 62
7
  6
CONTINUOUS
 10
4.9886349927
 20
5.4991225214
 11
4.9886349927
 21
5.480749818
  0
LINE
  5
222
100
AcDbEntity
  8
0
100
AcDbLine
 62
7
  6
CONTINUOUS
 10
5.3823357801
 20
5.480749818
 11
5.3823357801
 21
5.4991225214
  0
LINE
  5
223
100
AcDbEntity
  8
0
100
AcDbLine
 62
7
  6
CONTINUOUS
 10
5.6185562525
 20
5.4991225214
 11
5.6185562525
 21
5.480749818
  0
LINE
  5
224
100
AcDbEntity
  8
0
100
AcDbLine
 62
7
  6
CONTINUOUS
 10
6.0122570399
 20
5.480749818
 11
6.0122570399
 21
5.4991225214
  0
LINE
  5
225
100
AcDbEntity
  8
0
100
AcDbLine
 62
7
  6
CONTINUOUS
 10
6.2484775124
 20
5.4991225214
 11
6.2484775124
 21
5.480749818
  0
LINE
  5
226
100
AcDbEntity
  8
0
100
AcDbLine
 62
7
  6
CONTINUOUS
 10
4.2406034966
 20
5.5516159597
 11
4.3062202945
 21
5.5516159597
  0
LINE
  5
227
100
AcDbEntity
  8
0
100
AcDbLine
 62
7
  6
CONTINUOUS
 10
4.8049079586
 20
5.5516159597
 11
4.9361415544
 21
5.5516159597
  0
LINE
  5
228
100
AcDbEntity
  8
0
100
AcDbLine
 62
7
  6
CONTINUOUS
 10
5.4348292184
 20
5.5516159597
 11
5.5660628142
 21
5.5516159597
  0
LINE
  5
229
100
AcDbEntity
  8
0
100
AcDbLine
 62
7
  6
CONTINUOUS
 10
6.0647504783
 20
5.5516159597
 11
6.1959840741
 21
5.5516159597
  0
LINE
  5
22A
100
AcDbEntity
  8
0
100
AcDbLine
 62
7
  6
CONTINUOUS
 10
6.6946717381
 20
5.5516159597
 11
6.8259053339
 21
5.5516159597
  0
LINE
  5
22B
100
AcDbEntity
  8
0
100
AcDbLine
 62
7
  6
CONTINUOUS
 10
7.324592998
 20
5.5516159597
 11
7.4558265938
 21
5.5516159597
  0
LINE
  5
22C
100
AcDbEntity
  8
0
100
AcDbLine
 62
7
  6
CONTINUOUS
 10
7.9545142578
 20
5.5516159597
 11
8.0201310557
 21
5.5516159597
  0
LINE
  5
22D
100
AcDbEntity
  8
0
100
AcDbLine
 62
7
  6
CONTINUOUS
 10
8.0201310557
 20
5.7563403692
 11
4.2406034966
 21
5.7563403692
  0
LINE
  5
22E
100
AcDbEntity
  8
0
100
AcDbLine
 62
7
  6
CONTINUOUS
 10
6.6421782998
 20
5.480749818
 11
6.6421782998
 21
5.4991225214
  0
LINE
  5
22F
100
AcDbEntity
  8
0
100
AcDbLine
 62
7
  6
CONTINUOUS
 10
6.8783987722
 20
5.4991225214
 11
6.8783987722
 21
5.480749818
  0
LINE
  5
230
100
AcDbEntity
  8
0
100
AcDbLine
 62
7
  6
CONTINUOUS
 10
7.2720995596
 20
5.480749818
 11
7.2720995596
 21
5.4991225214
  0
LINE
  5
231
100
AcDbEntity
  8
0
100
AcDbLine
 62
7
  6
CONTINUOUS
 10
7.5083200321
 20
5.4991225214
 11
7.5083200321
 21
5.480749818
  0
LINE
  5
232
100
AcDbEntity
  8
0
100
AcDbLine
 62
7
  6
CONTINUOUS
 10
7.9020208195
 20
5.480749818
 11
7.9020208195
 21
5.4991225214
  0
LINE
  5
233
100
AcDbEntity
  8
0
100
AcDbLine
 62
7
  6
CONTINUOUS
 10
8.0201310557
 20
5.5516159597
 11
8.0201310557
 21
5.7563403692
  0
LINE
  5
234
100
AcDbEntity
  8
0
100
AcDbLine
 62
7
  6
CONTINUOUS
 10
4.1811083043
 20
13.1905989625
 11
4.1811083043
 21
12.0094966003
  0
LINE
  5
235
100
AcDbEntity
  8
0
100
AcDbLine
 62
7
  6
CONTINUOUS
 10
7.9606358634
 20
12.0094966003
 11
4.1811083043
 21
12.0094966003
  0
LINE
  5
236
100
AcDbEntity
  8
0
100
AcDbLine
 62
7
  6
CONTINUOUS
 10
4.1811083043
 20
13.1905989625
 11
7.9606358634
 21
13.1905989625
  0
LINE
  5
237
100
AcDbEntity
  8
0
100
AcDbLine
 62
7
  6
CONTINUOUS
 10
7.9606358634
 20
13.1905989625
 11
7.9606358634
 21
12.0094966003
  0
LINE
  5
238
100
AcDbEntity
  8
0
100
AcDbLine
 62
7
  6
CONTINUOUS
 10
14.9698040758
 20
5.224404232
 11
14.9698040758
 21
5.6968451769
  0
LINE
  5
239
100
AcDbEntity
  8
0
100
AcDbLine
 62
7
  6
CONTINUOUS
 10
16.150906438
 20
5.224404232
 11
14.9698040758
 21
5.224404232
  0
LINE
  5
23A
100
AcDbEntity
  8
0
100
AcDbLine
 62
7
  6
CONTINUOUS
 10
16.150906438
 20
5.4921207674
 11
14.9698040758
 21
5.4921207674
  0
LINE
  5
23B
100
AcDbEntity
  8
0
100
AcDbLine
 62
7
  6
CONTINUOUS
 10
16.150906438
 20
5.6968451769
 11
14.9698040758
 21
5.6968451769
  0
LINE
  5
23C
100
AcDbEntity
  8
0
100
AcDbLine
 62
7
  6
CONTINUOUS
 10
16.150906438
 20
5.224404232
 11
16.150906438
 21
5.6968451769
  0
LINE
  5
23D
100
AcDbEntity
  8
0
100
AcDbLine
 62
7
  6
CONTINUOUS
 10
13.5563474521
 20
12.1950473616
 11
13.6187969681
 21
12.067788628
  0
LINE
  5
23E
100
AcDbEntity
  8
0
100
AcDbLine
 62
7
  6
CONTINUOUS
 10
13.8422525585
 20
13.120236625
 11
13.5563474521
 21
12.1950473616
  0
LINE
  5
23F
100
AcDbEntity
  8
0
100
AcDbLine
 62
7
  6
CONTINUOUS
 10
13.7435963961
 20
12.0351581834
 11
13.7492008398
 21
12.0237375278
  0
LINE
  5
240
100
AcDbEntity
  8
0
100
AcDbLine
 62
7
  6
CONTINUOUS
 10
14.1118232784
 20
12.0237375278
 11
14.1062188347
 21
12.0351581834
  0
LINE
  5
241
100
AcDbEntity
  8
0
100
AcDbLine
 62
7
  6
CONTINUOUS
 10
14.3237922978
 20
12.0351581834
 11
14.3293967415
 21
12.0237375278
  0
LINE
  5
242
100
AcDbEntity
  8
0
100
AcDbLine
 62
7
  6
CONTINUOUS
 10
14.1501601508
 20
12.067788628
 11
14.1185870284
 21
11.9656179665
  0
LINE
  5
243
100
AcDbEntity
  8
0
100
AcDbLine
 62
7
  6
CONTINUOUS
 10
14.6920191801
 20
12.0237375278
 11
14.6864147364
 21
12.0351581834
  0
LINE
  5
244
100
AcDbEntity
  8
0
100
AcDbLine
 62
7
  6
CONTINUOUS
 10
14.9039881995
 20
12.0351581834
 11
14.9095926433
 21
12.0237375278
  0
LINE
  5
245
100
AcDbEntity
  8
0
100
AcDbLine
 62
7
  6
CONTINUOUS
 10
14.7303560525
 20
12.067788628
 11
14.6987829302
 21
11.9656179665
  0
LINE
  5
246
100
AcDbEntity
  8
0
100
AcDbLine
 62
7
  6
CONTINUOUS
 10
13.6187969681
 20
12.067788628
 11
13.6792340412
 21
12.067788628
  0
LINE
  5
247
100
AcDbEntity
  8
0
100
AcDbLine
 62
7
  6
CONTINUOUS
 10
14.1385557967
 20
12.067788628
 11
14.2594299429
 21
12.067788628
  0
LINE
  5
248
100
AcDbEntity
  8
0
100
AcDbLine
 62
7
  6
CONTINUOUS
 10
14.7187516985
 20
12.067788628
 11
14.8396258446
 21
12.067788628
  0
LINE
  5
249
100
AcDbEntity
  8
0
100
AcDbLine
 62
7
  6
CONTINUOUS
 10
15.2989476002
 20
12.067788628
 11
15.4198217464
 21
12.067788628
  0
LINE
  5
24A
100
AcDbEntity
  8
0
100
AcDbLine
 62
7
  6
CONTINUOUS
 10
15.8791435019
 20
12.067788628
 11
16.0000176481
 21
12.067788628
  0
LINE
  5
24B
100
AcDbEntity
  8
0
100
AcDbLine
 62
7
  6
CONTINUOUS
 10
16.4593394037
 20
12.067788628
 11
16.5802135498
 21
12.067788628
  0
LINE
  5
24C
100
AcDbEntity
  8
0
100
AcDbLine
 62
7
  6
CONTINUOUS
 10
17.0395353054
 20
12.067788628
 11
17.0999723785
 21
12.067788628
  0
LINE
  5
24D
100
AcDbEntity
  8
0
100
AcDbLine
 62
7
  6
CONTINUOUS
 10
15.2722150819
 20
12.0237375278
 11
15.2666106381
 21
12.0351581834
  0
LINE
  5
24E
100
AcDbEntity
  8
0
100
AcDbLine
 62
7
  6
CONTINUOUS
 10
17.0375228625
 20
12.1950473616
 11
13.5563474521
 21
12.1950473616
  0
LINE
  5
24F
100
AcDbEntity
  8
0
100
AcDbLine
 62
7
  6
CONTINUOUS
 10
15.4841841013
 20
12.0351581834
 11
15.489788545
 21
12.0237375278
  0
LINE
  5
250
100
AcDbEntity
  8
0
100
AcDbLine
 62
7
  6
CONTINUOUS
 10
15.3105519543
 20
12.067788628
 11
15.2789788319
 21
11.9656179665
  0
LINE
  5
251
100
AcDbEntity
  8
0
100
AcDbLine
 62
7
  6
CONTINUOUS
 10
15.8524109836
 20
12.0237375278
 11
15.8468065399
 21
12.0351581834
  0
LINE
  5
252
100
AcDbEntity
  8
0
100
AcDbLine
 62
7
  6
CONTINUOUS
 10
16.064380003
 20
12.0351581834
 11
16.0699844467
 21
12.0237375278
  0
LINE
  5
253
100
AcDbEntity
  8
0
100
AcDbLine
 62
7
  6
CONTINUOUS
 10
15.890747856
 20
12.067788628
 11
15.8591747336
 21
11.9656179665
  0
LINE
  5
254
100
AcDbEntity
  8
0
100
AcDbLine
 62
7
  6
CONTINUOUS
 10
13.8422525585
 20
13.120236625
 11
17.3234279689
 21
13.120236625
  0
LINE
  5
255
100
AcDbEntity
  8
0
100
AcDbLine
 62
7
  6
CONTINUOUS
 10
16.4326068853
 20
12.0237375278
 11
16.4270024416
 21
12.0351581834
  0
LINE
  5
256
100
AcDbEntity
  8
0
100
AcDbLine
 62
7
  6
CONTINUOUS
 10
16.6445759047
 20
12.0351581834
 11
16.6501803485
 21
12.0237375278
  0
LINE
  5
257
100
AcDbEntity
  8
0
100
AcDbLine
 62
7
  6
CONTINUOUS
 10
16.4709437577
 20
12.067788628
 11
16.4393706354
 21
11.9656179665
  0
LINE
  5
258
100
AcDbEntity
  8
0
100
AcDbLine
 62
7
  6
CONTINUOUS
 10
17.0128027871
 20
12.0237375278
 11
17.0071983433
 21
12.0351581834
  0
LINE
  5
259
100
AcDbEntity
  8
0
100
AcDbLine
 62
7
  6
CONTINUOUS
 10
17.0999723785
 20
12.067788628
 11
17.0375228625
 21
12.1950473616
  0
LINE
  5
25A
100
AcDbEntity
  8
0
100
AcDbLine
 62
7
  6
CONTINUOUS
 10
17.3234279689
 20
13.120236625
 11
17.0375228625
 21
12.1950473616
  0
LINE
  5
25B
100
AcDbEntity
  8
0
100
AcDbLine
 62
7
  6
CONTINUOUS
 10
17.0511396595
 20
12.067788628
 11
17.0195665371
 21
11.9656179665
  0
LINE
  5
25C
100
AcDbEntity
  8
0
100
AcDbLine
 62
7
  6
CONTINUOUS
 10
17.3858774849
 20
12.9929778913
 11
17.0999723785
 21
12.067788628
  0
LINE
  5
25D
100
AcDbEntity
  8
0
100
AcDbLine
 62
7
  6
CONTINUOUS
 10
17.3858774849
 20
12.9929778913
 11
17.3234279689
 21
13.120236625
  0
ARC
  5
25E
100
AcDbEntity
  8
0
100
AcDbCircle
 62
7
  6
CONTINUOUS
 10
4.5555641266
 20
5.480749818
 40
0.1968503937
100
AcDbArc
 50
180.0
 51
360.0
  0
ARC
  5
25F
100
AcDbEntity
  8
0
100
AcDbCircle
 62
7
  6
CONTINUOUS
 10
5.1854853864
 20
5.480749818
 40
0.1968503937
100
AcDbArc
 50
180.0
 51
360.0
  0
ARC
  5
260
100
AcDbEntity
  8
0
100
AcDbCircle
 62
7
  6
CONTINUOUS
 10
7.7051704258
 20
5.480749818
 40
0.1968503937
100
AcDbArc
 50
180.0
 51
360.0
  0
ARC
  5
261
100
AcDbEntity
  8
0
100
AcDbCircle
 62
7
  6
CONTINUOUS
 10
7.0752491659
 20
5.480749818
 40
0.1968503937
100
AcDbArc
 50
180.0
 51
360.0
  0
ARC
  5
262
100
AcDbEntity
  8
0
100
AcDbCircle
 62
7
  6
CONTINUOUS
 10
6.4453279061
 20
5.480749818
 40
0.1968503937
100
AcDbArc
 50
180.0
 51
360.0
  0
ARC
  5
263
100
AcDbEntity
  8
0
100
AcDbCircle
 62
7
  6
CONTINUOUS
 10
5.8154066462
 20
5.480749818
 40
0.1968503937
100
AcDbArc
 50
180.0
 51
360.0
  0
ARC
  5
264
100
AcDbEntity
  8
0
100
AcDbCircle
 62
7
  6
CONTINUOUS
 10
4.3062202945
 20
5.4991225214
 40
0.0524934383
100
AcDbArc
 50
0.0
 51
90.0
  0
ARC
  5
265
100
AcDbEntity
  8
0
100
AcDbCircle
 62
7
  6
CONTINUOUS
 10
4.8049079586
 20
5.4991225214
 40
0.0524934383
100
AcDbArc
 50
90.0
 51
180.0
  0
ARC
  5
266
100
AcDbEntity
  8
0
100
AcDbCircle
 62
7
  6
CONTINUOUS
 10
4.9361415544
 20
5.4991225214
 40
0.0524934383
100
AcDbArc
 50
0.0
 51
90.0
  0
ARC
  5
267
100
AcDbEntity
  8
0
100
AcDbCircle
 62
7
  6
CONTINUOUS
 10
5.4348292184
 20
5.4991225214
 40
0.0524934383
100
AcDbArc
 50
90.0
 51
180.0
  0
ARC
  5
268
100
AcDbEntity
  8
0
100
AcDbCircle
 62
7
  6
CONTINUOUS
 10
5.5660628142
 20
5.4991225214
 40
0.0524934383
100
AcDbArc
 50
0.0
 51
90.0
  0
ARC
  5
269
100
AcDbEntity
  8
0
100
AcDbCircle
 62
7
  6
CONTINUOUS
 10
6.0647504783
 20
5.4991225214
 40
0.0524934383
100
AcDbArc
 50
90.0
 51
180.0
  0
ARC
  5
26A
100
AcDbEntity
  8
0
100
AcDbCircle
 62
7
  6
CONTINUOUS
 10
6.1959840741
 20
5.4991225214
 40
0.0524934383
100
AcDbArc
 50
0.0
 51
90.0
  0
ARC
  5
26B
100
AcDbEntity
  8
0
100
AcDbCircle
 62
7
  6
CONTINUOUS
 10
6.6946717381
 20
5.4991225214
 40
0.0524934383
100
AcDbArc
 50
90.0
 51
180.0
  0
ARC
  5
26C
100
AcDbEntity
  8
0
100
AcDbCircle
 62
7
  6
CONTINUOUS
 10
6.8259053339
 20
5.4991225214
 40
0.0524934383
100
AcDbArc
 50
0.0
 51
90.0
  0
ARC
  5
26D
100
AcDbEntity
  8
0
100
AcDbCircle
 62
7
  6
CONTINUOUS
 10
7.324592998
 20
5.4991225214
 40
0.0524934383
100
AcDbArc
 50
90.0
 51
180.0
  0
ARC
  5
26E
100
AcDbEntity
  8
0
100
AcDbCircle
 62
7
  6
CONTINUOUS
 10
7.4558265938
 20
5.4991225214
 40
0.0524934383
100
AcDbArc
 50
0.0
 51
90.0
  0
ARC
  5
26F
100
AcDbEntity
  8
0
100
AcDbCircle
 62
7
  6
CONTINUOUS
 10
7.9545142578
 20
5.4991225214
 40
0.0524934383
100
AcDbArc
 50
90.0
 51
180.0
  0
SPLINE
  5
270
100
AcDbEntity
  8
0
100
AcDbSpline
 62
7
  6
CONTINUOUS
 70
0
 71
3
 72
11
 73
7
 74
0
 42
0.0000001
 43
0.0000001
 44
0.0000000001
 40
0.0
 40
0.0
 40
0.0
 40
0.0
 40
0.2022278774
 40
0.430066176
 40
0.696204485
 40
1.0
 40
1.0
 40
1.0
 40
1.0
 10
14.1044151566
 20
12.0506567463
 30
0.0
 10
14.1052226428
 20
12.0532703188
 30
0.0
 10
14.1083794154
 20
12.0584391775
 30
0.0
 10
14.1163078686
 20
12.0638674142
 30
0.0
 10
14.1267068763
 20
12.0671372519
 30
0.0
 10
14.1344464549
 20
12.067788628
 30
0.0
 10
14.1385557967
 20
12.067788628
 30
0.0
  0
SPLINE
  5
271
100
AcDbEntity
  8
0
100
AcDbSpline
 62
7
  6
CONTINUOUS
 70
0
 71
3
 72
11
 73
7
 74
0
 42
0.0000001
 43
0.0000001
 44
0.0000000001
 40
0.0
 40
0.0
 40
0.0
 40
0.0
 40
0.2022278774
 40
0.430066176
 40
0.696204485
 40
1.0
 40
1.0
 40
1.0
 40
1.0
 10
14.6846110583
 20
12.0506567463
 30
0.0
 10
14.6854185446
 20
12.0532703188
 30
0.0
 10
14.6885753171
 20
12.0584391775
 30
0.0
 10
14.6965037703
 20
12.0638674142
 30
0.0
 10
14.7069027781
 20
12.0671372519
 30
0.0
 10
14.7146423567
 20
12.067788628
 30
0.0
 10
14.7187516985
 20
12.067788628
 30
0.0
  0
SPLINE
  5
272
100
AcDbEntity
  8
0
100
AcDbSpline
 62
7
  6
CONTINUOUS
 70
0
 71
3
 72
11
 73
7
 74
0
 42
0.0000001
 43
0.0000001
 44
0.0000000001
 40
0.0
 40
0.0
 40
0.0
 40
0.0
 40
0.2022278774
 40
0.430066176
 40
0.696204485
 40
1.0
 40
1.0
 40
1.0
 40
1.0
 10
15.2648069601
 20
12.0506567463
 30
0.0
 10
15.2656144463
 20
12.0532703188
 30
0.0
 10
15.2687712189
 20
12.0584391775
 30
0.0
 10
15.276699672
 20
12.0638674142
 30
0.0
 10
15.2870986798
 20
12.0671372519
 30
0.0
 10
15.2948382584
 20
12.067788628
 30
0.0
 10
15.2989476002
 20
12.067788628
 30
0.0
  0
SPLINE
  5
273
100
AcDbEntity
  8
0
100
AcDbSpline
 62
7
  6
CONTINUOUS
 70
0
 71
3
 72
11
 73
7
 74
0
 42
0.0000001
 43
0.0000001
 44
0.0000000001
 40
0.0
 40
0.0
 40
0.0
 40
0.0
 40
0.2022278774
 40
0.430066176
 40
0.696204485
 40
1.0
 40
1.0
 40
1.0
 40
1.0
 10
15.8450028618
 20
12.0506567463
 30
0.0
 10
15.845810348
 20
12.0532703188
 30
0.0
 10
15.8489671206
 20
12.0584391775
 30
0.0
 10
15.8568955738
 20
12.0638674142
 30
0.0
 10
15.8672945815
 20
12.0671372519
 30
0.0
 10
15.8750341601
 20
12.067788628
 30
0.0
 10
15.8791435019
 20
12.067788628
 30
0.0
  0
SPLINE
  5
274
100
AcDbEntity
  8
0
100
AcDbSpline
 62
7
  6
CONTINUOUS
 70
0
 71
3
 72
11
 73
7
 74
0
 42
0.0000001
 43
0.0000001
 44
0.0000000001
 40
0.0
 40
0.0
 40
0.0
 40
0.0
 40
0.2022278774
 40
0.430066176
 40
0.696204485
 40
1.0
 40
1.0
 40
1.0
 40
1.0
 10
16.4251987635
 20
12.0506567463
 30
0.0
 10
16.4260062498
 20
12.0532703188
 30
0.0
 10
16.4291630223
 20
12.0584391775
 30
0.0
 10
16.4370914755
 20
12.0638674142
 30
0.0
 10
16.4474904833
 20
12.0671372519
 30
0.0
 10
16.4552300619
 20
12.067788628
 30
0.0
 10
16.4593394037
 20
12.067788628
 30
0.0
  0
SPLINE
  5
275
100
AcDbEntity
  8
0
100
AcDbSpline
 62
7
  6
CONTINUOUS
 70
0
 71
3
 72
11
 73
7
 74
0
 42
0.0000001
 43
0.0000001
 44
0.0000000001
 40
0.0
 40
0.0
 40
0.0
 40
0.0
 40
0.2022278774
 40
0.430066176
 40
0.696204485
 40
1.0
 40
1.0
 40
1.0
 40
1.0
 10
17.0053946653
 20
12.0506567463
 30
0.0
 10
17.0062021515
 20
12.0532703188
 30
0.0
 10
17.0093589241
 20
12.0584391775
 30
0.0
 10
17.0172873772
 20
12.0638674142
 30
0.0
 10
17.027686385
 20
12.0671372519
 30
0.0
 10
17.0354259636
 20
12.067788628
 30
0.0
 10
17.0395353054
 20
12.067788628
 30
0.0
  0
SPLINE
  5
276
100
AcDbEntity
  8
0
100
AcDbSpline
 62
7
  6
CONTINUOUS
 70
0
 71
3
 72
21
 73
17
 74
0
 42
0.0000001
 43
0.0000001
 44
0.0000000001
 40
0.0
 40
0.0
 40
0.0
 40
0.0
 40
0.0543735795
 40
0.1140101516
 40
0.1786178538
 40
0.2474788896
 40
0.3935211486
 40
0.5422962535
 40
0.6144167033
 40
0.6833078875
 40
0.747952252
 40
0.8076310572
 40
0.8620456295
 40
0.9114641588
 40
0.9568685624
 40
1.0
 40
1.0
 40
1.0
 40
1.0
 10
16.6501803485
 20
12.0237375278
 30
0.0
 10
16.653651738
 20
12.0166635797
 30
0.0
 10
16.6624682354
 20
12.0025641823
 30
0.0
 10
16.6795993422
 20
11.9830467727
 30
0.0
 10
16.700785644
 20
11.9646452724
 30
0.0
 10
16.7343351789
 20
11.9418141728
 30
0.0
 10
16.7823789823
 20
11.9192728276
 30
0.0
 10
16.8341626399
 20
11.9058035166
 30
0.0
 10
16.87597703
 20
11.9012727358
 30
0.0
 10
16.90584285
 20
11.9011961067
 30
0.0
 10
16.933731848
 20
11.9044076695
 30
0.0
 10
16.9589197632
 20
11.9108380657
 30
0.0
 10
16.9807555656
 20
11.9203522558
 30
0.0
 10
16.998662119
 20
11.9327822338
 30
0.0
 10
17.0120801091
 20
11.9478893469
 30
0.0
 10
17.01772077
 20
11.9596461094
 30
0.0
 10
17.01956649
 20
11.9656179812
 30
0.0
  0
SPLINE
  5
277
100
AcDbEntity
  8
0
100
AcDbSpline
 62
7
  6
CONTINUOUS
 70
0
 71
3
 72
21
 73
17
 74
0
 42
0.0000001
 43
0.0000001
 44
0.0000000001
 40
0.0
 40
0.0
 40
0.0
 40
0.0
 40
0.054371921
 40
0.1140110622
 40
0.1786176165
 40
0.2474790985
 40
0.3935212208
 40
0.5422961867
 40
0.6144165596
 40
0.6833076759
 40
0.7479519906
 40
0.8076307679
 40
0.8620453371
 40
0.9114638878
 40
0.9568682397
 40
1.0
 40
1.0
 40
1.0
 40
1.0
 10
16.0699844467
 20
12.0237375278
 30
0.0
 10
16.0734557289
 20
12.0166637985
 30
0.0
 10
16.0822725007
 20
12.0025644531
 30
0.0
 10
16.0994031032
 20
11.9830466522
 30
0.0
 10
16.1205899865
 20
11.9646453977
 30
0.0
 10
16.1541391653
 20
11.9418140747
 30
0.0
 10
16.202183128
 20
11.9192729506
 30
0.0
 10
16.2539666724
 20
11.9058036138
 30
0.0
 10
16.2957810084
 20
11.9012728443
 30
0.0
 10
16.3256467864
 20
11.9011962067
 30
0.0
 10
16.3535357516
 20
11.9044077465
 30
0.0
 10
16.3787236552
 20
11.9108381231
 30
0.0
 10
16.4005594402
 20
11.9203522574
 30
0.0
 10
16.4184660869
 20
11.9327822147
 30
0.0
 10
16.4318837968
 20
11.9478893462
 30
0.0
 10
16.4375255209
 20
11.9596458613
 30
0.0
 10
16.439370422
 20
11.9656180322
 30
0.0
  0
SPLINE
  5
278
100
AcDbEntity
  8
0
100
AcDbSpline
 62
7
  6
CONTINUOUS
 70
0
 71
3
 72
21
 73
17
 74
0
 42
0.0000001
 43
0.0000001
 44
0.0000000001
 40
0.0
 40
0.0
 40
0.0
 40
0.0
 40
0.0543704051
 40
0.1140121083
 40
0.1786174485
 40
0.2474792546
 40
0.3935209353
 40
0.5422960271
 40
0.6144166925
 40
0.6833080632
 40
0.7479524364
 40
0.8076310908
 40
0.8620454546
 40
0.9114638272
 40
0.9568679987
 40
1.0
 40
1.0
 40
1.0
 40
1.0
 10
15.489788545
 20
12.0237375278
 30
0.0
 10
15.4932597286
 20
12.0166639994
 30
0.0
 10
15.502076819
 20
12.002564707
 30
0.0
 10
15.5192069986
 20
11.9830465765
 30
0.0
 10
15.5403944847
 20
11.9646456433
 30
0.0
 10
15.5739432442
 20
11.9418141421
 30
0.0
 10
15.6219872717
 20
11.9192731351
 30
0.0
 10
15.6737706753
 20
11.9058034996
 30
0.0
 10
15.7155850769
 20
11.9012725569
 30
0.0
 10
15.7454509307
 20
11.9011958932
 30
0.0
 10
15.7733399044
 20
11.9044075334
 30
0.0
 10
15.7985277124
 20
11.9108380592
 30
0.0
 10
15.8203633764
 20
11.9203522849
 30
0.0
 10
15.8382698045
 20
11.932782351
 30
0.0
 10
15.85168763
 20
11.9478893567
 30
0.0
 10
15.8573291987
 20
11.9596459575
 30
0.0
 10
15.8591741102
 20
11.9656181584
 30
0.0
  0
SPLINE
  5
279
100
AcDbEntity
  8
0
100
AcDbSpline
 62
7
  6
CONTINUOUS
 70
0
 71
3
 72
21
 73
17
 74
0
 42
0.0000001
 43
0.0000001
 44
0.0000000001
 40
0.0
 40
0.0
 40
0.0
 40
0.0
 40
0.0543681926
 40
0.1140134872
 40
0.1786170312
 40
0.2474790029
 40
0.3935205933
 40
0.5422957927
 40
0.6144159676
 40
0.683306939
 40
0.7479514197
 40
0.8076306346
 40
0.8620454607
 40
0.9114638286
 40
0.9568677918
 40
1.0
 40
1.0
 40
1.0
 40
1.0
 10
14.9095926433
 20
12.0237375278
 30
0.0
 10
14.9130636849
 20
12.0166642888
 30
0.0
 10
14.9218812627
 20
12.0025650997
 30
0.0
 10
14.9390108285
 20
11.9830465185
 30
0.0
 10
14.960199026
 20
11.9646459454
 30
0.0
 10
14.9937471302
 20
11.9418140359
 30
0.0
 10
15.0417911563
 20
11.9192727672
 30
0.0
 10
15.093574611
 20
11.9058035896
 30
0.0
 10
15.1353889256
 20
11.9012730433
 30
0.0
 10
15.1652546463
 20
11.901196385
 30
0.0
 10
15.1931436767
 20
11.9044077355
 30
0.0
 10
15.2183317443
 20
11.9108378258
 30
0.0
 10
15.2401677171
 20
11.9203518389
 30
0.0
 10
15.2580739517
 20
11.9327821501
 30
0.0
 10
15.2714919503
 20
11.9478892074
 30
0.0
 10
15.2771324413
 20
11.9596461925
 30
0.0
 10
15.2789777887
 20
11.9656182887
 30
0.0
  0
SPLINE
  5
27A
100
AcDbEntity
  8
0
100
AcDbSpline
 62
7
  6
CONTINUOUS
 70
0
 71
3
 72
21
 73
17
 74
0
 42
0.0000001
 43
0.0000001
 44
0.0000000001
 40
0.0
 40
0.0
 40
0.0
 40
0.0
 40
0.0543650764
 40
0.1140151811
 40
0.1786164447
 40
0.247478452
 40
0.3935205273
 40
0.5422950384
 40
0.6144157916
 40
0.6833072611
 40
0.7479511373
 40
0.807629455
 40
0.8620442162
 40
0.9114633109
 40
0.9568676285
 40
1.0
 40
1.0
 40
1.0
 40
1.0
 10
14.3293967415
 20
12.0237375278
 30
0.0
 10
14.332867583
 20
12.0166646967
 30
0.0
 10
14.3416858675
 20
12.0025657054
 30
0.0
 10
14.3588145473
 20
11.9830464917
 30
0.0
 10
14.3800034731
 20
11.9646461643
 30
0.0
 10
14.4135507322
 20
11.9418135451
 30
0.0
 10
14.4615953909
 20
11.919273397
 30
0.0
 10
14.5133786689
 20
11.905804098
 30
0.0
 10
14.5551929333
 20
11.901272595
 30
0.0
 10
14.5850587468
 20
11.9011958551
 30
0.0
 10
14.6129475555
 20
11.9044079023
 30
0.0
 10
14.6381352497
 20
11.9108384092
 30
0.0
 10
14.6599711824
 20
11.920352301
 30
0.0
 10
14.6778780938
 20
11.9327816893
 30
0.0
 10
14.6912968902
 20
11.9478887626
 30
0.0
 10
14.6969356179
 20
11.9596464568
 30
0.0
 10
14.6987817014
 20
11.965618348
 30
0.0
  0
SPLINE
  5
27B
100
AcDbEntity
  8
0
100
AcDbSpline
 62
7
  6
CONTINUOUS
 70
0
 71
3
 72
21
 73
17
 74
0
 42
0.0000001
 43
0.0000001
 44
0.0000000001
 40
0.0
 40
0.0
 40
0.0
 40
0.0
 40
0.0543607555
 40
0.1140170833
 40
0.1786160276
 40
0.2474781386
 40
0.3935203394
 40
0.5422956356
 40
0.6144155689
 40
0.6833062668
 40
0.7479514499
 40
0.8076304655
 40
0.8620440569
 40
0.9114624135
 40
0.9568676168
 40
1.0
 40
1.0
 40
1.0
 40
1.0
 10
13.7492008398
 20
12.0237375278
 30
0.0
 10
13.7526714026
 20
12.0166652644
 30
0.0
 10
13.7614906785
 20
12.002566629
 30
0.0
 10
13.7786181224
 20
11.9830465152
 30
0.0
 10
13.7998076563
 20
11.9646459308
 30
0.0
 10
13.833354667
 20
11.9418135325
 30
0.0
 10
13.8813997804
 20
11.9192744283
 30
0.0
 10
13.9331825558
 20
11.9058029578
 30
0.0
 10
13.9749969408
 20
11.9012734128
 30
0.0
 10
14.004862596
 20
11.9011967936
 30
0.0
 10
14.0327517255
 20
11.904407332
 30
0.0
 10
14.0579396695
 20
11.9108376816
 30
0.0
 10
14.0797748755
 20
11.9203528999
 30
0.0
 10
14.0976812492
 20
11.9327823395
 30
0.0
 10
14.1111014467
 20
11.9478884387
 30
0.0
 10
14.1167392883
 20
11.959646593
 30
0.0
 10
14.1185860772
 20
11.9656182626
 30
0.0
  0
SPLINE
  5
27C
100
AcDbEntity
  8
0
100
AcDbSpline
 62
7
  6
CONTINUOUS
 70
0
 71
3
 72
11
 73
7
 74
0
 42
0.0000001
 43
0.0000001
 44
0.0000000001
 40
0.0
 40
0.0
 40
0.0
 40
0.0
 40
0.2647184643
 40
0.5366515692
 40
0.7885344685
 40
1.0
 40
1.0
 40
1.0
 40
1.0
 10
13.6792340412
 20
12.067788628
 30
0.0
 10
13.6858601492
 20
12.067788628
 30
0.0
 10
13.6993201824
 20
12.0659729167
 30
0.0
 10
13.717994548
 20
12.0591207559
 30
0.0
 10
13.7335489881
 20
12.0490063919
 30
0.0
 10
13.7412645392
 20
12.039910008
 30
0.0
 10
13.7435963961
 20
12.0351581834
 30
0.0
  0
SPLINE
  5
27D
100
AcDbEntity
  8
0
100
AcDbSpline
 62
7
  6
CONTINUOUS
 70
0
 71
3
 72
11
 73
7
 74
0
 42
0.0000001
 43
0.0000001
 44
0.0000000001
 40
0.0
 40
0.0
 40
0.0
 40
0.0
 40
0.2647184643
 40
0.5366515692
 40
0.7885344685
 40
1.0
 40
1.0
 40
1.0
 40
1.0
 10
14.2594299429
 20
12.067788628
 30
0.0
 10
14.2660560509
 20
12.067788628
 30
0.0
 10
14.2795160841
 20
12.0659729167
 30
0.0
 10
14.2981904498
 20
12.0591207559
 30
0.0
 10
14.3137448898
 20
12.0490063919
 30
0.0
 10
14.321460441
 20
12.039910008
 30
0.0
 10
14.3237922978
 20
12.0351581834
 30
0.0
  0
SPLINE
  5
27E
100
AcDbEntity
  8
0
100
AcDbSpline
 62
7
  6
CONTINUOUS
 70
0
 71
3
 72
11
 73
7
 74
0
 42
0.0000001
 43
0.0000001
 44
0.0000000001
 40
0.0
 40
0.0
 40
0.0
 40
0.0
 40
0.2647184643
 40
0.5366515692
 40
0.7885344685
 40
1.0
 40
1.0
 40
1.0
 40
1.0
 10
14.8396258446
 20
12.067788628
 30
0.0
 10
14.8462519526
 20
12.067788628
 30
0.0
 10
14.8597119858
 20
12.0659729167
 30
0.0
 10
14.8783863515
 20
12.0591207559
 30
0.0
 10
14.8939407916
 20
12.0490063919
 30
0.0
 10
14.9016563427
 20
12.039910008
 30
0.0
 10
14.9039881995
 20
12.0351581834
 30
0.0
  0
SPLINE
  5
27F
100
AcDbEntity
  8
0
100
AcDbSpline
 62
7
  6
CONTINUOUS
 70
0
 71
3
 72
11
 73
7
 74
0
 42
0.0000001
 43
0.0000001
 44
0.0000000001
 40
0.0
 40
0.0
 40
0.0
 40
0.0
 40
0.2647184643
 40
0.5366515692
 40
0.7885344685
 40
1.0
 40
1.0
 40
1.0
 40
1.0
 10
15.4198217464
 20
12.067788628
 30
0.0
 10
15.4264478544
 20
12.067788628
 30
0.0
 10
15.4399078876
 20
12.0659729167
 30
0.0
 10
15.4585822532
 20
12.0591207559
 30
0.0
 10
15.4741366933
 20
12.0490063919
 30
0.0
 10
15.4818522444
 20
12.039910008
 30
0.0
 10
15.4841841013
 20
12.0351581834
 30
0.0
  0
SPLINE
  5
280
100
AcDbEntity
  8
0
100
AcDbSpline
 62
7
  6
CONTINUOUS
 70
0
 71
3
 72
11
 73
7
 74
0
 42
0.0000001
 43
0.0000001
 44
0.0000000001
 40
0.0
 40
0.0
 40
0.0
 40
0.0
 40
0.2647184643
 40
0.5366515692
 40
0.7885344685
 40
1.0
 40
1.0
 40
1.0
 40
1.0
 10
16.0000176481
 20
12.067788628
 30
0.0
 10
16.0066437561
 20
12.067788628
 30
0.0
 10
16.0201037893
 20
12.0659729167
 30
0.0
 10
16.038778155
 20
12.0591207559
 30
0.0
 10
16.054332595
 20
12.0490063919
 30
0.0
 10
16.0620481462
 20
12.039910008
 30
0.0
 10
16.064380003
 20
12.0351581834
 30
0.0
  0
SPLINE
  5
281
100
AcDbEntity
  8
0
100
AcDbSpline
 62
7
  6
CONTINUOUS
 70
0
 71
3
 72
11
 73
7
 74
0
 42
0.0000001
 43
0.0000001
 44
0.0000000001
 40
0.0
 40
0.0
 40
0.0
 40
0.0
 40
0.2647184643
 40
0.5366515692
 40
0.7885344685
 40
1.0
 40
1.0
 40
1.0
 40
1.0
 10
16.5802135498
 20
12.067788628
 30
0.0
 10
16.5868396578
 20
12.067788628
 30
0.0
 10
16.6002996911
 20
12.0659729167
 30
0.0
 10
16.6189740567
 20
12.0591207559
 30
0.0
 10
16.6345284968
 20
12.0490063919
 30
0.0
 10
16.6422440479
 20
12.039910008
 30
0.0
 10
16.6445759047
 20
12.0351581834
 30
0.0
  0
SPLINE
  5
282
100
AcDbEntity
  8
0
100
AcDbSpline
 62
7
  6
CONTINUOUS
 70
0
 71
3
 72
10
 73
6
 74
0
 42
0.0000001
 43
0.0000001
 44
0.0000000001
 40
0.0
 40
0.0
 40
0.0
 40
0.0
 40
0.2341427944
 40
0.475354492
 40
1.0
 40
1.0
 40
1.0
 40
1.0
 10
16.439370422
 20
11.9656180322
 30
0.0
 10
16.4407469268
 20
11.9700739469
 30
0.0
 10
16.4425541414
 20
11.9794589136
 30
0.0
 10
16.4421258023
 20
11.9994864015
 30
0.0
 10
16.4372105345
 20
12.0143562771
 30
0.0
 10
16.4326068853
 20
12.0237375278
 30
0.0
  0
SPLINE
  5
283
100
AcDbEntity
  8
0
100
AcDbSpline
 62
7
  6
CONTINUOUS
 70
0
 71
3
 72
10
 73
6
 74
0
 42
0.0000001
 43
0.0000001
 44
0.0000000001
 40
0.0
 40
0.0
 40
0.0
 40
0.0
 40
0.2341451507
 40
0.4753625673
 40
1.0
 40
1.0
 40
1.0
 40
1.0
 10
17.01956649
 20
11.9656179812
 30
0.0
 10
17.0209436287
 20
11.970073747
 30
0.0
 10
17.0227493633
 20
11.9794592568
 30
0.0
 10
17.0223220608
 20
11.9994865404
 30
0.0
 10
17.0174063634
 20
12.0143564256
 30
0.0
 10
17.0128027871
 20
12.0237375278
 30
0.0
  0
SPLINE
  5
284
100
AcDbEntity
  8
0
100
AcDbSpline
 62
7
  6
CONTINUOUS
 70
0
 71
3
 72
11
 73
7
 74
0
 42
0.0000001
 43
0.0000001
 44
0.0000000001
 40
0.0
 40
0.0
 40
0.0
 40
0.0
 40
0.2336854563
 40
0.4744444727
 40
0.7285054322
 40
1.0
 40
1.0
 40
1.0
 40
1.0
 10
15.2789777887
 20
11.9656182887
 30
0.0
 10
15.2803545334
 20
11.9700738466
 30
0.0
 10
15.2821641208
 20
11.9794556428
 30
0.0
 10
15.2818456762
 20
11.9940866916
 30
0.0
 10
15.2785608782
 20
12.0091070524
 30
0.0
 10
15.2746019112
 20
12.018873681
 30
0.0
 10
15.2722150819
 20
12.0237375278
 30
0.0
  0
SPLINE
  5
285
100
AcDbEntity
  8
0
100
AcDbSpline
 62
7
  6
CONTINUOUS
 70
0
 71
3
 72
9
 73
5
 74
0
 42
0.0000001
 43
0.0000001
 44
0.0000000001
 40
0.0
 40
0.0
 40
0.0
 40
0.0
 40
0.5259280456
 40
1.0
 40
1.0
 40
1.0
 40
1.0
 10
14.1062188347
 20
12.0351581834
 30
0.0
 10
14.104991389
 20
12.0376594547
 30
0.0
 10
14.1032722724
 20
12.0427916087
 30
0.0
 10
14.1036737859
 20
12.0482571687
 30
0.0
 10
14.1044151566
 20
12.0506567463
 30
0.0
  0
SPLINE
  5
286
100
AcDbEntity
  8
0
100
AcDbSpline
 62
7
  6
CONTINUOUS
 70
0
 71
3
 72
11
 73
7
 74
0
 42
0.0000001
 43
0.0000001
 44
0.0000000001
 40
0.0
 40
0.0
 40
0.0
 40
0.0
 40
0.2336627515
 40
0.4744485601
 40
0.7285753422
 40
1.0
 40
1.0
 40
1.0
 40
1.0
 10
14.1185860772
 20
11.9656182626
 30
0.0
 10
14.1199637551
 20
11.9700730424
 30
0.0
 10
14.1217713224
 20
11.9794553565
 30
0.0
 10
14.121454945
 20
11.9940877552
 30
0.0
 10
14.1181663546
 20
12.0091078033
 30
0.0
 10
14.1142094856
 20
12.0188749488
 30
0.0
 10
14.1118232784
 20
12.0237375278
 30
0.0
  0
SPLINE
  5
287
100
AcDbEntity
  8
0
100
AcDbSpline
 62
7
  6
CONTINUOUS
 70
0
 71
3
 72
9
 73
5
 74
0
 42
0.0000001
 43
0.0000001
 44
0.0000000001
 40
0.0
 40
0.0
 40
0.0
 40
0.0
 40
0.5259280456
 40
1.0
 40
1.0
 40
1.0
 40
1.0
 10
14.6864147364
 20
12.0351581834
 30
0.0
 10
14.6851872907
 20
12.0376594547
 30
0.0
 10
14.6834681742
 20
12.0427916087
 30
0.0
 10
14.6838696877
 20
12.0482571687
 30
0.0
 10
14.6846110583
 20
12.0506567463
 30
0.0
  0
SPLINE
  5
288
100
AcDbEntity
  8
0
100
AcDbSpline
 62
7
  6
CONTINUOUS
 70
0
 71
3
 72
9
 73
5
 74
0
 42
0.0000001
 43
0.0000001
 44
0.0000000001
 40
0.0
 40
0.0
 40
0.0
 40
0.0
 40
0.5259280456
 40
1.0
 40
1.0
 40
1.0
 40
1.0
 10
15.2666106381
 20
12.0351581834
 30
0.0
 10
15.2653831925
 20
12.0376594547
 30
0.0
 10
15.2636640759
 20
12.0427916087
 30
0.0
 10
15.2640655894
 20
12.0482571687
 30
0.0
 10
15.2648069601
 20
12.0506567463
 30
0.0
  0
SPLINE
  5
289
100
AcDbEntity
  8
0
100
AcDbSpline
 62
7
  6
CONTINUOUS
 70
0
 71
3
 72
9
 73
5
 74
0
 42
0.0000001
 43
0.0000001
 44
0.0000000001
 40
0.0
 40
0.0
 40
0.0
 40
0.0
 40
0.5259280456
 40
1.0
 40
1.0
 40
1.0
 40
1.0
 10
15.8468065399
 20
12.0351581834
 30
0.0
 10
15.8455790942
 20
12.0376594547
 30
0.0
 10
15.8438599776
 20
12.0427916087
 30
0.0
 10
15.8442614911
 20
12.0482571687
 30
0.0
 10
15.8450028618
 20
12.0506567463
 30
0.0
  0
SPLINE
  5
28A
100
AcDbEntity
  8
0
100
AcDbSpline
 62
7
  6
CONTINUOUS
 70
0
 71
3
 72
10
 73
6
 74
0
 42
0.0000001
 43
0.0000001
 44
0.0000000001
 40
0.0
 40
0.0
 40
0.0
 40
0.0
 40
0.2341376902
 40
0.4753497772
 40
1.0
 40
1.0
 40
1.0
 40
1.0
 10
15.8591741102
 20
11.9656181584
 30
0.0
 10
15.8605505859
 20
11.9700739762
 30
0.0
 10
15.8623587368
 20
11.9794586708
 30
0.0
 10
15.8619297104
 20
11.9994862542
 30
0.0
 10
15.8570146747
 20
12.0143561918
 30
0.0
 10
15.8524109836
 20
12.0237375278
 30
0.0
  0
SPLINE
  5
28B
100
AcDbEntity
  8
0
100
AcDbSpline
 62
7
  6
CONTINUOUS
 70
0
 71
3
 72
9
 73
5
 74
0
 42
0.0000001
 43
0.0000001
 44
0.0000000001
 40
0.0
 40
0.0
 40
0.0
 40
0.0
 40
0.5259280456
 40
1.0
 40
1.0
 40
1.0
 40
1.0
 10
16.4270024416
 20
12.0351581834
 30
0.0
 10
16.4257749959
 20
12.0376594547
 30
0.0
 10
16.4240558794
 20
12.0427916087
 30
0.0
 10
16.4244573929
 20
12.0482571687
 30
0.0
 10
16.4251987635
 20
12.0506567463
 30
0.0
  0
SPLINE
  5
28C
100
AcDbEntity
  8
0
100
AcDbSpline
 62
7
  6
CONTINUOUS
 70
0
 71
3
 72
11
 73
7
 74
0
 42
0.0000001
 43
0.0000001
 44
0.0000000001
 40
0.0
 40
0.0
 40
0.0
 40
0.0
 40
0.2336745839
 40
0.4744432871
 40
0.7285352633
 40
1.0
 40
1.0
 40
1.0
 40
1.0
 10
14.6987817014
 20
11.965618348
 30
0.0
 10
14.7001589242
 20
11.9700735232
 30
0.0
 10
14.7019678769
 20
11.9794554453
 30
0.0
 10
14.7016502739
 20
11.994087083
 30
0.0
 10
14.6983638212
 20
12.0091073162
 30
0.0
 10
14.6944057434
 20
12.0188742232
 30
0.0
 10
14.6920191801
 20
12.0237375278
 30
0.0
  0
SPLINE
  5
28D
100
AcDbEntity
  8
0
100
AcDbSpline
 62
7
  6
CONTINUOUS
 70
0
 71
3
 72
9
 73
5
 74
0
 42
0.0000001
 43
0.0000001
 44
0.0000000001
 40
0.0
 40
0.0
 40
0.0
 40
0.0
 40
0.5259280456
 40
1.0
 40
1.0
 40
1.0
 40
1.0
 10
17.0071983433
 20
12.0351581834
 30
0.0
 10
17.0059708977
 20
12.0376594547
 30
0.0
 10
17.0042517811
 20
12.0427916087
 30
0.0
 10
17.0046532946
 20
12.0482571687
 30
0.0
 10
17.0053946653
 20
12.0506567463
 30
0.0
  0
ENDSEC
  0
SECTION
  2
OBJECTS
  0
DICTIONARY
  5
C
100
AcDbDictionary
280
0
281
1
  3
ACAD_GROUP
350
D
  3
ACAD_MLINESTYLE
350
17
  3
ACAD_LAYOUT
350
1A
  3
ACAD_PLOTSETTINGS
350
19
  3
ACAD_PLOTSTYLENAME
350
E
  0
DICTIONARY
  5
D
102
{ACAD_REACTORS
330
C
102
}
100
AcDbDictionary
280
0
281
1
  0
ACDBDICTIONARYWDFLT
  5
E
102
{ACAD_REACTORS
330
C
102
}
100
AcDbDictionary
281
1
  3
Normal
350
F
100
AcDbDictionaryWithDefault
340
F
  0
DICTIONARY
  5
17
102
{ACAD_REACTORS
330
C
102
}
100
AcDbDictionary
280
0
281
1
  3
Standard
350
18
  0
DICTIONARY
  5
19
102
{ACAD_REACTORS
330
C
102
}
100
AcDbDictionary
281
1
  0
DICTIONARY
  5
1A
102
{ACAD_REACTORS
330
C
102
}
100
AcDbDictionary
281
1
  3
Model
350
28E
  3
Layout1
350
28F
  0
ACDBPLACEHOLDER
  5
F
102
{ACAD_REACTORS
330
E
102
}
  0
MLINESTYLE
  5
18
102
{ACAD_REACTORS
330
17
102
}
100
AcDbMlineStyle
  2
STANDARD
 70
0
  3

 62
256
 51
90.0
 52
90.0
 71
2
 49
0.5
 62
256
  6
BYLAYER
 49
-0.5
 62
256
  6
BYLAYER
  0
LAYOUT
  5
28E
102
{ACAD_REACTORS
330
1A
102
}
100
AcDbPlotSettings
  1

  2
none_device
  4
ANSI_C_(22.00_x_17.00_Inches)
  6

 40
0.0
 41
0.0
 42
0.0
 43
0.0
 44
558.8
 45
431.8
 46
0.0
 47
0.0
 48
0.0
 49
0.0
140
0.0
141
0.0
142
1.0
143
1.0
 70
1024
 72
0
 73
0
 74
0
  7

 75
0
147
1.0
148
0.0
149
0.0
100
AcDbLayout
  1
Model
 70
0
 71
0
 10
0.0
 20
0.0
 11
22.0
 21
17.0
 12
0.0
 22
0.0
 32
0.0
 14
0.0
 24
0.0
 34
0.0
 15
0.0
 25
0.0
 35
0.0
146
0.0
 13
0.0
 23
0.0
 33
0.0
 16
1.0
 26
0.0
 36
0.0
 17
0.0
 27
1.0
 37
0.0
 76
0
330
216
345
0
346
0
  0
LAYOUT
  5
28F
102
{ACAD_REACTORS
330
1A
102
}
100
AcDbPlotSettings
  1

  2
none_device
  4
ANSI_C_(22.00_x_17.00_Inches)
  6

 40
0.0
 41
0.0
 42
0.0
 43
0.0
 44
558.8
 45
431.8
 46
0.0
 47
0.0
 48
0.0
 49
0.0
140
0.0
141
0.0
142
1.0
143
1.0
 70
0
 72
0
 73
0
 74
0
  7

 75
0
147
1.0
148
0.0
149
0.0
100
AcDbLayout
  1
Layout1
 70
0
 71
1
 10
0.0
 20
0.0
 11
22.0
 21
17.0
 12
0.0
 22
0.0
 32
0.0
 14
0.0
 24
0.0
 34
0.0
 15
0.0
 25
0.0
 35
0.0
146
0.0
 13
0.0
 23
0.0
 33
0.0
 16
1.0
 26
0.0
 36
0.0
 17
0.0
 27
1.0
 37
0.0
 76
0
330
217
345
0
346
0
  0
ENDSEC
  0
EOF