999
DXF file: _cgs_temp_output.dxf
999
Pro/ENGINEER 2016360 by Parametric Technology Corporation
  0
SECTION
  2
HEADER
  9
$ACADVER
  1
AC1021
  9
$DWGCODEPAGE
  3
ANSI_1252
  9
$EXTMAX
 10
22.0
 20
17.0
 30
0.0
  9
$EXTMIN
 10
0.0
 20
0.0
 30
0.0
  9
$LIMMIN
 10
0.0
 20
0.0
  9
$LIMMAX
 10
22.0
 20
17.0
  9
$VIEWCTR
 10
11.0
 20
8.5
  9
$VIEWSIZE
 40
17.0
  9
$CLAYER
  8
0
  9
$LTSCALE
 40
1.21
  9
$CELTYPE
  6
BYLAYER
  9
$DIMSCALE
 40
1.0
  9
$DIMASZ
 40
0.1875
  9
$DIMEXO
 40
0.0625
  9
$DIMDLI
 40
0.836
  9
$DIMEXE
 40
0.125
  9
$DIMCEN
 40
0.198
  9
$DIMLFAC
 40
1.0
  9
$DIMBLK
  1
_CLOSED
  9
$DIMALT
 70
0
  9
$DIMALTF
 40
25.4
  9
$DIMTXT
 40
0.15625
  9
$DIMTOL
 70
0
  9
$DIMLIM
 70
0
  9
$DIMTFAC
 40
1.0
  9
$DIMGAP
 40
0.09
  9
$DIMDSEP
 70
46
  9
$AUNITS
 70
0
  9
$PDMODE
 70
3
  9
$PDSIZE
 40
0.3125
  9
$HANDSEED
  5
690
  9
$TILEMODE
 70
1
  9
$MEASUREMENT
 70
0
  9
$INSUNITS
 70
1
  0
ENDSEC
  0
SECTION
  2
CLASSES
  0
CLASS
  1
ACDBDICTIONARYWDFLT
  2
AcDbDictionaryWithDefault
  3
AutoCAD 2000
 90
0
 91
1
280
0
281
0
  0
CLASS
  1
ACDBPLACEHOLDER
  2
AcDbPlaceHolder
  3
AutoCAD 2000
 90
0
 91
1
280
0
281
0
  0
CLASS
  1
LAYOUT
  2
AcDbLayout
  3
AutoCAD 2000
 90
0
 91
0
280
0
281
0
  0
ENDSEC
  0
SECTION
  2
TABLES
  0
TABLE
  2
VPORT
  5
8
100
AcDbSymbolTable
 70
2
  0
VPORT
  5
1F4
100
AcDbSymbolTableRecord
100
AcDbViewportTableRecord
  2
*ACTIVE
 70
0
 10
0.0
 20
0.0
 11
1.0
 21
1.0
 12
11.0
 22
8.5
 13
0.0
 23
0.0
 14
1.0
 24
1.0
 15
0.0
 25
0.0
 16
0.0
 26
0.0
 36
1.0
 17
0.0
 27
0.0
 37
0.0
 40
17.0
 41
1.2941176471
 42
50.0
 43
0.0
 44
0.0
 50
0.0
 51
0.0
 71
0
 72
100
 73
1
 74
1
 75
0
 76
0
 77
0
 78
0
  0
ENDTAB
  0
TABLE
  2
LTYPE
  5
5
100
AcDbSymbolTable
 70
6
  0
LTYPE
  5
14
100
AcDbSymbolTableRecord
100
AcDbLinetypeTableRecord
  2
BYBLOCK
 70
0
  3

 72
65
 73
0
 40
0.0
  0
LTYPE
  5
15
100
AcDbSymbolTableRecord
100
AcDbLinetypeTableRecord
  2
BYLAYER
 70
0
  3

 72
65
 73
0
 40
0.0
  0
LTYPE
  5
16
100
AcDbSymbolTableRecord
100
AcDbLinetypeTableRecord
  2
CONTINUOUS
 70
64
  3
Solid line
 72
65
 73
0
 40
0.0
  0
LTYPE
  5
1F5
100
AcDbSymbolTableRecord
100
AcDbLinetypeTableRecord
  2
CENTER
 70
64
  3
____ _ ____ _ ____ _ ____ _ ____ _ ____ _ ____
 72
65
 73
4
 40
0.6
 49
0.375
 74
0
 49
-0.075
 74
0
 49
0.075
 74
0
 49
-0.075
 74
0
  0
LTYPE
  5
1F6
100
AcDbSymbolTableRecord
100
AcDbLinetypeTableRecord
  2
HIDDEN
 70
64
  3
- - - - - - - - - - - - - - - - - - - -
 72
65
 73
2
 40
0.2
 49
0.1
 74
0
 49
-0.1
 74
0
  0
LTYPE
  5
1F7
100
AcDbSymbolTableRecord
100
AcDbLinetypeTableRecord
  2
PHANTOM
 70
64
  3
_____ _ _ _____ _ _ _____ _ _ _____
 72
65
 73
6
 40
0.8
 49
0.45
 74
0
 49
-0.05
 74
0
 49
0.1
 74
0
 49
-0.05
 74
0
 49
0.1
 74
0
 49
-0.05
 74
0
  0
LTYPE
  5
1F8
100
AcDbSymbolTableRecord
100
AcDbLinetypeTableRecord
  2
DOT
 70
64
  3
. . . . . . . . . . . . . . . . . . . .
 72
65
 73
2
 40
0.2
 49
0.1
 74
0
 49
-0.1
 74
0
  0
LTYPE
  5
1F9
100
AcDbSymbolTableRecord
100
AcDbLinetypeTableRecord
  2
DASHED
 70
64
  3
- - - - - - - - - - - - - - - - - - - -
 72
65
 73
2
 40
0.2
 49
0.1
 74
0
 49
-0.1
 74
0
  0
ENDTAB
  0
TABLE
  2
LAYER
  5
2
100
AcDbSymbolTable
 70
36
  0
LAYER
  5
10
100
AcDbSymbolTableRecord
100
AcDbLayerTableRecord
  2
0
 70
0
 62
7
  6
CONTINUOUS
370
-3
390
F
  0
LAYER
  5
1FA
100
AcDbSymbolTableRecord
100
AcDbLayerTableRecord
  2
DEFAULT_1
 70
0
 62
7
  6
CENTER
370
-3
390
F
  0
LAYER
  5
1FB
100
AcDbSymbolTableRecord
100
AcDbLayerTableRecord
  2
DEFAULT_2
 70
0
 62
8
  6
HIDDEN
370
-3
390
F
  0
LAYER
  5
1FC
100
AcDbSymbolTableRecord
100
AcDbLayerTableRecord
  2
DEFAULT_3
 70
0
 62
7
  6
PHANTOM
370
-3
390
F
  0
LAYER
  5
1FD
100
AcDbSymbolTableRecord
100
AcDbLayerTableRecord
  2
01_ALL_DTM_PLN
 70
0
 62
7
  6
CONTINUOUS
370
-3
390
F
  0
LAYER
  5
1FE
100
AcDbSymbolTableRecord
100
AcDbLayerTableRecord
  2
01__ASM_ALL_DTM_PLN
 70
0
 62
7
  6
CONTINUOUS
370
-3
390
F
  0
LAYER
  5
1FF
100
AcDbSymbolTableRecord
100
AcDbLayerTableRecord
  2
01__ASM_DEF_DTM_PLN
 70
0
 62
7
  6
CONTINUOUS
370
-3
390
F
  0
LAYER
  5
200
100
AcDbSymbolTableRecord
100
AcDbLayerTableRecord
  2
01___PRT_ALL_DTM_PLN
 70
0
 62
7
  6
CONTINUOUS
370
-3
390
F
  0
LAYER
  5
201
100
AcDbSymbolTableRecord
100
AcDbLayerTableRecord
  2
01___PRT_DEF_DTM_PLN
 70
0
 62
7
  6
CONTINUOUS
370
-3
390
F
  0
LAYER
  5
202
100
AcDbSymbolTableRecord
100
AcDbLayerTableRecord
  2
02_ALL_AXES
 70
0
 62
7
  6
CONTINUOUS
370
-3
390
F
  0
LAYER
  5
203
100
AcDbSymbolTableRecord
100
AcDbLayerTableRecord
  2
02__ASM_ALL_AXES
 70
0
 62
7
  6
CONTINUOUS
370
-3
390
F
  0
LAYER
  5
204
100
AcDbSymbolTableRecord
100
AcDbLayerTableRecord
  2
02___PRT_ALL_AXES
 70
0
 62
7
  6
CONTINUOUS
370
-3
390
F
  0
LAYER
  5
205
100
AcDbSymbolTableRecord
100
AcDbLayerTableRecord
  2
03_ALL_CURVES
 70
0
 62
7
  6
CONTINUOUS
370
-3
390
F
  0
LAYER
  5
206
100
AcDbSymbolTableRecord
100
AcDbLayerTableRecord
  2
03__ASM_ALL_CURVES
 70
0
 62
7
  6
CONTINUOUS
370
-3
390
F
  0
LAYER
  5
207
100
AcDbSymbolTableRecord
100
AcDbLayerTableRecord
  2
03___PRT_ALL_CURVES
 70
0
 62
7
  6
CONTINUOUS
370
-3
390
F
  0
LAYER
  5
208
100
AcDbSymbolTableRecord
100
AcDbLayerTableRecord
  2
04_ALL_DTM_PNT
 70
0
 62
7
  6
CONTINUOUS
370
-3
390
F
  0
LAYER
  5
209
100
AcDbSymbolTableRecord
100
AcDbLayerTableRecord
  2
04__ASM_ALL_DTM_PNT
 70
0
 62
7
  6
CONTINUOUS
370
-3
390
F
  0
LAYER
  5
20A
100
AcDbSymbolTableRecord
100
AcDbLayerTableRecord
  2
04___PRT_ALL_DTM_PNT
 70
0
 62
7
  6
CONTINUOUS
370
-3
390
F
  0
LAYER
  5
20B
100
AcDbSymbolTableRecord
100
AcDbLayerTableRecord
  2
05_ALL_DTM_CSYS
 70
0
 62
7
  6
CONTINUOUS
370
-3
390
F
  0
LAYER
  5
20C
100
AcDbSymbolTableRecord
100
AcDbLayerTableRecord
  2
05__ASM_ALL_DTM_CSYS
 70
0
 62
7
  6
CONTINUOUS
370
-3
390
F
  0
LAYER
  5
20D
100
AcDbSymbolTableRecord
100
AcDbLayerTableRecord
  2
05__ASM_DEF_DTM_CSYS
 70
0
 62
7
  6
CONTINUOUS
370
-3
390
F
  0
LAYER
  5
20E
100
AcDbSymbolTableRecord
100
AcDbLayerTableRecord
  2
05___PRT_ALL_DTM_CSYS
 70
0
 62
7
  6
CONTINUOUS
370
-3
390
F
  0
LAYER
  5
20F
100
AcDbSymbolTableRecord
100
AcDbLayerTableRecord
  2
05___PRT_DEF_DTM_CSYS
 70
0
 62
7
  6
CONTINUOUS
370
-3
390
F
  0
LAYER
  5
210
100
AcDbSymbolTableRecord
100
AcDbLayerTableRecord
  2
06_ALL_SURFS
 70
0
 62
7
  6
CONTINUOUS
370
-3
390
F
  0
LAYER
  5
211
100
AcDbSymbolTableRecord
100
AcDbLayerTableRecord
  2
06__ASM_ALL_SURFS
 70
0
 62
7
  6
CONTINUOUS
370
-3
390
F
  0
LAYER
  5
212
100
AcDbSymbolTableRecord
100
AcDbLayerTableRecord
  2
06___PRT_ALL_SURFS
 70
0
 62
7
  6
CONTINUOUS
370
-3
390
F
  0
LAYER
  5
213
100
AcDbSymbolTableRecord
100
AcDbLayerTableRecord
  2
07__ASM_ALL_SKELETONS
 70
0
 62
7
  6
CONTINUOUS
370
-3
390
F
  0
LAYER
  5
214
100
AcDbSymbolTableRecord
100
AcDbLayerTableRecord
  2
DRAWINGS
 70
0
 62
7
  6
CONTINUOUS
370
-3
390
F
  0
LAYER
  5
215
100
AcDbSymbolTableRecord
100
AcDbLayerTableRecord
  2
SHELL
 70
0
 62
7
  6
CONTINUOUS
370
-3
390
F
  0
ENDTAB
  0
TABLE
  2
STYLE
  5
3
100
AcDbSymbolTable
 70
1
  0
STYLE
  5
11
100
AcDbSymbolTableRecord
100
AcDbTextStyleTableRecord
  2
STANDARD
 70
0
 40
0.0
 41
0.8
 50
0.0
 71
0
 42
0.2
  3
txt
  4

  0
STYLE
  5
216
100
AcDbSymbolTableRecord
100
AcDbTextStyleTableRecord
  2
TEXTSTYLE_1
 70
0
 40
0.0
 41
0.8
 50
0.0
 71
0
 42
0.2
  3
gdt
  4

  0
ENDTAB
  0
TABLE
  2
VIEW
  5
6
100
AcDbSymbolTable
 70
0
  0
ENDTAB
  0
TABLE
  2
UCS
  5
7
100
AcDbSymbolTable
 70
0
  0
ENDTAB
  0
TABLE
  2
APPID
  5
9
100
AcDbSymbolTable
 70
1
  0
APPID
  5
217
100
AcDbSymbolTableRecord
100
AcDbRegAppTableRecord
  2
ACAD
 70
0
  0
ENDTAB
  0
TABLE
  2
BLOCK_RECORD
  5
1
100
AcDbSymbolTable
 70
0
  0
BLOCK_RECORD
  5
218
100
AcDbSymbolTableRecord
100
AcDbBlockTableRecord
  2
*Model_Space
  0
BLOCK_RECORD
  5
219
100
AcDbSymbolTableRecord
100
AcDbBlockTableRecord
  2
*Paper_Space
  0
ENDTAB
  0
TABLE
  2
DIMSTYLE
  5
A
100
AcDbSymbolTable
 70
1
100
AcDbDimStyleTable
 71
0
  0
DIMSTYLE
105
21A
100
AcDbSymbolTableRecord
100
AcDbDimStyleTableRecord
  2
STANDARD
 70
0
  3

  4

 40
1.0
 41
0.1875
 42
0.0625
 43
0.38
 44
0.125
 45
0.0
 46
0.0
 47
0.0001
 48
0.0001
140
0.15625
141
0.09
142
0.0
143
25.4
144
1.0
145
0.0
146
1.0
147
0.09
 71
0.0
 72
0.0
 73
1
 74
1
 75
0
 76
0
 77
0
 78
4
 79
1
170
0
171
3
172
0
173
0
174
0
175
0
176
0
177
0
178
0
270
2
179
4
271
4
272
4
273
2
274
2
275
0
280
0
281
0
282
0
283
1
284
4
285
0
286
0
287
3
288
0
340
11
278
46
  0
ENDTAB
  0
ENDSEC
  0
SECTION
  2
BLOCKS
  0
BLOCK
  5
20
100
AcDbEntity
  8
0
100
AcDbBlockBegin
  2
*Model_Space
 70
0
 10
0.0
 20
0.0
 30
0.0
  3
*Model_Space
  1

  0
ENDBLK
  5
21
100
AcDbEntity
  8
0
100
AcDbBlockEnd
  0
BLOCK
  5
1C
100
AcDbEntity
  8
0
100
AcDbBlockBegin
  2
*Paper_Space
 70
0
 10
0.0
 20
0.0
 30
0.0
  3
*Paper_Space
  1

  0
ENDBLK
  5
1D
100
AcDbEntity
  8
0
100
AcDbBlockEnd
  0
ENDSEC
  0
SECTION
  2
ENTITIES
  0
MTEXT
  5
21B
100
AcDbEntity
  8
0
100
AcDbMText
 62
7
  6
CONTINUOUS
  7
STANDARD
 71
1
 72
1
 10
15.9560215477
 20
0.9479130325
 30
0.0
 11
1.0
 21
0.0
 31
0.0
 44
0.9
  1
SCALE: 1:0.333
 40
0.3
 41
3.36
  0
LINE
  5
21C
100
AcDbEntity
  8
0
100
AcDbLine
 62
7
  6
CONTINUOUS
 10
0.0
 20
0.0
 11
0.0
 21
17.0
  0
LINE
  5
21D
100
AcDbEntity
  8
0
100
AcDbLine
 62
7
  6
CONTINUOUS
 10
0.0
 20
0.0
 11
22.0
 21
0.0
  0
LINE
  5
21E
100
AcDbEntity
  8
0
100
AcDbLine
 62
7
  6
CONTINUOUS
 10
0.0
 20
17.0
 11
22.0
 21
17.0
  0
LINE
  5
21F
100
AcDbEntity
  8
0
100
AcDbLine
 62
7
  6
CONTINUOUS
 10
22.0
 20
0.0
 11
22.0
 21
17.0
  0
LINE
  5
220
100
AcDbEntity
  8
0
100
AcDbLine
 62
7
  6
CONTINUOUS
 10
3.9637006121
 20
5.2217865634
 11
3.9637006121
 21
5.1875986391
  0
LINE
  5
221
100
AcDbEntity
  8
0
100
AcDbLine
 62
7
  6
CONTINUOUS
 10
4.1453672788
 20
5.0384532301
 11
4.1453281069
 21
5.0467865634
  0
LINE
  5
222
100
AcDbEntity
  8
0
100
AcDbLine
 62
7
  6
CONTINUOUS
 10
4.2437278948
 20
5.3560675533
 11
4.2437278948
 21
5.3601198968
  0
LINE
  5
223
100
AcDbEntity
  8
0
100
AcDbLine
 62
7
  6
CONTINUOUS
 10
4.3303672788
 20
5.0134532301
 11
4.3303672788
 21
5.2967865634
  0
LINE
  5
224
100
AcDbEntity
  8
0
100
AcDbLine
 62
7
  6
CONTINUOUS
 10
4.3470339455
 20
5.3601198968
 11
4.3470339455
 21
5.3684533881
  0
LINE
  5
225
100
AcDbEntity
  8
0
100
AcDbLine
 62
7
  6
CONTINUOUS
 10
4.3637730173
 20
5.3850471749
 11
4.3665733101
 21
6.0268229243
  0
LINE
  5
226
100
AcDbEntity
  8
0
100
AcDbLine
 62
7
  6
CONTINUOUS
 10
4.3941612475
 20
6.0268229243
 11
4.3969615403
 21
5.3850471749
  0
LINE
  5
227
100
AcDbEntity
  8
0
100
AcDbLine
 62
7
  6
CONTINUOUS
 10
4.4137006121
 20
5.3684533881
 11
4.4137006121
 21
5.3601198968
  0
LINE
  5
228
100
AcDbEntity
  8
0
100
AcDbLine
 62
7
  6
CONTINUOUS
 10
4.6428672788
 20
5.1907963683
 11
4.6428672788
 21
5.2927767586
  0
LINE
  5
229
100
AcDbEntity
  8
0
100
AcDbLine
 62
7
  6
CONTINUOUS
 10
4.6470339455
 20
5.2959468195
 11
4.6470339455
 21
5.1876263074
  0
LINE
  5
22A
100
AcDbEntity
  8
0
100
AcDbLine
 62
7
  6
CONTINUOUS
 10
4.7437278948
 20
5.3560675533
 11
4.7437278948
 21
5.3601198968
  0
LINE
  5
22B
100
AcDbEntity
  8
0
100
AcDbLine
 62
7
  6
CONTINUOUS
 10
4.7970339455
 20
5.1867865634
 11
4.7970339455
 21
5.2217865634
  0
LINE
  5
22C
100
AcDbEntity
  8
0
100
AcDbLine
 62
7
  6
CONTINUOUS
 10
4.8941612475
 20
6.0268229243
 11
4.8969615403
 21
5.3850471749
  0
LINE
  5
22D
100
AcDbEntity
  8
0
100
AcDbLine
 62
7
  6
CONTINUOUS
 10
4.8303672788
 20
5.0134532301
 11
4.8303672788
 21
5.2967865634
  0
LINE
  5
22E
100
AcDbEntity
  8
0
100
AcDbLine
 62
7
  6
CONTINUOUS
 10
4.8470339455
 20
5.3601198968
 11
4.8470339455
 21
5.3684533881
  0
LINE
  5
22F
100
AcDbEntity
  8
0
100
AcDbLine
 62
7
  6
CONTINUOUS
 10
4.9137006121
 20
5.3684533881
 11
4.9137006121
 21
5.3601198968
  0
LINE
  5
230
100
AcDbEntity
  8
0
100
AcDbLine
 62
7
  6
CONTINUOUS
 10
4.8637730173
 20
5.3850471749
 11
4.8665733101
 21
6.0268229243
  0
LINE
  5
231
100
AcDbEntity
  8
0
100
AcDbLine
 62
7
  6
CONTINUOUS
 10
4.6470339455
 20
5.1876263074
 11
4.6428672788
 21
5.1907963683
  0
LINE
  5
232
100
AcDbEntity
  8
0
100
AcDbLine
 62
7
  6
CONTINUOUS
 10
5.1428672788
 20
5.1907963683
 11
5.1428672788
 21
5.2927767586
  0
LINE
  5
233
100
AcDbEntity
  8
0
100
AcDbLine
 62
7
  6
CONTINUOUS
 10
5.1470339455
 20
5.2959468195
 11
5.1470339455
 21
5.1876263074
  0
LINE
  5
234
100
AcDbEntity
  8
0
100
AcDbLine
 62
7
  6
CONTINUOUS
 10
5.2437278948
 20
5.3560675533
 11
5.2437278948
 21
5.3601198968
  0
LINE
  5
235
100
AcDbEntity
  8
0
100
AcDbLine
 62
7
  6
CONTINUOUS
 10
5.3941612475
 20
6.0268229243
 11
5.3969615403
 21
5.3850471749
  0
LINE
  5
236
100
AcDbEntity
  8
0
100
AcDbLine
 62
7
  6
CONTINUOUS
 10
5.2970339455
 20
5.1867865634
 11
5.2970339455
 21
5.2217865634
  0
LINE
  5
237
100
AcDbEntity
  8
0
100
AcDbLine
 62
7
  6
CONTINUOUS
 10
5.3303672788
 20
5.0134532301
 11
5.3303672788
 21
5.2967865634
  0
LINE
  5
238
100
AcDbEntity
  8
0
100
AcDbLine
 62
7
  6
CONTINUOUS
 10
5.3470339455
 20
5.3601198968
 11
5.3470339455
 21
5.3684533881
  0
LINE
  5
239
100
AcDbEntity
  8
0
100
AcDbLine
 62
7
  6
CONTINUOUS
 10
5.3637730173
 20
5.3850471749
 11
5.3665733101
 21
6.0268229243
  0
LINE
  5
23A
100
AcDbEntity
  8
0
100
AcDbLine
 62
7
  6
CONTINUOUS
 10
5.1470339455
 20
5.1876263074
 11
5.1428672788
 21
5.1907963683
  0
LINE
  5
23B
100
AcDbEntity
  8
0
100
AcDbLine
 62
7
  6
CONTINUOUS
 10
5.4137006121
 20
5.3684533881
 11
5.4137006121
 21
5.3601198968
  0
LINE
  5
23C
100
AcDbEntity
  8
0
100
AcDbLine
 62
7
  6
CONTINUOUS
 10
4.6870685387
 20
5.007301249
 11
4.7245248507
 21
5.0415257313
  0
LINE
  5
23D
100
AcDbEntity
  8
0
100
AcDbLine
 62
7
  6
CONTINUOUS
 10
4.6428672788
 20
5.2927767586
 11
4.6470339455
 21
5.2959468195
  0
LINE
  5
23E
100
AcDbEntity
  8
0
100
AcDbLine
 62
7
  6
CONTINUOUS
 10
5.6428672788
 20
5.1907963683
 11
5.6428672788
 21
5.2927767586
  0
LINE
  5
23F
100
AcDbEntity
  8
0
100
AcDbLine
 62
7
  6
CONTINUOUS
 10
5.6470339455
 20
5.2959468195
 11
5.6470339455
 21
5.1876263074
  0
LINE
  5
240
100
AcDbEntity
  8
0
100
AcDbLine
 62
7
  6
CONTINUOUS
 10
4.2413009898
 20
5.0051198968
 11
4.6814473668
 21
5.0051198968
  0
LINE
  5
241
100
AcDbEntity
  8
0
100
AcDbLine
 62
7
  6
CONTINUOUS
 10
4.7413009898
 20
5.0051198968
 11
5.1814473668
 21
5.0051198968
  0
LINE
  5
242
100
AcDbEntity
  8
0
100
AcDbLine
 62
7
  6
CONTINUOUS
 10
5.2413009898
 20
5.0051198968
 11
5.6814473668
 21
5.0051198968
  0
LINE
  5
243
100
AcDbEntity
  8
0
100
AcDbLine
 62
7
  6
CONTINUOUS
 10
5.7413009898
 20
5.0051198968
 11
6.1814473668
 21
5.0051198968
  0
LINE
  5
244
100
AcDbEntity
  8
0
100
AcDbLine
 62
7
  6
CONTINUOUS
 10
6.2413009898
 20
5.0051198968
 11
6.6814473668
 21
5.0051198968
  0
LINE
  5
245
100
AcDbEntity
  8
0
100
AcDbLine
 62
7
  6
CONTINUOUS
 10
6.7413009898
 20
5.0051198968
 11
7.1814473668
 21
5.0051198968
  0
LINE
  5
246
100
AcDbEntity
  8
0
100
AcDbLine
 62
7
  6
CONTINUOUS
 10
7.2413009898
 20
5.0051198968
 11
7.6814473668
 21
5.0051198968
  0
LINE
  5
247
100
AcDbEntity
  8
0
100
AcDbLine
 62
7
  6
CONTINUOUS
 10
7.7413009898
 20
5.0051198968
 11
8.1814473668
 21
5.0051198968
  0
LINE
  5
248
100
AcDbEntity
  8
0
100
AcDbLine
 62
7
  6
CONTINUOUS
 10
4.1453672788
 20
5.0384532301
 11
4.1667653906
 21
5.0384532301
  0
LINE
  5
249
100
AcDbEntity
  8
0
100
AcDbLine
 62
7
  6
CONTINUOUS
 10
4.3445393724
 20
5.0751198968
 11
4.6034660454
 21
5.0751198968
  0
LINE
  5
24A
100
AcDbEntity
  8
0
100
AcDbLine
 62
7
  6
CONTINUOUS
 10
4.8445393724
 20
5.0751198968
 11
5.1034660454
 21
5.0751198968
  0
LINE
  5
24B
100
AcDbEntity
  8
0
100
AcDbLine
 62
7
  6
CONTINUOUS
 10
5.3445393724
 20
5.0751198968
 11
5.6034660454
 21
5.0751198968
  0
LINE
  5
24C
100
AcDbEntity
  8
0
100
AcDbLine
 62
7
  6
CONTINUOUS
 10
5.8445393724
 20
5.0751198968
 11
6.1034660454
 21
5.0751198968
  0
LINE
  5
24D
100
AcDbEntity
  8
0
100
AcDbLine
 62
7
  6
CONTINUOUS
 10
6.3445393724
 20
5.0751198968
 11
6.6034660454
 21
5.0751198968
  0
LINE
  5
24E
100
AcDbEntity
  8
0
100
AcDbLine
 62
7
  6
CONTINUOUS
 10
6.8445393724
 20
5.0751198968
 11
7.1034660454
 21
5.0751198968
  0
LINE
  5
24F
100
AcDbEntity
  8
0
100
AcDbLine
 62
7
  6
CONTINUOUS
 10
7.3445393724
 20
5.0751198968
 11
7.6034660454
 21
5.0751198968
  0
LINE
  5
250
100
AcDbEntity
  8
0
100
AcDbLine
 62
7
  6
CONTINUOUS
 10
7.8445393724
 20
5.0751198968
 11
8.1034660454
 21
5.0751198968
  0
LINE
  5
251
100
AcDbEntity
  8
0
100
AcDbLine
 62
7
  6
CONTINUOUS
 10
4.3153936388
 20
5.3051198968
 11
4.3133427802
 21
5.3053752424
  0
LINE
  5
252
100
AcDbEntity
  8
0
100
AcDbLine
 62
7
  6
CONTINUOUS
 10
5.6470339455
 20
5.1876263074
 11
5.6428672788
 21
5.1907963683
  0
LINE
  5
253
100
AcDbEntity
  8
0
100
AcDbLine
 62
7
  6
CONTINUOUS
 10
5.7437278948
 20
5.3560675533
 11
5.7437278948
 21
5.3601198968
  0
LINE
  5
254
100
AcDbEntity
  8
0
100
AcDbLine
 62
7
  6
CONTINUOUS
 10
5.7970339455
 20
5.1867865634
 11
5.7970339455
 21
5.2217865634
  0
LINE
  5
255
100
AcDbEntity
  8
0
100
AcDbLine
 62
7
  6
CONTINUOUS
 10
5.8303672788
 20
5.0134532301
 11
5.8303672788
 21
5.2967865634
  0
LINE
  5
256
100
AcDbEntity
  8
0
100
AcDbLine
 62
7
  6
CONTINUOUS
 10
5.8470339455
 20
5.3601198968
 11
5.8470339455
 21
5.3684533881
  0
LINE
  5
257
100
AcDbEntity
  8
0
100
AcDbLine
 62
7
  6
CONTINUOUS
 10
5.1428672788
 20
5.2927767586
 11
5.1470339455
 21
5.2959468195
  0
LINE
  5
258
100
AcDbEntity
  8
0
100
AcDbLine
 62
7
  6
CONTINUOUS
 10
4.8153936388
 20
5.3051198968
 11
4.8133427802
 21
5.3053752424
  0
LINE
  5
259
100
AcDbEntity
  8
0
100
AcDbLine
 62
7
  6
CONTINUOUS
 10
5.3153936388
 20
5.3051198968
 11
5.3133427802
 21
5.3053752424
  0
LINE
  5
25A
100
AcDbEntity
  8
0
100
AcDbLine
 62
7
  6
CONTINUOUS
 10
5.8941612475
 20
6.0268229243
 11
5.8969615403
 21
5.3850471749
  0
LINE
  5
25B
100
AcDbEntity
  8
0
100
AcDbLine
 62
7
  6
CONTINUOUS
 10
5.9137006121
 20
5.3684533881
 11
5.9137006121
 21
5.3601198968
  0
LINE
  5
25C
100
AcDbEntity
  8
0
100
AcDbLine
 62
7
  6
CONTINUOUS
 10
5.8637730173
 20
5.3850471749
 11
5.8665733101
 21
6.0268229243
  0
LINE
  5
25D
100
AcDbEntity
  8
0
100
AcDbLine
 62
7
  6
CONTINUOUS
 10
5.1870685387
 20
5.007301249
 11
5.2245248507
 21
5.0415257313
  0
LINE
  5
25E
100
AcDbEntity
  8
0
100
AcDbLine
 62
7
  6
CONTINUOUS
 10
4.3153936388
 20
5.3051198968
 11
4.5720577599
 21
5.3051198968
  0
LINE
  5
25F
100
AcDbEntity
  8
0
100
AcDbLine
 62
7
  6
CONTINUOUS
 10
4.6886767978
 20
5.3051198968
 11
4.7539690806
 21
5.3051198968
  0
LINE
  5
260
100
AcDbEntity
  8
0
100
AcDbLine
 62
7
  6
CONTINUOUS
 10
4.8153936388
 20
5.3051198968
 11
5.0720577599
 21
5.3051198968
  0
LINE
  5
261
100
AcDbEntity
  8
0
100
AcDbLine
 62
7
  6
CONTINUOUS
 10
5.1886767978
 20
5.3051198968
 11
5.2539690806
 21
5.3051198968
  0
LINE
  5
262
100
AcDbEntity
  8
0
100
AcDbLine
 62
7
  6
CONTINUOUS
 10
5.3153936388
 20
5.3051198968
 11
5.5720577599
 21
5.3051198968
  0
LINE
  5
263
100
AcDbEntity
  8
0
100
AcDbLine
 62
7
  6
CONTINUOUS
 10
5.6886767978
 20
5.3051198968
 11
5.7539690806
 21
5.3051198968
  0
LINE
  5
264
100
AcDbEntity
  8
0
100
AcDbLine
 62
7
  6
CONTINUOUS
 10
5.8153936388
 20
5.3051198968
 11
6.0720577599
 21
5.3051198968
  0
LINE
  5
265
100
AcDbEntity
  8
0
100
AcDbLine
 62
7
  6
CONTINUOUS
 10
6.1886767978
 20
5.3051198968
 11
6.2539690806
 21
5.3051198968
  0
LINE
  5
266
100
AcDbEntity
  8
0
100
AcDbLine
 62
7
  6
CONTINUOUS
 10
6.3153936388
 20
5.3051198968
 11
6.5720577599
 21
5.3051198968
  0
LINE
  5
267
100
AcDbEntity
  8
0
100
AcDbLine
 62
7
  6
CONTINUOUS
 10
6.6886767978
 20
5.3051198968
 11
6.7539690806
 21
5.3051198968
  0
LINE
  5
268
100
AcDbEntity
  8
0
100
AcDbLine
 62
7
  6
CONTINUOUS
 10
6.8153936388
 20
5.3051198968
 11
7.0720577599
 21
5.3051198968
  0
LINE
  5
269
100
AcDbEntity
  8
0
100
AcDbLine
 62
7
  6
CONTINUOUS
 10
7.1886767978
 20
5.3051198968
 11
7.2539690806
 21
5.3051198968
  0
LINE
  5
26A
100
AcDbEntity
  8
0
100
AcDbLine
 62
7
  6
CONTINUOUS
 10
7.3153936388
 20
5.3051198968
 11
7.5720577599
 21
5.3051198968
  0
LINE
  5
26B
100
AcDbEntity
  8
0
100
AcDbLine
 62
7
  6
CONTINUOUS
 10
7.6886767978
 20
5.3051198968
 11
7.7539690806
 21
5.3051198968
  0
LINE
  5
26C
100
AcDbEntity
  8
0
100
AcDbLine
 62
7
  6
CONTINUOUS
 10
7.8153936388
 20
5.3051198968
 11
8.0720577599
 21
5.3051198968
  0
LINE
  5
26D
100
AcDbEntity
  8
0
100
AcDbLine
 62
7
  6
CONTINUOUS
 10
8.1886767978
 20
5.3051198968
 11
8.2539690806
 21
5.3051198968
  0
LINE
  5
26E
100
AcDbEntity
  8
0
100
AcDbLine
 62
7
  6
CONTINUOUS
 10
4.3470329017
 20
5.3601198968
 11
4.4137392095
 21
5.3601198968
  0
LINE
  5
26F
100
AcDbEntity
  8
0
100
AcDbLine
 62
7
  6
CONTINUOUS
 10
4.8470329017
 20
5.3601198968
 11
4.9137392095
 21
5.3601198968
  0
LINE
  5
270
100
AcDbEntity
  8
0
100
AcDbLine
 62
7
  6
CONTINUOUS
 10
5.3470329017
 20
5.3601198968
 11
5.4137392095
 21
5.3601198968
  0
LINE
  5
271
100
AcDbEntity
  8
0
100
AcDbLine
 62
7
  6
CONTINUOUS
 10
5.8470329017
 20
5.3601198968
 11
5.9137392095
 21
5.3601198968
  0
LINE
  5
272
100
AcDbEntity
  8
0
100
AcDbLine
 62
7
  6
CONTINUOUS
 10
6.3470329017
 20
5.3601198968
 11
6.4137392095
 21
5.3601198968
  0
LINE
  5
273
100
AcDbEntity
  8
0
100
AcDbLine
 62
7
  6
CONTINUOUS
 10
6.8470329017
 20
5.3601198968
 11
6.9137392095
 21
5.3601198968
  0
LINE
  5
274
100
AcDbEntity
  8
0
100
AcDbLine
 62
7
  6
CONTINUOUS
 10
7.3470329017
 20
5.3601198968
 11
7.4137392095
 21
5.3601198968
  0
LINE
  5
275
100
AcDbEntity
  8
0
100
AcDbLine
 62
7
  6
CONTINUOUS
 10
7.8470329017
 20
5.3601198968
 11
7.9137392095
 21
5.3601198968
  0
LINE
  5
276
100
AcDbEntity
  8
0
100
AcDbLine
 62
7
  6
CONTINUOUS
 10
7.7536850044
 20
5.3651198968
 11
7.7440147386
 21
5.3651198968
  0
LINE
  5
277
100
AcDbEntity
  8
0
100
AcDbLine
 62
7
  6
CONTINUOUS
 10
7.2536850044
 20
5.3651198968
 11
7.2440147386
 21
5.3651198968
  0
LINE
  5
278
100
AcDbEntity
  8
0
100
AcDbLine
 62
7
  6
CONTINUOUS
 10
6.7536850044
 20
5.3651198968
 11
6.7440147386
 21
5.3651198968
  0
LINE
  5
279
100
AcDbEntity
  8
0
100
AcDbLine
 62
7
  6
CONTINUOUS
 10
6.2536850044
 20
5.3651198968
 11
6.2440147386
 21
5.3651198968
  0
LINE
  5
27A
100
AcDbEntity
  8
0
100
AcDbLine
 62
7
  6
CONTINUOUS
 10
5.7536850044
 20
5.3651198968
 11
5.7440147386
 21
5.3651198968
  0
LINE
  5
27B
100
AcDbEntity
  8
0
100
AcDbLine
 62
7
  6
CONTINUOUS
 10
5.2536850044
 20
5.3651198968
 11
5.2440147386
 21
5.3651198968
  0
LINE
  5
27C
100
AcDbEntity
  8
0
100
AcDbLine
 62
7
  6
CONTINUOUS
 10
4.7536850044
 20
5.3651198968
 11
4.7440147386
 21
5.3651198968
  0
LINE
  5
27D
100
AcDbEntity
  8
0
100
AcDbLine
 62
7
  6
CONTINUOUS
 10
4.2536850044
 20
5.3651198968
 11
4.2440147386
 21
5.3651198968
  0
LINE
  5
27E
100
AcDbEntity
  8
0
100
AcDbLine
 62
7
  6
CONTINUOUS
 10
8.1503672788
 20
5.3684532301
 11
7.9137006121
 21
5.3684532301
  0
LINE
  5
27F
100
AcDbEntity
  8
0
100
AcDbLine
 62
7
  6
CONTINUOUS
 10
4.1103672788
 20
5.3684532301
 11
4.3470339455
 21
5.3684532301
  0
LINE
  5
280
100
AcDbEntity
  8
0
100
AcDbLine
 62
7
  6
CONTINUOUS
 10
4.4137006121
 20
5.3684532301
 11
4.8470339455
 21
5.3684532301
  0
LINE
  5
281
100
AcDbEntity
  8
0
100
AcDbLine
 62
7
  6
CONTINUOUS
 10
4.9137006121
 20
5.3684532301
 11
5.3470339455
 21
5.3684532301
  0
LINE
  5
282
100
AcDbEntity
  8
0
100
AcDbLine
 62
7
  6
CONTINUOUS
 10
5.4137006121
 20
5.3684532301
 11
5.8470339455
 21
5.3684532301
  0
LINE
  5
283
100
AcDbEntity
  8
0
100
AcDbLine
 62
7
  6
CONTINUOUS
 10
5.9137006121
 20
5.3684532301
 11
6.3470339455
 21
5.3684532301
  0
LINE
  5
284
100
AcDbEntity
  8
0
100
AcDbLine
 62
7
  6
CONTINUOUS
 10
6.4137006121
 20
5.3684532301
 11
6.8470339455
 21
5.3684532301
  0
LINE
  5
285
100
AcDbEntity
  8
0
100
AcDbLine
 62
7
  6
CONTINUOUS
 10
6.9137006121
 20
5.3684532301
 11
7.3470339455
 21
5.3684532301
  0
LINE
  5
286
100
AcDbEntity
  8
0
100
AcDbLine
 62
7
  6
CONTINUOUS
 10
7.4137006121
 20
5.3684532301
 11
7.8470339455
 21
5.3684532301
  0
LINE
  5
287
100
AcDbEntity
  8
0
100
AcDbLine
 62
7
  6
CONTINUOUS
 10
4.3950137378
 20
5.3684544662
 11
4.3657204584
 21
5.3684544801
  0
LINE
  5
288
100
AcDbEntity
  8
0
100
AcDbLine
 62
7
  6
CONTINUOUS
 10
4.8950137378
 20
5.3684544662
 11
4.8657204584
 21
5.3684544801
  0
LINE
  5
289
100
AcDbEntity
  8
0
100
AcDbLine
 62
7
  6
CONTINUOUS
 10
5.3950137378
 20
5.3684544662
 11
5.3657204584
 21
5.3684544801
  0
LINE
  5
28A
100
AcDbEntity
  8
0
100
AcDbLine
 62
7
  6
CONTINUOUS
 10
5.8950137378
 20
5.3684544662
 11
5.8657204584
 21
5.3684544801
  0
LINE
  5
28B
100
AcDbEntity
  8
0
100
AcDbLine
 62
7
  6
CONTINUOUS
 10
6.3950137378
 20
5.3684544662
 11
6.3657204584
 21
5.3684544801
  0
LINE
  5
28C
100
AcDbEntity
  8
0
100
AcDbLine
 62
7
  6
CONTINUOUS
 10
6.8950137378
 20
5.3684544662
 11
6.8657204584
 21
5.3684544801
  0
LINE
  5
28D
100
AcDbEntity
  8
0
100
AcDbLine
 62
7
  6
CONTINUOUS
 10
7.3950137378
 20
5.3684544662
 11
7.3657204584
 21
5.3684544801
  0
LINE
  5
28E
100
AcDbEntity
  8
0
100
AcDbLine
 62
7
  6
CONTINUOUS
 10
7.8950137378
 20
5.3684544662
 11
7.8657204584
 21
5.3684544801
  0
LINE
  5
28F
100
AcDbEntity
  8
0
100
AcDbLine
 62
7
  6
CONTINUOUS
 10
5.8153936388
 20
5.3051198968
 11
5.8133427802
 21
5.3053752424
  0
LINE
  5
290
100
AcDbEntity
  8
0
100
AcDbLine
 62
7
  6
CONTINUOUS
 10
6.3153936388
 20
5.3051198968
 11
6.3133427802
 21
5.3053752424
  0
LINE
  5
291
100
AcDbEntity
  8
0
100
AcDbLine
 62
7
  6
CONTINUOUS
 10
6.8153936388
 20
5.3051198968
 11
6.8133427802
 21
5.3053752424
  0
LINE
  5
292
100
AcDbEntity
  8
0
100
AcDbLine
 62
7
  6
CONTINUOUS
 10
6.1470339455
 20
5.1876263074
 11
6.1428672788
 21
5.1907963683
  0
LINE
  5
293
100
AcDbEntity
  8
0
100
AcDbLine
 62
7
  6
CONTINUOUS
 10
6.1428672788
 20
5.1907963683
 11
6.1428672788
 21
5.2927767586
  0
LINE
  5
294
100
AcDbEntity
  8
0
100
AcDbLine
 62
7
  6
CONTINUOUS
 10
6.1470339455
 20
5.2959468195
 11
6.1470339455
 21
5.1876263074
  0
LINE
  5
295
100
AcDbEntity
  8
0
100
AcDbLine
 62
7
  6
CONTINUOUS
 10
5.6428672788
 20
5.2927767586
 11
5.6470339455
 21
5.2959468195
  0
LINE
  5
296
100
AcDbEntity
  8
0
100
AcDbLine
 62
7
  6
CONTINUOUS
 10
7.3153936388
 20
5.3051198968
 11
7.3133427802
 21
5.3053752424
  0
LINE
  5
297
100
AcDbEntity
  8
0
100
AcDbLine
 62
7
  6
CONTINUOUS
 10
7.8153936388
 20
5.3051198968
 11
7.8133427802
 21
5.3053752424
  0
LINE
  5
298
100
AcDbEntity
  8
0
100
AcDbLine
 62
7
  6
CONTINUOUS
 10
6.2437278948
 20
5.3560675533
 11
6.2437278948
 21
5.3601198968
  0
LINE
  5
299
100
AcDbEntity
  8
0
100
AcDbLine
 62
7
  6
CONTINUOUS
 10
6.2970339455
 20
5.1867865634
 11
6.2970339455
 21
5.2217865634
  0
LINE
  5
29A
100
AcDbEntity
  8
0
100
AcDbLine
 62
7
  6
CONTINUOUS
 10
5.6870685387
 20
5.007301249
 11
5.7245248507
 21
5.0415257313
  0
LINE
  5
29B
100
AcDbEntity
  8
0
100
AcDbLine
 62
7
  6
CONTINUOUS
 10
6.6470339455
 20
5.1876263074
 11
6.6428672788
 21
5.1907963683
  0
LINE
  5
29C
100
AcDbEntity
  8
0
100
AcDbLine
 62
7
  6
CONTINUOUS
 10
6.3941612475
 20
6.0268229243
 11
6.3969615403
 21
5.3850471749
  0
LINE
  5
29D
100
AcDbEntity
  8
0
100
AcDbLine
 62
7
  6
CONTINUOUS
 10
6.3303672788
 20
5.0134532301
 11
6.3303672788
 21
5.2967865634
  0
LINE
  5
29E
100
AcDbEntity
  8
0
100
AcDbLine
 62
7
  6
CONTINUOUS
 10
6.3470339455
 20
5.3601198968
 11
6.3470339455
 21
5.3684533881
  0
LINE
  5
29F
100
AcDbEntity
  8
0
100
AcDbLine
 62
7
  6
CONTINUOUS
 10
6.4137006121
 20
5.3684533881
 11
6.4137006121
 21
5.3601198968
  0
LINE
  5
2A0
100
AcDbEntity
  8
0
100
AcDbLine
 62
7
  6
CONTINUOUS
 10
6.3637730173
 20
5.3850471749
 11
6.3665733101
 21
6.0268229243
  0
LINE
  5
2A1
100
AcDbEntity
  8
0
100
AcDbLine
 62
7
  6
CONTINUOUS
 10
6.1428672788
 20
5.2927767586
 11
6.1470339455
 21
5.2959468195
  0
LINE
  5
2A2
100
AcDbEntity
  8
0
100
AcDbLine
 62
7
  6
CONTINUOUS
 10
6.1870685387
 20
5.007301249
 11
6.2245248507
 21
5.0415257313
  0
LINE
  5
2A3
100
AcDbEntity
  8
0
100
AcDbLine
 62
7
  6
CONTINUOUS
 10
7.1470339455
 20
5.1876263074
 11
7.1428672788
 21
5.1907963683
  0
LINE
  5
2A4
100
AcDbEntity
  8
0
100
AcDbLine
 62
7
  6
CONTINUOUS
 10
6.6428672788
 20
5.1907963683
 11
6.6428672788
 21
5.2927767586
  0
LINE
  5
2A5
100
AcDbEntity
  8
0
100
AcDbLine
 62
7
  6
CONTINUOUS
 10
6.6470339455
 20
5.2959468195
 11
6.6470339455
 21
5.1876263074
  0
LINE
  5
2A6
100
AcDbEntity
  8
0
100
AcDbLine
 62
7
  6
CONTINUOUS
 10
6.7437278948
 20
5.3560675533
 11
6.7437278948
 21
5.3601198968
  0
LINE
  5
2A7
100
AcDbEntity
  8
0
100
AcDbLine
 62
7
  6
CONTINUOUS
 10
6.6428672788
 20
5.2927767586
 11
6.6470339455
 21
5.2959468195
  0
LINE
  5
2A8
100
AcDbEntity
  8
0
100
AcDbLine
 62
7
  6
CONTINUOUS
 10
7.8858279935
 20
6.0351198968
 11
7.8749065641
 21
6.0351198968
  0
LINE
  5
2A9
100
AcDbEntity
  8
0
100
AcDbLine
 62
7
  6
CONTINUOUS
 10
7.3858279935
 20
6.0351198968
 11
7.3749065641
 21
6.0351198968
  0
LINE
  5
2AA
100
AcDbEntity
  8
0
100
AcDbLine
 62
7
  6
CONTINUOUS
 10
6.8858279935
 20
6.0351198968
 11
6.8749065641
 21
6.0351198968
  0
LINE
  5
2AB
100
AcDbEntity
  8
0
100
AcDbLine
 62
7
  6
CONTINUOUS
 10
6.3858279935
 20
6.0351198968
 11
6.3749065641
 21
6.0351198968
  0
LINE
  5
2AC
100
AcDbEntity
  8
0
100
AcDbLine
 62
7
  6
CONTINUOUS
 10
5.8858279935
 20
6.0351198968
 11
5.8749065641
 21
6.0351198968
  0
LINE
  5
2AD
100
AcDbEntity
  8
0
100
AcDbLine
 62
7
  6
CONTINUOUS
 10
5.3858279935
 20
6.0351198968
 11
5.3749065641
 21
6.0351198968
  0
LINE
  5
2AE
100
AcDbEntity
  8
0
100
AcDbLine
 62
7
  6
CONTINUOUS
 10
4.8858279935
 20
6.0351198968
 11
4.8749065641
 21
6.0351198968
  0
LINE
  5
2AF
100
AcDbEntity
  8
0
100
AcDbLine
 62
7
  6
CONTINUOUS
 10
4.3858279935
 20
6.0351198968
 11
4.3749065641
 21
6.0351198968
  0
LINE
  5
2B0
100
AcDbEntity
  8
0
100
AcDbLine
 62
7
  6
CONTINUOUS
 10
6.7970339455
 20
5.1867865634
 11
6.7970339455
 21
5.2217865634
  0
LINE
  5
2B1
100
AcDbEntity
  8
0
100
AcDbLine
 62
7
  6
CONTINUOUS
 10
6.8303672788
 20
5.0134532301
 11
6.8303672788
 21
5.2967865634
  0
LINE
  5
2B2
100
AcDbEntity
  8
0
100
AcDbLine
 62
7
  6
CONTINUOUS
 10
6.8470339455
 20
5.3601198968
 11
6.8470339455
 21
5.3684533881
  0
LINE
  5
2B3
100
AcDbEntity
  8
0
100
AcDbLine
 62
7
  6
CONTINUOUS
 10
6.8637730173
 20
5.3850471749
 11
6.8665733101
 21
6.0268229243
  0
LINE
  5
2B4
100
AcDbEntity
  8
0
100
AcDbLine
 62
7
  6
CONTINUOUS
 10
6.6870685387
 20
5.007301249
 11
6.7245248507
 21
5.0415257313
  0
LINE
  5
2B5
100
AcDbEntity
  8
0
100
AcDbLine
 62
7
  6
CONTINUOUS
 10
7.6470339455
 20
5.1876263074
 11
7.6428672788
 21
5.1907963683
  0
LINE
  5
2B6
100
AcDbEntity
  8
0
100
AcDbLine
 62
7
  6
CONTINUOUS
 10
6.8941612475
 20
6.0268229243
 11
6.8969615403
 21
5.3850471749
  0
LINE
  5
2B7
100
AcDbEntity
  8
0
100
AcDbLine
 62
7
  6
CONTINUOUS
 10
6.9137006121
 20
5.3684533881
 11
6.9137006121
 21
5.3601198968
  0
LINE
  5
2B8
100
AcDbEntity
  8
0
100
AcDbLine
 62
7
  6
CONTINUOUS
 10
7.1428672788
 20
5.2927767586
 11
7.1470339455
 21
5.2959468195
  0
LINE
  5
2B9
100
AcDbEntity
  8
0
100
AcDbLine
 62
7
  6
CONTINUOUS
 10
7.1428672788
 20
5.1907963683
 11
7.1428672788
 21
5.2927767586
  0
LINE
  5
2BA
100
AcDbEntity
  8
0
100
AcDbLine
 62
7
  6
CONTINUOUS
 10
7.1470339455
 20
5.2959468195
 11
7.1470339455
 21
5.1876263074
  0
LINE
  5
2BB
100
AcDbEntity
  8
0
100
AcDbLine
 62
7
  6
CONTINUOUS
 10
8.1470339455
 20
5.1876263074
 11
8.1428672788
 21
5.1907963683
  0
LINE
  5
2BC
100
AcDbEntity
  8
0
100
AcDbLine
 62
7
  6
CONTINUOUS
 10
7.2437278948
 20
5.3560675533
 11
7.2437278948
 21
5.3601198968
  0
LINE
  5
2BD
100
AcDbEntity
  8
0
100
AcDbLine
 62
7
  6
CONTINUOUS
 10
7.2970339455
 20
5.1867865634
 11
7.2970339455
 21
5.2217865634
  0
LINE
  5
2BE
100
AcDbEntity
  8
0
100
AcDbLine
 62
7
  6
CONTINUOUS
 10
7.3303672788
 20
5.0134532301
 11
7.3303672788
 21
5.2967865634
  0
LINE
  5
2BF
100
AcDbEntity
  8
0
100
AcDbLine
 62
7
  6
CONTINUOUS
 10
7.1870685387
 20
5.007301249
 11
7.2245248507
 21
5.0415257313
  0
LINE
  5
2C0
100
AcDbEntity
  8
0
100
AcDbLine
 62
7
  6
CONTINUOUS
 10
7.6428672788
 20
5.2927767586
 11
7.6470339455
 21
5.2959468195
  0
LINE
  5
2C1
100
AcDbEntity
  8
0
100
AcDbLine
 62
7
  6
CONTINUOUS
 10
7.3941612475
 20
6.0268229243
 11
7.3969615403
 21
5.3850471749
  0
LINE
  5
2C2
100
AcDbEntity
  8
0
100
AcDbLine
 62
7
  6
CONTINUOUS
 10
7.3470339455
 20
5.3601198968
 11
7.3470339455
 21
5.3684533881
  0
LINE
  5
2C3
100
AcDbEntity
  8
0
100
AcDbLine
 62
7
  6
CONTINUOUS
 10
7.4137006121
 20
5.3684533881
 11
7.4137006121
 21
5.3601198968
  0
LINE
  5
2C4
100
AcDbEntity
  8
0
100
AcDbLine
 62
7
  6
CONTINUOUS
 10
7.3637730173
 20
5.3850471749
 11
7.3665733101
 21
6.0268229243
  0
LINE
  5
2C5
100
AcDbEntity
  8
0
100
AcDbLine
 62
7
  6
CONTINUOUS
 10
7.6870685387
 20
5.007301249
 11
7.7245248507
 21
5.0415257313
  0
LINE
  5
2C6
100
AcDbEntity
  8
0
100
AcDbLine
 62
7
  6
CONTINUOUS
 10
8.1428672788
 20
5.2927767586
 11
8.1470339455
 21
5.2959468195
  0
LINE
  5
2C7
100
AcDbEntity
  8
0
100
AcDbLine
 62
7
  6
CONTINUOUS
 10
7.6428672788
 20
5.1907963683
 11
7.6428672788
 21
5.2927767586
  0
LINE
  5
2C8
100
AcDbEntity
  8
0
100
AcDbLine
 62
7
  6
CONTINUOUS
 10
7.6470339455
 20
5.2959468195
 11
7.6470339455
 21
5.1876263074
  0
LINE
  5
2C9
100
AcDbEntity
  8
0
100
AcDbLine
 62
7
  6
CONTINUOUS
 10
7.7437278948
 20
5.3560675533
 11
7.7437278948
 21
5.3601198968
  0
LINE
  5
2CA
100
AcDbEntity
  8
0
100
AcDbLine
 62
7
  6
CONTINUOUS
 10
7.8941612475
 20
6.0268229243
 11
7.8969615403
 21
5.3850471749
  0
LINE
  5
2CB
100
AcDbEntity
  8
0
100
AcDbLine
 62
7
  6
CONTINUOUS
 10
7.7970339455
 20
5.1867865634
 11
7.7970339455
 21
5.2217865634
  0
LINE
  5
2CC
100
AcDbEntity
  8
0
100
AcDbLine
 62
7
  6
CONTINUOUS
 10
7.8303672788
 20
5.0134532301
 11
7.8303672788
 21
5.2967865634
  0
LINE
  5
2CD
100
AcDbEntity
  8
0
100
AcDbLine
 62
7
  6
CONTINUOUS
 10
7.8470339455
 20
5.3601198968
 11
7.8470339455
 21
5.3684533881
  0
LINE
  5
2CE
100
AcDbEntity
  8
0
100
AcDbLine
 62
7
  6
CONTINUOUS
 10
7.9137006121
 20
5.3684533881
 11
7.9137006121
 21
5.3601198968
  0
LINE
  5
2CF
100
AcDbEntity
  8
0
100
AcDbLine
 62
7
  6
CONTINUOUS
 10
7.8637730173
 20
5.3850471749
 11
7.8665733101
 21
6.0268229243
  0
LINE
  5
2D0
100
AcDbEntity
  8
0
100
AcDbLine
 62
7
  6
CONTINUOUS
 10
8.1870685387
 20
5.007301249
 11
8.2245248507
 21
5.0415257313
  0
LINE
  5
2D1
100
AcDbEntity
  8
0
100
AcDbLine
 62
7
  6
CONTINUOUS
 10
8.1428672788
 20
5.1907963683
 11
8.1428672788
 21
5.2927767586
  0
LINE
  5
2D2
100
AcDbEntity
  8
0
100
AcDbLine
 62
7
  6
CONTINUOUS
 10
8.1470339455
 20
5.2959468195
 11
8.1470339455
 21
5.1876263074
  0
LINE
  5
2D3
100
AcDbEntity
  8
0
100
AcDbLine
 62
7
  6
CONTINUOUS
 10
8.2970339455
 20
5.1867865634
 11
8.2970339455
 21
5.2217865634
  0
LINE
  5
2D4
100
AcDbEntity
  8
0
100
AcDbLine
 62
7
  6
CONTINUOUS
 10
3.9042054198
 20
12.8400477897
 11
3.9042054198
 21
12.3600477897
  0
LINE
  5
2D5
100
AcDbEntity
  8
0
100
AcDbLine
 62
7
  6
CONTINUOUS
 10
4.1943579212
 20
12.0617661292
 11
4.183941696
 21
12.3600477897
  0
LINE
  5
2D6
100
AcDbEntity
  8
0
100
AcDbLine
 62
7
  6
CONTINUOUS
 10
4.2875387532
 20
12.0583811064
 11
4.2875387532
 21
13.0584247565
  0
LINE
  5
2D7
100
AcDbEntity
  8
0
100
AcDbLine
 62
7
  6
CONTINUOUS
 10
4.183941696
 20
12.8400477897
 11
4.1943578899
 21
13.1383285544
  0
LINE
  5
2D8
100
AcDbEntity
  8
0
100
AcDbLine
 62
7
  6
CONTINUOUS
 10
4.304277825
 20
12.0667867822
 11
4.304277825
 21
13.0584247565
  0
LINE
  5
2D9
100
AcDbEntity
  8
0
100
AcDbLine
 62
7
  6
CONTINUOUS
 10
4.3070781178
 20
12.1044346909
 11
4.3070781178
 21
13.0584247565
  0
LINE
  5
2DA
100
AcDbEntity
  8
0
100
AcDbLine
 62
7
  6
CONTINUOUS
 10
4.3346660552
 20
13.0584247565
 11
4.3346660552
 21
12.1044346909
  0
LINE
  5
2DB
100
AcDbEntity
  8
0
100
AcDbLine
 62
7
  6
CONTINUOUS
 10
4.337466348
 20
13.0584247565
 11
4.337466348
 21
12.0667867822
  0
LINE
  5
2DC
100
AcDbEntity
  8
0
100
AcDbLine
 62
7
  6
CONTINUOUS
 10
4.3542054198
 20
13.0584247565
 11
4.3542054198
 21
12.058381123
  0
LINE
  5
2DD
100
AcDbEntity
  8
0
100
AcDbLine
 62
7
  6
CONTINUOUS
 10
4.5054390156
 20
12.3350477897
 11
4.5054390156
 21
12.8650477897
  0
LINE
  5
2DE
100
AcDbEntity
  8
0
100
AcDbLine
 62
7
  6
CONTINUOUS
 10
4.5142054198
 20
12.343381123
 11
4.5142054198
 21
12.3517144564
  0
LINE
  5
2DF
100
AcDbEntity
  8
0
100
AcDbLine
 62
7
  6
CONTINUOUS
 10
4.5142054198
 20
12.848381123
 11
4.5142054198
 21
12.8567144564
  0
LINE
  5
2E0
100
AcDbEntity
  8
0
100
AcDbLine
 62
7
  6
CONTINUOUS
 10
4.5875387532
 20
12.343381123
 11
4.5875387532
 21
12.3517144564
  0
LINE
  5
2E1
100
AcDbEntity
  8
0
100
AcDbLine
 62
7
  6
CONTINUOUS
 10
4.5875387532
 20
12.848381123
 11
4.5875387532
 21
12.8567144564
  0
LINE
  5
2E2
100
AcDbEntity
  8
0
100
AcDbLine
 62
7
  6
CONTINUOUS
 10
4.6943579212
 20
12.0617661292
 11
4.683941696
 21
12.3600477897
  0
LINE
  5
2E3
100
AcDbEntity
  8
0
100
AcDbLine
 62
7
  6
CONTINUOUS
 10
4.683941696
 20
12.8400477897
 11
4.6943578899
 21
13.1383285544
  0
LINE
  5
2E4
100
AcDbEntity
  8
0
100
AcDbLine
 62
7
  6
CONTINUOUS
 10
4.7875387532
 20
12.0583811064
 11
4.7875387532
 21
13.0584247565
  0
LINE
  5
2E5
100
AcDbEntity
  8
0
100
AcDbLine
 62
7
  6
CONTINUOUS
 10
4.804277825
 20
12.0667867822
 11
4.804277825
 21
13.0584247565
  0
LINE
  5
2E6
100
AcDbEntity
  8
0
100
AcDbLine
 62
7
  6
CONTINUOUS
 10
4.8070781178
 20
12.1044346909
 11
4.8070781178
 21
13.0584247565
  0
LINE
  5
2E7
100
AcDbEntity
  8
0
100
AcDbLine
 62
7
  6
CONTINUOUS
 10
4.8346660552
 20
13.0584247565
 11
4.8346660552
 21
12.1044346909
  0
LINE
  5
2E8
100
AcDbEntity
  8
0
100
AcDbLine
 62
7
  6
CONTINUOUS
 10
4.837466348
 20
13.0584247565
 11
4.837466348
 21
12.0667867822
  0
LINE
  5
2E9
100
AcDbEntity
  8
0
100
AcDbLine
 62
7
  6
CONTINUOUS
 10
4.8542054198
 20
13.0584247565
 11
4.8542054198
 21
12.058381123
  0
LINE
  5
2EA
100
AcDbEntity
  8
0
100
AcDbLine
 62
7
  6
CONTINUOUS
 10
5.0054390156
 20
12.3350477897
 11
5.0054390156
 21
12.8650477897
  0
LINE
  5
2EB
100
AcDbEntity
  8
0
100
AcDbLine
 62
7
  6
CONTINUOUS
 10
5.0142054198
 20
12.343381123
 11
5.0142054198
 21
12.3517144564
  0
LINE
  5
2EC
100
AcDbEntity
  8
0
100
AcDbLine
 62
7
  6
CONTINUOUS
 10
5.0142054198
 20
12.848381123
 11
5.0142054198
 21
12.8567144564
  0
LINE
  5
2ED
100
AcDbEntity
  8
0
100
AcDbLine
 62
7
  6
CONTINUOUS
 10
5.1943579212
 20
12.0617661292
 11
5.183941696
 21
12.3600477897
  0
LINE
  5
2EE
100
AcDbEntity
  8
0
100
AcDbLine
 62
7
  6
CONTINUOUS
 10
5.0875387532
 20
12.343381123
 11
5.0875387532
 21
12.3517144564
  0
LINE
  5
2EF
100
AcDbEntity
  8
0
100
AcDbLine
 62
7
  6
CONTINUOUS
 10
5.0875387532
 20
12.848381123
 11
5.0875387532
 21
12.8567144564
  0
LINE
  5
2F0
100
AcDbEntity
  8
0
100
AcDbLine
 62
7
  6
CONTINUOUS
 10
5.183941696
 20
12.8400477897
 11
5.1943578899
 21
13.1383285544
  0
LINE
  5
2F1
100
AcDbEntity
  8
0
100
AcDbLine
 62
7
  6
CONTINUOUS
 10
5.2875387532
 20
12.0583811064
 11
5.2875387532
 21
13.0584247565
  0
LINE
  5
2F2
100
AcDbEntity
  8
0
100
AcDbLine
 62
7
  6
CONTINUOUS
 10
5.304277825
 20
12.0667867822
 11
5.304277825
 21
13.0584247565
  0
LINE
  5
2F3
100
AcDbEntity
  8
0
100
AcDbLine
 62
7
  6
CONTINUOUS
 10
5.3070781178
 20
12.1044346909
 11
5.3070781178
 21
13.0584247565
  0
LINE
  5
2F4
100
AcDbEntity
  8
0
100
AcDbLine
 62
7
  6
CONTINUOUS
 10
5.3346660552
 20
13.0584247565
 11
5.3346660552
 21
12.1044346909
  0
LINE
  5
2F5
100
AcDbEntity
  8
0
100
AcDbLine
 62
7
  6
CONTINUOUS
 10
5.337466348
 20
13.0584247565
 11
5.337466348
 21
12.0667867822
  0
LINE
  5
2F6
100
AcDbEntity
  8
0
100
AcDbLine
 62
7
  6
CONTINUOUS
 10
5.3542054198
 20
13.0584247565
 11
5.3542054198
 21
12.058381123
  0
LINE
  5
2F7
100
AcDbEntity
  8
0
100
AcDbLine
 62
7
  6
CONTINUOUS
 10
5.5054390156
 20
12.3350477897
 11
5.5054390156
 21
12.8650477897
  0
LINE
  5
2F8
100
AcDbEntity
  8
0
100
AcDbLine
 62
7
  6
CONTINUOUS
 10
5.5142054198
 20
12.343381123
 11
5.5142054198
 21
12.3517144564
  0
LINE
  5
2F9
100
AcDbEntity
  8
0
100
AcDbLine
 62
7
  6
CONTINUOUS
 10
5.5142054198
 20
12.848381123
 11
5.5142054198
 21
12.8567144564
  0
LINE
  5
2FA
100
AcDbEntity
  8
0
100
AcDbLine
 62
7
  6
CONTINUOUS
 10
5.5875387532
 20
12.343381123
 11
5.5875387532
 21
12.3517144564
  0
LINE
  5
2FB
100
AcDbEntity
  8
0
100
AcDbLine
 62
7
  6
CONTINUOUS
 10
5.5875387532
 20
12.848381123
 11
5.5875387532
 21
12.8567144564
  0
LINE
  5
2FC
100
AcDbEntity
  8
0
100
AcDbLine
 62
7
  6
CONTINUOUS
 10
4.6944738883
 20
12.058381123
 11
4.2198319984
 21
12.0583825201
  0
LINE
  5
2FD
100
AcDbEntity
  8
0
100
AcDbLine
 62
7
  6
CONTINUOUS
 10
5.1944738883
 20
12.058381123
 11
4.7198319984
 21
12.0583825201
  0
LINE
  5
2FE
100
AcDbEntity
  8
0
100
AcDbLine
 62
7
  6
CONTINUOUS
 10
5.6944738883
 20
12.058381123
 11
5.2198319984
 21
12.0583825201
  0
LINE
  5
2FF
100
AcDbEntity
  8
0
100
AcDbLine
 62
7
  6
CONTINUOUS
 10
6.1944738883
 20
12.058381123
 11
5.7198319984
 21
12.0583825201
  0
LINE
  5
300
100
AcDbEntity
  8
0
100
AcDbLine
 62
7
  6
CONTINUOUS
 10
6.6944738883
 20
12.058381123
 11
6.2198319984
 21
12.0583825201
  0
LINE
  5
301
100
AcDbEntity
  8
0
100
AcDbLine
 62
7
  6
CONTINUOUS
 10
7.1944738883
 20
12.058381123
 11
6.7198319984
 21
12.0583825201
  0
LINE
  5
302
100
AcDbEntity
  8
0
100
AcDbLine
 62
7
  6
CONTINUOUS
 10
7.6944738883
 20
12.058381123
 11
7.2198319984
 21
12.0583825201
  0
LINE
  5
303
100
AcDbEntity
  8
0
100
AcDbLine
 62
7
  6
CONTINUOUS
 10
8.1944738883
 20
12.058381123
 11
7.7198319984
 21
12.0583825201
  0
LINE
  5
304
100
AcDbEntity
  8
0
100
AcDbLine
 62
7
  6
CONTINUOUS
 10
5.6943579212
 20
12.0617661292
 11
5.683941696
 21
12.3600477897
  0
LINE
  5
305
100
AcDbEntity
  8
0
100
AcDbLine
 62
7
  6
CONTINUOUS
 10
5.7875387532
 20
12.0583811064
 11
5.7875387532
 21
13.0584247565
  0
LINE
  5
306
100
AcDbEntity
  8
0
100
AcDbLine
 62
7
  6
CONTINUOUS
 10
5.683941696
 20
12.8400477897
 11
5.6943578899
 21
13.1383285544
  0
LINE
  5
307
100
AcDbEntity
  8
0
100
AcDbLine
 62
7
  6
CONTINUOUS
 10
8.2292054198
 20
12.2267144564
 11
8.2071093917
 21
12.2267144564
  0
LINE
  5
308
100
AcDbEntity
  8
0
100
AcDbLine
 62
7
  6
CONTINUOUS
 10
5.804277825
 20
12.0667867822
 11
5.804277825
 21
13.0584247565
  0
LINE
  5
309
100
AcDbEntity
  8
0
100
AcDbLine
 62
7
  6
CONTINUOUS
 10
5.8070781178
 20
12.1044346909
 11
5.8070781178
 21
13.0584247565
  0
LINE
  5
30A
100
AcDbEntity
  8
0
100
AcDbLine
 62
7
  6
CONTINUOUS
 10
5.8346660552
 20
13.0584247565
 11
5.8346660552
 21
12.1044346909
  0
LINE
  5
30B
100
AcDbEntity
  8
0
100
AcDbLine
 62
7
  6
CONTINUOUS
 10
5.837466348
 20
13.0584247565
 11
5.837466348
 21
12.0667867822
  0
LINE
  5
30C
100
AcDbEntity
  8
0
100
AcDbLine
 62
7
  6
CONTINUOUS
 10
5.8542054198
 20
13.0584247565
 11
5.8542054198
 21
12.058381123
  0
LINE
  5
30D
100
AcDbEntity
  8
0
100
AcDbLine
 62
7
  6
CONTINUOUS
 10
4.5054390156
 20
12.343381123
 11
4.6845237089
 21
12.343381123
  0
LINE
  5
30E
100
AcDbEntity
  8
0
100
AcDbLine
 62
7
  6
CONTINUOUS
 10
5.0054390156
 20
12.343381123
 11
5.1845237089
 21
12.343381123
  0
LINE
  5
30F
100
AcDbEntity
  8
0
100
AcDbLine
 62
7
  6
CONTINUOUS
 10
5.5054390156
 20
12.343381123
 11
5.6845237089
 21
12.343381123
  0
LINE
  5
310
100
AcDbEntity
  8
0
100
AcDbLine
 62
7
  6
CONTINUOUS
 10
6.0054390156
 20
12.343381123
 11
6.1845237089
 21
12.343381123
  0
LINE
  5
311
100
AcDbEntity
  8
0
100
AcDbLine
 62
7
  6
CONTINUOUS
 10
6.5054390156
 20
12.343381123
 11
6.6845237089
 21
12.343381123
  0
LINE
  5
312
100
AcDbEntity
  8
0
100
AcDbLine
 62
7
  6
CONTINUOUS
 10
7.0054390156
 20
12.343381123
 11
7.1845237089
 21
12.343381123
  0
LINE
  5
313
100
AcDbEntity
  8
0
100
AcDbLine
 62
7
  6
CONTINUOUS
 10
7.5054390156
 20
12.343381123
 11
7.6845237089
 21
12.343381123
  0
LINE
  5
314
100
AcDbEntity
  8
0
100
AcDbLine
 62
7
  6
CONTINUOUS
 10
8.0054390156
 20
12.343381123
 11
8.2292054198
 21
12.343381123
  0
LINE
  5
315
100
AcDbEntity
  8
0
100
AcDbLine
 62
7
  6
CONTINUOUS
 10
3.9125387532
 20
12.3517144564
 11
4.1842327025
 21
12.3517144564
  0
LINE
  5
316
100
AcDbEntity
  8
0
100
AcDbLine
 62
7
  6
CONTINUOUS
 10
4.5054390156
 20
12.3517144564
 11
4.6842327025
 21
12.3517144564
  0
LINE
  5
317
100
AcDbEntity
  8
0
100
AcDbLine
 62
7
  6
CONTINUOUS
 10
5.0054390156
 20
12.3517144564
 11
5.1842327025
 21
12.3517144564
  0
LINE
  5
318
100
AcDbEntity
  8
0
100
AcDbLine
 62
7
  6
CONTINUOUS
 10
5.5054390156
 20
12.3517144564
 11
5.6842327025
 21
12.3517144564
  0
LINE
  5
319
100
AcDbEntity
  8
0
100
AcDbLine
 62
7
  6
CONTINUOUS
 10
6.0054390156
 20
12.3517144564
 11
6.1842327025
 21
12.3517144564
  0
LINE
  5
31A
100
AcDbEntity
  8
0
100
AcDbLine
 62
7
  6
CONTINUOUS
 10
6.5054390156
 20
12.3517144564
 11
6.6842327025
 21
12.3517144564
  0
LINE
  5
31B
100
AcDbEntity
  8
0
100
AcDbLine
 62
7
  6
CONTINUOUS
 10
7.0054390156
 20
12.3517144564
 11
7.1842327025
 21
12.3517144564
  0
LINE
  5
31C
100
AcDbEntity
  8
0
100
AcDbLine
 62
7
  6
CONTINUOUS
 10
7.5054390156
 20
12.3517144564
 11
7.6842327025
 21
12.3517144564
  0
LINE
  5
31D
100
AcDbEntity
  8
0
100
AcDbLine
 62
7
  6
CONTINUOUS
 10
6.0054390156
 20
12.3350477897
 11
6.0054390156
 21
12.8650477897
  0
LINE
  5
31E
100
AcDbEntity
  8
0
100
AcDbLine
 62
7
  6
CONTINUOUS
 10
6.0142054198
 20
12.343381123
 11
6.0142054198
 21
12.3517144564
  0
LINE
  5
31F
100
AcDbEntity
  8
0
100
AcDbLine
 62
7
  6
CONTINUOUS
 10
6.0142054198
 20
12.848381123
 11
6.0142054198
 21
12.8567144564
  0
LINE
  5
320
100
AcDbEntity
  8
0
100
AcDbLine
 62
7
  6
CONTINUOUS
 10
6.0875387532
 20
12.343381123
 11
6.0875387532
 21
12.3517144564
  0
LINE
  5
321
100
AcDbEntity
  8
0
100
AcDbLine
 62
7
  6
CONTINUOUS
 10
6.0875387532
 20
12.848381123
 11
6.0875387532
 21
12.8567144564
  0
LINE
  5
322
100
AcDbEntity
  8
0
100
AcDbLine
 62
7
  6
CONTINUOUS
 10
6.1943579212
 20
12.0617661292
 11
6.183941696
 21
12.3600477897
  0
LINE
  5
323
100
AcDbEntity
  8
0
100
AcDbLine
 62
7
  6
CONTINUOUS
 10
6.183941696
 20
12.8400477897
 11
6.1943578899
 21
13.1383285544
  0
LINE
  5
324
100
AcDbEntity
  8
0
100
AcDbLine
 62
7
  6
CONTINUOUS
 10
6.2875387532
 20
12.0583811064
 11
6.2875387532
 21
13.0584247565
  0
LINE
  5
325
100
AcDbEntity
  8
0
100
AcDbLine
 62
7
  6
CONTINUOUS
 10
6.304277825
 20
12.0667867822
 11
6.304277825
 21
13.0584247565
  0
LINE
  5
326
100
AcDbEntity
  8
0
100
AcDbLine
 62
7
  6
CONTINUOUS
 10
6.3070781178
 20
12.1044346909
 11
6.3070781178
 21
13.0584247565
  0
LINE
  5
327
100
AcDbEntity
  8
0
100
AcDbLine
 62
7
  6
CONTINUOUS
 10
6.3346660552
 20
13.0584247565
 11
6.3346660552
 21
12.1044346909
  0
LINE
  5
328
100
AcDbEntity
  8
0
100
AcDbLine
 62
7
  6
CONTINUOUS
 10
6.337466348
 20
13.0584247565
 11
6.337466348
 21
12.0667867822
  0
LINE
  5
329
100
AcDbEntity
  8
0
100
AcDbLine
 62
7
  6
CONTINUOUS
 10
6.3542054198
 20
13.0584247565
 11
6.3542054198
 21
12.058381123
  0
LINE
  5
32A
100
AcDbEntity
  8
0
100
AcDbLine
 62
7
  6
CONTINUOUS
 10
3.9125387532
 20
12.848381123
 11
4.1842327025
 21
12.848381123
  0
LINE
  5
32B
100
AcDbEntity
  8
0
100
AcDbLine
 62
7
  6
CONTINUOUS
 10
4.5054390156
 20
12.848381123
 11
4.6842327025
 21
12.848381123
  0
LINE
  5
32C
100
AcDbEntity
  8
0
100
AcDbLine
 62
7
  6
CONTINUOUS
 10
5.0054390156
 20
12.848381123
 11
5.1842327025
 21
12.848381123
  0
LINE
  5
32D
100
AcDbEntity
  8
0
100
AcDbLine
 62
7
  6
CONTINUOUS
 10
5.5054390156
 20
12.848381123
 11
5.6842327025
 21
12.848381123
  0
LINE
  5
32E
100
AcDbEntity
  8
0
100
AcDbLine
 62
7
  6
CONTINUOUS
 10
6.0054390156
 20
12.848381123
 11
6.1842327025
 21
12.848381123
  0
LINE
  5
32F
100
AcDbEntity
  8
0
100
AcDbLine
 62
7
  6
CONTINUOUS
 10
6.5054390156
 20
12.848381123
 11
6.6842327025
 21
12.848381123
  0
LINE
  5
330
100
AcDbEntity
  8
0
100
AcDbLine
 62
7
  6
CONTINUOUS
 10
7.0054390156
 20
12.848381123
 11
7.1842327025
 21
12.848381123
  0
LINE
  5
331
100
AcDbEntity
  8
0
100
AcDbLine
 62
7
  6
CONTINUOUS
 10
7.5054390156
 20
12.848381123
 11
7.6842327025
 21
12.848381123
  0
LINE
  5
332
100
AcDbEntity
  8
0
100
AcDbLine
 62
7
  6
CONTINUOUS
 10
4.5054390156
 20
12.8567144564
 11
4.6845237089
 21
12.8567144564
  0
LINE
  5
333
100
AcDbEntity
  8
0
100
AcDbLine
 62
7
  6
CONTINUOUS
 10
5.0054390156
 20
12.8567144564
 11
5.1845237089
 21
12.8567144564
  0
LINE
  5
334
100
AcDbEntity
  8
0
100
AcDbLine
 62
7
  6
CONTINUOUS
 10
5.5054390156
 20
12.8567144564
 11
5.6845237089
 21
12.8567144564
  0
LINE
  5
335
100
AcDbEntity
  8
0
100
AcDbLine
 62
7
  6
CONTINUOUS
 10
6.0054390156
 20
12.8567144564
 11
6.1845237089
 21
12.8567144564
  0
LINE
  5
336
100
AcDbEntity
  8
0
100
AcDbLine
 62
7
  6
CONTINUOUS
 10
6.5054390156
 20
12.8567144564
 11
6.6845237089
 21
12.8567144564
  0
LINE
  5
337
100
AcDbEntity
  8
0
100
AcDbLine
 62
7
  6
CONTINUOUS
 10
7.0054390156
 20
12.8567144564
 11
7.1845237089
 21
12.8567144564
  0
LINE
  5
338
100
AcDbEntity
  8
0
100
AcDbLine
 62
7
  6
CONTINUOUS
 10
7.5054390156
 20
12.8567144564
 11
7.6845237089
 21
12.8567144564
  0
LINE
  5
339
100
AcDbEntity
  8
0
100
AcDbLine
 62
7
  6
CONTINUOUS
 10
8.0054390156
 20
12.8567144564
 11
8.2292054198
 21
12.8567144564
  0
LINE
  5
33A
100
AcDbEntity
  8
0
100
AcDbLine
 62
7
  6
CONTINUOUS
 10
6.5054390156
 20
12.3350477897
 11
6.5054390156
 21
12.8650477897
  0
LINE
  5
33B
100
AcDbEntity
  8
0
100
AcDbLine
 62
7
  6
CONTINUOUS
 10
6.5142054198
 20
12.343381123
 11
6.5142054198
 21
12.3517144564
  0
LINE
  5
33C
100
AcDbEntity
  8
0
100
AcDbLine
 62
7
  6
CONTINUOUS
 10
6.5142054198
 20
12.848381123
 11
6.5142054198
 21
12.8567144564
  0
LINE
  5
33D
100
AcDbEntity
  8
0
100
AcDbLine
 62
7
  6
CONTINUOUS
 10
8.2072072401
 20
12.973381123
 11
8.2292054198
 21
12.973381123
  0
LINE
  5
33E
100
AcDbEntity
  8
0
100
AcDbLine
 62
7
  6
CONTINUOUS
 10
4.2875387532
 20
13.0584247565
 11
4.3542054198
 21
13.0584247565
  0
LINE
  5
33F
100
AcDbEntity
  8
0
100
AcDbLine
 62
7
  6
CONTINUOUS
 10
4.7875387532
 20
13.0584247565
 11
4.8542054198
 21
13.0584247565
  0
LINE
  5
340
100
AcDbEntity
  8
0
100
AcDbLine
 62
7
  6
CONTINUOUS
 10
5.2875387532
 20
13.0584247565
 11
5.3542054198
 21
13.0584247565
  0
LINE
  5
341
100
AcDbEntity
  8
0
100
AcDbLine
 62
7
  6
CONTINUOUS
 10
5.7875387532
 20
13.0584247565
 11
5.8542054198
 21
13.0584247565
  0
LINE
  5
342
100
AcDbEntity
  8
0
100
AcDbLine
 62
7
  6
CONTINUOUS
 10
6.2875387532
 20
13.0584247565
 11
6.3542054198
 21
13.0584247565
  0
LINE
  5
343
100
AcDbEntity
  8
0
100
AcDbLine
 62
7
  6
CONTINUOUS
 10
6.7875387532
 20
13.0584247565
 11
6.8542054198
 21
13.0584247565
  0
LINE
  5
344
100
AcDbEntity
  8
0
100
AcDbLine
 62
7
  6
CONTINUOUS
 10
7.2875387532
 20
13.0584247565
 11
7.3542054198
 21
13.0584247565
  0
LINE
  5
345
100
AcDbEntity
  8
0
100
AcDbLine
 62
7
  6
CONTINUOUS
 10
7.7875387532
 20
13.0584247565
 11
7.8542054198
 21
13.0584247565
  0
LINE
  5
346
100
AcDbEntity
  8
0
100
AcDbLine
 62
7
  6
CONTINUOUS
 10
6.6943579212
 20
12.0617661292
 11
6.683941696
 21
12.3600477897
  0
LINE
  5
347
100
AcDbEntity
  8
0
100
AcDbLine
 62
7
  6
CONTINUOUS
 10
6.5875387532
 20
12.343381123
 11
6.5875387532
 21
12.3517144564
  0
LINE
  5
348
100
AcDbEntity
  8
0
100
AcDbLine
 62
7
  6
CONTINUOUS
 10
6.5875387532
 20
12.848381123
 11
6.5875387532
 21
12.8567144564
  0
LINE
  5
349
100
AcDbEntity
  8
0
100
AcDbLine
 62
7
  6
CONTINUOUS
 10
6.683941696
 20
12.8400477897
 11
6.6943578899
 21
13.1383285544
  0
LINE
  5
34A
100
AcDbEntity
  8
0
100
AcDbLine
 62
7
  6
CONTINUOUS
 10
4.2203402717
 20
13.1417144564
 11
4.6944738883
 21
13.1417144564
  0
LINE
  5
34B
100
AcDbEntity
  8
0
100
AcDbLine
 62
7
  6
CONTINUOUS
 10
4.7203402717
 20
13.1417144564
 11
5.1944738883
 21
13.1417144564
  0
LINE
  5
34C
100
AcDbEntity
  8
0
100
AcDbLine
 62
7
  6
CONTINUOUS
 10
5.2203402717
 20
13.1417144564
 11
5.6944738883
 21
13.1417144564
  0
LINE
  5
34D
100
AcDbEntity
  8
0
100
AcDbLine
 62
7
  6
CONTINUOUS
 10
5.7203402717
 20
13.1417144564
 11
6.1944738883
 21
13.1417144564
  0
LINE
  5
34E
100
AcDbEntity
  8
0
100
AcDbLine
 62
7
  6
CONTINUOUS
 10
6.2203402717
 20
13.1417144564
 11
6.6944738883
 21
13.1417144564
  0
LINE
  5
34F
100
AcDbEntity
  8
0
100
AcDbLine
 62
7
  6
CONTINUOUS
 10
6.7203402717
 20
13.1417144564
 11
7.1944738883
 21
13.1417144564
  0
LINE
  5
350
100
AcDbEntity
  8
0
100
AcDbLine
 62
7
  6
CONTINUOUS
 10
7.2203402717
 20
13.1417144564
 11
7.6944738883
 21
13.1417144564
  0
LINE
  5
351
100
AcDbEntity
  8
0
100
AcDbLine
 62
7
  6
CONTINUOUS
 10
7.7203402717
 20
13.1417144564
 11
8.1944738883
 21
13.1417144564
  0
LINE
  5
352
100
AcDbEntity
  8
0
100
AcDbLine
 62
7
  6
CONTINUOUS
 10
6.7875387532
 20
12.0583811064
 11
6.7875387532
 21
13.0584247565
  0
LINE
  5
353
100
AcDbEntity
  8
0
100
AcDbLine
 62
7
  6
CONTINUOUS
 10
6.804277825
 20
12.0667867822
 11
6.804277825
 21
13.0584247565
  0
LINE
  5
354
100
AcDbEntity
  8
0
100
AcDbLine
 62
7
  6
CONTINUOUS
 10
6.8070781178
 20
12.1044346909
 11
6.8070781178
 21
13.0584247565
  0
LINE
  5
355
100
AcDbEntity
  8
0
100
AcDbLine
 62
7
  6
CONTINUOUS
 10
6.8346660552
 20
13.0584247565
 11
6.8346660552
 21
12.1044346909
  0
LINE
  5
356
100
AcDbEntity
  8
0
100
AcDbLine
 62
7
  6
CONTINUOUS
 10
6.837466348
 20
13.0584247565
 11
6.837466348
 21
12.0667867822
  0
LINE
  5
357
100
AcDbEntity
  8
0
100
AcDbLine
 62
7
  6
CONTINUOUS
 10
6.8542054198
 20
13.0584247565
 11
6.8542054198
 21
12.058381123
  0
LINE
  5
358
100
AcDbEntity
  8
0
100
AcDbLine
 62
7
  6
CONTINUOUS
 10
7.0054390156
 20
12.3350477897
 11
7.0054390156
 21
12.8650477897
  0
LINE
  5
359
100
AcDbEntity
  8
0
100
AcDbLine
 62
7
  6
CONTINUOUS
 10
7.0142054198
 20
12.343381123
 11
7.0142054198
 21
12.3517144564
  0
LINE
  5
35A
100
AcDbEntity
  8
0
100
AcDbLine
 62
7
  6
CONTINUOUS
 10
7.0142054198
 20
12.848381123
 11
7.0142054198
 21
12.8567144564
  0
LINE
  5
35B
100
AcDbEntity
  8
0
100
AcDbLine
 62
7
  6
CONTINUOUS
 10
7.0875387532
 20
12.343381123
 11
7.0875387532
 21
12.3517144564
  0
LINE
  5
35C
100
AcDbEntity
  8
0
100
AcDbLine
 62
7
  6
CONTINUOUS
 10
7.0875387532
 20
12.848381123
 11
7.0875387532
 21
12.8567144564
  0
LINE
  5
35D
100
AcDbEntity
  8
0
100
AcDbLine
 62
7
  6
CONTINUOUS
 10
7.1943579212
 20
12.0617661292
 11
7.183941696
 21
12.3600477897
  0
LINE
  5
35E
100
AcDbEntity
  8
0
100
AcDbLine
 62
7
  6
CONTINUOUS
 10
7.183941696
 20
12.8400477897
 11
7.1943578899
 21
13.1383285544
  0
LINE
  5
35F
100
AcDbEntity
  8
0
100
AcDbLine
 62
7
  6
CONTINUOUS
 10
7.2875387532
 20
12.0583811064
 11
7.2875387532
 21
13.0584247565
  0
LINE
  5
360
100
AcDbEntity
  8
0
100
AcDbLine
 62
7
  6
CONTINUOUS
 10
7.304277825
 20
12.0667867822
 11
7.304277825
 21
13.0584247565
  0
LINE
  5
361
100
AcDbEntity
  8
0
100
AcDbLine
 62
7
  6
CONTINUOUS
 10
7.3070781178
 20
12.1044346909
 11
7.3070781178
 21
13.0584247565
  0
LINE
  5
362
100
AcDbEntity
  8
0
100
AcDbLine
 62
7
  6
CONTINUOUS
 10
7.3346660552
 20
13.0584247565
 11
7.3346660552
 21
12.1044346909
  0
LINE
  5
363
100
AcDbEntity
  8
0
100
AcDbLine
 62
7
  6
CONTINUOUS
 10
7.337466348
 20
13.0584247565
 11
7.337466348
 21
12.0667867822
  0
LINE
  5
364
100
AcDbEntity
  8
0
100
AcDbLine
 62
7
  6
CONTINUOUS
 10
7.3542054198
 20
13.0584247565
 11
7.3542054198
 21
12.058381123
  0
LWPOLYLINE
  5
365
100
AcDbEntity
  8
0
100
AcDbPolyline
 62
7
  6
CONTINUOUS
 90
9
 70
0
 10
8.2072154035
 20
12.9733766743
 10
8.2071375551
 20
12.9734190989
 10
8.2064941663
 20
12.9737937733
 10
8.2055975214
 20
12.9745763953
 10
8.2046559111
 20
12.9757345597
 10
8.2037990353
 20
12.9772403657
 10
8.2031434411
 20
12.9790734165
 10
8.2028238645
 20
12.9811234411
 10
8.2028071775
 20
12.9817145123
  0
LINE
  5
366
100
AcDbEntity
  8
0
100
AcDbLine
 62
7
  6
CONTINUOUS
 10
7.5054390156
 20
12.3350477897
 11
7.5054390156
 21
12.8650477897
  0
LINE
  5
367
100
AcDbEntity
  8
0
100
AcDbLine
 62
7
  6
CONTINUOUS
 10
7.5142054198
 20
12.343381123
 11
7.5142054198
 21
12.3517144564
  0
LINE
  5
368
100
AcDbEntity
  8
0
100
AcDbLine
 62
7
  6
CONTINUOUS
 10
7.5142054198
 20
12.848381123
 11
7.5142054198
 21
12.8567144564
  0
LINE
  5
369
100
AcDbEntity
  8
0
100
AcDbLine
 62
7
  6
CONTINUOUS
 10
7.6943579212
 20
12.0617661292
 11
7.683941696
 21
12.3600477897
  0
LINE
  5
36A
100
AcDbEntity
  8
0
100
AcDbLine
 62
7
  6
CONTINUOUS
 10
7.5875387532
 20
12.343381123
 11
7.5875387532
 21
12.3517144564
  0
LINE
  5
36B
100
AcDbEntity
  8
0
100
AcDbLine
 62
7
  6
CONTINUOUS
 10
7.5875387532
 20
12.848381123
 11
7.5875387532
 21
12.8567144564
  0
LINE
  5
36C
100
AcDbEntity
  8
0
100
AcDbLine
 62
7
  6
CONTINUOUS
 10
7.683941696
 20
12.8400477897
 11
7.6943578899
 21
13.1383285544
  0
LINE
  5
36D
100
AcDbEntity
  8
0
100
AcDbLine
 62
7
  6
CONTINUOUS
 10
7.7875387532
 20
12.0583811064
 11
7.7875387532
 21
13.0584247565
  0
LINE
  5
36E
100
AcDbEntity
  8
0
100
AcDbLine
 62
7
  6
CONTINUOUS
 10
7.804277825
 20
12.0667867822
 11
7.804277825
 21
13.0584247565
  0
LINE
  5
36F
100
AcDbEntity
  8
0
100
AcDbLine
 62
7
  6
CONTINUOUS
 10
7.8070781178
 20
12.1044346909
 11
7.8070781178
 21
13.0584247565
  0
LINE
  5
370
100
AcDbEntity
  8
0
100
AcDbLine
 62
7
  6
CONTINUOUS
 10
7.8346660552
 20
13.0584247565
 11
7.8346660552
 21
12.1044346909
  0
LINE
  5
371
100
AcDbEntity
  8
0
100
AcDbLine
 62
7
  6
CONTINUOUS
 10
7.837466348
 20
13.0584247565
 11
7.837466348
 21
12.0667867822
  0
LINE
  5
372
100
AcDbEntity
  8
0
100
AcDbLine
 62
7
  6
CONTINUOUS
 10
7.8542054198
 20
13.0584247565
 11
7.8542054198
 21
12.058381123
  0
LINE
  5
373
100
AcDbEntity
  8
0
100
AcDbLine
 62
7
  6
CONTINUOUS
 10
8.0054390156
 20
12.3350477897
 11
8.0054390156
 21
12.8650477897
  0
LINE
  5
374
100
AcDbEntity
  8
0
100
AcDbLine
 62
7
  6
CONTINUOUS
 10
8.0142054198
 20
12.343381123
 11
8.0142054198
 21
12.8567144564
  0
LINE
  5
375
100
AcDbEntity
  8
0
100
AcDbLine
 62
7
  6
CONTINUOUS
 10
8.0875387532
 20
12.343381123
 11
8.0875387532
 21
12.8567144564
  0
LINE
  5
376
100
AcDbEntity
  8
0
100
AcDbLine
 62
7
  6
CONTINUOUS
 10
8.2028072216
 20
12.0667144564
 11
8.2028072216
 21
12.2183809266
  0
LINE
  5
377
100
AcDbEntity
  8
0
100
AcDbLine
 62
7
  6
CONTINUOUS
 10
8.2028072216
 20
12.9817144564
 11
8.2028072216
 21
13.133381123
  0
LINE
  5
378
100
AcDbEntity
  8
0
100
AcDbLine
 62
7
  6
CONTINUOUS
 10
8.2375387532
 20
12.2350477897
 11
8.2375387532
 21
12.3350477897
  0
LINE
  5
379
100
AcDbEntity
  8
0
100
AcDbLine
 62
7
  6
CONTINUOUS
 10
8.2375387532
 20
12.8650477897
 11
8.2375387532
 21
12.9650477897
  0
LWPOLYLINE
  5
37A
100
AcDbEntity
  8
0
100
AcDbPolyline
 62
7
  6
CONTINUOUS
 90
9
 70
0
 10
8.2028072213
 20
12.2183809266
 10
8.2028449777
 20
12.2192712356
 10
8.2032386337
 20
12.2213671257
 10
8.2039369295
 20
12.2231410653
 10
8.2047903709
 20
12.2245516507
 10
8.2056996386
 20
12.2256228202
 10
8.2065543443
 20
12.2263440916
 10
8.2071576671
 20
12.226684835
 10
8.2072216161
 20
12.2267092571
  0
LINE
  5
37B
100
AcDbEntity
  8
0
100
AcDbLine
 62
7
  6
CONTINUOUS
 10
15.0186885986
 20
5.2539580378
 11
15.0186885986
 21
5.3089592739
  0
LINE
  5
37C
100
AcDbEntity
  8
0
100
AcDbLine
 62
7
  6
CONTINUOUS
 10
15.0620219319
 20
5.0072913711
 11
15.0620219319
 21
4.9539580378
  0
LINE
  5
37D
100
AcDbEntity
  8
0
100
AcDbLine
 62
7
  6
CONTINUOUS
 10
15.0214092456
 20
5.9324804478
 11
15.018688604
 21
5.3089592739
  0
LINE
  5
37E
100
AcDbEntity
  8
0
100
AcDbLine
 62
7
  6
CONTINUOUS
 10
15.0703552653
 20
4.9456247044
 11
15.4270219319
 21
4.9456247044
  0
LINE
  5
37F
100
AcDbEntity
  8
0
100
AcDbLine
 62
7
  6
CONTINUOUS
 10
15.6936885986
 20
4.9456247044
 11
16.0503552653
 21
4.9456247044
  0
LINE
  5
380
100
AcDbEntity
  8
0
100
AcDbLine
 62
7
  6
CONTINUOUS
 10
15.4436111138
 20
4.9878039611
 11
15.6770994125
 21
4.9878039611
  0
LINE
  5
381
100
AcDbEntity
  8
0
100
AcDbLine
 62
7
  6
CONTINUOUS
 10
15.0703552653
 20
5.0156247044
 11
15.1786885986
 21
5.0156247044
  0
LINE
  5
382
100
AcDbEntity
  8
0
100
AcDbLine
 62
7
  6
CONTINUOUS
 10
15.9420219319
 20
5.0156247044
 11
16.0503552653
 21
5.0156247044
  0
LWPOLYLINE
  5
383
100
AcDbEntity
  8
0
100
AcDbPolyline
 62
7
  6
CONTINUOUS
 90
4
 70
0
 10
15.6770996263
 20
4.987803954
 10
15.6788944931
 20
4.9876021233
 10
15.6809552373
 20
4.9868347331
 10
15.6830030306
 20
4.985294873
  0
LINE
  5
384
100
AcDbEntity
  8
0
100
AcDbLine
 62
7
  6
CONTINUOUS
 10
15.1870219319
 20
4.9539580378
 11
15.1870219319
 21
5.2372913711
  0
LINE
  5
385
100
AcDbEntity
  8
0
100
AcDbLine
 62
7
  6
CONTINUOUS
 10
15.3036885986
 20
5.1256247044
 11
15.8170219319
 21
5.1256247044
  0
LINE
  5
386
100
AcDbEntity
  8
0
100
AcDbLine
 62
7
  6
CONTINUOUS
 10
15.8170219319
 20
5.1281311151
 11
15.3036885986
 21
5.1281311151
  0
LINE
  5
387
100
AcDbEntity
  8
0
100
AcDbLine
 62
7
  6
CONTINUOUS
 10
15.3036885986
 20
4.9539580378
 11
15.3036885986
 21
5.3006247044
  0
LINE
  5
388
100
AcDbEntity
  8
0
100
AcDbLine
 62
7
  6
CONTINUOUS
 10
15.3036885986
 20
5.2364516271
 11
15.8170219319
 21
5.2364516271
  0
LINE
  5
389
100
AcDbEntity
  8
0
100
AcDbLine
 62
7
  6
CONTINUOUS
 10
15.3036885986
 20
5.2389580378
 11
15.8170219319
 21
5.2389580378
  0
LINE
  5
38A
100
AcDbEntity
  8
0
100
AcDbLine
 62
7
  6
CONTINUOUS
 10
15.0270219319
 20
5.2456247044
 11
15.1786885986
 21
5.2456247044
  0
LINE
  5
38B
100
AcDbEntity
  8
0
100
AcDbLine
 62
7
  6
CONTINUOUS
 10
15.3120219319
 20
5.2456247044
 11
15.8086885986
 21
5.2456247044
  0
LINE
  5
38C
100
AcDbEntity
  8
0
100
AcDbLine
 62
7
  6
CONTINUOUS
 10
15.9420219319
 20
5.2456247044
 11
16.0936885986
 21
5.2456247044
  0
LINE
  5
38D
100
AcDbEntity
  8
0
100
AcDbLine
 62
7
  6
CONTINUOUS
 10
15.8086885986
 20
5.3039580378
 11
15.3120219319
 21
5.3039580378
  0
LINE
  5
38E
100
AcDbEntity
  8
0
100
AcDbLine
 62
7
  6
CONTINUOUS
 10
15.0270219319
 20
5.3089580378
 11
16.0936885986
 21
5.3089580378
  0
LINE
  5
38F
100
AcDbEntity
  8
0
100
AcDbLine
 62
7
  6
CONTINUOUS
 10
15.6830030306
 20
4.985294873
 11
15.6845933378
 21
4.9829766261
  0
LINE
  5
390
100
AcDbEntity
  8
0
100
AcDbLine
 62
7
  6
CONTINUOUS
 10
15.4353552653
 20
4.9539580378
 11
15.4353521452
 21
5.07499994
  0
LINE
  5
391
100
AcDbEntity
  8
0
100
AcDbLine
 62
7
  6
CONTINUOUS
 10
15.4356996092
 20
4.981417814
 11
15.4361142349
 21
4.9829701814
  0
LINE
  5
392
100
AcDbEntity
  8
0
100
AcDbLine
 62
7
  6
CONTINUOUS
 10
15.6845933378
 20
4.9829766261
 11
15.6853319387
 21
4.9801217252
  0
LINE
  5
393
100
AcDbEntity
  8
0
100
AcDbLine
 62
7
  6
CONTINUOUS
 10
15.6853583282
 20
5.0750019465
 11
15.6853552653
 21
4.9539580378
  0
LWPOLYLINE
  5
394
100
AcDbEntity
  8
0
100
AcDbPolyline
 62
7
  6
CONTINUOUS
 90
6
 70
0
 10
15.4361142349
 20
4.9829701814
 10
15.4376239464
 20
4.9852076489
 10
15.4396105649
 20
4.9867557237
 10
15.4416746776
 20
4.9875687658
 10
15.4434332551
 20
4.9878019792
 10
15.4436111182
 20
4.987803962
  0
LINE
  5
395
100
AcDbEntity
  8
0
100
AcDbLine
 62
7
  6
CONTINUOUS
 10
15.8170219319
 20
4.9539580378
 11
15.8170219319
 21
5.3006247044
  0
LINE
  5
396
100
AcDbEntity
  8
0
100
AcDbLine
 62
7
  6
CONTINUOUS
 10
15.9336885986
 20
4.9539580378
 11
15.9336885986
 21
5.2372913711
  0
LINE
  5
397
100
AcDbEntity
  8
0
100
AcDbLine
 62
7
  6
CONTINUOUS
 10
16.0187322321
 20
5.3089581957
 11
16.0187322321
 21
5.9756247044
  0
LINE
  5
398
100
AcDbEntity
  8
0
100
AcDbLine
 62
7
  6
CONTINUOUS
 10
16.0586885986
 20
4.9539580378
 11
16.0586885986
 21
5.0072913711
  0
LINE
  5
399
100
AcDbEntity
  8
0
100
AcDbLine
 62
7
  6
CONTINUOUS
 10
16.1020219319
 20
5.3006247044
 11
16.1020219319
 21
5.2539580378
  0
LINE
  5
39A
100
AcDbEntity
  8
0
100
AcDbLine
 62
7
  6
CONTINUOUS
 10
16.0187322321
 20
5.9756247044
 11
15.0647421665
 21
5.9756247044
  0
LWPOLYLINE
  5
39B
100
AcDbEntity
  8
0
100
AcDbPolyline
 62
7
  6
CONTINUOUS
 90
8
 70
0
 10
13.4594072865
 20
12.4539501632
 10
13.4577693494
 20
12.4474689801
 10
13.4565026701
 20
12.4389012939
 10
13.4560517617
 20
12.4299995992
 10
13.4564131367
 20
12.4210859823
 10
13.4575926353
 20
12.4124833219
 10
13.4596149829
 20
12.4045035693
 10
13.4618780334
 20
12.3987906137
  0
LINE
  5
39C
100
AcDbEntity
  8
0
100
AcDbLine
 62
7
  6
CONTINUOUS
 10
13.4594059387
 20
12.4539458142
 11
13.6903348064
 21
13.2012319042
  0
LINE
  5
39D
100
AcDbEntity
  8
0
100
AcDbLine
 62
7
  6
CONTINUOUS
 10
13.4579299081
 20
12.4111525153
 11
13.3910165972
 21
12.1946209616
  0
LINE
  5
39E
100
AcDbEntity
  8
0
100
AcDbLine
 62
7
  6
CONTINUOUS
 10
13.4066792013
 20
12.1263952699
 11
13.396250453
 21
12.1476468245
  0
LINE
  5
39F
100
AcDbEntity
  8
0
100
AcDbLine
 62
7
  6
CONTINUOUS
 10
13.7978950432
 20
11.8223130204
 11
13.7816261437
 21
11.855465552
  0
LINE
  5
3A0
100
AcDbEntity
  8
0
100
AcDbLine
 62
7
  6
CONTINUOUS
 10
13.7427477082
 20
11.9701897007
 11
13.7459119853
 21
11.9637415819
  0
LINE
  5
3A1
100
AcDbEntity
  8
0
100
AcDbLine
 62
7
  6
CONTINUOUS
 10
13.6439346035
 20
12.0194470748
 11
13.4618724598
 21
12.3988021831
  0
LINE
  5
3A2
100
AcDbEntity
  8
0
100
AcDbLine
 62
7
  6
CONTINUOUS
 10
13.7812330519
 20
11.8564088323
 11
13.7816261437
 21
11.855465552
  0
LWPOLYLINE
  5
3A3
100
AcDbEntity
  8
0
100
AcDbPolyline
 62
7
  6
CONTINUOUS
 90
4
 70
0
 10
13.7481169561
 20
11.9514215272
 10
13.7487428476
 20
11.949851599
 10
13.7502599814
 20
11.9459229642
 10
13.7515646868
 20
11.9423601472
  0
LWPOLYLINE
  5
3A4
100
AcDbEntity
  8
0
100
AcDbPolyline
 62
7
  6
CONTINUOUS
 90
4
 70
0
 10
13.6439346035
 20
12.0194470748
 10
13.6441935677
 20
12.0187957496
 10
13.6442981298
 20
12.0181951104
 10
13.6442838889
 20
12.0181309613
  0
LINE
  5
3A5
100
AcDbEntity
  8
0
100
AcDbLine
 62
7
  6
CONTINUOUS
 10
13.7515646868
 20
11.9423601472
 11
13.7812298337
 21
11.8564181198
  0
LINE
  5
3A6
100
AcDbEntity
  8
0
100
AcDbLine
 62
7
  6
CONTINUOUS
 10
13.7519423495
 20
11.9412807757
 11
13.7519431221
 21
11.941278535
  0
LINE
  5
3A7
100
AcDbEntity
  8
0
100
AcDbLine
 62
7
  6
CONTINUOUS
 10
13.5831454312
 20
12.1461108617
 11
13.5473994391
 21
12.0127115823
  0
LINE
  5
3A8
100
AcDbEntity
  8
0
100
AcDbLine
 62
7
  6
CONTINUOUS
 10
13.6333837794
 20
12.0127116805
 11
13.6387825613
 21
12.0301821451
  0
LWPOLYLINE
  5
3A9
100
AcDbEntity
  8
0
100
AcDbPolyline
 62
7
  6
CONTINUOUS
 90
8
 70
0
 10
13.9199377835
 20
12.4539501632
 10
13.9182998464
 20
12.4474689801
 10
13.9170331671
 20
12.4389012939
 10
13.9165822587
 20
12.4299995992
 10
13.9169436337
 20
12.4210859823
 10
13.9181231323
 20
12.4124833219
 10
13.9201454799
 20
12.4045035693
 10
13.9224085304
 20
12.3987906137
  0
LINE
  5
3AA
100
AcDbEntity
  8
0
100
AcDbLine
 62
7
  6
CONTINUOUS
 10
13.9348475119
 20
12.7895450452
 11
13.6947878457
 21
12.0127116805
  0
LINE
  5
3AB
100
AcDbEntity
  8
0
100
AcDbLine
 62
7
  6
CONTINUOUS
 10
13.9373895757
 20
12.7843648639
 11
13.6953126901
 21
12.001003775
  0
LINE
  5
3AC
100
AcDbEntity
  8
0
100
AcDbLine
 62
7
  6
CONTINUOUS
 10
13.9199364357
 20
12.4539458142
 11
14.1508653034
 21
13.2012319042
  0
LINE
  5
3AD
100
AcDbEntity
  8
0
100
AcDbLine
 62
7
  6
CONTINUOUS
 10
14.1044651005
 20
12.0194470748
 11
13.9224029568
 21
12.3988021831
  0
LWPOLYLINE
  5
3AE
100
AcDbEntity
  8
0
100
AcDbPolyline
 62
7
  6
CONTINUOUS
 90
4
 70
0
 10
14.1044651005
 20
12.0194470748
 10
14.1047240647
 20
12.0187957496
 10
14.1048286268
 20
12.0181951104
 10
14.1048143859
 20
12.0181309613
  0
LINE
  5
3AF
100
AcDbEntity
  8
0
100
AcDbLine
 62
7
  6
CONTINUOUS
 10
13.8990377234
 20
12.222904303
 11
13.9412552865
 21
12.3595203873
  0
LINE
  5
3B0
100
AcDbEntity
  8
0
100
AcDbLine
 62
7
  6
CONTINUOUS
 10
13.9427673439
 20
12.3563697778
 11
13.9045973714
 21
12.2328517017
  0
LINE
  5
3B1
100
AcDbEntity
  8
0
100
AcDbLine
 62
7
  6
CONTINUOUS
 10
14.2584255402
 20
11.8223130204
 11
14.2421566407
 21
11.855465552
  0
LINE
  5
3B2
100
AcDbEntity
  8
0
100
AcDbLine
 62
7
  6
CONTINUOUS
 10
14.2032782052
 20
11.9701897007
 11
14.2064424823
 21
11.9637415819
  0
LINE
  5
3B3
100
AcDbEntity
  8
0
100
AcDbLine
 62
7
  6
CONTINUOUS
 10
14.2417635489
 20
11.8564088323
 11
14.2421566407
 21
11.855465552
  0
LWPOLYLINE
  5
3B4
100
AcDbEntity
  8
0
100
AcDbPolyline
 62
7
  6
CONTINUOUS
 90
4
 70
0
 10
14.2086474531
 20
11.9514215272
 10
14.2092733446
 20
11.949851599
 10
14.2107904784
 20
11.9459229642
 10
14.2120951838
 20
11.9423601472
  0
LINE
  5
3B5
100
AcDbEntity
  8
0
100
AcDbLine
 62
7
  6
CONTINUOUS
 10
14.2120951838
 20
11.9423601472
 11
14.2417603308
 21
11.8564181198
  0
LINE
  5
3B6
100
AcDbEntity
  8
0
100
AcDbLine
 62
7
  6
CONTINUOUS
 10
14.2124728465
 20
11.9412807757
 11
14.2124736191
 21
11.941278535
  0
LINE
  5
3B7
100
AcDbEntity
  8
0
100
AcDbLine
 62
7
  6
CONTINUOUS
 10
14.0436759282
 20
12.1461108617
 11
14.0079299361
 21
12.0127115823
  0
LINE
  5
3B8
100
AcDbEntity
  8
0
100
AcDbLine
 62
7
  6
CONTINUOUS
 10
14.0329350507
 20
11.9760626393
 11
14.0392510478
 21
11.9965012134
  0
LINE
  5
3B9
100
AcDbEntity
  8
0
100
AcDbLine
 62
7
  6
CONTINUOUS
 10
14.0939142764
 20
12.0127116805
 11
14.0993130583
 21
12.0301821451
  0
LWPOLYLINE
  5
3BA
100
AcDbEntity
  8
0
100
AcDbPolyline
 62
7
  6
CONTINUOUS
 90
4
 70
0
 10
13.5670353644
 20
12.0011977419
 10
13.5886401578
 20
11.9925143094
 10
13.6087015614
 20
11.9821936012
 10
13.6251107902
 20
11.971717614
  0
LINE
  5
3BB
100
AcDbEntity
  8
0
100
AcDbLine
 62
7
  6
CONTINUOUS
 10
13.914368006
 20
12.7998599085
 11
13.716020293
 21
13.1987941117
  0
LINE
  5
3BC
100
AcDbEntity
  8
0
100
AcDbLine
 62
7
  6
CONTINUOUS
 10
13.9373895757
 20
12.7843648639
 11
13.9348475119
 21
12.7895450452
  0
LWPOLYLINE
  5
3BD
100
AcDbEntity
  8
0
100
AcDbPolyline
 62
7
  6
CONTINUOUS
 90
8
 70
0
 10
14.3804682806
 20
12.4539501632
 10
14.3788303434
 20
12.4474689801
 10
14.3775636641
 20
12.4389012939
 10
14.3771127557
 20
12.4299995992
 10
14.3774741307
 20
12.4210859823
 10
14.3786536293
 20
12.4124833219
 10
14.3806759769
 20
12.4045035693
 10
14.3829390274
 20
12.3987906137
  0
LINE
  5
3BE
100
AcDbEntity
  8
0
100
AcDbLine
 62
7
  6
CONTINUOUS
 10
14.3953780089
 20
12.7895450452
 11
14.1553183427
 21
12.0127116805
  0
LINE
  5
3BF
100
AcDbEntity
  8
0
100
AcDbLine
 62
7
  6
CONTINUOUS
 10
14.3979200727
 20
12.7843648639
 11
14.1558431871
 21
12.001003775
  0
LINE
  5
3C0
100
AcDbEntity
  8
0
100
AcDbLine
 62
7
  6
CONTINUOUS
 10
14.3804669327
 20
12.4539458142
 11
14.6113958004
 21
13.2012319042
  0
LINE
  5
3C1
100
AcDbEntity
  8
0
100
AcDbLine
 62
7
  6
CONTINUOUS
 10
13.5548187632
 20
12.0051504044
 11
13.5670353644
 21
12.0011977419
  0
LWPOLYLINE
  5
3C2
100
AcDbEntity
  8
0
100
AcDbPolyline
 62
7
  6
CONTINUOUS
 90
4
 70
0
 10
14.0275658614
 20
12.0011977419
 10
14.0491706548
 20
11.9925143094
 10
14.0692320584
 20
11.9821936012
 10
14.0856412872
 20
11.971717614
  0
LINE
  5
3C3
100
AcDbEntity
  8
0
100
AcDbLine
 62
7
  6
CONTINUOUS
 10
14.5649955975
 20
12.0194470748
 11
14.3829334538
 21
12.3988021831
  0
LWPOLYLINE
  5
3C4
100
AcDbEntity
  8
0
100
AcDbPolyline
 62
7
  6
CONTINUOUS
 90
4
 70
0
 10
14.5649955975
 20
12.0194470748
 10
14.5652545617
 20
12.0187957496
 10
14.5653591238
 20
12.0181951104
 10
14.5653448829
 20
12.0181309613
  0
LINE
  5
3C5
100
AcDbEntity
  8
0
100
AcDbLine
 62
7
  6
CONTINUOUS
 10
14.3595682204
 20
12.222904303
 11
14.4017857835
 21
12.3595203873
  0
LINE
  5
3C6
100
AcDbEntity
  8
0
100
AcDbLine
 62
7
  6
CONTINUOUS
 10
14.4032978409
 20
12.3563697778
 11
14.3651278684
 21
12.2328517017
  0
LINE
  5
3C7
100
AcDbEntity
  8
0
100
AcDbLine
 62
7
  6
CONTINUOUS
 10
14.0153492602
 20
12.0051504044
 11
14.0275658614
 21
12.0011977419
  0
LINE
  5
3C8
100
AcDbEntity
  8
0
100
AcDbLine
 62
7
  6
CONTINUOUS
 10
14.7189560372
 20
11.8223130204
 11
14.7026871377
 21
11.855465552
  0
LINE
  5
3C9
100
AcDbEntity
  8
0
100
AcDbLine
 62
7
  6
CONTINUOUS
 10
14.6638087022
 20
11.9701897007
 11
14.6669729793
 21
11.9637415819
  0
LINE
  5
3CA
100
AcDbEntity
  8
0
100
AcDbLine
 62
7
  6
CONTINUOUS
 10
14.7022940459
 20
11.8564088323
 11
14.7026871377
 21
11.855465552
  0
LWPOLYLINE
  5
3CB
100
AcDbEntity
  8
0
100
AcDbPolyline
 62
7
  6
CONTINUOUS
 90
4
 70
0
 10
14.6691779501
 20
11.9514215272
 10
14.6698038416
 20
11.949851599
 10
14.6713209754
 20
11.9459229642
 10
14.6726256808
 20
11.9423601472
  0
LINE
  5
3CC
100
AcDbEntity
  8
0
100
AcDbLine
 62
7
  6
CONTINUOUS
 10
14.6726256808
 20
11.9423601472
 11
14.7022908278
 21
11.8564181198
  0
LINE
  5
3CD
100
AcDbEntity
  8
0
100
AcDbLine
 62
7
  6
CONTINUOUS
 10
14.6730033435
 20
11.9412807757
 11
14.6730041161
 21
11.941278535
  0
LINE
  5
3CE
100
AcDbEntity
  8
0
100
AcDbLine
 62
7
  6
CONTINUOUS
 10
14.5042064252
 20
12.1461108617
 11
14.4684604331
 21
12.0127115823
  0
LINE
  5
3CF
100
AcDbEntity
  8
0
100
AcDbLine
 62
7
  6
CONTINUOUS
 10
14.4934655477
 20
11.9760626393
 11
14.4997815448
 21
11.9965012134
  0
LINE
  5
3D0
100
AcDbEntity
  8
0
100
AcDbLine
 62
7
  6
CONTINUOUS
 10
14.5544447734
 20
12.0127116805
 11
14.5598435553
 21
12.0301821451
  0
LINE
  5
3D1
100
AcDbEntity
  8
0
100
AcDbLine
 62
7
  6
CONTINUOUS
 10
13.9587436214
 20
11.8210402357
 11
14.0245758411
 21
11.9103658773
  0
LINE
  5
3D2
100
AcDbEntity
  8
0
100
AcDbLine
 62
7
  6
CONTINUOUS
 10
14.4758797572
 20
12.0051504044
 11
14.4880963584
 21
12.0011977419
  0
LWPOLYLINE
  5
3D3
100
AcDbEntity
  8
0
100
AcDbPolyline
 62
7
  6
CONTINUOUS
 90
4
 70
0
 10
14.4880963584
 20
12.0011977419
 10
14.5097011518
 20
11.9925143094
 10
14.5297625554
 20
11.9821936012
 10
14.5461717842
 20
11.971717614
  0
LINE
  5
3D4
100
AcDbEntity
  8
0
100
AcDbLine
 62
7
  6
CONTINUOUS
 10
14.374898503
 20
12.7998599085
 11
14.17655079
 21
13.1987941117
  0
LINE
  5
3D5
100
AcDbEntity
  8
0
100
AcDbLine
 62
7
  6
CONTINUOUS
 10
14.3979200727
 20
12.7843648639
 11
14.3953780089
 21
12.7895450452
  0
LWPOLYLINE
  5
3D6
100
AcDbEntity
  8
0
100
AcDbPolyline
 62
7
  6
CONTINUOUS
 90
8
 70
0
 10
14.8409987776
 20
12.4539501632
 10
14.8393608404
 20
12.4474689801
 10
14.8380941611
 20
12.4389012939
 10
14.8376432527
 20
12.4299995992
 10
14.8380046277
 20
12.4210859823
 10
14.8391841263
 20
12.4124833219
 10
14.8412064739
 20
12.4045035693
 10
14.8434695244
 20
12.3987906137
  0
LINE
  5
3D7
100
AcDbEntity
  8
0
100
AcDbLine
 62
7
  6
CONTINUOUS
 10
14.8559085059
 20
12.7895450452
 11
14.6158488397
 21
12.0127116805
  0
LINE
  5
3D8
100
AcDbEntity
  8
0
100
AcDbLine
 62
7
  6
CONTINUOUS
 10
14.8584505697
 20
12.7843648639
 11
14.6163736841
 21
12.001003775
  0
LINE
  5
3D9
100
AcDbEntity
  8
0
100
AcDbLine
 62
7
  6
CONTINUOUS
 10
14.8409974297
 20
12.4539458142
 11
15.0719262974
 21
13.2012319042
  0
LINE
  5
3DA
100
AcDbEntity
  8
0
100
AcDbLine
 62
7
  6
CONTINUOUS
 10
13.8053761403
 20
11.8176508763
 11
13.9520353007
 21
11.8176508763
  0
LINE
  5
3DB
100
AcDbEntity
  8
0
100
AcDbLine
 62
7
  6
CONTINUOUS
 10
14.2659066373
 20
11.8176508763
 11
14.4125657977
 21
11.8176508763
  0
LINE
  5
3DC
100
AcDbEntity
  8
0
100
AcDbLine
 62
7
  6
CONTINUOUS
 10
14.7264371343
 20
11.8176508763
 11
14.8730962947
 21
11.8176508763
  0
LINE
  5
3DD
100
AcDbEntity
  8
0
100
AcDbLine
 62
7
  6
CONTINUOUS
 10
15.1869676313
 20
11.8176508763
 11
15.3336267917
 21
11.8176508763
  0
LINE
  5
3DE
100
AcDbEntity
  8
0
100
AcDbLine
 62
7
  6
CONTINUOUS
 10
15.6474981283
 20
11.8176508763
 11
15.7941572887
 21
11.8176508763
  0
LINE
  5
3DF
100
AcDbEntity
  8
0
100
AcDbLine
 62
7
  6
CONTINUOUS
 10
16.1080286253
 20
11.8176508763
 11
16.2546877857
 21
11.8176508763
  0
LINE
  5
3E0
100
AcDbEntity
  8
0
100
AcDbLine
 62
7
  6
CONTINUOUS
 10
16.5685591223
 20
11.8176508763
 11
16.7152182827
 21
11.8176508763
  0
LINE
  5
3E1
100
AcDbEntity
  8
0
100
AcDbLine
 62
7
  6
CONTINUOUS
 10
17.0290896194
 20
11.8176508763
 11
17.1757487797
 21
11.8176508763
  0
LINE
  5
3E2
100
AcDbEntity
  8
0
100
AcDbLine
 62
7
  6
CONTINUOUS
 10
17.3141501586
 20
11.91556674
 11
17.2586608158
 21
11.91556674
  0
LINE
  5
3E3
100
AcDbEntity
  8
0
100
AcDbLine
 62
7
  6
CONTINUOUS
 10
16.8536196616
 20
11.91556674
 11
16.7981303188
 21
11.91556674
  0
LINE
  5
3E4
100
AcDbEntity
  8
0
100
AcDbLine
 62
7
  6
CONTINUOUS
 10
16.3930891646
 20
11.91556674
 11
16.3375998218
 21
11.91556674
  0
LINE
  5
3E5
100
AcDbEntity
  8
0
100
AcDbLine
 62
7
  6
CONTINUOUS
 10
15.9325586676
 20
11.91556674
 11
15.8770693248
 21
11.91556674
  0
LINE
  5
3E6
100
AcDbEntity
  8
0
100
AcDbLine
 62
7
  6
CONTINUOUS
 10
15.4720281706
 20
11.91556674
 11
15.4165388278
 21
11.91556674
  0
LINE
  5
3E7
100
AcDbEntity
  8
0
100
AcDbLine
 62
7
  6
CONTINUOUS
 10
15.0114976736
 20
11.91556674
 11
14.9560083308
 21
11.91556674
  0
LINE
  5
3E8
100
AcDbEntity
  8
0
100
AcDbLine
 62
7
  6
CONTINUOUS
 10
14.5509671766
 20
11.91556674
 11
14.4954778338
 21
11.91556674
  0
LINE
  5
3E9
100
AcDbEntity
  8
0
100
AcDbLine
 62
7
  6
CONTINUOUS
 10
14.0904366796
 20
11.91556674
 11
14.0349473368
 21
11.91556674
  0
LINE
  5
3EA
100
AcDbEntity
  8
0
100
AcDbLine
 62
7
  6
CONTINUOUS
 10
14.9364102542
 20
12.0051504044
 11
14.9486268554
 21
12.0011977419
  0
LWPOLYLINE
  5
3EB
100
AcDbEntity
  8
0
100
AcDbPolyline
 62
7
  6
CONTINUOUS
 90
4
 70
0
 10
14.9486268554
 20
12.0011977419
 10
14.9702316488
 20
11.9925143094
 10
14.9902930524
 20
11.9821936012
 10
15.0067022812
 20
11.971717614
  0
LINE
  5
3EC
100
AcDbEntity
  8
0
100
AcDbLine
 62
7
  6
CONTINUOUS
 10
15.0255260945
 20
12.0194470748
 11
14.8434639508
 21
12.3988021831
  0
LWPOLYLINE
  5
3ED
100
AcDbEntity
  8
0
100
AcDbPolyline
 62
7
  6
CONTINUOUS
 90
4
 70
0
 10
15.0255260945
 20
12.0194470748
 10
15.0257850587
 20
12.0187957496
 10
15.0258896208
 20
12.0181951104
 10
15.0258753799
 20
12.0181309613
  0
LINE
  5
3EE
100
AcDbEntity
  8
0
100
AcDbLine
 62
7
  6
CONTINUOUS
 10
14.8200987174
 20
12.222904303
 11
14.8623162805
 21
12.3595203873
  0
LINE
  5
3EF
100
AcDbEntity
  8
0
100
AcDbLine
 62
7
  6
CONTINUOUS
 10
14.8638283379
 20
12.3563697778
 11
14.8256583654
 21
12.2328517017
  0
LINE
  5
3F0
100
AcDbEntity
  8
0
100
AcDbLine
 62
7
  6
CONTINUOUS
 10
14.4192741184
 20
11.8210402357
 11
14.4851063381
 21
11.9103658773
  0
LINE
  5
3F1
100
AcDbEntity
  8
0
100
AcDbLine
 62
7
  6
CONTINUOUS
 10
14.1200164292
 20
11.938931523
 11
14.0959567813
 21
11.9176572437
  0
LINE
  5
3F2
100
AcDbEntity
  8
0
100
AcDbLine
 62
7
  6
CONTINUOUS
 10
13.6299172285
 20
11.9701897007
 11
13.8574217884
 21
11.9701897007
  0
LINE
  5
3F3
100
AcDbEntity
  8
0
100
AcDbLine
 62
7
  6
CONTINUOUS
 10
13.9648350354
 20
11.9701897007
 11
14.0249732103
 21
11.9701897007
  0
LINE
  5
3F4
100
AcDbEntity
  8
0
100
AcDbLine
 62
7
  6
CONTINUOUS
 10
14.0904477255
 20
11.9701897007
 11
14.3179522854
 21
11.9701897007
  0
LINE
  5
3F5
100
AcDbEntity
  8
0
100
AcDbLine
 62
7
  6
CONTINUOUS
 10
14.4253655324
 20
11.9701897007
 11
14.4855037073
 21
11.9701897007
  0
LINE
  5
3F6
100
AcDbEntity
  8
0
100
AcDbLine
 62
7
  6
CONTINUOUS
 10
14.5509782225
 20
11.9701897007
 11
14.7784827824
 21
11.9701897007
  0
LINE
  5
3F7
100
AcDbEntity
  8
0
100
AcDbLine
 62
7
  6
CONTINUOUS
 10
14.8858960294
 20
11.9701897007
 11
14.9460342043
 21
11.9701897007
  0
LINE
  5
3F8
100
AcDbEntity
  8
0
100
AcDbLine
 62
7
  6
CONTINUOUS
 10
15.0115087195
 20
11.9701897007
 11
15.2390132794
 21
11.9701897007
  0
LINE
  5
3F9
100
AcDbEntity
  8
0
100
AcDbLine
 62
7
  6
CONTINUOUS
 10
15.3464265264
 20
11.9701897007
 11
15.4065647013
 21
11.9701897007
  0
LINE
  5
3FA
100
AcDbEntity
  8
0
100
AcDbLine
 62
7
  6
CONTINUOUS
 10
15.4720392165
 20
11.9701897007
 11
15.6995437764
 21
11.9701897007
  0
LINE
  5
3FB
100
AcDbEntity
  8
0
100
AcDbLine
 62
7
  6
CONTINUOUS
 10
15.8069570234
 20
11.9701897007
 11
15.8670951983
 21
11.9701897007
  0
LINE
  5
3FC
100
AcDbEntity
  8
0
100
AcDbLine
 62
7
  6
CONTINUOUS
 10
15.9325697135
 20
11.9701897007
 11
16.1600742734
 21
11.9701897007
  0
LINE
  5
3FD
100
AcDbEntity
  8
0
100
AcDbLine
 62
7
  6
CONTINUOUS
 10
16.2674875204
 20
11.9701897007
 11
16.3276256953
 21
11.9701897007
  0
LINE
  5
3FE
100
AcDbEntity
  8
0
100
AcDbLine
 62
7
  6
CONTINUOUS
 10
16.3931002105
 20
11.9701897007
 11
16.6206047704
 21
11.9701897007
  0
LINE
  5
3FF
100
AcDbEntity
  8
0
100
AcDbLine
 62
7
  6
CONTINUOUS
 10
16.7280180174
 20
11.9701897007
 11
16.7881561923
 21
11.9701897007
  0
LINE
  5
400
100
AcDbEntity
  8
0
100
AcDbLine
 62
7
  6
CONTINUOUS
 10
16.8536307075
 20
11.9701897007
 11
17.0811352674
 21
11.9701897007
  0
LINE
  5
401
100
AcDbEntity
  8
0
100
AcDbLine
 62
7
  6
CONTINUOUS
 10
17.1885485144
 20
11.9701897007
 11
17.2486866893
 21
11.9701897007
  0
LINE
  5
402
100
AcDbEntity
  8
0
100
AcDbLine
 62
7
  6
CONTINUOUS
 10
13.6339076624
 20
12.001003775
 11
13.6953482406
 21
12.001003775
  0
LINE
  5
403
100
AcDbEntity
  8
0
100
AcDbLine
 62
7
  6
CONTINUOUS
 10
14.0944381594
 20
12.001003775
 11
14.1558787376
 21
12.001003775
  0
LINE
  5
404
100
AcDbEntity
  8
0
100
AcDbLine
 62
7
  6
CONTINUOUS
 10
14.5549686564
 20
12.001003775
 11
14.6164092346
 21
12.001003775
  0
LINE
  5
405
100
AcDbEntity
  8
0
100
AcDbLine
 62
7
  6
CONTINUOUS
 10
15.0154991534
 20
12.001003775
 11
15.0769397316
 21
12.001003775
  0
LINE
  5
406
100
AcDbEntity
  8
0
100
AcDbLine
 62
7
  6
CONTINUOUS
 10
15.4760296504
 20
12.001003775
 11
15.5374702286
 21
12.001003775
  0
LINE
  5
407
100
AcDbEntity
  8
0
100
AcDbLine
 62
7
  6
CONTINUOUS
 10
15.9365601474
 20
12.001003775
 11
15.9980007256
 21
12.001003775
  0
LINE
  5
408
100
AcDbEntity
  8
0
100
AcDbLine
 62
7
  6
CONTINUOUS
 10
16.3970906444
 20
12.001003775
 11
16.4585312226
 21
12.001003775
  0
LINE
  5
409
100
AcDbEntity
  8
0
100
AcDbLine
 62
7
  6
CONTINUOUS
 10
16.8576211414
 20
12.001003775
 11
16.9190617196
 21
12.001003775
  0
LINE
  5
40A
100
AcDbEntity
  8
0
100
AcDbLine
 62
7
  6
CONTINUOUS
 10
13.6755585477
 20
12.0061846306
 11
13.6485776465
 21
12.0061846393
  0
LINE
  5
40B
100
AcDbEntity
  8
0
100
AcDbLine
 62
7
  6
CONTINUOUS
 10
14.1360890447
 20
12.0061846306
 11
14.1091081435
 21
12.0061846393
  0
LINE
  5
40C
100
AcDbEntity
  8
0
100
AcDbLine
 62
7
  6
CONTINUOUS
 10
14.5966195417
 20
12.0061846306
 11
14.5696386405
 21
12.0061846393
  0
LINE
  5
40D
100
AcDbEntity
  8
0
100
AcDbLine
 62
7
  6
CONTINUOUS
 10
15.0571500387
 20
12.0061846306
 11
15.0301691375
 21
12.0061846393
  0
LINE
  5
40E
100
AcDbEntity
  8
0
100
AcDbLine
 62
7
  6
CONTINUOUS
 10
15.5176805357
 20
12.0061846306
 11
15.4906996345
 21
12.0061846393
  0
LINE
  5
40F
100
AcDbEntity
  8
0
100
AcDbLine
 62
7
  6
CONTINUOUS
 10
15.9782110327
 20
12.0061846306
 11
15.9512301315
 21
12.0061846393
  0
LINE
  5
410
100
AcDbEntity
  8
0
100
AcDbLine
 62
7
  6
CONTINUOUS
 10
16.4387415297
 20
12.0061846306
 11
16.4117606285
 21
12.0061846393
  0
LINE
  5
411
100
AcDbEntity
  8
0
100
AcDbLine
 62
7
  6
CONTINUOUS
 10
16.8992720267
 20
12.0061846306
 11
16.8722911255
 21
12.0061846393
  0
LINE
  5
412
100
AcDbEntity
  8
0
100
AcDbLine
 62
7
  6
CONTINUOUS
 10
15.3969407512
 20
12.0051504044
 11
15.4091573524
 21
12.0011977419
  0
LWPOLYLINE
  5
413
100
AcDbEntity
  8
0
100
AcDbPolyline
 62
7
  6
CONTINUOUS
 90
4
 70
0
 10
15.4091573524
 20
12.0011977419
 10
15.4307621458
 20
11.9925143094
 10
15.4508235494
 20
11.9821936012
 10
15.4672327782
 20
11.971717614
  0
LINE
  5
414
100
AcDbEntity
  8
0
100
AcDbLine
 62
7
  6
CONTINUOUS
 10
14.835429
 20
12.7998599085
 11
14.6370812871
 21
13.1987941117
  0
LINE
  5
415
100
AcDbEntity
  8
0
100
AcDbLine
 62
7
  6
CONTINUOUS
 10
15.1794865342
 20
11.8223130204
 11
15.1632176347
 21
11.855465552
  0
LINE
  5
416
100
AcDbEntity
  8
0
100
AcDbLine
 62
7
  6
CONTINUOUS
 10
15.1243391992
 20
11.9701897007
 11
15.1275034763
 21
11.9637415819
  0
LINE
  5
417
100
AcDbEntity
  8
0
100
AcDbLine
 62
7
  6
CONTINUOUS
 10
14.8584505697
 20
12.7843648639
 11
14.8559085059
 21
12.7895450452
  0
LINE
  5
418
100
AcDbEntity
  8
0
100
AcDbLine
 62
7
  6
CONTINUOUS
 10
15.1628245429
 20
11.8564088323
 11
15.1632176347
 21
11.855465552
  0
LWPOLYLINE
  5
419
100
AcDbEntity
  8
0
100
AcDbPolyline
 62
7
  6
CONTINUOUS
 90
4
 70
0
 10
15.1297084471
 20
11.9514215272
 10
15.1303343386
 20
11.949851599
 10
15.1318514724
 20
11.9459229642
 10
15.1331561778
 20
11.9423601472
  0
LINE
  5
41A
100
AcDbEntity
  8
0
100
AcDbLine
 62
7
  6
CONTINUOUS
 10
15.1331561778
 20
11.9423601472
 11
15.1628213248
 21
11.8564181198
  0
LINE
  5
41B
100
AcDbEntity
  8
0
100
AcDbLine
 62
7
  6
CONTINUOUS
 10
15.1335338405
 20
11.9412807757
 11
15.1335346131
 21
11.941278535
  0
LINE
  5
41C
100
AcDbEntity
  8
0
100
AcDbLine
 62
7
  6
CONTINUOUS
 10
14.9647369222
 20
12.1461108617
 11
14.9289909301
 21
12.0127115823
  0
LINE
  5
41D
100
AcDbEntity
  8
0
100
AcDbLine
 62
7
  6
CONTINUOUS
 10
14.9539960447
 20
11.9760626393
 11
14.9603120418
 21
11.9965012134
  0
LINE
  5
41E
100
AcDbEntity
  8
0
100
AcDbLine
 62
7
  6
CONTINUOUS
 10
15.0149752704
 20
12.0127116805
 11
15.0203740523
 21
12.0301821451
  0
LINE
  5
41F
100
AcDbEntity
  8
0
100
AcDbLine
 62
7
  6
CONTINUOUS
 10
13.9015797389
 20
12.2260575533
 11
13.9802688081
 21
12.2260575533
  0
LINE
  5
420
100
AcDbEntity
  8
0
100
AcDbLine
 62
7
  6
CONTINUOUS
 10
14.3621102359
 20
12.2260575533
 11
14.4407993051
 21
12.2260575533
  0
LINE
  5
421
100
AcDbEntity
  8
0
100
AcDbLine
 62
7
  6
CONTINUOUS
 10
14.8226407329
 20
12.2260575533
 11
14.9013298021
 21
12.2260575533
  0
LINE
  5
422
100
AcDbEntity
  8
0
100
AcDbLine
 62
7
  6
CONTINUOUS
 10
15.2831712299
 20
12.2260575533
 11
15.3618602991
 21
12.2260575533
  0
LINE
  5
423
100
AcDbEntity
  8
0
100
AcDbLine
 62
7
  6
CONTINUOUS
 10
15.7437017269
 20
12.2260575533
 11
15.8223907961
 21
12.2260575533
  0
LINE
  5
424
100
AcDbEntity
  8
0
100
AcDbLine
 62
7
  6
CONTINUOUS
 10
16.2042322239
 20
12.2260575533
 11
16.2829212931
 21
12.2260575533
  0
LINE
  5
425
100
AcDbEntity
  8
0
100
AcDbLine
 62
7
  6
CONTINUOUS
 10
16.6647627209
 20
12.2260575533
 11
16.7434517901
 21
12.2260575533
  0
LINE
  5
426
100
AcDbEntity
  8
0
100
AcDbLine
 62
7
  6
CONTINUOUS
 10
17.1252932179
 20
12.2260575533
 11
17.2039822871
 21
12.2260575533
  0
LINE
  5
427
100
AcDbEntity
  8
0
100
AcDbLine
 62
7
  6
CONTINUOUS
 10
15.8574712482
 20
12.0051504044
 11
15.8696878494
 21
12.0011977419
  0
LWPOLYLINE
  5
428
100
AcDbEntity
  8
0
100
AcDbPolyline
 62
7
  6
CONTINUOUS
 90
4
 70
0
 10
15.8696878494
 20
12.0011977419
 10
15.8912926428
 20
11.9925143094
 10
15.9113540464
 20
11.9821936012
 10
15.9277632752
 20
11.971717614
  0
LWPOLYLINE
  5
429
100
AcDbEntity
  8
0
100
AcDbPolyline
 62
7
  6
CONTINUOUS
 90
8
 70
0
 10
15.3015292746
 20
12.4539501632
 10
15.2998913374
 20
12.4474689801
 10
15.2986246581
 20
12.4389012939
 10
15.2981737497
 20
12.4299995992
 10
15.2985351247
 20
12.4210859823
 10
15.2997146233
 20
12.4124833219
 10
15.3017369709
 20
12.4045035693
 10
15.3040000214
 20
12.3987906137
  0
LINE
  5
42A
100
AcDbEntity
  8
0
100
AcDbLine
 62
7
  6
CONTINUOUS
 10
15.3164390029
 20
12.7895450452
 11
15.0763793367
 21
12.0127116805
  0
LINE
  5
42B
100
AcDbEntity
  8
0
100
AcDbLine
 62
7
  6
CONTINUOUS
 10
15.3189810667
 20
12.7843648639
 11
15.0769041811
 21
12.001003775
  0
LINE
  5
42C
100
AcDbEntity
  8
0
100
AcDbLine
 62
7
  6
CONTINUOUS
 10
15.3015279267
 20
12.4539458142
 11
15.5324567944
 21
13.2012319042
  0
LINE
  5
42D
100
AcDbEntity
  8
0
100
AcDbLine
 62
7
  6
CONTINUOUS
 10
14.5805469262
 20
11.938931523
 11
14.5564872783
 21
11.9176572437
  0
LINE
  5
42E
100
AcDbEntity
  8
0
100
AcDbLine
 62
7
  6
CONTINUOUS
 10
16.3180017452
 20
12.0051504044
 11
16.3302183464
 21
12.0011977419
  0
LWPOLYLINE
  5
42F
100
AcDbEntity
  8
0
100
AcDbPolyline
 62
7
  6
CONTINUOUS
 90
4
 70
0
 10
16.3302183464
 20
12.0011977419
 10
16.3518231398
 20
11.9925143094
 10
16.3718845434
 20
11.9821936012
 10
16.3882937722
 20
11.971717614
  0
LINE
  5
430
100
AcDbEntity
  8
0
100
AcDbLine
 62
7
  6
CONTINUOUS
 10
15.6400170312
 20
11.8223130204
 11
15.6237481317
 21
11.855465552
  0
LINE
  5
431
100
AcDbEntity
  8
0
100
AcDbLine
 62
7
  6
CONTINUOUS
 10
15.5848696962
 20
11.9701897007
 11
15.5880339733
 21
11.9637415819
  0
LINE
  5
432
100
AcDbEntity
  8
0
100
AcDbLine
 62
7
  6
CONTINUOUS
 10
15.4860565915
 20
12.0194470748
 11
15.3039944478
 21
12.3988021831
  0
LWPOLYLINE
  5
433
100
AcDbEntity
  8
0
100
AcDbPolyline
 62
7
  6
CONTINUOUS
 90
4
 70
0
 10
15.4860565915
 20
12.0194470748
 10
15.4863155557
 20
12.0187957496
 10
15.4864201178
 20
12.0181951104
 10
15.4864058769
 20
12.0181309613
  0
LINE
  5
434
100
AcDbEntity
  8
0
100
AcDbLine
 62
7
  6
CONTINUOUS
 10
15.2806292144
 20
12.222904303
 11
15.3228467775
 21
12.3595203873
  0
LINE
  5
435
100
AcDbEntity
  8
0
100
AcDbLine
 62
7
  6
CONTINUOUS
 10
15.3243588349
 20
12.3563697778
 11
15.2861888624
 21
12.2328517017
  0
LINE
  5
436
100
AcDbEntity
  8
0
100
AcDbLine
 62
7
  6
CONTINUOUS
 10
14.8798046154
 20
11.8210402357
 11
14.9456368351
 21
11.9103658773
  0
LINE
  5
437
100
AcDbEntity
  8
0
100
AcDbLine
 62
7
  6
CONTINUOUS
 10
17.4666519424
 20
12.4090626931
 11
17.3457925506
 21
12.4090626931
  0
LINE
  5
438
100
AcDbEntity
  8
0
100
AcDbLine
 62
7
  6
CONTINUOUS
 10
16.7785322422
 20
12.0051504044
 11
16.7907488434
 21
12.0011977419
  0
LWPOLYLINE
  5
439
100
AcDbEntity
  8
0
100
AcDbPolyline
 62
7
  6
CONTINUOUS
 90
4
 70
0
 10
16.7907488434
 20
12.0011977419
 10
16.8123536368
 20
11.9925143094
 10
16.8324150404
 20
11.9821936012
 10
16.8488242692
 20
11.971717614
  0
LINE
  5
43A
100
AcDbEntity
  8
0
100
AcDbLine
 62
7
  6
CONTINUOUS
 10
15.295959497
 20
12.7998599085
 11
15.0976117841
 21
13.1987941117
  0
LINE
  5
43B
100
AcDbEntity
  8
0
100
AcDbLine
 62
7
  6
CONTINUOUS
 10
15.3189810667
 20
12.7843648639
 11
15.3164390029
 21
12.7895450452
  0
LINE
  5
43C
100
AcDbEntity
  8
0
100
AcDbLine
 62
7
  6
CONTINUOUS
 10
15.6233550399
 20
11.8564088323
 11
15.6237481317
 21
11.855465552
  0
LWPOLYLINE
  5
43D
100
AcDbEntity
  8
0
100
AcDbPolyline
 62
7
  6
CONTINUOUS
 90
4
 70
0
 10
15.5902389441
 20
11.9514215272
 10
15.5908648356
 20
11.949851599
 10
15.5923819694
 20
11.9459229642
 10
15.5936866748
 20
11.9423601472
  0
LINE
  5
43E
100
AcDbEntity
  8
0
100
AcDbLine
 62
7
  6
CONTINUOUS
 10
15.5936866748
 20
11.9423601472
 11
15.6233518218
 21
11.8564181198
  0
LINE
  5
43F
100
AcDbEntity
  8
0
100
AcDbLine
 62
7
  6
CONTINUOUS
 10
15.5940643375
 20
11.9412807757
 11
15.5940651101
 21
11.941278535
  0
LINE
  5
440
100
AcDbEntity
  8
0
100
AcDbLine
 62
7
  6
CONTINUOUS
 10
15.4252674192
 20
12.1461108617
 11
15.3895214271
 21
12.0127115823
  0
LINE
  5
441
100
AcDbEntity
  8
0
100
AcDbLine
 62
7
  6
CONTINUOUS
 10
15.4145265417
 20
11.9760626393
 11
15.4208425388
 21
11.9965012134
  0
LINE
  5
442
100
AcDbEntity
  8
0
100
AcDbLine
 62
7
  6
CONTINUOUS
 10
15.4755057674
 20
12.0127116805
 11
15.4809045493
 21
12.0301821451
  0
LINE
  5
443
100
AcDbEntity
  8
0
100
AcDbLine
 62
7
  6
CONTINUOUS
 10
15.0410774232
 20
11.938931523
 11
15.0170177753
 21
11.9176572437
  0
LWPOLYLINE
  5
444
100
AcDbEntity
  8
0
100
AcDbPolyline
 62
7
  6
CONTINUOUS
 90
8
 70
0
 10
15.7620597716
 20
12.4539501632
 10
15.7604218344
 20
12.4474689801
 10
15.7591551551
 20
12.4389012939
 10
15.7587042467
 20
12.4299995992
 10
15.7590656217
 20
12.4210859823
 10
15.7602451203
 20
12.4124833219
 10
15.7622674679
 20
12.4045035693
 10
15.7645305184
 20
12.3987906137
  0
LINE
  5
445
100
AcDbEntity
  8
0
100
AcDbLine
 62
7
  6
CONTINUOUS
 10
15.7769694999
 20
12.7895450452
 11
15.5369098337
 21
12.0127116805
  0
LINE
  5
446
100
AcDbEntity
  8
0
100
AcDbLine
 62
7
  6
CONTINUOUS
 10
15.7795115637
 20
12.7843648639
 11
15.5374346781
 21
12.001003775
  0
LINE
  5
447
100
AcDbEntity
  8
0
100
AcDbLine
 62
7
  6
CONTINUOUS
 10
15.7620584237
 20
12.4539458142
 11
15.9929872914
 21
13.2012319042
  0
LINE
  5
448
100
AcDbEntity
  8
0
100
AcDbLine
 62
7
  6
CONTINUOUS
 10
15.3403351124
 20
11.8210402357
 11
15.4061673321
 21
11.9103658773
  0
LINE
  5
449
100
AcDbEntity
  8
0
100
AcDbLine
 62
7
  6
CONTINUOUS
 10
16.1005475282
 20
11.8223130204
 11
16.0842786287
 21
11.855465552
  0
LINE
  5
44A
100
AcDbEntity
  8
0
100
AcDbLine
 62
7
  6
CONTINUOUS
 10
16.0454001932
 20
11.9701897007
 11
16.0485644703
 21
11.9637415819
  0
LINE
  5
44B
100
AcDbEntity
  8
0
100
AcDbLine
 62
7
  6
CONTINUOUS
 10
15.9465870885
 20
12.0194470748
 11
15.7645249448
 21
12.3988021831
  0
LWPOLYLINE
  5
44C
100
AcDbEntity
  8
0
100
AcDbPolyline
 62
7
  6
CONTINUOUS
 90
4
 70
0
 10
15.9465870885
 20
12.0194470748
 10
15.9468460527
 20
12.0187957496
 10
15.9469506148
 20
12.0181951104
 10
15.9469363739
 20
12.0181309613
  0
LINE
  5
44D
100
AcDbEntity
  8
0
100
AcDbLine
 62
7
  6
CONTINUOUS
 10
15.7411597114
 20
12.222904303
 11
15.7833772745
 21
12.3595203873
  0
LINE
  5
44E
100
AcDbEntity
  8
0
100
AcDbLine
 62
7
  6
CONTINUOUS
 10
15.7848893319
 20
12.3563697778
 11
15.7467193594
 21
12.2328517017
  0
LINE
  5
44F
100
AcDbEntity
  8
0
100
AcDbLine
 62
7
  6
CONTINUOUS
 10
15.5016079202
 20
11.938931523
 11
15.4775482723
 21
11.9176572437
  0
LINE
  5
450
100
AcDbEntity
  8
0
100
AcDbLine
 62
7
  6
CONTINUOUS
 10
17.397231902
 20
12.8514135361
 11
17.112449328
 21
12.8514135361
  0
LINE
  5
451
100
AcDbEntity
  8
0
100
AcDbLine
 62
7
  6
CONTINUOUS
 10
16.8059462336
 20
12.8514135361
 11
16.651918831
 21
12.8514135361
  0
LINE
  5
452
100
AcDbEntity
  8
0
100
AcDbLine
 62
7
  6
CONTINUOUS
 10
16.3454157366
 20
12.8514135361
 11
16.191388334
 21
12.8514135361
  0
LINE
  5
453
100
AcDbEntity
  8
0
100
AcDbLine
 62
7
  6
CONTINUOUS
 10
15.8848852396
 20
12.8514135361
 11
15.730857837
 21
12.8514135361
  0
LINE
  5
454
100
AcDbEntity
  8
0
100
AcDbLine
 62
7
  6
CONTINUOUS
 10
15.4243547426
 20
12.8514135361
 11
15.27032734
 21
12.8514135361
  0
LINE
  5
455
100
AcDbEntity
  8
0
100
AcDbLine
 62
7
  6
CONTINUOUS
 10
14.9638242456
 20
12.8514135361
 11
14.809796843
 21
12.8514135361
  0
LINE
  5
456
100
AcDbEntity
  8
0
100
AcDbLine
 62
7
  6
CONTINUOUS
 10
14.5032937486
 20
12.8514135361
 11
14.349266346
 21
12.8514135361
  0
LINE
  5
457
100
AcDbEntity
  8
0
100
AcDbLine
 62
7
  6
CONTINUOUS
 10
14.0427632516
 20
12.8514135361
 11
13.888735849
 21
12.8514135361
  0
LINE
  5
458
100
AcDbEntity
  8
0
100
AcDbLine
 62
7
  6
CONTINUOUS
 10
15.756489994
 20
12.7998599085
 11
15.5581422811
 21
13.1987941117
  0
LINE
  5
459
100
AcDbEntity
  8
0
100
AcDbLine
 62
7
  6
CONTINUOUS
 10
15.7795115637
 20
12.7843648639
 11
15.7769694999
 21
12.7895450452
  0
LINE
  5
45A
100
AcDbEntity
  8
0
100
AcDbLine
 62
7
  6
CONTINUOUS
 10
16.0838855369
 20
11.8564088323
 11
16.0842786287
 21
11.855465552
  0
LWPOLYLINE
  5
45B
100
AcDbEntity
  8
0
100
AcDbPolyline
 62
7
  6
CONTINUOUS
 90
4
 70
0
 10
16.0507694411
 20
11.9514215272
 10
16.0513953326
 20
11.949851599
 10
16.0529124664
 20
11.9459229642
 10
16.0542171718
 20
11.9423601472
  0
LINE
  5
45C
100
AcDbEntity
  8
0
100
AcDbLine
 62
7
  6
CONTINUOUS
 10
16.0542171718
 20
11.9423601472
 11
16.0838823188
 21
11.8564181198
  0
LINE
  5
45D
100
AcDbEntity
  8
0
100
AcDbLine
 62
7
  6
CONTINUOUS
 10
16.0545948345
 20
11.9412807757
 11
16.0545956071
 21
11.941278535
  0
LINE
  5
45E
100
AcDbEntity
  8
0
100
AcDbLine
 62
7
  6
CONTINUOUS
 10
15.8857979162
 20
12.1461108617
 11
15.8500519241
 21
12.0127115823
  0
LINE
  5
45F
100
AcDbEntity
  8
0
100
AcDbLine
 62
7
  6
CONTINUOUS
 10
15.8750570387
 20
11.9760626393
 11
15.8813730358
 21
11.9965012134
  0
LINE
  5
460
100
AcDbEntity
  8
0
100
AcDbLine
 62
7
  6
CONTINUOUS
 10
15.9360362644
 20
12.0127116805
 11
15.9414350463
 21
12.0301821451
  0
LWPOLYLINE
  5
461
100
AcDbEntity
  8
0
100
AcDbPolyline
 62
7
  6
CONTINUOUS
 90
8
 70
0
 10
16.2225902686
 20
12.4539501632
 10
16.2209523314
 20
12.4474689801
 10
16.2196856521
 20
12.4389012939
 10
16.2192347437
 20
12.4299995992
 10
16.2195961187
 20
12.4210859823
 10
16.2207756173
 20
12.4124833219
 10
16.2227979649
 20
12.4045035693
 10
16.2250610154
 20
12.3987906137
  0
LINE
  5
462
100
AcDbEntity
  8
0
100
AcDbLine
 62
7
  6
CONTINUOUS
 10
16.2374999969
 20
12.7895450452
 11
15.9974403307
 21
12.0127116805
  0
LINE
  5
463
100
AcDbEntity
  8
0
100
AcDbLine
 62
7
  6
CONTINUOUS
 10
16.2400420607
 20
12.7843648639
 11
15.9979651751
 21
12.001003775
  0
LINE
  5
464
100
AcDbEntity
  8
0
100
AcDbLine
 62
7
  6
CONTINUOUS
 10
16.2225889207
 20
12.4539458142
 11
16.4535177884
 21
13.2012319042
  0
LINE
  5
465
100
AcDbEntity
  8
0
100
AcDbLine
 62
7
  6
CONTINUOUS
 10
15.8008656094
 20
11.8210402357
 11
15.8666978291
 21
11.9103658773
  0
LINE
  5
466
100
AcDbEntity
  8
0
100
AcDbLine
 62
7
  6
CONTINUOUS
 10
13.6957546312
 20
13.2039515925
 11
13.7058139339
 21
13.2039515925
  0
LINE
  5
467
100
AcDbEntity
  8
0
100
AcDbLine
 62
7
  6
CONTINUOUS
 10
14.1562851282
 20
13.2039515925
 11
14.1663444309
 21
13.2039515925
  0
LINE
  5
468
100
AcDbEntity
  8
0
100
AcDbLine
 62
7
  6
CONTINUOUS
 10
14.6168156252
 20
13.2039515925
 11
14.6268749279
 21
13.2039515925
  0
LINE
  5
469
100
AcDbEntity
  8
0
100
AcDbLine
 62
7
  6
CONTINUOUS
 10
15.0773461222
 20
13.2039515925
 11
15.0874054249
 21
13.2039515925
  0
LINE
  5
46A
100
AcDbEntity
  8
0
100
AcDbLine
 62
7
  6
CONTINUOUS
 10
15.5378766192
 20
13.2039515925
 11
15.5479359219
 21
13.2039515925
  0
LINE
  5
46B
100
AcDbEntity
  8
0
100
AcDbLine
 62
7
  6
CONTINUOUS
 10
15.9984071162
 20
13.2039515925
 11
16.0084664189
 21
13.2039515925
  0
LINE
  5
46C
100
AcDbEntity
  8
0
100
AcDbLine
 62
7
  6
CONTINUOUS
 10
16.4589376132
 20
13.2039515925
 11
16.4689969159
 21
13.2039515925
  0
LINE
  5
46D
100
AcDbEntity
  8
0
100
AcDbLine
 62
7
  6
CONTINUOUS
 10
16.9194681102
 20
13.2039515925
 11
16.9295274129
 21
13.2039515925
  0
LINE
  5
46E
100
AcDbEntity
  8
0
100
AcDbLine
 62
7
  6
CONTINUOUS
 10
16.5610780252
 20
11.8223130204
 11
16.5448091257
 21
11.855465552
  0
LINE
  5
46F
100
AcDbEntity
  8
0
100
AcDbLine
 62
7
  6
CONTINUOUS
 10
16.5059306902
 20
11.9701897007
 11
16.5090949673
 21
11.9637415819
  0
LINE
  5
470
100
AcDbEntity
  8
0
100
AcDbLine
 62
7
  6
CONTINUOUS
 10
16.4071175855
 20
12.0194470748
 11
16.2250554418
 21
12.3988021831
  0
LINE
  5
471
100
AcDbEntity
  8
0
100
AcDbLine
 62
7
  6
CONTINUOUS
 10
16.5444160339
 20
11.8564088323
 11
16.5448091257
 21
11.855465552
  0
LWPOLYLINE
  5
472
100
AcDbEntity
  8
0
100
AcDbPolyline
 62
7
  6
CONTINUOUS
 90
4
 70
0
 10
16.4071175855
 20
12.0194470748
 10
16.4073765497
 20
12.0187957496
 10
16.4074811118
 20
12.0181951104
 10
16.4074668709
 20
12.0181309613
  0
LINE
  5
473
100
AcDbEntity
  8
0
100
AcDbLine
 62
7
  6
CONTINUOUS
 10
16.2016902084
 20
12.222904303
 11
16.2439077715
 21
12.3595203873
  0
LINE
  5
474
100
AcDbEntity
  8
0
100
AcDbLine
 62
7
  6
CONTINUOUS
 10
16.2454198289
 20
12.3563697778
 11
16.2072498564
 21
12.2328517017
  0
LINE
  5
475
100
AcDbEntity
  8
0
100
AcDbLine
 62
7
  6
CONTINUOUS
 10
15.9621384172
 20
11.938931523
 11
15.9380787693
 21
11.9176572437
  0
LINE
  5
476
100
AcDbEntity
  8
0
100
AcDbLine
 62
7
  6
CONTINUOUS
 10
16.217020491
 20
12.7998599085
 11
16.0186727781
 21
13.1987941117
  0
LINE
  5
477
100
AcDbEntity
  8
0
100
AcDbLine
 62
7
  6
CONTINUOUS
 10
16.2400420607
 20
12.7843648639
 11
16.2374999969
 21
12.7895450452
  0
LWPOLYLINE
  5
478
100
AcDbEntity
  8
0
100
AcDbPolyline
 62
7
  6
CONTINUOUS
 90
4
 70
0
 10
16.5112999381
 20
11.9514215272
 10
16.5119258296
 20
11.949851599
 10
16.5134429634
 20
11.9459229642
 10
16.5147476688
 20
11.9423601472
  0
LINE
  5
479
100
AcDbEntity
  8
0
100
AcDbLine
 62
7
  6
CONTINUOUS
 10
16.5147476688
 20
11.9423601472
 11
16.5444128158
 21
11.8564181198
  0
LINE
  5
47A
100
AcDbEntity
  8
0
100
AcDbLine
 62
7
  6
CONTINUOUS
 10
16.5151253315
 20
11.9412807757
 11
16.5151261041
 21
11.941278535
  0
LINE
  5
47B
100
AcDbEntity
  8
0
100
AcDbLine
 62
7
  6
CONTINUOUS
 10
16.3463284132
 20
12.1461108617
 11
16.3105824211
 21
12.0127115823
  0
LINE
  5
47C
100
AcDbEntity
  8
0
100
AcDbLine
 62
7
  6
CONTINUOUS
 10
16.3355875357
 20
11.9760626393
 11
16.3419035328
 21
11.9965012134
  0
LINE
  5
47D
100
AcDbEntity
  8
0
100
AcDbLine
 62
7
  6
CONTINUOUS
 10
16.3965667614
 20
12.0127116805
 11
16.4019655433
 21
12.0301821451
  0
LWPOLYLINE
  5
47E
100
AcDbEntity
  8
0
100
AcDbPolyline
 62
7
  6
CONTINUOUS
 90
8
 70
0
 10
16.6831207656
 20
12.4539501632
 10
16.6814828284
 20
12.4474689801
 10
16.6802161491
 20
12.4389012939
 10
16.6797652407
 20
12.4299995992
 10
16.6801266157
 20
12.4210859823
 10
16.6813061143
 20
12.4124833219
 10
16.6833284619
 20
12.4045035693
 10
16.6855915124
 20
12.3987906137
  0
LINE
  5
47F
100
AcDbEntity
  8
0
100
AcDbLine
 62
7
  6
CONTINUOUS
 10
16.6980304939
 20
12.7895450452
 11
16.4579708277
 21
12.0127116805
  0
LINE
  5
480
100
AcDbEntity
  8
0
100
AcDbLine
 62
7
  6
CONTINUOUS
 10
16.7005725577
 20
12.7843648639
 11
16.4584956721
 21
12.001003775
  0
LINE
  5
481
100
AcDbEntity
  8
0
100
AcDbLine
 62
7
  6
CONTINUOUS
 10
16.6831194177
 20
12.4539458142
 11
16.9140482854
 21
13.2012319042
  0
LINE
  5
482
100
AcDbEntity
  8
0
100
AcDbLine
 62
7
  6
CONTINUOUS
 10
16.2613961064
 20
11.8210402357
 11
16.3272283261
 21
11.9103658773
  0
LINE
  5
483
100
AcDbEntity
  8
0
100
AcDbLine
 62
7
  6
CONTINUOUS
 10
16.4226689142
 20
11.938931523
 11
16.3986092663
 21
11.9176572437
  0
LINE
  5
484
100
AcDbEntity
  8
0
100
AcDbLine
 62
7
  6
CONTINUOUS
 10
17.0216085222
 20
11.8223130204
 11
17.0053396227
 21
11.855465552
  0
LINE
  5
485
100
AcDbEntity
  8
0
100
AcDbLine
 62
7
  6
CONTINUOUS
 10
16.9664611872
 20
11.9701897007
 11
16.9696254643
 21
11.9637415819
  0
LINE
  5
486
100
AcDbEntity
  8
0
100
AcDbLine
 62
7
  6
CONTINUOUS
 10
16.8676480825
 20
12.0194470748
 11
16.6855859388
 21
12.3988021831
  0
LINE
  5
487
100
AcDbEntity
  8
0
100
AcDbLine
 62
7
  6
CONTINUOUS
 10
17.0049465309
 20
11.8564088323
 11
17.0053396227
 21
11.855465552
  0
LWPOLYLINE
  5
488
100
AcDbEntity
  8
0
100
AcDbPolyline
 62
7
  6
CONTINUOUS
 90
4
 70
0
 10
16.9718304351
 20
11.9514215272
 10
16.9724563266
 20
11.949851599
 10
16.9739734604
 20
11.9459229642
 10
16.9752781658
 20
11.9423601472
  0
LWPOLYLINE
  5
489
100
AcDbEntity
  8
0
100
AcDbPolyline
 62
7
  6
CONTINUOUS
 90
4
 70
0
 10
16.8676480825
 20
12.0194470748
 10
16.8679070467
 20
12.0187957496
 10
16.8680116088
 20
12.0181951104
 10
16.8679973679
 20
12.0181309613
  0
LINE
  5
48A
100
AcDbEntity
  8
0
100
AcDbLine
 62
7
  6
CONTINUOUS
 10
16.6622207054
 20
12.222904303
 11
16.7044382685
 21
12.3595203873
  0
LINE
  5
48B
100
AcDbEntity
  8
0
100
AcDbLine
 62
7
  6
CONTINUOUS
 10
16.7059503259
 20
12.3563697778
 11
16.6677803534
 21
12.2328517017
  0
LINE
  5
48C
100
AcDbEntity
  8
0
100
AcDbLine
 62
7
  6
CONTINUOUS
 10
16.677550988
 20
12.7998599085
 11
16.4792032751
 21
13.1987941117
  0
LINE
  5
48D
100
AcDbEntity
  8
0
100
AcDbLine
 62
7
  6
CONTINUOUS
 10
16.7005725577
 20
12.7843648639
 11
16.6980304939
 21
12.7895450452
  0
LINE
  5
48E
100
AcDbEntity
  8
0
100
AcDbLine
 62
7
  6
CONTINUOUS
 10
16.9752781658
 20
11.9423601472
 11
17.0049433128
 21
11.8564181198
  0
LINE
  5
48F
100
AcDbEntity
  8
0
100
AcDbLine
 62
7
  6
CONTINUOUS
 10
16.9756558285
 20
11.9412807757
 11
16.9756566011
 21
11.941278535
  0
LINE
  5
490
100
AcDbEntity
  8
0
100
AcDbLine
 62
7
  6
CONTINUOUS
 10
16.8068589102
 20
12.1461108617
 11
16.7711129181
 21
12.0127115823
  0
LINE
  5
491
100
AcDbEntity
  8
0
100
AcDbLine
 62
7
  6
CONTINUOUS
 10
16.7961180327
 20
11.9760626393
 11
16.8024340298
 21
11.9965012134
  0
LINE
  5
492
100
AcDbEntity
  8
0
100
AcDbLine
 62
7
  6
CONTINUOUS
 10
16.8570972584
 20
12.0127116805
 11
16.8624960403
 21
12.0301821451
  0
LINE
  5
493
100
AcDbEntity
  8
0
100
AcDbLine
 62
7
  6
CONTINUOUS
 10
16.7219266034
 20
11.8210402357
 11
16.7877588231
 21
11.9103658773
  0
LINE
  5
494
100
AcDbEntity
  8
0
100
AcDbLine
 62
7
  6
CONTINUOUS
 10
16.8831994112
 20
11.938931523
 11
16.8591397633
 21
11.9176572437
  0
LINE
  5
495
100
AcDbEntity
  8
0
100
AcDbLine
 62
7
  6
CONTINUOUS
 10
17.496231692
 20
12.4324274761
 11
17.472172044
 21
12.4111531967
  0
LWPOLYLINE
  5
496
100
AcDbEntity
  8
0
100
AcDbPolyline
 62
7
  6
CONTINUOUS
 90
4
 70
0
 10
17.2933651357
 20
12.0948775097
 10
17.2933737247
 20
12.0948844885
 10
17.2939054828
 20
12.0951197852
 10
17.2953244133
 20
12.0953007825
  0
LWPOLYLINE
  5
497
100
AcDbEntity
  8
0
100
AcDbPolyline
 62
7
  6
CONTINUOUS
 90
11
 70
0
 10
17.4876029248
 20
12.6787069661
 10
17.4856277191
 20
12.6802370655
 10
17.4839617894
 20
12.6817932907
 10
17.4824401061
 20
12.6834617869
 10
17.4810747362
 20
12.6852225296
 10
17.4799051971
 20
12.6870327861
 10
17.478971455
 20
12.6888542565
 10
17.4783492663
 20
12.6905640174
 10
17.4780927494
 20
12.6919215509
 10
17.4781124442
 20
12.6926938389
 10
17.4781380643
 20
12.6928031993
  0
LINE
  5
498
100
AcDbEntity
  8
0
100
AcDbLine
 62
7
  6
CONTINUOUS
 10
17.1585609909
 20
12.7895450452
 11
16.9185013247
 21
12.0127116805
  0
LINE
  5
499
100
AcDbEntity
  8
0
100
AcDbLine
 62
7
  6
CONTINUOUS
 10
17.1611030547
 20
12.7843648639
 11
16.9190261691
 21
12.001003775
  0
LINE
  5
49A
100
AcDbEntity
  8
0
100
AcDbLine
 62
7
  6
CONTINUOUS
 10
17.138081485
 20
12.7998599085
 11
16.9397337721
 21
13.1987941117
  0
LINE
  5
49B
100
AcDbEntity
  8
0
100
AcDbLine
 62
7
  6
CONTINUOUS
 10
17.38107428
 20
12.1354060303
 11
17.3917507453
 21
12.1136496814
  0
LINE
  5
49C
100
AcDbEntity
  8
0
100
AcDbLine
 62
7
  6
CONTINUOUS
 10
17.1227512024
 20
12.222904303
 11
17.2510463538
 21
12.6380675651
  0
LINE
  5
49D
100
AcDbEntity
  8
0
100
AcDbLine
 62
7
  6
CONTINUOUS
 10
17.2485371244
 20
12.6219040668
 11
17.1283108504
 21
12.2328517017
  0
LINE
  5
49E
100
AcDbEntity
  8
0
100
AcDbLine
 62
7
  6
CONTINUOUS
 10
17.1876530836
 20
12.2260575533
 11
17.2937951055
 21
12.5695332621
  0
LINE
  5
49F
100
AcDbEntity
  8
0
100
AcDbLine
 62
7
  6
CONTINUOUS
 10
17.2346143256
 20
12.2235478286
 11
17.3467654911
 21
12.5864691333
  0
LINE
  5
4A0
100
AcDbEntity
  8
0
100
AcDbLine
 62
7
  6
CONTINUOUS
 10
17.3437299082
 20
11.938931523
 11
17.3196702603
 21
11.9176572437
  0
LINE
  5
4A1
100
AcDbEntity
  8
0
100
AcDbLine
 62
7
  6
CONTINUOUS
 10
17.1611030547
 20
12.7843648639
 11
17.1585609909
 21
12.7895450452
  0
LINE
  5
4A2
100
AcDbEntity
  8
0
100
AcDbLine
 62
7
  6
CONTINUOUS
 10
17.25157115
 20
12.6263597578
 11
17.2531039674
 21
12.6232362044
  0
LINE
  5
4A3
100
AcDbEntity
  8
0
100
AcDbLine
 62
7
  6
CONTINUOUS
 10
17.3467654911
 20
12.5864691333
 11
17.3798077823
 21
12.5191360232
  0
LINE
  5
4A4
100
AcDbEntity
  8
0
100
AcDbLine
 62
7
  6
CONTINUOUS
 10
17.3798077823
 20
12.5191360232
 11
17.2845325209
 21
12.2108251641
  0
LINE
  5
4A5
100
AcDbEntity
  8
0
100
AcDbLine
 62
7
  6
CONTINUOUS
 10
17.2566485297
 20
11.9760626393
 11
17.293361874
 21
12.094867065
  0
LINE
  5
4A6
100
AcDbEntity
  8
0
100
AcDbLine
 62
7
  6
CONTINUOUS
 10
17.4781392156
 20
12.6928067616
 11
17.514852608
 21
12.8116113429
  0
LINE
  5
4A7
100
AcDbEntity
  8
0
100
AcDbLine
 62
7
  6
CONTINUOUS
 10
17.1824571004
 20
11.8210402357
 11
17.2482893201
 21
11.9103658773
  0
LINE
  5
4A8
100
AcDbEntity
  8
0
100
AcDbLine
 62
7
  6
CONTINUOUS
 10
17.5335760637
 20
12.6289019833
 11
17.544252529
 21
12.6071456344
  0
LINE
  5
4A9
100
AcDbEntity
  8
0
100
AcDbLine
 62
7
  6
CONTINUOUS
 10
17.5506889797
 20
12.5498378394
 11
17.5264823473
 21
12.4715051484
  0
LINE
  5
4AA
100
AcDbEntity
  8
0
100
AcDbLine
 62
7
  6
CONTINUOUS
 10
17.3981871959
 20
12.0563418863
 11
17.3739805636
 21
11.9780091953
  0
ARC
  5
4AB
100
AcDbEntity
  8
0
100
AcDbCircle
 62
7
  6
CONTINUOUS
 10
4.1892968203
 20
5.0629735637
 40
0.3106340404
100
AcDbArc
 50
73.054037005
 51
78.0053131986
  0
ARC
  5
4AC
100
AcDbEntity
  8
0
100
AcDbCircle
 62
7
  6
CONTINUOUS
 10
4.6892968203
 20
5.0629735637
 40
0.3106340404
100
AcDbArc
 50
73.054037005
 51
78.0053131986
  0
ARC
  5
4AD
100
AcDbEntity
  8
0
100
AcDbCircle
 62
7
  6
CONTINUOUS
 10
4.1667653906
 20
4.9884532301
 40
0.05
100
AcDbArc
 50
41.8103148958
 51
90.0
  0
ARC
  5
4AE
100
AcDbEntity
  8
0
100
AcDbCircle
 62
7
  6
CONTINUOUS
 10
4.2413009898
 20
5.0551198968
 40
0.05
100
AcDbArc
 50
221.8103148958
 51
270.0
  0
ARC
  5
4AF
100
AcDbEntity
  8
0
100
AcDbCircle
 62
7
  6
CONTINUOUS
 10
4.6667653906
 20
4.9884532301
 40
0.05
100
AcDbArc
 50
41.8103148958
 51
42.6748987167
  0
ARC
  5
4B0
100
AcDbEntity
  8
0
100
AcDbCircle
 62
7
  6
CONTINUOUS
 10
4.7413009898
 20
5.0551198968
 40
0.05
100
AcDbArc
 50
221.8103148958
 51
270.0
  0
ARC
  5
4B1
100
AcDbEntity
  8
0
100
AcDbCircle
 62
7
  6
CONTINUOUS
 10
4.3387006121
 20
5.0134532301
 40
0.0083333333
100
AcDbArc
 50
180.0
 51
270.0
  0
ARC
  5
4B2
100
AcDbEntity
  8
0
100
AcDbCircle
 62
7
  6
CONTINUOUS
 10
4.7301460225
 20
5.0353737503
 40
0.0083333333
100
AcDbArc
 50
127.1640093615
 51
132.4184873
  0
ARC
  5
4B3
100
AcDbEntity
  8
0
100
AcDbCircle
 62
7
  6
CONTINUOUS
 10
4.6814473668
 20
5.0134532301
 40
0.0083333333
100
AcDbArc
 50
270.0
 51
312.4184873
  0
ARC
  5
4B4
100
AcDbEntity
  8
0
100
AcDbCircle
 62
7
  6
CONTINUOUS
 10
4.8387006121
 20
5.0134532301
 40
0.0083333333
100
AcDbArc
 50
180.0
 51
270.0
  0
ARC
  5
4B5
100
AcDbEntity
  8
0
100
AcDbCircle
 62
7
  6
CONTINUOUS
 10
4.1436635672
 20
5.221778647
 40
0.1833333333
100
AcDbArc
 50
191.2630865095
 51
270.5324557568
  0
ARC
  5
4B6
100
AcDbEntity
  8
0
100
AcDbCircle
 62
7
  6
CONTINUOUS
 10
4.1103672788
 20
5.2217865634
 40
0.1466666667
100
AcDbArc
 50
90.0
 51
180.0
  0
CIRCLE
  5
4B7
100
AcDbEntity
  8
0
100
AcDbCircle
 62
7
  6
CONTINUOUS
 10
4.1303672788
 20
5.2417865634
 40
0.0566666667
  0
ARC
  5
4B8
100
AcDbEntity
  8
0
100
AcDbCircle
 62
7
  6
CONTINUOUS
 10
3.9720339455
 20
5.1875986391
 40
0.0083333333
100
AcDbArc
 50
180.0
 51
191.2630865095
  0
ARC
  5
4B9
100
AcDbEntity
  8
0
100
AcDbCircle
 62
7
  6
CONTINUOUS
 10
4.4136280483
 20
5.3851198968
 40
0.0166666667
100
AcDbArc
 50
180.25
 51
270.249456955
  0
ARC
  5
4BA
100
AcDbEntity
  8
0
100
AcDbCircle
 62
7
  6
CONTINUOUS
 10
4.3471065093
 20
5.3851198968
 40
0.0166666667
100
AcDbArc
 50
269.750543045
 51
359.75
  0
ARC
  5
4BB
100
AcDbEntity
  8
0
100
AcDbCircle
 62
7
  6
CONTINUOUS
 10
4.3220339455
 20
5.2967865634
 40
0.0083333333
100
AcDbArc
 50
0.0
 51
90.0
  0
ARC
  5
4BC
100
AcDbEntity
  8
0
100
AcDbCircle
 62
7
  6
CONTINUOUS
 10
4.6153672788
 20
5.1867865634
 40
0.1816666667
100
AcDbArc
 50
307.1640093615
 51
360.0
  0
ARC
  5
4BD
100
AcDbEntity
  8
0
100
AcDbCircle
 62
7
  6
CONTINUOUS
 10
4.6503672788
 20
5.2217865634
 40
0.1466666667
100
AcDbArc
 50
0.0
 51
90.0
  0
ARC
  5
4BE
100
AcDbEntity
  8
0
100
AcDbCircle
 62
7
  6
CONTINUOUS
 10
4.6303672788
 20
5.2717865634
 40
0.0633333333
100
AcDbArc
 50
35.5487440029
 51
144.4512559971
  0
ARC
  5
4BF
100
AcDbEntity
  8
0
100
AcDbCircle
 62
7
  6
CONTINUOUS
 10
4.6303672788
 20
5.2417865634
 40
0.0566666667
100
AcDbArc
 50
72.8953648234
 51
287.1046351766
  0
ARC
  5
4C0
100
AcDbEntity
  8
0
100
AcDbCircle
 62
7
  6
CONTINUOUS
 10
4.6303672788
 20
5.2417865634
 40
0.0525
100
AcDbArc
 50
76.225853002
 51
283.774146998
  0
ARC
  5
4C1
100
AcDbEntity
  8
0
100
AcDbCircle
 62
7
  6
CONTINUOUS
 10
4.9136280483
 20
5.3851198968
 40
0.0166666667
100
AcDbArc
 50
180.25
 51
270.249456955
  0
ARC
  5
4C2
100
AcDbEntity
  8
0
100
AcDbCircle
 62
7
  6
CONTINUOUS
 10
4.8471065093
 20
5.3851198968
 40
0.0166666667
100
AcDbArc
 50
269.750543045
 51
359.75
  0
ARC
  5
4C3
100
AcDbEntity
  8
0
100
AcDbCircle
 62
7
  6
CONTINUOUS
 10
4.7539690806
 20
5.3134532301
 40
0.0083333333
100
AcDbArc
 50
270.0
 51
41.5023374652
  0
ARC
  5
4C4
100
AcDbEntity
  8
0
100
AcDbCircle
 62
7
  6
CONTINUOUS
 10
4.5720577599
 20
5.3134532301
 40
0.0083333333
100
AcDbArc
 50
270.0
 51
324.4512559971
  0
ARC
  5
4C5
100
AcDbEntity
  8
0
100
AcDbCircle
 62
7
  6
CONTINUOUS
 10
4.6886767978
 20
5.3134532301
 40
0.0083333333
100
AcDbArc
 50
215.5487440029
 51
270.0
  0
ARC
  5
4C6
100
AcDbEntity
  8
0
100
AcDbCircle
 62
7
  6
CONTINUOUS
 10
4.8220339455
 20
5.2967865634
 40
0.0083333333
100
AcDbArc
 50
0.0
 51
90.0
  0
ARC
  5
4C7
100
AcDbEntity
  8
0
100
AcDbCircle
 62
7
  6
CONTINUOUS
 10
5.1892968203
 20
5.0629735637
 40
0.3106340404
100
AcDbArc
 50
73.054037005
 51
78.0053131986
  0
ARC
  5
4C8
100
AcDbEntity
  8
0
100
AcDbCircle
 62
7
  6
CONTINUOUS
 10
5.6892968203
 20
5.0629735637
 40
0.3106340404
100
AcDbArc
 50
73.054037005
 51
78.0053131986
  0
ARC
  5
4C9
100
AcDbEntity
  8
0
100
AcDbCircle
 62
7
  6
CONTINUOUS
 10
5.1667653906
 20
4.9884532301
 40
0.05
100
AcDbArc
 50
41.8103148958
 51
42.6748987167
  0
ARC
  5
4CA
100
AcDbEntity
  8
0
100
AcDbCircle
 62
7
  6
CONTINUOUS
 10
5.2413009898
 20
5.0551198968
 40
0.05
100
AcDbArc
 50
221.8103148958
 51
270.0
  0
ARC
  5
4CB
100
AcDbEntity
  8
0
100
AcDbCircle
 62
7
  6
CONTINUOUS
 10
5.6667653906
 20
4.9884532301
 40
0.05
100
AcDbArc
 50
41.8103148958
 51
42.6748987167
  0
ARC
  5
4CC
100
AcDbEntity
  8
0
100
AcDbCircle
 62
7
  6
CONTINUOUS
 10
5.7413009898
 20
5.0551198968
 40
0.05
100
AcDbArc
 50
221.8103148958
 51
270.0
  0
ARC
  5
4CD
100
AcDbEntity
  8
0
100
AcDbCircle
 62
7
  6
CONTINUOUS
 10
5.2301460225
 20
5.0353737503
 40
0.0083333333
100
AcDbArc
 50
127.1640093615
 51
132.4184873
  0
ARC
  5
4CE
100
AcDbEntity
  8
0
100
AcDbCircle
 62
7
  6
CONTINUOUS
 10
5.1814473668
 20
5.0134532301
 40
0.0083333333
100
AcDbArc
 50
270.0
 51
312.4184873
  0
ARC
  5
4CF
100
AcDbEntity
  8
0
100
AcDbCircle
 62
7
  6
CONTINUOUS
 10
5.3387006121
 20
5.0134532301
 40
0.0083333333
100
AcDbArc
 50
180.0
 51
270.0
  0
ARC
  5
4D0
100
AcDbEntity
  8
0
100
AcDbCircle
 62
7
  6
CONTINUOUS
 10
5.7301460225
 20
5.0353737503
 40
0.0083333333
100
AcDbArc
 50
127.1640093615
 51
132.4184873
  0
ARC
  5
4D1
100
AcDbEntity
  8
0
100
AcDbCircle
 62
7
  6
CONTINUOUS
 10
5.6814473668
 20
5.0134532301
 40
0.0083333333
100
AcDbArc
 50
270.0
 51
312.4184873
  0
ARC
  5
4D2
100
AcDbEntity
  8
0
100
AcDbCircle
 62
7
  6
CONTINUOUS
 10
5.8387006121
 20
5.0134532301
 40
0.0083333333
100
AcDbArc
 50
180.0
 51
270.0
  0
ARC
  5
4D3
100
AcDbEntity
  8
0
100
AcDbCircle
 62
7
  6
CONTINUOUS
 10
5.1153672788
 20
5.1867865634
 40
0.1816666667
100
AcDbArc
 50
307.1640093615
 51
360.0
  0
ARC
  5
4D4
100
AcDbEntity
  8
0
100
AcDbCircle
 62
7
  6
CONTINUOUS
 10
5.1503672788
 20
5.2217865634
 40
0.1466666667
100
AcDbArc
 50
0.0
 51
90.0
  0
ARC
  5
4D5
100
AcDbEntity
  8
0
100
AcDbCircle
 62
7
  6
CONTINUOUS
 10
5.1303672788
 20
5.2717865634
 40
0.0633333333
100
AcDbArc
 50
35.5487440029
 51
144.4512559971
  0
ARC
  5
4D6
100
AcDbEntity
  8
0
100
AcDbCircle
 62
7
  6
CONTINUOUS
 10
5.1303672788
 20
5.2417865634
 40
0.0566666667
100
AcDbArc
 50
72.8953648234
 51
287.1046351766
  0
ARC
  5
4D7
100
AcDbEntity
  8
0
100
AcDbCircle
 62
7
  6
CONTINUOUS
 10
5.1303672788
 20
5.2417865634
 40
0.0525
100
AcDbArc
 50
76.225853002
 51
283.774146998
  0
ARC
  5
4D8
100
AcDbEntity
  8
0
100
AcDbCircle
 62
7
  6
CONTINUOUS
 10
5.4136280483
 20
5.3851198968
 40
0.0166666667
100
AcDbArc
 50
180.25
 51
270.249456955
  0
ARC
  5
4D9
100
AcDbEntity
  8
0
100
AcDbCircle
 62
7
  6
CONTINUOUS
 10
5.3471065093
 20
5.3851198968
 40
0.0166666667
100
AcDbArc
 50
269.750543045
 51
359.75
  0
ARC
  5
4DA
100
AcDbEntity
  8
0
100
AcDbCircle
 62
7
  6
CONTINUOUS
 10
5.2539690806
 20
5.3134532301
 40
0.0083333333
100
AcDbArc
 50
270.0
 51
41.5023374652
  0
ARC
  5
4DB
100
AcDbEntity
  8
0
100
AcDbCircle
 62
7
  6
CONTINUOUS
 10
5.0720577599
 20
5.3134532301
 40
0.0083333333
100
AcDbArc
 50
270.0
 51
324.4512559971
  0
ARC
  5
4DC
100
AcDbEntity
  8
0
100
AcDbCircle
 62
7
  6
CONTINUOUS
 10
5.1886767978
 20
5.3134532301
 40
0.0083333333
100
AcDbArc
 50
215.5487440029
 51
270.0
  0
ARC
  5
4DD
100
AcDbEntity
  8
0
100
AcDbCircle
 62
7
  6
CONTINUOUS
 10
5.3220339455
 20
5.2967865634
 40
0.0083333333
100
AcDbArc
 50
0.0
 51
90.0
  0
ARC
  5
4DE
100
AcDbEntity
  8
0
100
AcDbCircle
 62
7
  6
CONTINUOUS
 10
5.6153672788
 20
5.1867865634
 40
0.1816666667
100
AcDbArc
 50
307.1640093615
 51
360.0
  0
ARC
  5
4DF
100
AcDbEntity
  8
0
100
AcDbCircle
 62
7
  6
CONTINUOUS
 10
5.6503672788
 20
5.2217865634
 40
0.1466666667
100
AcDbArc
 50
0.0
 51
90.0
  0
ARC
  5
4E0
100
AcDbEntity
  8
0
100
AcDbCircle
 62
7
  6
CONTINUOUS
 10
5.6303672788
 20
5.2717865634
 40
0.0633333333
100
AcDbArc
 50
35.5487440029
 51
144.4512559971
  0
ARC
  5
4E1
100
AcDbEntity
  8
0
100
AcDbCircle
 62
7
  6
CONTINUOUS
 10
5.6303672788
 20
5.2417865634
 40
0.0566666667
100
AcDbArc
 50
72.8953648234
 51
287.1046351766
  0
ARC
  5
4E2
100
AcDbEntity
  8
0
100
AcDbCircle
 62
7
  6
CONTINUOUS
 10
5.6303672788
 20
5.2417865634
 40
0.0525
100
AcDbArc
 50
76.225853002
 51
283.774146998
  0
ARC
  5
4E3
100
AcDbEntity
  8
0
100
AcDbCircle
 62
7
  6
CONTINUOUS
 10
5.9136280483
 20
5.3851198968
 40
0.0166666667
100
AcDbArc
 50
180.25
 51
270.249456955
  0
ARC
  5
4E4
100
AcDbEntity
  8
0
100
AcDbCircle
 62
7
  6
CONTINUOUS
 10
5.8471065093
 20
5.3851198968
 40
0.0166666667
100
AcDbArc
 50
269.750543045
 51
359.75
  0
ARC
  5
4E5
100
AcDbEntity
  8
0
100
AcDbCircle
 62
7
  6
CONTINUOUS
 10
5.7539690806
 20
5.3134532301
 40
0.0083333333
100
AcDbArc
 50
270.0
 51
41.5023374652
  0
ARC
  5
4E6
100
AcDbEntity
  8
0
100
AcDbCircle
 62
7
  6
CONTINUOUS
 10
5.5720577599
 20
5.3134532301
 40
0.0083333333
100
AcDbArc
 50
270.0
 51
324.4512559971
  0
ARC
  5
4E7
100
AcDbEntity
  8
0
100
AcDbCircle
 62
7
  6
CONTINUOUS
 10
5.6886767978
 20
5.3134532301
 40
0.0083333333
100
AcDbArc
 50
215.5487440029
 51
270.0
  0
ARC
  5
4E8
100
AcDbEntity
  8
0
100
AcDbCircle
 62
7
  6
CONTINUOUS
 10
5.8220339455
 20
5.2967865634
 40
0.0083333333
100
AcDbArc
 50
0.0
 51
90.0
  0
ARC
  5
4E9
100
AcDbEntity
  8
0
100
AcDbCircle
 62
7
  6
CONTINUOUS
 10
6.0720577599
 20
5.3134532301
 40
0.0083333333
100
AcDbArc
 50
270.0
 51
324.4512559971
  0
ARC
  5
4EA
100
AcDbEntity
  8
0
100
AcDbCircle
 62
7
  6
CONTINUOUS
 10
5.8858279935
 20
6.0267865634
 40
0.0083333333
100
AcDbArc
 50
0.2500000001
 51
90.0
  0
ARC
  5
4EB
100
AcDbEntity
  8
0
100
AcDbCircle
 62
7
  6
CONTINUOUS
 10
5.8749065641
 20
6.0267865634
 40
0.0083333333
100
AcDbArc
 50
90.0
 51
179.75
  0
ARC
  5
4EC
100
AcDbEntity
  8
0
100
AcDbCircle
 62
7
  6
CONTINUOUS
 10
5.3858279935
 20
6.0267865634
 40
0.0083333333
100
AcDbArc
 50
0.2500000001
 51
90.0
  0
ARC
  5
4ED
100
AcDbEntity
  8
0
100
AcDbCircle
 62
7
  6
CONTINUOUS
 10
5.3749065641
 20
6.0267865634
 40
0.0083333333
100
AcDbArc
 50
90.0
 51
179.75
  0
ARC
  5
4EE
100
AcDbEntity
  8
0
100
AcDbCircle
 62
7
  6
CONTINUOUS
 10
4.8858279935
 20
6.0267865634
 40
0.0083333333
100
AcDbArc
 50
0.2500000001
 51
90.0
  0
ARC
  5
4EF
100
AcDbEntity
  8
0
100
AcDbCircle
 62
7
  6
CONTINUOUS
 10
4.8749065641
 20
6.0267865634
 40
0.0083333333
100
AcDbArc
 50
90.0
 51
179.75
  0
ARC
  5
4F0
100
AcDbEntity
  8
0
100
AcDbCircle
 62
7
  6
CONTINUOUS
 10
4.3858279935
 20
6.0267865634
 40
0.0083333333
100
AcDbArc
 50
0.2500000001
 51
90.0
  0
ARC
  5
4F1
100
AcDbEntity
  8
0
100
AcDbCircle
 62
7
  6
CONTINUOUS
 10
4.3749065641
 20
6.0267865634
 40
0.0083333333
100
AcDbArc
 50
90.0
 51
179.75
  0
ARC
  5
4F2
100
AcDbEntity
  8
0
100
AcDbCircle
 62
7
  6
CONTINUOUS
 10
6.1892968203
 20
5.0629735637
 40
0.3106340404
100
AcDbArc
 50
73.054037005
 51
78.0053131986
  0
ARC
  5
4F3
100
AcDbEntity
  8
0
100
AcDbCircle
 62
7
  6
CONTINUOUS
 10
6.6892968203
 20
5.0629735637
 40
0.3106340404
100
AcDbArc
 50
73.054037005
 51
78.0053131986
  0
ARC
  5
4F4
100
AcDbEntity
  8
0
100
AcDbCircle
 62
7
  6
CONTINUOUS
 10
6.1667653906
 20
4.9884532301
 40
0.05
100
AcDbArc
 50
41.8103148958
 51
42.6748987167
  0
ARC
  5
4F5
100
AcDbEntity
  8
0
100
AcDbCircle
 62
7
  6
CONTINUOUS
 10
6.2413009898
 20
5.0551198968
 40
0.05
100
AcDbArc
 50
221.8103148958
 51
270.0
  0
ARC
  5
4F6
100
AcDbEntity
  8
0
100
AcDbCircle
 62
7
  6
CONTINUOUS
 10
6.6667653906
 20
4.9884532301
 40
0.05
100
AcDbArc
 50
41.8103148958
 51
42.6748987167
  0
ARC
  5
4F7
100
AcDbEntity
  8
0
100
AcDbCircle
 62
7
  6
CONTINUOUS
 10
6.7413009898
 20
5.0551198968
 40
0.05
100
AcDbArc
 50
221.8103148958
 51
270.0
  0
ARC
  5
4F8
100
AcDbEntity
  8
0
100
AcDbCircle
 62
7
  6
CONTINUOUS
 10
7.1667653906
 20
4.9884532301
 40
0.05
100
AcDbArc
 50
41.8103148958
 51
42.6748987167
  0
ARC
  5
4F9
100
AcDbEntity
  8
0
100
AcDbCircle
 62
7
  6
CONTINUOUS
 10
6.2301460225
 20
5.0353737503
 40
0.0083333333
100
AcDbArc
 50
127.1640093615
 51
132.4184873
  0
ARC
  5
4FA
100
AcDbEntity
  8
0
100
AcDbCircle
 62
7
  6
CONTINUOUS
 10
6.1814473668
 20
5.0134532301
 40
0.0083333333
100
AcDbArc
 50
270.0
 51
312.4184873
  0
ARC
  5
4FB
100
AcDbEntity
  8
0
100
AcDbCircle
 62
7
  6
CONTINUOUS
 10
6.3387006121
 20
5.0134532301
 40
0.0083333333
100
AcDbArc
 50
180.0
 51
270.0
  0
ARC
  5
4FC
100
AcDbEntity
  8
0
100
AcDbCircle
 62
7
  6
CONTINUOUS
 10
6.7301460225
 20
5.0353737503
 40
0.0083333333
100
AcDbArc
 50
127.1640093615
 51
132.4184873
  0
ARC
  5
4FD
100
AcDbEntity
  8
0
100
AcDbCircle
 62
7
  6
CONTINUOUS
 10
6.6814473668
 20
5.0134532301
 40
0.0083333333
100
AcDbArc
 50
270.0
 51
312.4184873
  0
ARC
  5
4FE
100
AcDbEntity
  8
0
100
AcDbCircle
 62
7
  6
CONTINUOUS
 10
6.8387006121
 20
5.0134532301
 40
0.0083333333
100
AcDbArc
 50
180.0
 51
270.0
  0
ARC
  5
4FF
100
AcDbEntity
  8
0
100
AcDbCircle
 62
7
  6
CONTINUOUS
 10
7.1814473668
 20
5.0134532301
 40
0.0083333333
100
AcDbArc
 50
270.0
 51
312.4184873
  0
ARC
  5
500
100
AcDbEntity
  8
0
100
AcDbCircle
 62
7
  6
CONTINUOUS
 10
6.1153672788
 20
5.1867865634
 40
0.1816666667
100
AcDbArc
 50
307.1640093615
 51
360.0
  0
ARC
  5
501
100
AcDbEntity
  8
0
100
AcDbCircle
 62
7
  6
CONTINUOUS
 10
6.1503672788
 20
5.2217865634
 40
0.1466666667
100
AcDbArc
 50
0.0
 51
90.0
  0
ARC
  5
502
100
AcDbEntity
  8
0
100
AcDbCircle
 62
7
  6
CONTINUOUS
 10
6.1303672788
 20
5.2717865634
 40
0.0633333333
100
AcDbArc
 50
35.5487440029
 51
144.4512559971
  0
ARC
  5
503
100
AcDbEntity
  8
0
100
AcDbCircle
 62
7
  6
CONTINUOUS
 10
6.1303672788
 20
5.2417865634
 40
0.0566666667
100
AcDbArc
 50
72.8953648234
 51
287.1046351766
  0
ARC
  5
504
100
AcDbEntity
  8
0
100
AcDbCircle
 62
7
  6
CONTINUOUS
 10
6.1303672788
 20
5.2417865634
 40
0.0525
100
AcDbArc
 50
76.225853002
 51
283.774146998
  0
ARC
  5
505
100
AcDbEntity
  8
0
100
AcDbCircle
 62
7
  6
CONTINUOUS
 10
6.6153672788
 20
5.1867865634
 40
0.1816666667
100
AcDbArc
 50
307.1640093615
 51
360.0
  0
ARC
  5
506
100
AcDbEntity
  8
0
100
AcDbCircle
 62
7
  6
CONTINUOUS
 10
6.6303672788
 20
5.2717865634
 40
0.0633333333
100
AcDbArc
 50
35.5487440029
 51
144.4512559971
  0
ARC
  5
507
100
AcDbEntity
  8
0
100
AcDbCircle
 62
7
  6
CONTINUOUS
 10
6.6303672788
 20
5.2417865634
 40
0.0566666667
100
AcDbArc
 50
72.8953648234
 51
287.1046351766
  0
ARC
  5
508
100
AcDbEntity
  8
0
100
AcDbCircle
 62
7
  6
CONTINUOUS
 10
6.6303672788
 20
5.2417865634
 40
0.0525
100
AcDbArc
 50
76.225853002
 51
283.774146998
  0
ARC
  5
509
100
AcDbEntity
  8
0
100
AcDbCircle
 62
7
  6
CONTINUOUS
 10
6.4136280483
 20
5.3851198968
 40
0.0166666667
100
AcDbArc
 50
180.25
 51
270.249456955
  0
ARC
  5
50A
100
AcDbEntity
  8
0
100
AcDbCircle
 62
7
  6
CONTINUOUS
 10
6.3471065093
 20
5.3851198968
 40
0.0166666667
100
AcDbArc
 50
269.750543045
 51
359.75
  0
ARC
  5
50B
100
AcDbEntity
  8
0
100
AcDbCircle
 62
7
  6
CONTINUOUS
 10
6.2539690806
 20
5.3134532301
 40
0.0083333333
100
AcDbArc
 50
270.0
 51
41.5023374652
  0
ARC
  5
50C
100
AcDbEntity
  8
0
100
AcDbCircle
 62
7
  6
CONTINUOUS
 10
6.1886767978
 20
5.3134532301
 40
0.0083333333
100
AcDbArc
 50
215.5487440029
 51
270.0
  0
ARC
  5
50D
100
AcDbEntity
  8
0
100
AcDbCircle
 62
7
  6
CONTINUOUS
 10
6.3220339455
 20
5.2967865634
 40
0.0083333333
100
AcDbArc
 50
0.0
 51
90.0
  0
ARC
  5
50E
100
AcDbEntity
  8
0
100
AcDbCircle
 62
7
  6
CONTINUOUS
 10
6.5720577599
 20
5.3134532301
 40
0.0083333333
100
AcDbArc
 50
270.0
 51
324.4512559971
  0
ARC
  5
50F
100
AcDbEntity
  8
0
100
AcDbCircle
 62
7
  6
CONTINUOUS
 10
6.6503672788
 20
5.2217865634
 40
0.1466666667
100
AcDbArc
 50
0.0
 51
90.0
  0
ARC
  5
510
100
AcDbEntity
  8
0
100
AcDbCircle
 62
7
  6
CONTINUOUS
 10
7.1153672788
 20
5.1867865634
 40
0.1816666667
100
AcDbArc
 50
307.1640093615
 51
360.0
  0
ARC
  5
511
100
AcDbEntity
  8
0
100
AcDbCircle
 62
7
  6
CONTINUOUS
 10
7.1503672788
 20
5.2217865634
 40
0.1466666667
100
AcDbArc
 50
0.0
 51
90.0
  0
ARC
  5
512
100
AcDbEntity
  8
0
100
AcDbCircle
 62
7
  6
CONTINUOUS
 10
7.1303672788
 20
5.2717865634
 40
0.0633333333
100
AcDbArc
 50
35.5487440029
 51
144.4512559971
  0
ARC
  5
513
100
AcDbEntity
  8
0
100
AcDbCircle
 62
7
  6
CONTINUOUS
 10
7.1303672788
 20
5.2417865634
 40
0.0566666667
100
AcDbArc
 50
72.8953648234
 51
287.1046351766
  0
ARC
  5
514
100
AcDbEntity
  8
0
100
AcDbCircle
 62
7
  6
CONTINUOUS
 10
7.1303672788
 20
5.2417865634
 40
0.0525
100
AcDbArc
 50
76.225853002
 51
283.774146998
  0
ARC
  5
515
100
AcDbEntity
  8
0
100
AcDbCircle
 62
7
  6
CONTINUOUS
 10
6.9136280483
 20
5.3851198968
 40
0.0166666667
100
AcDbArc
 50
180.25
 51
270.249456955
  0
ARC
  5
516
100
AcDbEntity
  8
0
100
AcDbCircle
 62
7
  6
CONTINUOUS
 10
6.8471065093
 20
5.3851198968
 40
0.0166666667
100
AcDbArc
 50
269.750543045
 51
359.75
  0
ARC
  5
517
100
AcDbEntity
  8
0
100
AcDbCircle
 62
7
  6
CONTINUOUS
 10
6.7539690806
 20
5.3134532301
 40
0.0083333333
100
AcDbArc
 50
270.0
 51
41.5023374652
  0
ARC
  5
518
100
AcDbEntity
  8
0
100
AcDbCircle
 62
7
  6
CONTINUOUS
 10
6.6886767978
 20
5.3134532301
 40
0.0083333333
100
AcDbArc
 50
215.5487440029
 51
270.0
  0
ARC
  5
519
100
AcDbEntity
  8
0
100
AcDbCircle
 62
7
  6
CONTINUOUS
 10
6.8220339455
 20
5.2967865634
 40
0.0083333333
100
AcDbArc
 50
0.0
 51
90.0
  0
ARC
  5
51A
100
AcDbEntity
  8
0
100
AcDbCircle
 62
7
  6
CONTINUOUS
 10
7.0720577599
 20
5.3134532301
 40
0.0083333333
100
AcDbArc
 50
270.0
 51
324.4512559971
  0
ARC
  5
51B
100
AcDbEntity
  8
0
100
AcDbCircle
 62
7
  6
CONTINUOUS
 10
7.6667653906
 20
4.9884532301
 40
0.05
100
AcDbArc
 50
41.8103148958
 51
42.6748987167
  0
ARC
  5
51C
100
AcDbEntity
  8
0
100
AcDbCircle
 62
7
  6
CONTINUOUS
 10
7.3387006121
 20
5.0134532301
 40
0.0083333333
100
AcDbArc
 50
180.0
 51
270.0
  0
ARC
  5
51D
100
AcDbEntity
  8
0
100
AcDbCircle
 62
7
  6
CONTINUOUS
 10
7.6814473668
 20
5.0134532301
 40
0.0083333333
100
AcDbArc
 50
270.0
 51
312.4184873
  0
ARC
  5
51E
100
AcDbEntity
  8
0
100
AcDbCircle
 62
7
  6
CONTINUOUS
 10
7.1892968203
 20
5.0629735637
 40
0.3106340404
100
AcDbArc
 50
73.054037005
 51
78.0053131986
  0
ARC
  5
51F
100
AcDbEntity
  8
0
100
AcDbCircle
 62
7
  6
CONTINUOUS
 10
7.6892968203
 20
5.0629735637
 40
0.3106340404
100
AcDbArc
 50
73.054037005
 51
78.0053131986
  0
ARC
  5
520
100
AcDbEntity
  8
0
100
AcDbCircle
 62
7
  6
CONTINUOUS
 10
7.2413009898
 20
5.0551198968
 40
0.05
100
AcDbArc
 50
221.8103148958
 51
270.0
  0
ARC
  5
521
100
AcDbEntity
  8
0
100
AcDbCircle
 62
7
  6
CONTINUOUS
 10
7.2301460225
 20
5.0353737503
 40
0.0083333333
100
AcDbArc
 50
127.1640093615
 51
132.4184873
  0
ARC
  5
522
100
AcDbEntity
  8
0
100
AcDbCircle
 62
7
  6
CONTINUOUS
 10
7.8387006121
 20
5.0134532301
 40
0.0083333333
100
AcDbArc
 50
180.0
 51
270.0
  0
ARC
  5
523
100
AcDbEntity
  8
0
100
AcDbCircle
 62
7
  6
CONTINUOUS
 10
8.1814473668
 20
5.0134532301
 40
0.0083333333
100
AcDbArc
 50
270.0
 51
312.4184873
  0
ARC
  5
524
100
AcDbEntity
  8
0
100
AcDbCircle
 62
7
  6
CONTINUOUS
 10
7.7413009898
 20
5.0551198968
 40
0.05
100
AcDbArc
 50
221.8103148958
 51
270.0
  0
ARC
  5
525
100
AcDbEntity
  8
0
100
AcDbCircle
 62
7
  6
CONTINUOUS
 10
7.7301460225
 20
5.0353737503
 40
0.0083333333
100
AcDbArc
 50
127.1640093615
 51
132.4184873
  0
ARC
  5
526
100
AcDbEntity
  8
0
100
AcDbCircle
 62
7
  6
CONTINUOUS
 10
8.2301460225
 20
5.0353737503
 40
0.0083333333
100
AcDbArc
 50
127.1640093615
 51
132.4184873
  0
ARC
  5
527
100
AcDbEntity
  8
0
100
AcDbCircle
 62
7
  6
CONTINUOUS
 10
7.6153672788
 20
5.1867865634
 40
0.1816666667
100
AcDbArc
 50
307.1640093615
 51
360.0
  0
ARC
  5
528
100
AcDbEntity
  8
0
100
AcDbCircle
 62
7
  6
CONTINUOUS
 10
7.6503672788
 20
5.2217865634
 40
0.1466666667
100
AcDbArc
 50
0.0
 51
90.0
  0
ARC
  5
529
100
AcDbEntity
  8
0
100
AcDbCircle
 62
7
  6
CONTINUOUS
 10
7.6303672788
 20
5.2717865634
 40
0.0633333333
100
AcDbArc
 50
35.5487440029
 51
144.4512559971
  0
ARC
  5
52A
100
AcDbEntity
  8
0
100
AcDbCircle
 62
7
  6
CONTINUOUS
 10
7.6303672788
 20
5.2417865634
 40
0.0566666667
100
AcDbArc
 50
72.8953648234
 51
287.1046351766
  0
ARC
  5
52B
100
AcDbEntity
  8
0
100
AcDbCircle
 62
7
  6
CONTINUOUS
 10
7.6303672788
 20
5.2417865634
 40
0.0525
100
AcDbArc
 50
76.225853002
 51
283.774146998
  0
ARC
  5
52C
100
AcDbEntity
  8
0
100
AcDbCircle
 62
7
  6
CONTINUOUS
 10
7.4136280483
 20
5.3851198968
 40
0.0166666667
100
AcDbArc
 50
180.25
 51
270.249456955
  0
ARC
  5
52D
100
AcDbEntity
  8
0
100
AcDbCircle
 62
7
  6
CONTINUOUS
 10
7.3471065093
 20
5.3851198968
 40
0.0166666667
100
AcDbArc
 50
269.750543045
 51
359.75
  0
ARC
  5
52E
100
AcDbEntity
  8
0
100
AcDbCircle
 62
7
  6
CONTINUOUS
 10
7.2539690806
 20
5.3134532301
 40
0.0083333333
100
AcDbArc
 50
270.0
 51
41.5023374652
  0
ARC
  5
52F
100
AcDbEntity
  8
0
100
AcDbCircle
 62
7
  6
CONTINUOUS
 10
7.1886767978
 20
5.3134532301
 40
0.0083333333
100
AcDbArc
 50
215.5487440029
 51
270.0
  0
ARC
  5
530
100
AcDbEntity
  8
0
100
AcDbCircle
 62
7
  6
CONTINUOUS
 10
7.5720577599
 20
5.3134532301
 40
0.0083333333
100
AcDbArc
 50
270.0
 51
324.4512559971
  0
ARC
  5
531
100
AcDbEntity
  8
0
100
AcDbCircle
 62
7
  6
CONTINUOUS
 10
7.3220339455
 20
5.2967865634
 40
0.0083333333
100
AcDbArc
 50
0.0
 51
90.0
  0
ARC
  5
532
100
AcDbEntity
  8
0
100
AcDbCircle
 62
7
  6
CONTINUOUS
 10
7.6886767978
 20
5.3134532301
 40
0.0083333333
100
AcDbArc
 50
215.5487440029
 51
270.0
  0
ARC
  5
533
100
AcDbEntity
  8
0
100
AcDbCircle
 62
7
  6
CONTINUOUS
 10
8.1153672788
 20
5.1867865634
 40
0.1816666667
100
AcDbArc
 50
307.1640093615
 51
360.0
  0
ARC
  5
534
100
AcDbEntity
  8
0
100
AcDbCircle
 62
7
  6
CONTINUOUS
 10
8.1303672788
 20
5.2717865634
 40
0.0633333333
100
AcDbArc
 50
35.5487440029
 51
144.4512559971
  0
ARC
  5
535
100
AcDbEntity
  8
0
100
AcDbCircle
 62
7
  6
CONTINUOUS
 10
8.1303672788
 20
5.2417865634
 40
0.0566666667
100
AcDbArc
 50
72.8953648234
 51
287.1046351766
  0
ARC
  5
536
100
AcDbEntity
  8
0
100
AcDbCircle
 62
7
  6
CONTINUOUS
 10
8.1303672788
 20
5.2417865634
 40
0.0525
100
AcDbArc
 50
76.225853002
 51
283.774146998
  0
ARC
  5
537
100
AcDbEntity
  8
0
100
AcDbCircle
 62
7
  6
CONTINUOUS
 10
8.1503672788
 20
5.2217865634
 40
0.1466666667
100
AcDbArc
 50
0.0
 51
90.0
  0
ARC
  5
538
100
AcDbEntity
  8
0
100
AcDbCircle
 62
7
  6
CONTINUOUS
 10
7.9136280483
 20
5.3851198968
 40
0.0166666667
100
AcDbArc
 50
180.25
 51
270.249456955
  0
ARC
  5
539
100
AcDbEntity
  8
0
100
AcDbCircle
 62
7
  6
CONTINUOUS
 10
7.8471065093
 20
5.3851198968
 40
0.0166666667
100
AcDbArc
 50
269.750543045
 51
359.75
  0
ARC
  5
53A
100
AcDbEntity
  8
0
100
AcDbCircle
 62
7
  6
CONTINUOUS
 10
7.7539690806
 20
5.3134532301
 40
0.0083333333
100
AcDbArc
 50
270.0
 51
41.5023374652
  0
ARC
  5
53B
100
AcDbEntity
  8
0
100
AcDbCircle
 62
7
  6
CONTINUOUS
 10
8.2539690806
 20
5.3134532301
 40
0.0083333333
100
AcDbArc
 50
270.0
 51
41.5023374652
  0
ARC
  5
53C
100
AcDbEntity
  8
0
100
AcDbCircle
 62
7
  6
CONTINUOUS
 10
7.8220339455
 20
5.2967865634
 40
0.0083333333
100
AcDbArc
 50
0.0
 51
90.0
  0
ARC
  5
53D
100
AcDbEntity
  8
0
100
AcDbCircle
 62
7
  6
CONTINUOUS
 10
8.0720577599
 20
5.3134532301
 40
0.0083333333
100
AcDbArc
 50
270.0
 51
324.4512559971
  0
ARC
  5
53E
100
AcDbEntity
  8
0
100
AcDbCircle
 62
7
  6
CONTINUOUS
 10
8.1886767978
 20
5.3134532301
 40
0.0083333333
100
AcDbArc
 50
215.5487440029
 51
270.0
  0
ARC
  5
53F
100
AcDbEntity
  8
0
100
AcDbCircle
 62
7
  6
CONTINUOUS
 10
6.8858279935
 20
6.0267865634
 40
0.0083333333
100
AcDbArc
 50
0.2500000001
 51
90.0
  0
ARC
  5
540
100
AcDbEntity
  8
0
100
AcDbCircle
 62
7
  6
CONTINUOUS
 10
6.8749065641
 20
6.0267865634
 40
0.0083333333
100
AcDbArc
 50
90.0
 51
179.75
  0
ARC
  5
541
100
AcDbEntity
  8
0
100
AcDbCircle
 62
7
  6
CONTINUOUS
 10
7.3858279935
 20
6.0267865634
 40
0.0083333333
100
AcDbArc
 50
0.2500000001
 51
90.0
  0
ARC
  5
542
100
AcDbEntity
  8
0
100
AcDbCircle
 62
7
  6
CONTINUOUS
 10
7.3749065641
 20
6.0267865634
 40
0.0083333333
100
AcDbArc
 50
90.0
 51
179.75
  0
ARC
  5
543
100
AcDbEntity
  8
0
100
AcDbCircle
 62
7
  6
CONTINUOUS
 10
7.8858279935
 20
6.0267865634
 40
0.0083333333
100
AcDbArc
 50
0.2500000001
 51
90.0
  0
ARC
  5
544
100
AcDbEntity
  8
0
100
AcDbCircle
 62
7
  6
CONTINUOUS
 10
7.8749065641
 20
6.0267865634
 40
0.0083333333
100
AcDbArc
 50
90.0
 51
179.75
  0
ARC
  5
545
100
AcDbEntity
  8
0
100
AcDbCircle
 62
7
  6
CONTINUOUS
 10
6.3858279935
 20
6.0267865634
 40
0.0083333333
100
AcDbArc
 50
0.2500000001
 51
90.0
  0
ARC
  5
546
100
AcDbEntity
  8
0
100
AcDbCircle
 62
7
  6
CONTINUOUS
 10
6.3749065641
 20
6.0267865634
 40
0.0083333333
100
AcDbArc
 50
90.0
 51
179.75
  0
ARC
  5
547
100
AcDbEntity
  8
0
100
AcDbCircle
 62
7
  6
CONTINUOUS
 10
4.6944738883
 20
13.133381123
 40
0.0083333333
100
AcDbArc
 50
49.3898713376
 51
90.0
  0
ARC
  5
548
100
AcDbEntity
  8
0
100
AcDbCircle
 62
7
  6
CONTINUOUS
 10
3.9125387532
 20
12.3600477897
 40
0.0083333333
100
AcDbArc
 50
180.0
 51
270.0
  0
ARC
  5
549
100
AcDbEntity
  8
0
100
AcDbCircle
 62
7
  6
CONTINUOUS
 10
4.6944738883
 20
12.0667144564
 40
0.0083333333
100
AcDbArc
 50
270.0
 51
310.6446844484
  0
ARC
  5
54A
100
AcDbEntity
  8
0
100
AcDbCircle
 62
7
  6
CONTINUOUS
 10
3.9125387532
 20
12.8400477897
 40
0.0083333333
100
AcDbArc
 50
90.0
 51
180.0
  0
ARC
  5
54B
100
AcDbEntity
  8
0
100
AcDbCircle
 62
7
  6
CONTINUOUS
 10
5.1944738883
 20
13.133381123
 40
0.0083333333
100
AcDbArc
 50
49.3898713376
 51
90.0
  0
ARC
  5
54C
100
AcDbEntity
  8
0
100
AcDbCircle
 62
7
  6
CONTINUOUS
 10
5.1944738883
 20
12.0667144564
 40
0.0083333333
100
AcDbArc
 50
270.0
 51
310.6446844484
  0
ARC
  5
54D
100
AcDbEntity
  8
0
100
AcDbCircle
 62
7
  6
CONTINUOUS
 10
5.6944738883
 20
13.133381123
 40
0.0083333333
100
AcDbArc
 50
49.3898713376
 51
90.0
  0
ARC
  5
54E
100
AcDbEntity
  8
0
100
AcDbCircle
 62
7
  6
CONTINUOUS
 10
5.6944738883
 20
12.0667144564
 40
0.0083333333
100
AcDbArc
 50
270.0
 51
310.6446844484
  0
ARC
  5
54F
100
AcDbEntity
  8
0
100
AcDbCircle
 62
7
  6
CONTINUOUS
 10
6.1944738883
 20
13.133381123
 40
0.0083333333
100
AcDbArc
 50
49.3898713376
 51
90.0
  0
ARC
  5
550
100
AcDbEntity
  8
0
100
AcDbCircle
 62
7
  6
CONTINUOUS
 10
6.1944738883
 20
12.0667144564
 40
0.0083333333
100
AcDbArc
 50
270.0
 51
310.6446844484
  0
ARC
  5
551
100
AcDbEntity
  8
0
100
AcDbCircle
 62
7
  6
CONTINUOUS
 10
6.6944738883
 20
13.133381123
 40
0.0083333333
100
AcDbArc
 50
49.3898713376
 51
90.0
  0
ARC
  5
552
100
AcDbEntity
  8
0
100
AcDbCircle
 62
7
  6
CONTINUOUS
 10
6.6944738883
 20
12.0667144564
 40
0.0083333333
100
AcDbArc
 50
270.0
 51
310.6446844484
  0
ARC
  5
553
100
AcDbEntity
  8
0
100
AcDbCircle
 62
7
  6
CONTINUOUS
 10
7.1944738883
 20
13.133381123
 40
0.0083333333
100
AcDbArc
 50
49.3898713376
 51
90.0
  0
ARC
  5
554
100
AcDbEntity
  8
0
100
AcDbCircle
 62
7
  6
CONTINUOUS
 10
7.1944738883
 20
12.0667144564
 40
0.0083333333
100
AcDbArc
 50
270.0
 51
310.6446844484
  0
ARC
  5
555
100
AcDbEntity
  8
0
100
AcDbCircle
 62
7
  6
CONTINUOUS
 10
7.6944738883
 20
13.133381123
 40
0.0083333333
100
AcDbArc
 50
49.3898713376
 51
90.0
  0
ARC
  5
556
100
AcDbEntity
  8
0
100
AcDbCircle
 62
7
  6
CONTINUOUS
 10
7.6944738883
 20
12.0667144564
 40
0.0083333333
100
AcDbArc
 50
270.0
 51
310.6446844484
  0
ARC
  5
557
100
AcDbEntity
  8
0
100
AcDbCircle
 62
7
  6
CONTINUOUS
 10
8.1944738883
 20
13.133381123
 40
0.0083333333
100
AcDbArc
 50
0.0
 51
90.0
  0
ARC
  5
558
100
AcDbEntity
  8
0
100
AcDbCircle
 62
7
  6
CONTINUOUS
 10
8.1944738883
 20
12.0667144564
 40
0.0083333333
100
AcDbArc
 50
270.0
 51
360.0
  0
ARC
  5
559
100
AcDbEntity
  8
0
100
AcDbCircle
 62
7
  6
CONTINUOUS
 10
8.2292054198
 20
12.2350477897
 40
0.0083333333
100
AcDbArc
 50
270.0
 51
360.0
  0
ARC
  5
55A
100
AcDbEntity
  8
0
100
AcDbCircle
 62
7
  6
CONTINUOUS
 10
8.2292054198
 20
12.3350477897
 40
0.0083333333
100
AcDbArc
 50
0.0
 51
90.0
  0
ARC
  5
55B
100
AcDbEntity
  8
0
100
AcDbCircle
 62
7
  6
CONTINUOUS
 10
8.2292054198
 20
12.8650477897
 40
0.0083333333
100
AcDbArc
 50
270.0
 51
360.0
  0
ARC
  5
55C
100
AcDbEntity
  8
0
100
AcDbCircle
 62
7
  6
CONTINUOUS
 10
8.2292054198
 20
12.9650477897
 40
0.0083333333
100
AcDbArc
 50
0.0
 51
90.0
  0
ARC
  5
55D
100
AcDbEntity
  8
0
100
AcDbCircle
 62
7
  6
CONTINUOUS
 10
15.312072087
 20
5.2956001815
 40
0.0083834884
100
AcDbArc
 50
149.7282909463
 51
180.0028572025
  0
ARC
  5
55E
100
AcDbEntity
  8
0
100
AcDbCircle
 62
7
  6
CONTINUOUS
 10
15.0270219319
 20
5.3006247044
 40
0.0083333333
100
AcDbArc
 50
90.0
 51
180.0
  0
ARC
  5
55F
100
AcDbEntity
  8
0
100
AcDbCircle
 62
7
  6
CONTINUOUS
 10
15.0270219319
 20
5.2539580378
 40
0.0083333333
100
AcDbArc
 50
180.0
 51
270.0
  0
ARC
  5
560
100
AcDbEntity
  8
0
100
AcDbCircle
 62
7
  6
CONTINUOUS
 10
15.0703552653
 20
4.9539580378
 40
0.0083333333
100
AcDbArc
 50
180.0
 51
270.0
  0
ARC
  5
561
100
AcDbEntity
  8
0
100
AcDbCircle
 62
7
  6
CONTINUOUS
 10
15.0703552653
 20
5.0072913711
 40
0.0083333333
100
AcDbArc
 50
90.0
 51
180.0
  0
ARC
  5
562
100
AcDbEntity
  8
0
100
AcDbCircle
 62
7
  6
CONTINUOUS
 10
15.1786885986
 20
5.0239580378
 40
0.0083333333
100
AcDbArc
 50
270.0
 51
360.0
  0
ARC
  5
563
100
AcDbEntity
  8
0
100
AcDbCircle
 62
7
  6
CONTINUOUS
 10
15.4270219319
 20
4.9539580378
 40
0.0083333333
100
AcDbArc
 50
270.0
 51
360.0
  0
ARC
  5
564
100
AcDbEntity
  8
0
100
AcDbCircle
 62
7
  6
CONTINUOUS
 10
15.2953552653
 20
4.9539580378
 40
0.0083333333
100
AcDbArc
 50
270.0
 51
360.0
  0
ARC
  5
565
100
AcDbEntity
  8
0
100
AcDbCircle
 62
7
  6
CONTINUOUS
 10
15.1953552653
 20
4.9539580378
 40
0.0083333333
100
AcDbArc
 50
180.0
 51
270.0
  0
ARC
  5
566
100
AcDbEntity
  8
0
100
AcDbCircle
 62
7
  6
CONTINUOUS
 10
15.1786885986
 20
5.2372913711
 40
0.0083333333
100
AcDbArc
 50
0.0
 51
90.0
  0
ARC
  5
567
100
AcDbEntity
  8
0
100
AcDbCircle
 62
7
  6
CONTINUOUS
 10
15.3120219319
 20
5.2372913711
 40
0.0083333333
100
AcDbArc
 50
90.0
 51
168.1402023598
  0
ARC
  5
568
100
AcDbEntity
  8
0
100
AcDbCircle
 62
7
  6
CONTINUOUS
 10
15.2953552653
 20
5.3006247044
 40
0.0083333333
100
AcDbArc
 50
0.0
 51
90.0
  0
ARC
  5
569
100
AcDbEntity
  8
0
100
AcDbCircle
 62
7
  6
CONTINUOUS
 10
15.3120260693
 20
5.2956300612
 40
0.0083281536
100
AcDbArc
 50
90.0284646541
 51
149.7562593789
  0
ARC
  5
56A
100
AcDbEntity
  8
0
100
AcDbCircle
 62
7
  6
CONTINUOUS
 10
15.0647421665
 20
5.9322913711
 40
0.0433333333
100
AcDbArc
 50
90.0
 51
179.75
  0
ARC
  5
56B
100
AcDbEntity
  8
0
100
AcDbCircle
 62
7
  6
CONTINUOUS
 10
15.8086384314
 20
5.2956001804
 40
0.0083835006
100
AcDbArc
 50
359.9971508218
 51
29.9410086877
  0
ARC
  5
56C
100
AcDbEntity
  8
0
100
AcDbCircle
 62
7
  6
CONTINUOUS
 10
15.8086885986
 20
5.2372913711
 40
0.0083333333
100
AcDbArc
 50
11.4019815587
 51
90.0
  0
ARC
  5
56D
100
AcDbEntity
  8
0
100
AcDbCircle
 62
7
  6
CONTINUOUS
 10
15.6936885986
 20
4.9539580378
 40
0.0083333333
100
AcDbArc
 50
180.0
 51
270.0
  0
ARC
  5
56E
100
AcDbEntity
  8
0
100
AcDbCircle
 62
7
  6
CONTINUOUS
 10
15.8253552653
 20
4.9539580378
 40
0.0083333333
100
AcDbArc
 50
180.0
 51
270.0
  0
ARC
  5
56F
100
AcDbEntity
  8
0
100
AcDbCircle
 62
7
  6
CONTINUOUS
 10
16.0936885986
 20
5.3006247044
 40
0.0083333333
100
AcDbArc
 50
0.0
 51
90.0
  0
ARC
  5
570
100
AcDbEntity
  8
0
100
AcDbCircle
 62
7
  6
CONTINUOUS
 10
15.8253552653
 20
5.3006247044
 40
0.0083333333
100
AcDbArc
 50
90.0
 51
180.0
  0
ARC
  5
571
100
AcDbEntity
  8
0
100
AcDbCircle
 62
7
  6
CONTINUOUS
 10
15.9253552653
 20
4.9539580378
 40
0.0083333333
100
AcDbArc
 50
270.0
 51
360.0
  0
ARC
  5
572
100
AcDbEntity
  8
0
100
AcDbCircle
 62
7
  6
CONTINUOUS
 10
16.0503552653
 20
4.9539580378
 40
0.0083333333
100
AcDbArc
 50
270.0
 51
360.0
  0
ARC
  5
573
100
AcDbEntity
  8
0
100
AcDbCircle
 62
7
  6
CONTINUOUS
 10
15.9420219319
 20
5.2372913711
 40
0.0083333333
100
AcDbArc
 50
90.0
 51
180.0
  0
ARC
  5
574
100
AcDbEntity
  8
0
100
AcDbCircle
 62
7
  6
CONTINUOUS
 10
15.9420219319
 20
5.0239580378
 40
0.0083333333
100
AcDbArc
 50
180.0
 51
270.0
  0
ARC
  5
575
100
AcDbEntity
  8
0
100
AcDbCircle
 62
7
  6
CONTINUOUS
 10
16.0503552653
 20
5.0072913711
 40
0.0083333333
100
AcDbArc
 50
0.0
 51
90.0
  0
ARC
  5
576
100
AcDbEntity
  8
0
100
AcDbCircle
 62
7
  6
CONTINUOUS
 10
16.0936885986
 20
5.2539580378
 40
0.0083333333
100
AcDbArc
 50
270.0
 51
360.0
  0
ARC
  5
577
100
AcDbEntity
  8
0
100
AcDbCircle
 62
7
  6
CONTINUOUS
 10
15.8086843982
 20
5.2956298995
 40
0.0083283189
100
AcDbArc
 50
29.9119028758
 51
89.9711020423
  0
ARC
  5
578
100
AcDbEntity
  8
0
100
AcDbCircle
 62
7
  6
CONTINUOUS
 10
13.9648519822
 20
11.978559213
 40
0.0083729227
100
AcDbArc
 50
237.2005636687
 51
252.944153879
  0
ARC
  5
579
100
AcDbEntity
  8
0
100
AcDbCircle
 62
7
  6
CONTINUOUS
 10
13.9648373217
 20
11.9785470351
 40
0.0083573347
100
AcDbArc
 50
259.132620197
 51
269.9843255509
  0
ARC
  5
57A
100
AcDbEntity
  8
0
100
AcDbCircle
 62
7
  6
CONTINUOUS
 10
13.9520344377
 20
11.8259859946
 40
0.008335135
100
AcDbArc
 50
270.0059323623
 51
323.6040598383
  0
ARC
  5
57B
100
AcDbEntity
  8
0
100
AcDbCircle
 62
7
  6
CONTINUOUS
 10
13.8574208601
 20
11.9785241589
 40
0.0083344811
100
AcDbArc
 50
270.0063817178
 51
330.3961546807
  0
ARC
  5
57C
100
AcDbEntity
  8
0
100
AcDbCircle
 62
7
  6
CONTINUOUS
 10
14.3179513571
 20
11.9785241589
 40
0.0083344811
100
AcDbArc
 50
270.0063817055
 51
330.396154693
  0
ARC
  5
57D
100
AcDbEntity
  8
0
100
AcDbCircle
 62
7
  6
CONTINUOUS
 10
13.8053763575
 20
11.8259844299
 40
0.008333581
100
AcDbArc
 50
206.1392150978
 51
269.9985070338
  0
ARC
  5
57E
100
AcDbEntity
  8
0
100
AcDbCircle
 62
7
  6
CONTINUOUS
 10
14.2659068545
 20
11.8259844299
 40
0.008333581
100
AcDbArc
 50
206.1392151002
 51
269.9985070337
  0
ARC
  5
57F
100
AcDbEntity
  8
0
100
AcDbCircle
 62
7
  6
CONTINUOUS
 10
14.0249731967
 20
11.9785230097
 40
0.008333306
100
AcDbArc
 50
270.0000935148
 51
342.8278156516
  0
ARC
  5
580
100
AcDbEntity
  8
0
100
AcDbCircle
 62
7
  6
CONTINUOUS
 10
13.7558485483
 20
11.9545305602
 40
0.0083332829
100
AcDbArc
 50
180.2318848238
 51
201.9059751855
  0
ARC
  5
581
100
AcDbEntity
  8
0
100
AcDbCircle
 62
7
  6
CONTINUOUS
 10
14.2163790453
 20
11.9545305602
 40
0.0083332829
100
AcDbArc
 50
180.2318848238
 51
201.9059751853
  0
ARC
  5
582
100
AcDbEntity
  8
0
100
AcDbCircle
 62
7
  6
CONTINUOUS
 10
13.6299169403
 20
11.9785221261
 40
0.0083324254
100
AcDbArc
 50
234.7774795417
 51
270.0019816348
  0
ARC
  5
583
100
AcDbEntity
  8
0
100
AcDbCircle
 62
7
  6
CONTINUOUS
 10
14.0904474373
 20
11.9785221261
 40
0.0083324254
100
AcDbArc
 50
234.7774795416
 51
270.0019816349
  0
ARC
  5
584
100
AcDbEntity
  8
0
100
AcDbCircle
 62
7
  6
CONTINUOUS
 10
14.090437047
 20
11.9238991032
 40
0.0083323632
100
AcDbArc
 50
269.9974736708
 51
311.4866275489
  0
ARC
  5
585
100
AcDbEntity
  8
0
100
AcDbCircle
 62
7
  6
CONTINUOUS
 10
13.9648338398
 20
11.9785194962
 40
0.0083296335
100
AcDbArc
 50
252.9833297809
 51
259.1204269783
  0
ARC
  5
586
100
AcDbEntity
  8
0
100
AcDbCircle
 62
7
  6
CONTINUOUS
 10
13.5288209933
 20
12.2201975567
 40
0.1541780784
100
AcDbArc
 50
218.1692708103
 51
219.6346725398
  0
ARC
  5
587
100
AcDbEntity
  8
0
100
AcDbCircle
 62
7
  6
CONTINUOUS
 10
13.414179749
 20
12.130078684
 40
0.0083561807
100
AcDbArc
 50
206.1550091512
 51
218.1443302008
  0
ARC
  5
588
100
AcDbEntity
  8
0
100
AcDbCircle
 62
7
  6
CONTINUOUS
 10
14.4253824792
 20
11.978559213
 40
0.0083729227
100
AcDbArc
 50
237.2005636687
 51
252.944153879
  0
ARC
  5
589
100
AcDbEntity
  8
0
100
AcDbCircle
 62
7
  6
CONTINUOUS
 10
14.8859129762
 20
11.978559213
 40
0.0083729227
100
AcDbArc
 50
237.2005636687
 51
252.944153879
  0
ARC
  5
58A
100
AcDbEntity
  8
0
100
AcDbCircle
 62
7
  6
CONTINUOUS
 10
15.3464434732
 20
11.978559213
 40
0.0083729227
100
AcDbArc
 50
237.2005636687
 51
252.944153879
  0
ARC
  5
58B
100
AcDbEntity
  8
0
100
AcDbCircle
 62
7
  6
CONTINUOUS
 10
14.4253678187
 20
11.9785470351
 40
0.0083573347
100
AcDbArc
 50
259.132620197
 51
269.9843255509
  0
ARC
  5
58C
100
AcDbEntity
  8
0
100
AcDbCircle
 62
7
  6
CONTINUOUS
 10
14.8858983157
 20
11.9785470351
 40
0.0083573347
100
AcDbArc
 50
259.132620197
 51
269.9843255509
  0
ARC
  5
58D
100
AcDbEntity
  8
0
100
AcDbCircle
 62
7
  6
CONTINUOUS
 10
15.3464288127
 20
11.9785470351
 40
0.0083573347
100
AcDbArc
 50
259.132620197
 51
269.9843255509
  0
ARC
  5
58E
100
AcDbEntity
  8
0
100
AcDbCircle
 62
7
  6
CONTINUOUS
 10
14.4125649347
 20
11.8259859946
 40
0.008335135
100
AcDbArc
 50
270.0059323622
 51
323.6040598383
  0
ARC
  5
58F
100
AcDbEntity
  8
0
100
AcDbCircle
 62
7
  6
CONTINUOUS
 10
14.8730954317
 20
11.8259859946
 40
0.008335135
100
AcDbArc
 50
270.0059323623
 51
323.6040598383
  0
ARC
  5
590
100
AcDbEntity
  8
0
100
AcDbCircle
 62
7
  6
CONTINUOUS
 10
15.3336259287
 20
11.8259859946
 40
0.008335135
100
AcDbArc
 50
270.0059323623
 51
323.6040598383
  0
ARC
  5
591
100
AcDbEntity
  8
0
100
AcDbCircle
 62
7
  6
CONTINUOUS
 10
14.7784818541
 20
11.9785241589
 40
0.0083344811
100
AcDbArc
 50
270.0063817055
 51
330.396154693
  0
ARC
  5
592
100
AcDbEntity
  8
0
100
AcDbCircle
 62
7
  6
CONTINUOUS
 10
15.2390123511
 20
11.9785241589
 40
0.0083344811
100
AcDbArc
 50
270.0063817055
 51
330.396154693
  0
ARC
  5
593
100
AcDbEntity
  8
0
100
AcDbCircle
 62
7
  6
CONTINUOUS
 10
14.7264373515
 20
11.8259844299
 40
0.008333581
100
AcDbArc
 50
206.1392150958
 51
269.9985070403
  0
ARC
  5
594
100
AcDbEntity
  8
0
100
AcDbCircle
 62
7
  6
CONTINUOUS
 10
15.1869678485
 20
11.8259844299
 40
0.008333581
100
AcDbArc
 50
206.1392151068
 51
269.998507029
  0
ARC
  5
595
100
AcDbEntity
  8
0
100
AcDbCircle
 62
7
  6
CONTINUOUS
 10
14.4855036937
 20
11.9785230097
 40
0.008333306
100
AcDbArc
 50
270.0000935148
 51
342.8278156516
  0
ARC
  5
596
100
AcDbEntity
  8
0
100
AcDbCircle
 62
7
  6
CONTINUOUS
 10
14.9460341907
 20
11.9785230097
 40
0.008333306
100
AcDbArc
 50
270.0000935148
 51
342.8278156516
  0
ARC
  5
597
100
AcDbEntity
  8
0
100
AcDbCircle
 62
7
  6
CONTINUOUS
 10
15.4065646877
 20
11.9785230097
 40
0.008333306
100
AcDbArc
 50
270.0000935148
 51
342.8278156516
  0
ARC
  5
598
100
AcDbEntity
  8
0
100
AcDbCircle
 62
7
  6
CONTINUOUS
 10
14.6769095423
 20
11.9545305602
 40
0.0083332829
100
AcDbArc
 50
180.2318848238
 51
201.9059751855
  0
ARC
  5
599
100
AcDbEntity
  8
0
100
AcDbCircle
 62
7
  6
CONTINUOUS
 10
15.1374400393
 20
11.9545305602
 40
0.0083332829
100
AcDbArc
 50
180.2318848238
 51
201.9059751854
  0
ARC
  5
59A
100
AcDbEntity
  8
0
100
AcDbCircle
 62
7
  6
CONTINUOUS
 10
14.5509779343
 20
11.9785221261
 40
0.0083324254
100
AcDbArc
 50
234.7774795416
 51
270.0019816349
  0
ARC
  5
59B
100
AcDbEntity
  8
0
100
AcDbCircle
 62
7
  6
CONTINUOUS
 10
15.0115084313
 20
11.9785221261
 40
0.0083324254
100
AcDbArc
 50
234.7774795417
 51
270.0019816348
  0
ARC
  5
59C
100
AcDbEntity
  8
0
100
AcDbCircle
 62
7
  6
CONTINUOUS
 10
14.550967544
 20
11.9238991032
 40
0.0083323632
100
AcDbArc
 50
269.9974736708
 51
311.486627549
  0
ARC
  5
59D
100
AcDbEntity
  8
0
100
AcDbCircle
 62
7
  6
CONTINUOUS
 10
15.011498041
 20
11.9238991032
 40
0.0083323632
100
AcDbArc
 50
269.9974736708
 51
311.4866275489
  0
ARC
  5
59E
100
AcDbEntity
  8
0
100
AcDbCircle
 62
7
  6
CONTINUOUS
 10
14.4253643368
 20
11.9785194962
 40
0.0083296335
100
AcDbArc
 50
252.9833297812
 51
259.1204269777
  0
ARC
  5
59F
100
AcDbEntity
  8
0
100
AcDbCircle
 62
7
  6
CONTINUOUS
 10
14.8858948338
 20
11.9785194962
 40
0.0083296335
100
AcDbArc
 50
252.9833297809
 51
259.1204269783
  0
ARC
  5
5A0
100
AcDbEntity
  8
0
100
AcDbCircle
 62
7
  6
CONTINUOUS
 10
15.3464253308
 20
11.9785194962
 40
0.0083296335
100
AcDbArc
 50
252.9833297812
 51
259.1204269777
  0
ARC
  5
5A1
100
AcDbEntity
  8
0
100
AcDbCircle
 62
7
  6
CONTINUOUS
 10
15.8069739702
 20
11.978559213
 40
0.0083729227
100
AcDbArc
 50
237.2005636686
 51
252.9441538791
  0
ARC
  5
5A2
100
AcDbEntity
  8
0
100
AcDbCircle
 62
7
  6
CONTINUOUS
 10
16.2675044672
 20
11.978559213
 40
0.0083729227
100
AcDbArc
 50
237.2005636687
 51
252.944153879
  0
ARC
  5
5A3
100
AcDbEntity
  8
0
100
AcDbCircle
 62
7
  6
CONTINUOUS
 10
15.8069593097
 20
11.9785470351
 40
0.0083573347
100
AcDbArc
 50
259.132620197
 51
269.9843255509
  0
ARC
  5
5A4
100
AcDbEntity
  8
0
100
AcDbCircle
 62
7
  6
CONTINUOUS
 10
16.2674898067
 20
11.9785470351
 40
0.0083573347
100
AcDbArc
 50
259.132620197
 51
269.9843255509
  0
ARC
  5
5A5
100
AcDbEntity
  8
0
100
AcDbCircle
 62
7
  6
CONTINUOUS
 10
15.7941564257
 20
11.8259859946
 40
0.008335135
100
AcDbArc
 50
270.0059323623
 51
323.6040598383
  0
ARC
  5
5A6
100
AcDbEntity
  8
0
100
AcDbCircle
 62
7
  6
CONTINUOUS
 10
16.2546869227
 20
11.8259859946
 40
0.008335135
100
AcDbArc
 50
270.0059323623
 51
323.6040598383
  0
ARC
  5
5A7
100
AcDbEntity
  8
0
100
AcDbCircle
 62
7
  6
CONTINUOUS
 10
15.6995428481
 20
11.9785241589
 40
0.0083344811
100
AcDbArc
 50
270.00638173
 51
330.3961546685
  0
ARC
  5
5A8
100
AcDbEntity
  8
0
100
AcDbCircle
 62
7
  6
CONTINUOUS
 10
16.1600733451
 20
11.9785241589
 40
0.0083344811
100
AcDbArc
 50
270.0063817178
 51
330.3961546807
  0
ARC
  5
5A9
100
AcDbEntity
  8
0
100
AcDbCircle
 62
7
  6
CONTINUOUS
 10
15.6474983455
 20
11.8259844299
 40
0.008333581
100
AcDbArc
 50
206.1392151022
 51
269.9985070313
  0
ARC
  5
5AA
100
AcDbEntity
  8
0
100
AcDbCircle
 62
7
  6
CONTINUOUS
 10
16.1080288425
 20
11.8259844299
 40
0.008333581
100
AcDbArc
 50
206.1392150958
 51
269.9985070403
  0
ARC
  5
5AB
100
AcDbEntity
  8
0
100
AcDbCircle
 62
7
  6
CONTINUOUS
 10
15.8670951847
 20
11.9785230097
 40
0.008333306
100
AcDbArc
 50
270.0000935148
 51
342.8278156516
  0
ARC
  5
5AC
100
AcDbEntity
  8
0
100
AcDbCircle
 62
7
  6
CONTINUOUS
 10
16.3276256817
 20
11.9785230097
 40
0.008333306
100
AcDbArc
 50
270.0000935148
 51
342.8278156516
  0
ARC
  5
5AD
100
AcDbEntity
  8
0
100
AcDbCircle
 62
7
  6
CONTINUOUS
 10
15.5979705363
 20
11.9545305602
 40
0.0083332829
100
AcDbArc
 50
180.2318848237
 51
201.9059751855
  0
ARC
  5
5AE
100
AcDbEntity
  8
0
100
AcDbCircle
 62
7
  6
CONTINUOUS
 10
16.0585010333
 20
11.9545305602
 40
0.0083332829
100
AcDbArc
 50
180.2318848237
 51
201.9059751855
  0
ARC
  5
5AF
100
AcDbEntity
  8
0
100
AcDbCircle
 62
7
  6
CONTINUOUS
 10
15.4720389283
 20
11.9785221261
 40
0.0083324254
100
AcDbArc
 50
234.7774795416
 51
270.0019816349
  0
ARC
  5
5B0
100
AcDbEntity
  8
0
100
AcDbCircle
 62
7
  6
CONTINUOUS
 10
15.9325694253
 20
11.9785221261
 40
0.0083324254
100
AcDbArc
 50
234.7774795416
 51
270.0019816349
  0
ARC
  5
5B1
100
AcDbEntity
  8
0
100
AcDbCircle
 62
7
  6
CONTINUOUS
 10
15.472028538
 20
11.9238991032
 40
0.0083323632
100
AcDbArc
 50
269.9974736708
 51
311.486627549
  0
ARC
  5
5B2
100
AcDbEntity
  8
0
100
AcDbCircle
 62
7
  6
CONTINUOUS
 10
15.932559035
 20
11.9238991032
 40
0.0083323632
100
AcDbArc
 50
269.9974736709
 51
311.4866275489
  0
ARC
  5
5B3
100
AcDbEntity
  8
0
100
AcDbCircle
 62
7
  6
CONTINUOUS
 10
15.8069558278
 20
11.9785194962
 40
0.0083296335
100
AcDbArc
 50
252.9833297808
 51
259.1204269783
  0
ARC
  5
5B4
100
AcDbEntity
  8
0
100
AcDbCircle
 62
7
  6
CONTINUOUS
 10
16.2674863248
 20
11.9785194962
 40
0.0083296335
100
AcDbArc
 50
252.9833297812
 51
259.1204269777
  0
ARC
  5
5B5
100
AcDbEntity
  8
0
100
AcDbCircle
 62
7
  6
CONTINUOUS
 10
16.7280349642
 20
11.978559213
 40
0.0083729227
100
AcDbArc
 50
237.2005636687
 51
252.9441538791
  0
ARC
  5
5B6
100
AcDbEntity
  8
0
100
AcDbCircle
 62
7
  6
CONTINUOUS
 10
17.1885654612
 20
11.978559213
 40
0.0083729227
100
AcDbArc
 50
237.2005636689
 51
252.9441538788
  0
ARC
  5
5B7
100
AcDbEntity
  8
0
100
AcDbCircle
 62
7
  6
CONTINUOUS
 10
16.7280203037
 20
11.9785470351
 40
0.0083573347
100
AcDbArc
 50
259.132620197
 51
269.9843255509
  0
ARC
  5
5B8
100
AcDbEntity
  8
0
100
AcDbCircle
 62
7
  6
CONTINUOUS
 10
17.1885508007
 20
11.9785470351
 40
0.0083573347
100
AcDbArc
 50
259.132620197
 51
269.9843255509
  0
ARC
  5
5B9
100
AcDbEntity
  8
0
100
AcDbCircle
 62
7
  6
CONTINUOUS
 10
16.7152174197
 20
11.8259859946
 40
0.008335135
100
AcDbArc
 50
270.0059323623
 51
323.6040598383
  0
ARC
  5
5BA
100
AcDbEntity
  8
0
100
AcDbCircle
 62
7
  6
CONTINUOUS
 10
17.1757479167
 20
11.8259859946
 40
0.008335135
100
AcDbArc
 50
270.0059323622
 51
323.6040598383
  0
ARC
  5
5BB
100
AcDbEntity
  8
0
100
AcDbCircle
 62
7
  6
CONTINUOUS
 10
16.6206038421
 20
11.9785241589
 40
0.0083344811
100
AcDbArc
 50
270.0063817178
 51
330.3961546807
  0
ARC
  5
5BC
100
AcDbEntity
  8
0
100
AcDbCircle
 62
7
  6
CONTINUOUS
 10
17.0811343391
 20
11.9785241589
 40
0.0083344811
100
AcDbArc
 50
270.0063817178
 51
330.3961546806
  0
ARC
  5
5BD
100
AcDbEntity
  8
0
100
AcDbCircle
 62
7
  6
CONTINUOUS
 10
16.5685593395
 20
11.8259844299
 40
0.008333581
100
AcDbArc
 50
206.1392150973
 51
269.9985070332
  0
ARC
  5
5BE
100
AcDbEntity
  8
0
100
AcDbCircle
 62
7
  6
CONTINUOUS
 10
17.0290898365
 20
11.8259844299
 40
0.008333581
100
AcDbArc
 50
206.1392150981
 51
269.9985070357
  0
ARC
  5
5BF
100
AcDbEntity
  8
0
100
AcDbCircle
 62
7
  6
CONTINUOUS
 10
16.7881561787
 20
11.9785230097
 40
0.008333306
100
AcDbArc
 50
270.0000935148
 51
342.8278156516
  0
ARC
  5
5C0
100
AcDbEntity
  8
0
100
AcDbCircle
 62
7
  6
CONTINUOUS
 10
17.2486866757
 20
11.9785230097
 40
0.008333306
100
AcDbArc
 50
270.0000935147
 51
342.8278156516
  0
ARC
  5
5C1
100
AcDbEntity
  8
0
100
AcDbCircle
 62
7
  6
CONTINUOUS
 10
16.5190315303
 20
11.9545305602
 40
0.0083332829
100
AcDbArc
 50
180.2318848237
 51
201.9059751855
  0
ARC
  5
5C2
100
AcDbEntity
  8
0
100
AcDbCircle
 62
7
  6
CONTINUOUS
 10
16.9795620273
 20
11.9545305602
 40
0.0083332829
100
AcDbArc
 50
180.2318848236
 51
201.9059751854
  0
ARC
  5
5C3
100
AcDbEntity
  8
0
100
AcDbCircle
 62
7
  6
CONTINUOUS
 10
16.3930999223
 20
11.9785221261
 40
0.0083324254
100
AcDbArc
 50
234.7774795417
 51
270.0019816348
  0
ARC
  5
5C4
100
AcDbEntity
  8
0
100
AcDbCircle
 62
7
  6
CONTINUOUS
 10
16.8536304193
 20
11.9785221261
 40
0.0083324254
100
AcDbArc
 50
234.7774795418
 51
270.0019816348
  0
ARC
  5
5C5
100
AcDbEntity
  8
0
100
AcDbCircle
 62
7
  6
CONTINUOUS
 10
16.393089532
 20
11.9238991032
 40
0.0083323632
100
AcDbArc
 50
269.9974736708
 51
311.4866275489
  0
ARC
  5
5C6
100
AcDbEntity
  8
0
100
AcDbCircle
 62
7
  6
CONTINUOUS
 10
16.853620029
 20
11.9238991032
 40
0.0083323632
100
AcDbArc
 50
269.9974736708
 51
311.4866275489
  0
ARC
  5
5C7
100
AcDbEntity
  8
0
100
AcDbCircle
 62
7
  6
CONTINUOUS
 10
17.314150526
 20
11.9238991032
 40
0.0083323632
100
AcDbArc
 50
269.9974736708
 51
311.4866275489
  0
ARC
  5
5C8
100
AcDbEntity
  8
0
100
AcDbCircle
 62
7
  6
CONTINUOUS
 10
16.7280168218
 20
11.9785194962
 40
0.0083296335
100
AcDbArc
 50
252.9833297808
 51
259.1204269782
  0
ARC
  5
5C9
100
AcDbEntity
  8
0
100
AcDbCircle
 62
7
  6
CONTINUOUS
 10
17.1885473188
 20
11.9785194962
 40
0.0083296335
100
AcDbArc
 50
252.9833297807
 51
259.1204269779
  0
ARC
  5
5CA
100
AcDbEntity
  8
0
100
AcDbCircle
 62
7
  6
CONTINUOUS
 10
17.3053955531
 20
12.1774380622
 40
0.2325199898
100
AcDbArc
 50
105.9237442882
 51
125.8968107544
  0
ARC
  5
5CB
100
AcDbEntity
  8
0
100
AcDbCircle
 62
7
  6
CONTINUOUS
 10
17.2966787727
 20
12.0669731686
 40
0.1059121183
100
AcDbArc
 50
24.1864181549
 51
26.1491805026
  0
ARC
  5
5CC
100
AcDbEntity
  8
0
100
AcDbCircle
 62
7
  6
CONTINUOUS
 10
17.3782439014
 20
12.5204755606
 40
0.1923449353
100
AcDbArc
 50
54.5004669981
 51
55.3502335783
  0
ARC
  5
5CD
100
AcDbEntity
  8
0
100
AcDbCircle
 62
7
  6
CONTINUOUS
 10
17.5068738402
 20
12.8140495561
 40
0.0083609435
100
AcDbArc
 50
44.6511003338
 51
60.9415617995
  0
ARC
  5
5CE
100
AcDbEntity
  8
0
100
AcDbCircle
 62
7
  6
CONTINUOUS
 10
17.5068893574
 20
12.8140715272
 40
0.0083344719
100
AcDbArc
 50
342.8318730347
 51
44.6186183743
  0
ARC
  5
5CF
100
AcDbEntity
  8
0
100
AcDbCircle
 62
7
  6
CONTINUOUS
 10
17.4666523098
 20
12.4173950563
 40
0.0083323632
100
AcDbArc
 50
269.9974736707
 51
311.486627549
  0
LINE
  5
5D0
100
AcDbEntity
  8
0
100
AcDbLine
 62
7
  6
CONTINUOUS
 10
4.2538531135
 20
5.3668252049
 11
4.2536803141
 21
5.3684532301
  0
LINE
  5
5D1
100
AcDbEntity
  8
0
100
AcDbLine
 62
7
  6
CONTINUOUS
 10
4.2536850044
 20
5.3651198968
 11
4.2538531135
 21
5.3668252049
  0
SPLINE
  5
5D2
100
AcDbEntity
  8
0
100
AcDbSpline
 62
7
  6
CONTINUOUS
 70
0
 71
3
 72
22
 73
18
 74
0
 42
0.0000001
 43
0.0000001
 44
0.0000000001
 40
0.0
 40
0.0
 40
0.0
 40
0.0
 40
0.1862514511
 40
0.3671484339
 40
0.536939136
 40
0.6157267939
 40
0.6893471683
 40
0.7569568402
 40
0.8176991319
 40
0.8707860596
 40
0.9154701234
 40
0.9509333387
 40
0.9767399919
 40
0.986135975
 40
0.9932027864
 40
0.9977955823
 40
1.0
 40
1.0
 40
1.0
 40
1.0
 10
4.2437278948
 20
5.3560675533
 30
0.0
 10
4.2437278948
 20
5.3566306779
 30
0.0
 10
4.2437310954
 20
5.3577407411
 30
0.0
 10
4.2437455225
 20
5.3593641026
 30
0.0
 10
4.2437658717
 20
5.3606624611
 30
0.0
 10
4.2437874764
 20
5.3616363806
 30
0.0
 10
4.2438055323
 20
5.3623013556
 30
0.0
 10
4.2438257085
 20
5.3629116787
 30
0.0
 10
4.2438478544
 20
5.3634598241
 30
0.0
 10
4.2438717115
 20
5.3639384604
 30
0.0
 10
4.243896978
 20
5.3643406214
 30
0.0
 10
4.2439230755
 20
5.3646596423
 30
0.0
 10
4.243947674
 20
5.3648725681
 30
0.0
 10
4.2439682569
 20
5.3649978888
 30
0.0
 10
4.2439830211
 20
5.3650614338
 30
0.0
 10
4.2439941856
 20
5.3650986738
 30
0.0
 10
4.2440080737
 20
5.3651198883
 30
0.0
 10
4.2440147386
 20
5.3651198968
 30
0.0
  0
LINE
  5
5D3
100
AcDbEntity
  8
0
100
AcDbLine
 62
7
  6
CONTINUOUS
 10
4.7538531135
 20
5.3668252049
 11
4.7536803141
 21
5.3684532301
  0
LINE
  5
5D4
100
AcDbEntity
  8
0
100
AcDbLine
 62
7
  6
CONTINUOUS
 10
4.7536850044
 20
5.3651198968
 11
4.7538531135
 21
5.3668252049
  0
SPLINE
  5
5D5
100
AcDbEntity
  8
0
100
AcDbSpline
 62
7
  6
CONTINUOUS
 70
0
 71
3
 72
22
 73
18
 74
0
 42
0.0000001
 43
0.0000001
 44
0.0000000001
 40
0.0
 40
0.0
 40
0.0
 40
0.0
 40
0.1862514511
 40
0.3671484339
 40
0.536939136
 40
0.6157267939
 40
0.6893471683
 40
0.7569568402
 40
0.8176991319
 40
0.8707860596
 40
0.9154701234
 40
0.9509333387
 40
0.9767399919
 40
0.986135975
 40
0.9932027864
 40
0.9977955823
 40
1.0
 40
1.0
 40
1.0
 40
1.0
 10
4.7437278948
 20
5.3560675533
 30
0.0
 10
4.7437278948
 20
5.3566306779
 30
0.0
 10
4.7437310954
 20
5.3577407411
 30
0.0
 10
4.7437455225
 20
5.3593641026
 30
0.0
 10
4.7437658717
 20
5.3606624611
 30
0.0
 10
4.7437874764
 20
5.3616363806
 30
0.0
 10
4.7438055323
 20
5.3623013556
 30
0.0
 10
4.7438257085
 20
5.3629116787
 30
0.0
 10
4.7438478544
 20
5.3634598241
 30
0.0
 10
4.7438717115
 20
5.3639384604
 30
0.0
 10
4.743896978
 20
5.3643406214
 30
0.0
 10
4.7439230755
 20
5.3646596423
 30
0.0
 10
4.743947674
 20
5.3648725681
 30
0.0
 10
4.7439682569
 20
5.3649978888
 30
0.0
 10
4.7439830211
 20
5.3650614338
 30
0.0
 10
4.7439941856
 20
5.3650986738
 30
0.0
 10
4.7440080737
 20
5.3651198883
 30
0.0
 10
4.7440147386
 20
5.3651198968
 30
0.0
  0
LINE
  5
5D6
100
AcDbEntity
  8
0
100
AcDbLine
 62
7
  6
CONTINUOUS
 10
5.2538531135
 20
5.3668252049
 11
5.2536803141
 21
5.3684532301
  0
LINE
  5
5D7
100
AcDbEntity
  8
0
100
AcDbLine
 62
7
  6
CONTINUOUS
 10
5.2536850044
 20
5.3651198968
 11
5.2538531135
 21
5.3668252049
  0
SPLINE
  5
5D8
100
AcDbEntity
  8
0
100
AcDbSpline
 62
7
  6
CONTINUOUS
 70
0
 71
3
 72
22
 73
18
 74
0
 42
0.0000001
 43
0.0000001
 44
0.0000000001
 40
0.0
 40
0.0
 40
0.0
 40
0.0
 40
0.1862514511
 40
0.3671484339
 40
0.536939136
 40
0.6157267939
 40
0.6893471683
 40
0.7569568402
 40
0.8176991319
 40
0.8707860596
 40
0.9154701234
 40
0.9509333387
 40
0.9767399919
 40
0.986135975
 40
0.9932027864
 40
0.9977955823
 40
1.0
 40
1.0
 40
1.0
 40
1.0
 10
5.2437278948
 20
5.3560675533
 30
0.0
 10
5.2437278948
 20
5.3566306779
 30
0.0
 10
5.2437310954
 20
5.3577407411
 30
0.0
 10
5.2437455225
 20
5.3593641026
 30
0.0
 10
5.2437658717
 20
5.3606624611
 30
0.0
 10
5.2437874764
 20
5.3616363806
 30
0.0
 10
5.2438055323
 20
5.3623013556
 30
0.0
 10
5.2438257085
 20
5.3629116787
 30
0.0
 10
5.2438478544
 20
5.3634598241
 30
0.0
 10
5.2438717115
 20
5.3639384604
 30
0.0
 10
5.243896978
 20
5.3643406214
 30
0.0
 10
5.2439230755
 20
5.3646596423
 30
0.0
 10
5.243947674
 20
5.3648725681
 30
0.0
 10
5.2439682569
 20
5.3649978888
 30
0.0
 10
5.2439830211
 20
5.3650614338
 30
0.0
 10
5.2439941856
 20
5.3650986738
 30
0.0
 10
5.2440080737
 20
5.3651198883
 30
0.0
 10
5.2440147386
 20
5.3651198968
 30
0.0
  0
LINE
  5
5D9
100
AcDbEntity
  8
0
100
AcDbLine
 62
7
  6
CONTINUOUS
 10
5.7538531135
 20
5.3668252049
 11
5.7536803141
 21
5.3684532301
  0
LINE
  5
5DA
100
AcDbEntity
  8
0
100
AcDbLine
 62
7
  6
CONTINUOUS
 10
5.7536850044
 20
5.3651198968
 11
5.7538531135
 21
5.3668252049
  0
SPLINE
  5
5DB
100
AcDbEntity
  8
0
100
AcDbSpline
 62
7
  6
CONTINUOUS
 70
0
 71
3
 72
22
 73
18
 74
0
 42
0.0000001
 43
0.0000001
 44
0.0000000001
 40
0.0
 40
0.0
 40
0.0
 40
0.0
 40
0.1862514511
 40
0.3671484339
 40
0.536939136
 40
0.6157267939
 40
0.6893471683
 40
0.7569568402
 40
0.8176991319
 40
0.8707860596
 40
0.9154701234
 40
0.9509333387
 40
0.9767399919
 40
0.986135975
 40
0.9932027864
 40
0.9977955823
 40
1.0
 40
1.0
 40
1.0
 40
1.0
 10
5.7437278948
 20
5.3560675533
 30
0.0
 10
5.7437278948
 20
5.3566306779
 30
0.0
 10
5.7437310954
 20
5.3577407411
 30
0.0
 10
5.7437455225
 20
5.3593641026
 30
0.0
 10
5.7437658717
 20
5.3606624611
 30
0.0
 10
5.7437874764
 20
5.3616363806
 30
0.0
 10
5.7438055323
 20
5.3623013556
 30
0.0
 10
5.7438257085
 20
5.3629116787
 30
0.0
 10
5.7438478544
 20
5.3634598241
 30
0.0
 10
5.7438717115
 20
5.3639384604
 30
0.0
 10
5.743896978
 20
5.3643406214
 30
0.0
 10
5.7439230755
 20
5.3646596423
 30
0.0
 10
5.743947674
 20
5.3648725681
 30
0.0
 10
5.7439682569
 20
5.3649978888
 30
0.0
 10
5.7439830211
 20
5.3650614338
 30
0.0
 10
5.7439941856
 20
5.3650986738
 30
0.0
 10
5.7440080737
 20
5.3651198883
 30
0.0
 10
5.7440147386
 20
5.3651198968
 30
0.0
  0
LINE
  5
5DC
100
AcDbEntity
  8
0
100
AcDbLine
 62
7
  6
CONTINUOUS
 10
6.2538531135
 20
5.3668252049
 11
6.2536803141
 21
5.3684532301
  0
LINE
  5
5DD
100
AcDbEntity
  8
0
100
AcDbLine
 62
7
  6
CONTINUOUS
 10
6.2536850044
 20
5.3651198968
 11
6.2538531135
 21
5.3668252049
  0
SPLINE
  5
5DE
100
AcDbEntity
  8
0
100
AcDbSpline
 62
7
  6
CONTINUOUS
 70
0
 71
3
 72
22
 73
18
 74
0
 42
0.0000001
 43
0.0000001
 44
0.0000000001
 40
0.0
 40
0.0
 40
0.0
 40
0.0
 40
0.1862514511
 40
0.3671484339
 40
0.536939136
 40
0.6157267939
 40
0.6893471683
 40
0.7569568402
 40
0.8176991319
 40
0.8707860596
 40
0.9154701234
 40
0.9509333387
 40
0.9767399919
 40
0.986135975
 40
0.9932027864
 40
0.9977955823
 40
1.0
 40
1.0
 40
1.0
 40
1.0
 10
6.2437278948
 20
5.3560675533
 30
0.0
 10
6.2437278948
 20
5.3566306779
 30
0.0
 10
6.2437310954
 20
5.3577407411
 30
0.0
 10
6.2437455225
 20
5.3593641026
 30
0.0
 10
6.2437658717
 20
5.3606624611
 30
0.0
 10
6.2437874764
 20
5.3616363806
 30
0.0
 10
6.2438055323
 20
5.3623013556
 30
0.0
 10
6.2438257085
 20
5.3629116787
 30
0.0
 10
6.2438478544
 20
5.3634598241
 30
0.0
 10
6.2438717115
 20
5.3639384604
 30
0.0
 10
6.243896978
 20
5.3643406214
 30
0.0
 10
6.2439230755
 20
5.3646596423
 30
0.0
 10
6.243947674
 20
5.3648725681
 30
0.0
 10
6.2439682569
 20
5.3649978888
 30
0.0
 10
6.2439830211
 20
5.3650614338
 30
0.0
 10
6.2439941856
 20
5.3650986738
 30
0.0
 10
6.2440080737
 20
5.3651198883
 30
0.0
 10
6.2440147386
 20
5.3651198968
 30
0.0
  0
LINE
  5
5DF
100
AcDbEntity
  8
0
100
AcDbLine
 62
7
  6
CONTINUOUS
 10
6.7538531135
 20
5.3668252049
 11
6.7536803141
 21
5.3684532301
  0
LINE
  5
5E0
100
AcDbEntity
  8
0
100
AcDbLine
 62
7
  6
CONTINUOUS
 10
6.7536850044
 20
5.3651198968
 11
6.7538531135
 21
5.3668252049
  0
SPLINE
  5
5E1
100
AcDbEntity
  8
0
100
AcDbSpline
 62
7
  6
CONTINUOUS
 70
0
 71
3
 72
22
 73
18
 74
0
 42
0.0000001
 43
0.0000001
 44
0.0000000001
 40
0.0
 40
0.0
 40
0.0
 40
0.0
 40
0.1862514511
 40
0.3671484339
 40
0.536939136
 40
0.6157267939
 40
0.6893471683
 40
0.7569568402
 40
0.8176991319
 40
0.8707860596
 40
0.9154701234
 40
0.9509333387
 40
0.9767399919
 40
0.986135975
 40
0.9932027864
 40
0.9977955823
 40
1.0
 40
1.0
 40
1.0
 40
1.0
 10
6.7437278948
 20
5.3560675533
 30
0.0
 10
6.7437278948
 20
5.3566306779
 30
0.0
 10
6.7437310954
 20
5.3577407411
 30
0.0
 10
6.7437455225
 20
5.3593641026
 30
0.0
 10
6.7437658717
 20
5.3606624611
 30
0.0
 10
6.7437874764
 20
5.3616363806
 30
0.0
 10
6.7438055323
 20
5.3623013556
 30
0.0
 10
6.7438257085
 20
5.3629116787
 30
0.0
 10
6.7438478544
 20
5.3634598241
 30
0.0
 10
6.7438717115
 20
5.3639384604
 30
0.0
 10
6.743896978
 20
5.3643406214
 30
0.0
 10
6.7439230755
 20
5.3646596423
 30
0.0
 10
6.743947674
 20
5.3648725681
 30
0.0
 10
6.7439682569
 20
5.3649978888
 30
0.0
 10
6.7439830211
 20
5.3650614338
 30
0.0
 10
6.7439941856
 20
5.3650986738
 30
0.0
 10
6.7440080737
 20
5.3651198883
 30
0.0
 10
6.7440147386
 20
5.3651198968
 30
0.0
  0
LINE
  5
5E2
100
AcDbEntity
  8
0
100
AcDbLine
 62
7
  6
CONTINUOUS
 10
7.2538531135
 20
5.3668252049
 11
7.2536803141
 21
5.3684532301
  0
LINE
  5
5E3
100
AcDbEntity
  8
0
100
AcDbLine
 62
7
  6
CONTINUOUS
 10
7.2536850044
 20
5.3651198968
 11
7.2538531135
 21
5.3668252049
  0
SPLINE
  5
5E4
100
AcDbEntity
  8
0
100
AcDbSpline
 62
7
  6
CONTINUOUS
 70
0
 71
3
 72
22
 73
18
 74
0
 42
0.0000001
 43
0.0000001
 44
0.0000000001
 40
0.0
 40
0.0
 40
0.0
 40
0.0
 40
0.1862514511
 40
0.3671484339
 40
0.536939136
 40
0.6157267939
 40
0.6893471683
 40
0.7569568402
 40
0.8176991319
 40
0.8707860596
 40
0.9154701234
 40
0.9509333387
 40
0.9767399919
 40
0.986135975
 40
0.9932027864
 40
0.9977955823
 40
1.0
 40
1.0
 40
1.0
 40
1.0
 10
7.2437278948
 20
5.3560675533
 30
0.0
 10
7.2437278948
 20
5.3566306779
 30
0.0
 10
7.2437310954
 20
5.3577407411
 30
0.0
 10
7.2437455225
 20
5.3593641026
 30
0.0
 10
7.2437658717
 20
5.3606624611
 30
0.0
 10
7.2437874764
 20
5.3616363806
 30
0.0
 10
7.2438055323
 20
5.3623013556
 30
0.0
 10
7.2438257085
 20
5.3629116787
 30
0.0
 10
7.2438478544
 20
5.3634598241
 30
0.0
 10
7.2438717115
 20
5.3639384604
 30
0.0
 10
7.243896978
 20
5.3643406214
 30
0.0
 10
7.2439230755
 20
5.3646596423
 30
0.0
 10
7.243947674
 20
5.3648725681
 30
0.0
 10
7.2439682569
 20
5.3649978888
 30
0.0
 10
7.2439830211
 20
5.3650614338
 30
0.0
 10
7.2439941856
 20
5.3650986738
 30
0.0
 10
7.2440080737
 20
5.3651198883
 30
0.0
 10
7.2440147386
 20
5.3651198968
 30
0.0
  0
LINE
  5
5E5
100
AcDbEntity
  8
0
100
AcDbLine
 62
7
  6
CONTINUOUS
 10
7.7538531135
 20
5.3668252049
 11
7.7536803141
 21
5.3684532301
  0
LINE
  5
5E6
100
AcDbEntity
  8
0
100
AcDbLine
 62
7
  6
CONTINUOUS
 10
7.7536850044
 20
5.3651198968
 11
7.7538531135
 21
5.3668252049
  0
SPLINE
  5
5E7
100
AcDbEntity
  8
0
100
AcDbSpline
 62
7
  6
CONTINUOUS
 70
0
 71
3
 72
22
 73
18
 74
0
 42
0.0000001
 43
0.0000001
 44
0.0000000001
 40
0.0
 40
0.0
 40
0.0
 40
0.0
 40
0.1862514511
 40
0.3671484339
 40
0.536939136
 40
0.6157267939
 40
0.6893471683
 40
0.7569568402
 40
0.8176991319
 40
0.8707860596
 40
0.9154701234
 40
0.9509333387
 40
0.9767399919
 40
0.986135975
 40
0.9932027864
 40
0.9977955823
 40
1.0
 40
1.0
 40
1.0
 40
1.0
 10
7.7437278948
 20
5.3560675533
 30
0.0
 10
7.7437278948
 20
5.3566306779
 30
0.0
 10
7.7437310954
 20
5.3577407411
 30
0.0
 10
7.7437455225
 20
5.3593641026
 30
0.0
 10
7.7437658717
 20
5.3606624611
 30
0.0
 10
7.7437874764
 20
5.3616363806
 30
0.0
 10
7.7438055323
 20
5.3623013556
 30
0.0
 10
7.7438257085
 20
5.3629116787
 30
0.0
 10
7.7438478544
 20
5.3634598241
 30
0.0
 10
7.7438717115
 20
5.3639384604
 30
0.0
 10
7.743896978
 20
5.3643406214
 30
0.0
 10
7.7439230755
 20
5.3646596423
 30
0.0
 10
7.743947674
 20
5.3648725681
 30
0.0
 10
7.7439682569
 20
5.3649978888
 30
0.0
 10
7.7439830211
 20
5.3650614338
 30
0.0
 10
7.7439941856
 20
5.3650986738
 30
0.0
 10
7.7440080737
 20
5.3651198883
 30
0.0
 10
7.7440147386
 20
5.3651198968
 30
0.0
  0
SPLINE
  5
5E8
100
AcDbEntity
  8
0
100
AcDbSpline
 62
7
  6
CONTINUOUS
 70
0
 71
3
 72
11
 73
7
 74
0
 42
0.0000001
 43
0.0000001
 44
0.0000000001
 40
0.0
 40
0.0
 40
0.0
 40
0.0
 40
0.2477670121
 40
0.4971012667
 40
0.7478595611
 40
1.0
 40
1.0
 40
1.0
 40
1.0
 10
4.2198326998
 20
12.0583823355
 30
0.0
 10
4.217704889
 20
12.0583934509
 30
0.0
 10
4.2134358892
 20
12.0585670837
 30
0.0
 10
4.2070410385
 20
12.0592002083
 30
0.0
 10
4.2006573964
 20
12.0602103631
 30
0.0
 10
4.1964389626
 20
12.0611683473
 30
0.0
 10
4.1943578997
 20
12.0617667875
 30
0.0
  0
SPLINE
  5
5E9
100
AcDbEntity
  8
0
100
AcDbSpline
 62
7
  6
CONTINUOUS
 70
0
 71
3
 72
11
 73
7
 74
0
 42
0.0000001
 43
0.0000001
 44
0.0000000001
 40
0.0
 40
0.0
 40
0.0
 40
0.0
 40
0.2521771547
 40
0.5029410479
 40
0.7522454868
 40
1.0
 40
1.0
 40
1.0
 40
1.0
 10
4.1943578961
 20
13.1383286935
 30
0.0
 10
4.1964803149
 20
13.1389393416
 30
0.0
 10
4.2007835592
 20
13.1399127195
 30
0.0
 10
4.2072954117
 20
13.1409307758
 30
0.0
 10
4.2138182297
 20
13.1415593314
 30
0.0
 10
4.2181722507
 20
13.1417144564
 30
0.0
 10
4.2203420363
 20
13.1417144564
 30
0.0
  0
SPLINE
  5
5EA
100
AcDbEntity
  8
0
100
AcDbSpline
 62
7
  6
CONTINUOUS
 70
0
 71
3
 72
11
 73
7
 74
0
 42
0.0000001
 43
0.0000001
 44
0.0000000001
 40
0.0
 40
0.0
 40
0.0
 40
0.0
 40
0.2477670121
 40
0.4971012667
 40
0.7478595611
 40
1.0
 40
1.0
 40
1.0
 40
1.0
 10
4.7198326998
 20
12.0583823355
 30
0.0
 10
4.717704889
 20
12.0583934509
 30
0.0
 10
4.7134358892
 20
12.0585670837
 30
0.0
 10
4.7070410385
 20
12.0592002083
 30
0.0
 10
4.7006573964
 20
12.0602103631
 30
0.0
 10
4.6964389626
 20
12.0611683473
 30
0.0
 10
4.6943578997
 20
12.0617667875
 30
0.0
  0
SPLINE
  5
5EB
100
AcDbEntity
  8
0
100
AcDbSpline
 62
7
  6
CONTINUOUS
 70
0
 71
3
 72
11
 73
7
 74
0
 42
0.0000001
 43
0.0000001
 44
0.0000000001
 40
0.0
 40
0.0
 40
0.0
 40
0.0
 40
0.2521771547
 40
0.5029410479
 40
0.7522454868
 40
1.0
 40
1.0
 40
1.0
 40
1.0
 10
4.6943578961
 20
13.1383286935
 30
0.0
 10
4.6964803149
 20
13.1389393416
 30
0.0
 10
4.7007835592
 20
13.1399127195
 30
0.0
 10
4.7072954117
 20
13.1409307758
 30
0.0
 10
4.7138182297
 20
13.1415593314
 30
0.0
 10
4.7181722507
 20
13.1417144564
 30
0.0
 10
4.7203420363
 20
13.1417144564
 30
0.0
  0
SPLINE
  5
5EC
100
AcDbEntity
  8
0
100
AcDbSpline
 62
7
  6
CONTINUOUS
 70
0
 71
3
 72
11
 73
7
 74
0
 42
0.0000001
 43
0.0000001
 44
0.0000000001
 40
0.0
 40
0.0
 40
0.0
 40
0.0
 40
0.2477670121
 40
0.4971012667
 40
0.7478595611
 40
1.0
 40
1.0
 40
1.0
 40
1.0
 10
5.2198326998
 20
12.0583823355
 30
0.0
 10
5.217704889
 20
12.0583934509
 30
0.0
 10
5.2134358892
 20
12.0585670837
 30
0.0
 10
5.2070410385
 20
12.0592002083
 30
0.0
 10
5.2006573964
 20
12.0602103631
 30
0.0
 10
5.1964389626
 20
12.0611683473
 30
0.0
 10
5.1943578997
 20
12.0617667875
 30
0.0
  0
SPLINE
  5
5ED
100
AcDbEntity
  8
0
100
AcDbSpline
 62
7
  6
CONTINUOUS
 70
0
 71
3
 72
11
 73
7
 74
0
 42
0.0000001
 43
0.0000001
 44
0.0000000001
 40
0.0
 40
0.0
 40
0.0
 40
0.0
 40
0.2521771547
 40
0.5029410479
 40
0.7522454868
 40
1.0
 40
1.0
 40
1.0
 40
1.0
 10
5.1943578961
 20
13.1383286935
 30
0.0
 10
5.1964803149
 20
13.1389393416
 30
0.0
 10
5.2007835592
 20
13.1399127195
 30
0.0
 10
5.2072954117
 20
13.1409307758
 30
0.0
 10
5.2138182297
 20
13.1415593314
 30
0.0
 10
5.2181722507
 20
13.1417144564
 30
0.0
 10
5.2203420363
 20
13.1417144564
 30
0.0
  0
SPLINE
  5
5EE
100
AcDbEntity
  8
0
100
AcDbSpline
 62
7
  6
CONTINUOUS
 70
0
 71
3
 72
11
 73
7
 74
0
 42
0.0000001
 43
0.0000001
 44
0.0000000001
 40
0.0
 40
0.0
 40
0.0
 40
0.0
 40
0.2477670121
 40
0.4971012667
 40
0.7478595611
 40
1.0
 40
1.0
 40
1.0
 40
1.0
 10
5.7198326998
 20
12.0583823355
 30
0.0
 10
5.717704889
 20
12.0583934509
 30
0.0
 10
5.7134358892
 20
12.0585670837
 30
0.0
 10
5.7070410385
 20
12.0592002083
 30
0.0
 10
5.7006573964
 20
12.0602103631
 30
0.0
 10
5.6964389626
 20
12.0611683473
 30
0.0
 10
5.6943578997
 20
12.0617667875
 30
0.0
  0
SPLINE
  5
5EF
100
AcDbEntity
  8
0
100
AcDbSpline
 62
7
  6
CONTINUOUS
 70
0
 71
3
 72
11
 73
7
 74
0
 42
0.0000001
 43
0.0000001
 44
0.0000000001
 40
0.0
 40
0.0
 40
0.0
 40
0.0
 40
0.2521771547
 40
0.5029410479
 40
0.7522454868
 40
1.0
 40
1.0
 40
1.0
 40
1.0
 10
5.6943578961
 20
13.1383286935
 30
0.0
 10
5.6964803149
 20
13.1389393416
 30
0.0
 10
5.7007835592
 20
13.1399127195
 30
0.0
 10
5.7072954117
 20
13.1409307758
 30
0.0
 10
5.7138182297
 20
13.1415593314
 30
0.0
 10
5.7181722507
 20
13.1417144564
 30
0.0
 10
5.7203420363
 20
13.1417144564
 30
0.0
  0
SPLINE
  5
5F0
100
AcDbEntity
  8
0
100
AcDbSpline
 62
7
  6
CONTINUOUS
 70
0
 71
3
 72
11
 73
7
 74
0
 42
0.0000001
 43
0.0000001
 44
0.0000000001
 40
0.0
 40
0.0
 40
0.0
 40
0.0
 40
0.2477670121
 40
0.4971012667
 40
0.7478595611
 40
1.0
 40
1.0
 40
1.0
 40
1.0
 10
6.2198326998
 20
12.0583823355
 30
0.0
 10
6.217704889
 20
12.0583934509
 30
0.0
 10
6.2134358892
 20
12.0585670837
 30
0.0
 10
6.2070410385
 20
12.0592002083
 30
0.0
 10
6.2006573964
 20
12.0602103631
 30
0.0
 10
6.1964389626
 20
12.0611683473
 30
0.0
 10
6.1943578997
 20
12.0617667875
 30
0.0
  0
SPLINE
  5
5F1
100
AcDbEntity
  8
0
100
AcDbSpline
 62
7
  6
CONTINUOUS
 70
0
 71
3
 72
11
 73
7
 74
0
 42
0.0000001
 43
0.0000001
 44
0.0000000001
 40
0.0
 40
0.0
 40
0.0
 40
0.0
 40
0.2521771547
 40
0.5029410479
 40
0.7522454868
 40
1.0
 40
1.0
 40
1.0
 40
1.0
 10
6.1943578961
 20
13.1383286935
 30
0.0
 10
6.1964803149
 20
13.1389393416
 30
0.0
 10
6.2007835592
 20
13.1399127195
 30
0.0
 10
6.2072954117
 20
13.1409307758
 30
0.0
 10
6.2138182297
 20
13.1415593314
 30
0.0
 10
6.2181722507
 20
13.1417144564
 30
0.0
 10
6.2203420363
 20
13.1417144564
 30
0.0
  0
SPLINE
  5
5F2
100
AcDbEntity
  8
0
100
AcDbSpline
 62
7
  6
CONTINUOUS
 70
0
 71
3
 72
11
 73
7
 74
0
 42
0.0000001
 43
0.0000001
 44
0.0000000001
 40
0.0
 40
0.0
 40
0.0
 40
0.0
 40
0.2477670121
 40
0.4971012667
 40
0.7478595611
 40
1.0
 40
1.0
 40
1.0
 40
1.0
 10
6.7198326998
 20
12.0583823355
 30
0.0
 10
6.717704889
 20
12.0583934509
 30
0.0
 10
6.7134358892
 20
12.0585670837
 30
0.0
 10
6.7070410385
 20
12.0592002083
 30
0.0
 10
6.7006573964
 20
12.0602103631
 30
0.0
 10
6.6964389626
 20
12.0611683473
 30
0.0
 10
6.6943578997
 20
12.0617667875
 30
0.0
  0
SPLINE
  5
5F3
100
AcDbEntity
  8
0
100
AcDbSpline
 62
7
  6
CONTINUOUS
 70
0
 71
3
 72
11
 73
7
 74
0
 42
0.0000001
 43
0.0000001
 44
0.0000000001
 40
0.0
 40
0.0
 40
0.0
 40
0.0
 40
0.2521771547
 40
0.5029410479
 40
0.7522454868
 40
1.0
 40
1.0
 40
1.0
 40
1.0
 10
6.6943578961
 20
13.1383286935
 30
0.0
 10
6.6964803149
 20
13.1389393416
 30
0.0
 10
6.7007835592
 20
13.1399127195
 30
0.0
 10
6.7072954117
 20
13.1409307758
 30
0.0
 10
6.7138182297
 20
13.1415593314
 30
0.0
 10
6.7181722507
 20
13.1417144564
 30
0.0
 10
6.7203420363
 20
13.1417144564
 30
0.0
  0
SPLINE
  5
5F4
100
AcDbEntity
  8
0
100
AcDbSpline
 62
7
  6
CONTINUOUS
 70
0
 71
3
 72
11
 73
7
 74
0
 42
0.0000001
 43
0.0000001
 44
0.0000000001
 40
0.0
 40
0.0
 40
0.0
 40
0.0
 40
0.2477670121
 40
0.4971012667
 40
0.7478595611
 40
1.0
 40
1.0
 40
1.0
 40
1.0
 10
7.2198326998
 20
12.0583823355
 30
0.0
 10
7.217704889
 20
12.0583934509
 30
0.0
 10
7.2134358892
 20
12.0585670837
 30
0.0
 10
7.2070410385
 20
12.0592002083
 30
0.0
 10
7.2006573964
 20
12.0602103631
 30
0.0
 10
7.1964389626
 20
12.0611683473
 30
0.0
 10
7.1943578997
 20
12.0617667875
 30
0.0
  0
SPLINE
  5
5F5
100
AcDbEntity
  8
0
100
AcDbSpline
 62
7
  6
CONTINUOUS
 70
0
 71
3
 72
11
 73
7
 74
0
 42
0.0000001
 43
0.0000001
 44
0.0000000001
 40
0.0
 40
0.0
 40
0.0
 40
0.0
 40
0.2521771547
 40
0.5029410479
 40
0.7522454868
 40
1.0
 40
1.0
 40
1.0
 40
1.0
 10
7.1943578961
 20
13.1383286935
 30
0.0
 10
7.1964803149
 20
13.1389393416
 30
0.0
 10
7.2007835592
 20
13.1399127195
 30
0.0
 10
7.2072954117
 20
13.1409307758
 30
0.0
 10
7.2138182297
 20
13.1415593314
 30
0.0
 10
7.2181722507
 20
13.1417144564
 30
0.0
 10
7.2203420363
 20
13.1417144564
 30
0.0
  0
SPLINE
  5
5F6
100
AcDbEntity
  8
0
100
AcDbSpline
 62
7
  6
CONTINUOUS
 70
0
 71
3
 72
11
 73
7
 74
0
 42
0.0000001
 43
0.0000001
 44
0.0000000001
 40
0.0
 40
0.0
 40
0.0
 40
0.0
 40
0.2477670121
 40
0.4971012667
 40
0.7478595611
 40
1.0
 40
1.0
 40
1.0
 40
1.0
 10
7.7198326998
 20
12.0583823355
 30
0.0
 10
7.717704889
 20
12.0583934509
 30
0.0
 10
7.7134358892
 20
12.0585670837
 30
0.0
 10
7.7070410385
 20
12.0592002083
 30
0.0
 10
7.7006573964
 20
12.0602103631
 30
0.0
 10
7.6964389626
 20
12.0611683473
 30
0.0
 10
7.6943578997
 20
12.0617667875
 30
0.0
  0
SPLINE
  5
5F7
100
AcDbEntity
  8
0
100
AcDbSpline
 62
7
  6
CONTINUOUS
 70
0
 71
3
 72
11
 73
7
 74
0
 42
0.0000001
 43
0.0000001
 44
0.0000000001
 40
0.0
 40
0.0
 40
0.0
 40
0.0
 40
0.2521771547
 40
0.5029410479
 40
0.7522454868
 40
1.0
 40
1.0
 40
1.0
 40
1.0
 10
7.6943578961
 20
13.1383286935
 30
0.0
 10
7.6964803149
 20
13.1389393416
 30
0.0
 10
7.7007835592
 20
13.1399127195
 30
0.0
 10
7.7072954117
 20
13.1409307758
 30
0.0
 10
7.7138182297
 20
13.1415593314
 30
0.0
 10
7.7181722507
 20
13.1417144564
 30
0.0
 10
7.7203420363
 20
13.1417144564
 30
0.0
  0
SPLINE
  5
5F8
100
AcDbEntity
  8
0
100
AcDbSpline
 62
7
  6
CONTINUOUS
 70
0
 71
3
 72
14
 73
10
 74
0
 42
0.0000001
 43
0.0000001
 44
0.0000000001
 40
0.0
 40
0.0
 40
0.0
 40
0.0
 40
0.102547734
 40
0.2192185244
 40
0.3465755237
 40
0.4808532792
 40
0.7525240096
 40
0.8814552947
 40
1.0
 40
1.0
 40
1.0
 40
1.0
 10
13.6339086197
 20
12.0010037619
 30
0.0
 10
13.6337289169
 20
12.0013699577
 30
0.0
 10
13.6334105287
 20
12.0021852618
 30
0.0
 10
13.6330579935
 20
12.0035200804
 30
0.0
 10
13.6328116242
 20
12.0050067799
 30
0.0
 10
13.6326374914
 20
12.0071224166
 30
0.0
 10
13.6327005083
 20
12.0092595201
 30
0.0
 10
13.633009452
 20
12.011303057
 30
0.0
 10
13.633244557
 20
12.0122611567
 30
0.0
 10
13.6333837794
 20
12.0127116805
 30
0.0
  0
SPLINE
  5
5F9
100
AcDbEntity
  8
0
100
AcDbSpline
 62
7
  6
CONTINUOUS
 70
0
 71
3
 72
15
 73
11
 74
0
 42
0.0000001
 43
0.0000001
 44
0.0000000001
 40
0.0
 40
0.0
 40
0.0
 40
0.0
 40
0.1003710209
 40
0.2122513675
 40
0.3342542175
 40
0.4642564827
 40
0.5992461729
 40
0.7358379374
 40
0.8706712666
 40
1.0
 40
1.0
 40
1.0
 40
1.0
 10
13.914368006
 20
12.7998599085
 30
0.0
 10
13.9147242251
 20
12.7991434497
 30
0.0
 10
13.9156649567
 20
12.797719462
 30
0.0
 10
13.9175196962
 20
12.7957915322
 30
0.0
 10
13.9198302574
 20
12.7940215678
 30
0.0
 10
13.9225081871
 20
12.7924747152
 30
0.0
 10
13.9254542237
 20
12.791204533
 30
0.0
 10
13.9285606983
 20
12.7902605663
 30
0.0
 10
13.9317086799
 20
12.7896796295
 30
0.0
 10
13.9338165458
 20
12.7895420114
 30
0.0
 10
13.9348475119
 20
12.7895450452
 30
0.0
  0
SPLINE
  5
5FA
100
AcDbEntity
  8
0
100
AcDbSpline
 62
7
  6
CONTINUOUS
 70
0
 71
3
 72
13
 73
9
 74
0
 42
0.0000001
 43
0.0000001
 44
0.0000000001
 40
0.0
 40
0.0
 40
0.0
 40
0.0
 40
0.0997408268
 40
0.2030670052
 40
0.3128968848
 40
0.4312700704
 40
0.6969168305
 40
1.0
 40
1.0
 40
1.0
 40
1.0
 10
13.6903347936
 20
13.2012319089
 30
0.0
 10
13.6903981673
 20
13.2014369886
 30
0.0
 10
13.6905777136
 20
13.2018406435
 30
0.0
 10
13.6909880643
 20
13.2023809477
 30
0.0
 10
13.6915291998
 20
13.2028527092
 30
0.0
 10
13.6924459882
 20
13.2033995439
 30
0.0
 10
13.6938748125
 20
13.2038482111
 30
0.0
 10
13.6951023777
 20
13.2039515925
 30
0.0
 10
13.6957546312
 20
13.2039515925
 30
0.0
  0
SPLINE
  5
5FB
100
AcDbEntity
  8
0
100
AcDbSpline
 62
7
  6
CONTINUOUS
 70
0
 71
3
 72
14
 73
10
 74
0
 42
0.0000001
 43
0.0000001
 44
0.0000000001
 40
0.0
 40
0.0
 40
0.0
 40
0.0
 40
0.100401519
 40
0.2122867982
 40
0.3342813316
 40
0.4642790941
 40
0.7355103931
 40
0.8704700738
 40
1.0
 40
1.0
 40
1.0
 40
1.0
 10
13.716020293
 20
13.1987941117
 30
0.0
 10
13.7158427029
 20
13.1991512964
 30
0.0
 10
13.7153740355
 20
13.1998612585
 30
0.0
 10
13.7144503218
 20
13.2008228204
 30
0.0
 10
13.713299525
 20
13.201706212
 30
0.0
 10
13.7114971322
 20
13.2027498739
 30
0.0
 10
13.7094755274
 20
13.2034888722
 30
0.0
 10
13.7073804104
 20
13.2038802599
 30
0.0
 10
13.7063285591
 20
13.2039515925
 30
0.0
 10
13.7058139339
 20
13.2039515925
 30
0.0
  0
SPLINE
  5
5FC
100
AcDbEntity
  8
0
100
AcDbSpline
 62
7
  6
CONTINUOUS
 70
0
 71
3
 72
14
 73
10
 74
0
 42
0.0000001
 43
0.0000001
 44
0.0000000001
 40
0.0
 40
0.0
 40
0.0
 40
0.0
 40
0.1185447901
 40
0.2474761798
 40
0.5191470764
 40
0.6534249996
 40
0.7807821822
 40
0.8974526074
 40
1.0
 40
1.0
 40
1.0
 40
1.0
 10
13.6947878457
 20
12.0127116805
 30
0.0
 10
13.6946486233
 20
12.0122611568
 30
0.0
 10
13.6944135183
 20
12.0113030573
 30
0.0
 10
13.6941045746
 20
12.0092595208
 30
0.0
 10
13.6940415579
 20
12.0071224175
 30
0.0
 10
13.6942156906
 20
12.0050067807
 30
0.0
 10
13.6944620574
 20
12.0035200823
 30
0.0
 10
13.6948145956
 20
12.0021852676
 30
0.0
 10
13.695132988
 20
12.0013699692
 30
0.0
 10
13.6953126901
 20
12.001003775
 30
0.0
  0
SPLINE
  5
5FD
100
AcDbEntity
  8
0
100
AcDbSpline
 62
7
  6
CONTINUOUS
 70
0
 71
3
 72
14
 73
10
 74
0
 42
0.0000001
 43
0.0000001
 44
0.0000000001
 40
0.0
 40
0.0
 40
0.0
 40
0.0
 40
0.102547734
 40
0.2192185244
 40
0.3465755237
 40
0.4808532792
 40
0.7525240096
 40
0.8814552947
 40
1.0
 40
1.0
 40
1.0
 40
1.0
 10
14.0944391167
 20
12.0010037619
 30
0.0
 10
14.0942594139
 20
12.0013699577
 30
0.0
 10
14.0939410257
 20
12.0021852618
 30
0.0
 10
14.0935884905
 20
12.0035200804
 30
0.0
 10
14.0933421212
 20
12.0050067799
 30
0.0
 10
14.0931679884
 20
12.0071224166
 30
0.0
 10
14.0932310053
 20
12.0092595201
 30
0.0
 10
14.093539949
 20
12.011303057
 30
0.0
 10
14.093775054
 20
12.0122611567
 30
0.0
 10
14.0939142764
 20
12.0127116805
 30
0.0
  0
SPLINE
  5
5FE
100
AcDbEntity
  8
0
100
AcDbSpline
 62
7
  6
CONTINUOUS
 70
0
 71
3
 72
15
 73
11
 74
0
 42
0.0000001
 43
0.0000001
 44
0.0000000001
 40
0.0
 40
0.0
 40
0.0
 40
0.0
 40
0.1003710209
 40
0.2122513675
 40
0.3342542175
 40
0.4642564827
 40
0.5992461729
 40
0.7358379374
 40
0.8706712666
 40
1.0
 40
1.0
 40
1.0
 40
1.0
 10
14.374898503
 20
12.7998599085
 30
0.0
 10
14.3752547221
 20
12.7991434497
 30
0.0
 10
14.3761954537
 20
12.797719462
 30
0.0
 10
14.3780501932
 20
12.7957915322
 30
0.0
 10
14.3803607544
 20
12.7940215678
 30
0.0
 10
14.3830386841
 20
12.7924747152
 30
0.0
 10
14.3859847207
 20
12.791204533
 30
0.0
 10
14.3890911953
 20
12.7902605663
 30
0.0
 10
14.3922391769
 20
12.7896796295
 30
0.0
 10
14.3943470428
 20
12.7895420114
 30
0.0
 10
14.3953780089
 20
12.7895450452
 30
0.0
  0
SPLINE
  5
5FF
100
AcDbEntity
  8
0
100
AcDbSpline
 62
7
  6
CONTINUOUS
 70
0
 71
3
 72
13
 73
9
 74
0
 42
0.0000001
 43
0.0000001
 44
0.0000000001
 40
0.0
 40
0.0
 40
0.0
 40
0.0
 40
0.0997408268
 40
0.2030670052
 40
0.3128968848
 40
0.4312700704
 40
0.6969168305
 40
1.0
 40
1.0
 40
1.0
 40
1.0
 10
14.1508652906
 20
13.2012319089
 30
0.0
 10
14.1509286643
 20
13.2014369886
 30
0.0
 10
14.1511082106
 20
13.2018406435
 30
0.0
 10
14.1515185613
 20
13.2023809477
 30
0.0
 10
14.1520596968
 20
13.2028527092
 30
0.0
 10
14.1529764852
 20
13.2033995439
 30
0.0
 10
14.1544053095
 20
13.2038482111
 30
0.0
 10
14.1556328747
 20
13.2039515925
 30
0.0
 10
14.1562851282
 20
13.2039515925
 30
0.0
  0
SPLINE
  5
600
100
AcDbEntity
  8
0
100
AcDbSpline
 62
7
  6
CONTINUOUS
 70
0
 71
3
 72
14
 73
10
 74
0
 42
0.0000001
 43
0.0000001
 44
0.0000000001
 40
0.0
 40
0.0
 40
0.0
 40
0.0
 40
0.100401519
 40
0.2122867982
 40
0.3342813316
 40
0.4642790941
 40
0.7355103931
 40
0.8704700738
 40
1.0
 40
1.0
 40
1.0
 40
1.0
 10
14.17655079
 20
13.1987941117
 30
0.0
 10
14.1763731999
 20
13.1991512964
 30
0.0
 10
14.1759045325
 20
13.1998612585
 30
0.0
 10
14.1749808188
 20
13.2008228204
 30
0.0
 10
14.173830022
 20
13.201706212
 30
0.0
 10
14.1720276292
 20
13.2027498739
 30
0.0
 10
14.1700060244
 20
13.2034888722
 30
0.0
 10
14.1679109074
 20
13.2038802599
 30
0.0
 10
14.1668590561
 20
13.2039515925
 30
0.0
 10
14.1663444309
 20
13.2039515925
 30
0.0
  0
SPLINE
  5
601
100
AcDbEntity
  8
0
100
AcDbSpline
 62
7
  6
CONTINUOUS
 70
0
 71
3
 72
14
 73
10
 74
0
 42
0.0000001
 43
0.0000001
 44
0.0000000001
 40
0.0
 40
0.0
 40
0.0
 40
0.0
 40
0.1185447901
 40
0.2474761798
 40
0.5191470764
 40
0.6534249996
 40
0.7807821822
 40
0.8974526074
 40
1.0
 40
1.0
 40
1.0
 40
1.0
 10
14.1553183427
 20
12.0127116805
 30
0.0
 10
14.1551791203
 20
12.0122611568
 30
0.0
 10
14.1549440153
 20
12.0113030573
 30
0.0
 10
14.1546350716
 20
12.0092595208
 30
0.0
 10
14.1545720549
 20
12.0071224175
 30
0.0
 10
14.1547461876
 20
12.0050067807
 30
0.0
 10
14.1549925544
 20
12.0035200823
 30
0.0
 10
14.1553450926
 20
12.0021852676
 30
0.0
 10
14.155663485
 20
12.0013699692
 30
0.0
 10
14.1558431871
 20
12.001003775
 30
0.0
  0
SPLINE
  5
602
100
AcDbEntity
  8
0
100
AcDbSpline
 62
7
  6
CONTINUOUS
 70
0
 71
3
 72
14
 73
10
 74
0
 42
0.0000001
 43
0.0000001
 44
0.0000000001
 40
0.0
 40
0.0
 40
0.0
 40
0.0
 40
0.102547734
 40
0.2192185244
 40
0.3465755237
 40
0.4808532792
 40
0.7525240096
 40
0.8814552947
 40
1.0
 40
1.0
 40
1.0
 40
1.0
 10
14.5549696138
 20
12.0010037619
 30
0.0
 10
14.5547899109
 20
12.0013699577
 30
0.0
 10
14.5544715227
 20
12.0021852618
 30
0.0
 10
14.5541189875
 20
12.0035200804
 30
0.0
 10
14.5538726182
 20
12.0050067799
 30
0.0
 10
14.5536984854
 20
12.0071224166
 30
0.0
 10
14.5537615023
 20
12.0092595201
 30
0.0
 10
14.554070446
 20
12.011303057
 30
0.0
 10
14.554305551
 20
12.0122611567
 30
0.0
 10
14.5544447734
 20
12.0127116805
 30
0.0
  0
SPLINE
  5
603
100
AcDbEntity
  8
0
100
AcDbSpline
 62
7
  6
CONTINUOUS
 70
0
 71
3
 72
15
 73
11
 74
0
 42
0.0000001
 43
0.0000001
 44
0.0000000001
 40
0.0
 40
0.0
 40
0.0
 40
0.0
 40
0.1003710209
 40
0.2122513675
 40
0.3342542175
 40
0.4642564827
 40
0.5992461729
 40
0.7358379374
 40
0.8706712666
 40
1.0
 40
1.0
 40
1.0
 40
1.0
 10
14.835429
 20
12.7998599085
 30
0.0
 10
14.8357852191
 20
12.7991434497
 30
0.0
 10
14.8367259507
 20
12.797719462
 30
0.0
 10
14.8385806902
 20
12.7957915322
 30
0.0
 10
14.8408912514
 20
12.7940215678
 30
0.0
 10
14.8435691811
 20
12.7924747152
 30
0.0
 10
14.8465152177
 20
12.791204533
 30
0.0
 10
14.8496216923
 20
12.7902605663
 30
0.0
 10
14.8527696739
 20
12.7896796295
 30
0.0
 10
14.8548775398
 20
12.7895420114
 30
0.0
 10
14.8559085059
 20
12.7895450452
 30
0.0
  0
SPLINE
  5
604
100
AcDbEntity
  8
0
100
AcDbSpline
 62
7
  6
CONTINUOUS
 70
0
 71
3
 72
13
 73
9
 74
0
 42
0.0000001
 43
0.0000001
 44
0.0000000001
 40
0.0
 40
0.0
 40
0.0
 40
0.0
 40
0.0997408268
 40
0.2030670052
 40
0.3128968848
 40
0.4312700704
 40
0.6969168305
 40
1.0
 40
1.0
 40
1.0
 40
1.0
 10
14.6113957876
 20
13.2012319089
 30
0.0
 10
14.6114591613
 20
13.2014369886
 30
0.0
 10
14.6116387076
 20
13.2018406435
 30
0.0
 10
14.6120490583
 20
13.2023809477
 30
0.0
 10
14.6125901938
 20
13.2028527092
 30
0.0
 10
14.6135069822
 20
13.2033995439
 30
0.0
 10
14.6149358065
 20
13.2038482111
 30
0.0
 10
14.6161633717
 20
13.2039515925
 30
0.0
 10
14.6168156252
 20
13.2039515925
 30
0.0
  0
SPLINE
  5
605
100
AcDbEntity
  8
0
100
AcDbSpline
 62
7
  6
CONTINUOUS
 70
0
 71
3
 72
14
 73
10
 74
0
 42
0.0000001
 43
0.0000001
 44
0.0000000001
 40
0.0
 40
0.0
 40
0.0
 40
0.0
 40
0.100401519
 40
0.2122867982
 40
0.3342813316
 40
0.4642790941
 40
0.7355103931
 40
0.8704700738
 40
1.0
 40
1.0
 40
1.0
 40
1.0
 10
14.6370812871
 20
13.1987941117
 30
0.0
 10
14.6369036969
 20
13.1991512964
 30
0.0
 10
14.6364350295
 20
13.1998612585
 30
0.0
 10
14.6355113158
 20
13.2008228204
 30
0.0
 10
14.634360519
 20
13.201706212
 30
0.0
 10
14.6325581262
 20
13.2027498739
 30
0.0
 10
14.6305365214
 20
13.2034888722
 30
0.0
 10
14.6284414045
 20
13.2038802599
 30
0.0
 10
14.6273895531
 20
13.2039515925
 30
0.0
 10
14.6268749279
 20
13.2039515925
 30
0.0
  0
SPLINE
  5
606
100
AcDbEntity
  8
0
100
AcDbSpline
 62
7
  6
CONTINUOUS
 70
0
 71
3
 72
14
 73
10
 74
0
 42
0.0000001
 43
0.0000001
 44
0.0000000001
 40
0.0
 40
0.0
 40
0.0
 40
0.0
 40
0.1185447901
 40
0.2474761798
 40
0.5191470764
 40
0.6534249996
 40
0.7807821822
 40
0.8974526074
 40
1.0
 40
1.0
 40
1.0
 40
1.0
 10
14.6158488397
 20
12.0127116805
 30
0.0
 10
14.6157096173
 20
12.0122611568
 30
0.0
 10
14.6154745123
 20
12.0113030573
 30
0.0
 10
14.6151655686
 20
12.0092595208
 30
0.0
 10
14.6151025519
 20
12.0071224175
 30
0.0
 10
14.6152766846
 20
12.0050067807
 30
0.0
 10
14.6155230514
 20
12.0035200823
 30
0.0
 10
14.6158755896
 20
12.0021852676
 30
0.0
 10
14.616193982
 20
12.0013699692
 30
0.0
 10
14.6163736841
 20
12.001003775
 30
0.0
  0
SPLINE
  5
607
100
AcDbEntity
  8
0
100
AcDbSpline
 62
7
  6
CONTINUOUS
 70
0
 71
3
 72
14
 73
10
 74
0
 42
0.0000001
 43
0.0000001
 44
0.0000000001
 40
0.0
 40
0.0
 40
0.0
 40
0.0
 40
0.102547734
 40
0.2192185244
 40
0.3465755237
 40
0.4808532792
 40
0.7525240096
 40
0.8814552947
 40
1.0
 40
1.0
 40
1.0
 40
1.0
 10
15.0155001108
 20
12.0010037619
 30
0.0
 10
15.0153204079
 20
12.0013699577
 30
0.0
 10
15.0150020197
 20
12.0021852618
 30
0.0
 10
15.0146494845
 20
12.0035200804
 30
0.0
 10
15.0144031152
 20
12.0050067799
 30
0.0
 10
15.0142289824
 20
12.0071224166
 30
0.0
 10
15.0142919993
 20
12.0092595201
 30
0.0
 10
15.014600943
 20
12.011303057
 30
0.0
 10
15.014836048
 20
12.0122611567
 30
0.0
 10
15.0149752704
 20
12.0127116805
 30
0.0
  0
SPLINE
  5
608
100
AcDbEntity
  8
0
100
AcDbSpline
 62
7
  6
CONTINUOUS
 70
0
 71
3
 72
15
 73
11
 74
0
 42
0.0000001
 43
0.0000001
 44
0.0000000001
 40
0.0
 40
0.0
 40
0.0
 40
0.0
 40
0.1003710209
 40
0.2122513675
 40
0.3342542175
 40
0.4642564827
 40
0.5992461729
 40
0.7358379374
 40
0.8706712666
 40
1.0
 40
1.0
 40
1.0
 40
1.0
 10
15.295959497
 20
12.7998599085
 30
0.0
 10
15.2963157161
 20
12.7991434497
 30
0.0
 10
15.2972564477
 20
12.797719462
 30
0.0
 10
15.2991111872
 20
12.7957915322
 30
0.0
 10
15.3014217484
 20
12.7940215678
 30
0.0
 10
15.3040996782
 20
12.7924747152
 30
0.0
 10
15.3070457147
 20
12.791204533
 30
0.0
 10
15.3101521893
 20
12.7902605663
 30
0.0
 10
15.3133001709
 20
12.7896796295
 30
0.0
 10
15.3154080368
 20
12.7895420114
 30
0.0
 10
15.3164390029
 20
12.7895450452
 30
0.0
  0
SPLINE
  5
609
100
AcDbEntity
  8
0
100
AcDbSpline
 62
7
  6
CONTINUOUS
 70
0
 71
3
 72
13
 73
9
 74
0
 42
0.0000001
 43
0.0000001
 44
0.0000000001
 40
0.0
 40
0.0
 40
0.0
 40
0.0
 40
0.0997408268
 40
0.2030670052
 40
0.3128968848
 40
0.4312700704
 40
0.6969168305
 40
1.0
 40
1.0
 40
1.0
 40
1.0
 10
15.0719262846
 20
13.2012319089
 30
0.0
 10
15.0719896583
 20
13.2014369886
 30
0.0
 10
15.0721692046
 20
13.2018406435
 30
0.0
 10
15.0725795553
 20
13.2023809477
 30
0.0
 10
15.0731206908
 20
13.2028527092
 30
0.0
 10
15.0740374792
 20
13.2033995439
 30
0.0
 10
15.0754663035
 20
13.2038482111
 30
0.0
 10
15.0766938687
 20
13.2039515925
 30
0.0
 10
15.0773461222
 20
13.2039515925
 30
0.0
  0
SPLINE
  5
60A
100
AcDbEntity
  8
0
100
AcDbSpline
 62
7
  6
CONTINUOUS
 70
0
 71
3
 72
14
 73
10
 74
0
 42
0.0000001
 43
0.0000001
 44
0.0000000001
 40
0.0
 40
0.0
 40
0.0
 40
0.0
 40
0.100401519
 40
0.2122867982
 40
0.3342813316
 40
0.4642790941
 40
0.7355103931
 40
0.8704700738
 40
1.0
 40
1.0
 40
1.0
 40
1.0
 10
15.0976117841
 20
13.1987941117
 30
0.0
 10
15.0974341939
 20
13.1991512964
 30
0.0
 10
15.0969655265
 20
13.1998612585
 30
0.0
 10
15.0960418128
 20
13.2008228204
 30
0.0
 10
15.0948910161
 20
13.201706212
 30
0.0
 10
15.0930886232
 20
13.2027498739
 30
0.0
 10
15.0910670184
 20
13.2034888722
 30
0.0
 10
15.0889719015
 20
13.2038802599
 30
0.0
 10
15.0879200501
 20
13.2039515925
 30
0.0
 10
15.0874054249
 20
13.2039515925
 30
0.0
  0
SPLINE
  5
60B
100
AcDbEntity
  8
0
100
AcDbSpline
 62
7
  6
CONTINUOUS
 70
0
 71
3
 72
14
 73
10
 74
0
 42
0.0000001
 43
0.0000001
 44
0.0000000001
 40
0.0
 40
0.0
 40
0.0
 40
0.0
 40
0.1185447901
 40
0.2474761798
 40
0.5191470764
 40
0.6534249996
 40
0.7807821822
 40
0.8974526074
 40
1.0
 40
1.0
 40
1.0
 40
1.0
 10
15.0763793367
 20
12.0127116805
 30
0.0
 10
15.0762401143
 20
12.0122611568
 30
0.0
 10
15.0760050093
 20
12.0113030573
 30
0.0
 10
15.0756960656
 20
12.0092595208
 30
0.0
 10
15.0756330489
 20
12.0071224175
 30
0.0
 10
15.0758071816
 20
12.0050067807
 30
0.0
 10
15.0760535484
 20
12.0035200823
 30
0.0
 10
15.0764060866
 20
12.0021852676
 30
0.0
 10
15.076724479
 20
12.0013699692
 30
0.0
 10
15.0769041811
 20
12.001003775
 30
0.0
  0
SPLINE
  5
60C
100
AcDbEntity
  8
0
100
AcDbSpline
 62
7
  6
CONTINUOUS
 70
0
 71
3
 72
14
 73
10
 74
0
 42
0.0000001
 43
0.0000001
 44
0.0000000001
 40
0.0
 40
0.0
 40
0.0
 40
0.0
 40
0.102547734
 40
0.2192185244
 40
0.3465755237
 40
0.4808532792
 40
0.7525240096
 40
0.8814552947
 40
1.0
 40
1.0
 40
1.0
 40
1.0
 10
15.4760306078
 20
12.0010037619
 30
0.0
 10
15.4758509049
 20
12.0013699577
 30
0.0
 10
15.4755325167
 20
12.0021852618
 30
0.0
 10
15.4751799815
 20
12.0035200804
 30
0.0
 10
15.4749336122
 20
12.0050067799
 30
0.0
 10
15.4747594794
 20
12.0071224166
 30
0.0
 10
15.4748224963
 20
12.0092595201
 30
0.0
 10
15.47513144
 20
12.011303057
 30
0.0
 10
15.475366545
 20
12.0122611567
 30
0.0
 10
15.4755057674
 20
12.0127116805
 30
0.0
  0
SPLINE
  5
60D
100
AcDbEntity
  8
0
100
AcDbSpline
 62
7
  6
CONTINUOUS
 70
0
 71
3
 72
15
 73
11
 74
0
 42
0.0000001
 43
0.0000001
 44
0.0000000001
 40
0.0
 40
0.0
 40
0.0
 40
0.0
 40
0.1003710209
 40
0.2122513675
 40
0.3342542175
 40
0.4642564827
 40
0.5992461729
 40
0.7358379374
 40
0.8706712666
 40
1.0
 40
1.0
 40
1.0
 40
1.0
 10
15.756489994
 20
12.7998599085
 30
0.0
 10
15.7568462131
 20
12.7991434497
 30
0.0
 10
15.7577869447
 20
12.797719462
 30
0.0
 10
15.7596416842
 20
12.7957915322
 30
0.0
 10
15.7619522454
 20
12.7940215678
 30
0.0
 10
15.7646301752
 20
12.7924747152
 30
0.0
 10
15.7675762117
 20
12.791204533
 30
0.0
 10
15.7706826863
 20
12.7902605663
 30
0.0
 10
15.7738306679
 20
12.7896796295
 30
0.0
 10
15.7759385338
 20
12.7895420114
 30
0.0
 10
15.7769694999
 20
12.7895450452
 30
0.0
  0
SPLINE
  5
60E
100
AcDbEntity
  8
0
100
AcDbSpline
 62
7
  6
CONTINUOUS
 70
0
 71
3
 72
13
 73
9
 74
0
 42
0.0000001
 43
0.0000001
 44
0.0000000001
 40
0.0
 40
0.0
 40
0.0
 40
0.0
 40
0.0997408268
 40
0.2030670052
 40
0.3128968848
 40
0.4312700704
 40
0.6969168305
 40
1.0
 40
1.0
 40
1.0
 40
1.0
 10
15.5324567816
 20
13.2012319089
 30
0.0
 10
15.5325201553
 20
13.2014369886
 30
0.0
 10
15.5326997016
 20
13.2018406435
 30
0.0
 10
15.5331100523
 20
13.2023809477
 30
0.0
 10
15.5336511878
 20
13.2028527092
 30
0.0
 10
15.5345679762
 20
13.2033995439
 30
0.0
 10
15.5359968005
 20
13.2038482111
 30
0.0
 10
15.5372243657
 20
13.2039515925
 30
0.0
 10
15.5378766192
 20
13.2039515925
 30
0.0
  0
SPLINE
  5
60F
100
AcDbEntity
  8
0
100
AcDbSpline
 62
7
  6
CONTINUOUS
 70
0
 71
3
 72
14
 73
10
 74
0
 42
0.0000001
 43
0.0000001
 44
0.0000000001
 40
0.0
 40
0.0
 40
0.0
 40
0.0
 40
0.100401519
 40
0.2122867982
 40
0.3342813316
 40
0.4642790941
 40
0.7355103931
 40
0.8704700738
 40
1.0
 40
1.0
 40
1.0
 40
1.0
 10
15.5581422811
 20
13.1987941117
 30
0.0
 10
15.5579646909
 20
13.1991512964
 30
0.0
 10
15.5574960235
 20
13.1998612585
 30
0.0
 10
15.5565723098
 20
13.2008228204
 30
0.0
 10
15.5554215131
 20
13.201706212
 30
0.0
 10
15.5536191202
 20
13.2027498739
 30
0.0
 10
15.5515975154
 20
13.2034888722
 30
0.0
 10
15.5495023985
 20
13.2038802599
 30
0.0
 10
15.5484505471
 20
13.2039515925
 30
0.0
 10
15.5479359219
 20
13.2039515925
 30
0.0
  0
SPLINE
  5
610
100
AcDbEntity
  8
0
100
AcDbSpline
 62
7
  6
CONTINUOUS
 70
0
 71
3
 72
14
 73
10
 74
0
 42
0.0000001
 43
0.0000001
 44
0.0000000001
 40
0.0
 40
0.0
 40
0.0
 40
0.0
 40
0.1185447901
 40
0.2474761798
 40
0.5191470764
 40
0.6534249996
 40
0.7807821822
 40
0.8974526074
 40
1.0
 40
1.0
 40
1.0
 40
1.0
 10
15.5369098337
 20
12.0127116805
 30
0.0
 10
15.5367706113
 20
12.0122611568
 30
0.0
 10
15.5365355063
 20
12.0113030573
 30
0.0
 10
15.5362265626
 20
12.0092595208
 30
0.0
 10
15.5361635459
 20
12.0071224175
 30
0.0
 10
15.5363376786
 20
12.0050067807
 30
0.0
 10
15.5365840454
 20
12.0035200823
 30
0.0
 10
15.5369365836
 20
12.0021852676
 30
0.0
 10
15.537254976
 20
12.0013699692
 30
0.0
 10
15.5374346781
 20
12.001003775
 30
0.0
  0
SPLINE
  5
611
100
AcDbEntity
  8
0
100
AcDbSpline
 62
7
  6
CONTINUOUS
 70
0
 71
3
 72
14
 73
10
 74
0
 42
0.0000001
 43
0.0000001
 44
0.0000000001
 40
0.0
 40
0.0
 40
0.0
 40
0.0
 40
0.102547734
 40
0.2192185244
 40
0.3465755237
 40
0.4808532792
 40
0.7525240096
 40
0.8814552947
 40
1.0
 40
1.0
 40
1.0
 40
1.0
 10
15.9365611048
 20
12.0010037619
 30
0.0
 10
15.9363814019
 20
12.0013699577
 30
0.0
 10
15.9360630137
 20
12.0021852618
 30
0.0
 10
15.9357104785
 20
12.0035200804
 30
0.0
 10
15.9354641092
 20
12.0050067799
 30
0.0
 10
15.9352899764
 20
12.0071224166
 30
0.0
 10
15.9353529933
 20
12.0092595201
 30
0.0
 10
15.935661937
 20
12.011303057
 30
0.0
 10
15.9358970421
 20
12.0122611567
 30
0.0
 10
15.9360362644
 20
12.0127116805
 30
0.0
  0
SPLINE
  5
612
100
AcDbEntity
  8
0
100
AcDbSpline
 62
7
  6
CONTINUOUS
 70
0
 71
3
 72
15
 73
11
 74
0
 42
0.0000001
 43
0.0000001
 44
0.0000000001
 40
0.0
 40
0.0
 40
0.0
 40
0.0
 40
0.1003710209
 40
0.2122513675
 40
0.3342542175
 40
0.4642564827
 40
0.5992461729
 40
0.7358379374
 40
0.8706712666
 40
1.0
 40
1.0
 40
1.0
 40
1.0
 10
16.217020491
 20
12.7998599085
 30
0.0
 10
16.2173767101
 20
12.7991434497
 30
0.0
 10
16.2183174417
 20
12.797719462
 30
0.0
 10
16.2201721812
 20
12.7957915322
 30
0.0
 10
16.2224827424
 20
12.7940215678
 30
0.0
 10
16.2251606722
 20
12.7924747152
 30
0.0
 10
16.2281067087
 20
12.791204533
 30
0.0
 10
16.2312131833
 20
12.7902605663
 30
0.0
 10
16.2343611649
 20
12.7896796295
 30
0.0
 10
16.2364690308
 20
12.7895420114
 30
0.0
 10
16.2374999969
 20
12.7895450452
 30
0.0
  0
SPLINE
  5
613
100
AcDbEntity
  8
0
100
AcDbSpline
 62
7
  6
CONTINUOUS
 70
0
 71
3
 72
13
 73
9
 74
0
 42
0.0000001
 43
0.0000001
 44
0.0000000001
 40
0.0
 40
0.0
 40
0.0
 40
0.0
 40
0.0997408268
 40
0.2030670052
 40
0.3128968848
 40
0.4312700704
 40
0.6969168305
 40
1.0
 40
1.0
 40
1.0
 40
1.0
 10
15.9929872786
 20
13.2012319089
 30
0.0
 10
15.9930506523
 20
13.2014369886
 30
0.0
 10
15.9932301986
 20
13.2018406435
 30
0.0
 10
15.9936405493
 20
13.2023809477
 30
0.0
 10
15.9941816848
 20
13.2028527092
 30
0.0
 10
15.9950984732
 20
13.2033995439
 30
0.0
 10
15.9965272975
 20
13.2038482111
 30
0.0
 10
15.9977548627
 20
13.2039515925
 30
0.0
 10
15.9984071162
 20
13.2039515925
 30
0.0
  0
SPLINE
  5
614
100
AcDbEntity
  8
0
100
AcDbSpline
 62
7
  6
CONTINUOUS
 70
0
 71
3
 72
14
 73
10
 74
0
 42
0.0000001
 43
0.0000001
 44
0.0000000001
 40
0.0
 40
0.0
 40
0.0
 40
0.0
 40
0.100401519
 40
0.2122867982
 40
0.3342813316
 40
0.4642790941
 40
0.7355103931
 40
0.8704700738
 40
1.0
 40
1.0
 40
1.0
 40
1.0
 10
16.0186727781
 20
13.1987941117
 30
0.0
 10
16.0184951879
 20
13.1991512964
 30
0.0
 10
16.0180265205
 20
13.1998612585
 30
0.0
 10
16.0171028068
 20
13.2008228204
 30
0.0
 10
16.0159520101
 20
13.201706212
 30
0.0
 10
16.0141496172
 20
13.2027498739
 30
0.0
 10
16.0121280124
 20
13.2034888722
 30
0.0
 10
16.0100328955
 20
13.2038802599
 30
0.0
 10
16.0089810441
 20
13.2039515925
 30
0.0
 10
16.0084664189
 20
13.2039515925
 30
0.0
  0
SPLINE
  5
615
100
AcDbEntity
  8
0
100
AcDbSpline
 62
7
  6
CONTINUOUS
 70
0
 71
3
 72
14
 73
10
 74
0
 42
0.0000001
 43
0.0000001
 44
0.0000000001
 40
0.0
 40
0.0
 40
0.0
 40
0.0
 40
0.1185447901
 40
0.2474761798
 40
0.5191470764
 40
0.6534249996
 40
0.7807821822
 40
0.8974526074
 40
1.0
 40
1.0
 40
1.0
 40
1.0
 10
15.9974403307
 20
12.0127116805
 30
0.0
 10
15.9973011083
 20
12.0122611568
 30
0.0
 10
15.9970660033
 20
12.0113030573
 30
0.0
 10
15.9967570596
 20
12.0092595208
 30
0.0
 10
15.9966940429
 20
12.0071224175
 30
0.0
 10
15.9968681756
 20
12.0050067807
 30
0.0
 10
15.9971145424
 20
12.0035200823
 30
0.0
 10
15.9974670806
 20
12.0021852676
 30
0.0
 10
15.997785473
 20
12.0013699692
 30
0.0
 10
15.9979651751
 20
12.001003775
 30
0.0
  0
SPLINE
  5
616
100
AcDbEntity
  8
0
100
AcDbSpline
 62
7
  6
CONTINUOUS
 70
0
 71
3
 72
20
 73
16
 74
0
 42
0.0000001
 43
0.0000001
 44
0.0000000001
 40
0.0
 40
0.0
 40
0.0
 40
0.0
 40
0.0714635135
 40
0.1452707746
 40
0.2964296691
 40
0.4471878868
 40
0.5911431813
 40
0.6587250193
 40
0.7224135364
 40
0.7815922771
 40
0.8357487702
 40
0.8845062056
 40
0.9278150473
 40
0.9659619451
 40
1.0
 40
1.0
 40
1.0
 40
1.0
 10
13.9603163704
 20
11.9715211692
 30
0.0
 10
13.9582499432
 20
11.9728547413
 30
0.0
 10
13.9539403367
 20
11.9754001612
 30
0.0
 10
13.9447996457
 20
11.9799447071
 30
0.0
 10
13.9326442927
 20
11.9844810879
 30
0.0
 10
13.9176461267
 20
11.987916107
 30
0.0
 10
13.9051750963
 20
11.9890088625
 30
0.0
 10
13.8956987124
 20
11.9887058957
 30
0.0
 10
13.8891810548
 20
11.9879324237
 30
0.0
 10
13.8832173863
 20
11.9866383902
 30
0.0
 10
13.8779128893
 20
11.9848718232
 30
0.0
 10
13.8733604308
 20
11.9826931694
 30
0.0
 10
13.8696191006
 20
11.9801941329
 30
0.0
 10
13.8667099576
 20
11.9774566409
 30
0.0
 10
13.8652461686
 20
11.9754253415
 30
0.0
 10
13.8646675598
 20
11.9744068172
 30
0.0
  0
SPLINE
  5
617
100
AcDbEntity
  8
0
100
AcDbSpline
 62
7
  6
CONTINUOUS
 70
0
 71
3
 72
9
 73
5
 74
0
 42
0.0000001
 43
0.0000001
 44
0.0000000001
 40
0.0
 40
0.0
 40
0.0
 40
0.0
 40
0.5257522719
 40
1.0
 40
1.0
 40
1.0
 40
1.0
 10
13.5468573903
 20
12.0078234277
 30
0.0
 10
13.5468468399
 20
12.0086871713
 30
0.0
 10
13.5469195333
 20
12.0103323442
 30
0.0
 10
13.5471977615
 20
12.0119589485
 30
0.0
 10
13.5473994391
 20
12.0127115823
 30
0.0
  0
SPLINE
  5
618
100
AcDbEntity
  8
0
100
AcDbSpline
 62
7
  6
CONTINUOUS
 70
0
 71
3
 72
13
 73
9
 74
0
 42
0.0000001
 43
0.0000001
 44
0.0000000001
 40
0.0
 40
0.0
 40
0.0
 40
0.0
 40
0.3065667038
 40
0.5922548206
 40
0.7203077134
 40
0.8339031089
 40
0.9286847767
 40
1.0
 40
1.0
 40
1.0
 40
1.0
 10
13.7475153337
 20
11.9544968355
 30
0.0
 10
13.747511427
 20
11.9554618922
 30
0.0
 10
13.7474260299
 20
11.9573267861
 30
0.0
 10
13.7471274307
 20
11.9595782863
 30
0.0
 10
13.7467801973
 20
11.961202315
 30
0.0
 10
13.746501972
 20
11.9622249208
 30
0.0
 10
13.7462154217
 20
11.9630580494
 30
0.0
 10
13.7460108865
 20
11.9635400424
 30
0.0
 10
13.7459119853
 20
11.9637415819
 30
0.0
  0
SPLINE
  5
619
100
AcDbEntity
  8
0
100
AcDbSpline
 62
7
  6
CONTINUOUS
 70
0
 71
3
 72
11
 73
7
 74
0
 42
0.0000001
 43
0.0000001
 44
0.0000000001
 40
0.0
 40
0.0
 40
0.0
 40
0.0
 40
0.2407342138
 40
0.486210593
 40
0.7386472872
 40
1.0
 40
1.0
 40
1.0
 40
1.0
 10
14.1472087624
 20
11.9700132368
 30
0.0
 10
14.1458080004
 20
11.9669631755
 30
0.0
 10
14.1425023891
 20
11.9610107755
 30
0.0
 10
14.1362239631
 20
11.9528061984
 30
0.0
 10
14.1286846037
 20
11.9453330206
 30
0.0
 10
14.1229886728
 20
11.9409563583
 30
0.0
 10
14.1199798469
 20
11.9389010551
 30
0.0
  0
SPLINE
  5
61A
100
AcDbEntity
  8
0
100
AcDbSpline
 62
7
  6
CONTINUOUS
 70
0
 71
3
 72
9
 73
5
 74
0
 42
0.0000001
 43
0.0000001
 44
0.0000000001
 40
0.0
 40
0.0
 40
0.0
 40
0.0
 40
0.2543911695
 40
1.0
 40
1.0
 40
1.0
 40
1.0
 10
14.0061122205
 20
12.2244474032
 30
0.0
 10
14.0039319605
 20
12.2247135208
 30
0.0
 10
13.9953469862
 20
12.2256353291
 30
0.0
 10
13.9867064753
 20
12.2260575533
 30
0.0
 10
13.9802688081
 20
12.2260575533
 30
0.0
  0
SPLINE
  5
61B
100
AcDbEntity
  8
0
100
AcDbSpline
 62
7
  6
CONTINUOUS
 70
0
 71
3
 72
19
 73
15
 74
0
 42
0.0000001
 43
0.0000001
 44
0.0000000001
 40
0.0
 40
0.0
 40
0.0
 40
0.0
 40
0.043255891
 40
0.0876720738
 40
0.134264785
 40
0.1838104518
 40
0.2368119965
 40
0.2935122549
 40
0.3539277186
 40
0.417891925
 40
0.5549613414
 40
0.7010384827
 40
0.8511835634
 40
1.0
 40
1.0
 40
1.0
 40
1.0
 10
13.4873079644
 20
12.1739530708
 30
0.0
 10
13.4876805107
 20
12.175157674
 30
0.0
 10
13.4886890732
 20
12.1775283484
 30
0.0
 10
13.4909185904
 20
12.180773029
 30
0.0
 10
13.4938325289
 20
12.1836830493
 30
0.0
 10
13.497382746
 20
12.1862213692
 30
0.0
 10
13.5015178328
 20
12.1883609867
 30
0.0
 10
13.5061822923
 20
12.190076842
 30
0.0
 10
13.5113144343
 20
12.1913506521
 30
0.0
 10
13.5188640449
 20
12.192461898
 30
0.0
 10
13.5290294527
 20
12.1926009299
 30
0.0
 10
13.5415874995
 20
12.1909276668
 30
0.0
 10
13.5541380109
 20
12.1875055075
 30
0.0
 10
13.5622017109
 20
12.1841185354
 30
0.0
 10
13.566072277
 20
12.1821598194
 30
0.0
  0
SPLINE
  5
61C
100
AcDbEntity
  8
0
100
AcDbSpline
 62
7
  6
CONTINUOUS
 70
0
 71
3
 72
11
 73
7
 74
0
 42
0.0000001
 43
0.0000001
 44
0.0000000001
 40
0.0
 40
0.0
 40
0.0
 40
0.0
 40
0.2280761198
 40
0.483446324
 40
0.7469628066
 40
1.0
 40
1.0
 40
1.0
 40
1.0
 10
14.0349473368
 20
11.91556674
 30
0.0
 10
14.0342016258
 20
11.91556674
 30
0.0
 10
14.0326188935
 20
11.9153883562
 30
0.0
 10
14.0302701204
 20
11.9146766129
 30
0.0
 10
14.0280055461
 20
11.9135352893
 30
0.0
 10
14.0266423267
 20
11.9125197955
 30
0.0
 10
14.0260303974
 20
11.9119630138
 30
0.0
  0
LINE
  5
61D
100
AcDbEntity
  8
0
100
AcDbLine
 62
7
  6
CONTINUOUS
 10
14.0260303974
 20
11.9119630138
 11
14.0245758411
 21
11.9103658773
  0
SPLINE
  5
61E
100
AcDbEntity
  8
0
100
AcDbSpline
 62
7
  6
CONTINUOUS
 70
0
 71
3
 72
10
 73
6
 74
0
 42
0.0000001
 43
0.0000001
 44
0.0000000001
 40
0.0
 40
0.0
 40
0.0
 40
0.0
 40
0.5218832769
 40
0.7713026939
 40
1.0
 40
1.0
 40
1.0
 40
1.0
 10
13.9039578308
 20
12.2260566685
 30
0.0
 10
13.9038659686
 20
12.2272459552
 30
0.0
 10
13.9038781196
 20
12.2290202802
 30
0.0
 10
13.9041882194
 20
12.2312866655
 30
0.0
 10
13.9044430409
 20
12.2323522877
 30
0.0
 10
13.9045973714
 20
12.2328517017
 30
0.0
  0
LINE
  5
61F
100
AcDbEntity
  8
0
100
AcDbLine
 62
7
  6
CONTINUOUS
 10
13.5548187433
 20
12.0051502955
 11
13.5468574422
 21
12.0078241224
  0
SPLINE
  5
620
100
AcDbEntity
  8
0
100
AcDbSpline
 62
7
  6
CONTINUOUS
 70
0
 71
3
 72
14
 73
10
 74
0
 42
0.0000001
 43
0.0000001
 44
0.0000000001
 40
0.0
 40
0.0
 40
0.0
 40
0.0
 40
0.2646908792
 40
0.3922894413
 40
0.5171998
 40
0.6398462935
 40
0.7607528128
 40
0.880563191
 40
1.0
 40
1.0
 40
1.0
 40
1.0
 10
13.396250453
 20
12.1476468245
 30
0.0
 10
13.3943689915
 20
12.1514808401
 30
0.0
 10
13.3919842369
 20
12.1573829427
 30
0.0
 10
13.3898836678
 20
12.1654680867
 30
0.0
 10
13.3889000098
 20
12.1714501649
 30
0.0
 10
13.3885011676
 20
12.1773914128
 30
0.0
 10
13.3887013583
 20
12.1832614428
 30
0.0
 10
13.38950672
 20
12.1890268457
 30
0.0
 10
13.3904476229
 20
12.1927797603
 30
0.0
 10
13.3910165972
 20
12.1946209616
 30
0.0
  0
SPLINE
  5
621
100
AcDbEntity
  8
0
100
AcDbSpline
 62
7
  6
CONTINUOUS
 70
0
 71
3
 72
15
 73
11
 74
0
 42
0.0000001
 43
0.0000001
 44
0.0000000001
 40
0.0
 40
0.0
 40
0.0
 40
0.0
 40
0.132716819
 40
0.2656517644
 40
0.3974852842
 40
0.5269487831
 40
0.6528596263
 40
0.7741653193
 40
0.8900787835
 40
1.0
 40
1.0
 40
1.0
 40
1.0
 10
13.5549937176
 20
12.0409673674
 30
0.0
 10
13.5477018174
 20
12.0425678849
 30
0.0
 10
13.533217122
 20
12.0463026121
 30
0.0
 10
13.5120016943
 20
12.0534186639
 30
0.0
 10
13.4915180901
 20
12.0619668973
 30
0.0
 10
13.4720714371
 20
12.0718226074
 30
0.0
 10
13.4539496909
 20
12.0828458159
 30
0.0
 10
13.4374142504
 20
12.0948825282
 30
0.0
 10
13.4227099997
 20
12.1077728549
 30
0.0
 10
13.4140282116
 20
12.1170868345
 30
0.0
 10
13.4100842361
 20
12.1218488793
 30
0.0
  0
SPLINE
  5
622
100
AcDbEntity
  8
0
100
AcDbSpline
 62
7
  6
CONTINUOUS
 70
0
 71
3
 72
13
 73
9
 74
0
 42
0.0000001
 43
0.0000001
 44
0.0000000001
 40
0.0
 40
0.0
 40
0.0
 40
0.0
 40
0.3316761279
 40
0.6056751872
 40
0.7206378
 40
0.8224620443
 40
0.9140797662
 40
1.0
 40
1.0
 40
1.0
 40
1.0
 10
13.8990377234
 20
12.222904303
 30
0.0
 10
13.8991775801
 20
12.2233568795
 30
0.0
 10
13.8994818404
 20
12.2241693237
 30
0.0
 10
13.9000059153
 20
12.2250665563
 30
0.0
 10
13.90048183
 20
12.2255849376
 30
0.0
 10
13.9008349138
 20
12.2258532722
 30
0.0
 10
13.9012022757
 20
12.2260188239
 30
0.0
 10
13.9014570297
 20
12.2260572219
 30
0.0
 10
13.9015797392
 20
12.2260573541
 30
0.0
  0
SPLINE
  5
623
100
AcDbEntity
  8
0
100
AcDbSpline
 62
7
  6
CONTINUOUS
 70
0
 71
3
 72
11
 73
7
 74
0
 42
0.0000001
 43
0.0000001
 44
0.0000000001
 40
0.0
 40
0.0
 40
0.0
 40
0.0
 40
0.2714249872
 40
0.5255537263
 40
0.7663388501
 40
1.0
 40
1.0
 40
1.0
 40
1.0
 10
13.4892546945
 20
12.1572224889
 30
0.0
 10
13.4885677848
 20
12.1586222636
 30
0.0
 10
13.4874287517
 20
12.161433917
 30
0.0
 10
13.4864820661
 20
12.16575769
 30
0.0
 10
13.4863910086
 20
12.1699698663
 30
0.0
 10
13.4869113677
 20
12.1726707021
 30
0.0
 10
13.4873079644
 20
12.1739530708
 30
0.0
  0
SPLINE
  5
624
100
AcDbEntity
  8
0
100
AcDbSpline
 62
7
  6
CONTINUOUS
 70
0
 71
3
 72
20
 73
16
 74
0
 42
0.0000001
 43
0.0000001
 44
0.0000000001
 40
0.0
 40
0.0
 40
0.0
 40
0.0
 40
0.0552020653
 40
0.1138916015
 40
0.1757519572
 40
0.2403365639
 40
0.3753131295
 40
0.5137934795
 40
0.6501961504
 40
0.715979343
 40
0.7793140359
 40
0.8396850502
 40
0.8967251063
 40
0.9502076467
 40
1.0
 40
1.0
 40
1.0
 40
1.0
 10
13.5776281439
 20
12.1247568497
 30
0.0
 10
13.5758731456
 20
12.1241777335
 30
0.0
 10
13.5721770432
 20
12.123203418
 30
0.0
 10
13.566353985
 20
12.1223013402
 30
0.0
 10
13.5601591444
 20
12.1219218398
 30
0.0
 10
13.5514012189
 20
12.1221257902
 30
0.0
 10
13.540150957
 20
12.1237246418
 30
0.0
 10
13.5269320301
 20
12.1275525924
 30
0.0
 10
13.51648265
 20
12.1322324779
 30
0.0
 10
13.5088298592
 20
12.1367702521
 30
0.0
 10
13.5036459774
 20
12.1404403127
 30
0.0
 10
13.4990272615
 20
12.1443627293
 30
0.0
 10
13.4950408063
 20
12.1484812445
 30
0.0
 10
13.4917503522
 20
12.15273578
 30
0.0
 10
13.489989066
 20
12.1557259972
 30
0.0
 10
13.4892546945
 20
12.1572224889
 30
0.0
  0
SPLINE
  5
625
100
AcDbEntity
  8
0
100
AcDbSpline
 62
7
  6
CONTINUOUS
 70
0
 71
3
 72
9
 73
5
 74
0
 42
0.0000001
 43
0.0000001
 44
0.0000000001
 40
0.0
 40
0.0
 40
0.0
 40
0.0
 40
0.5041544929
 40
1.0
 40
1.0
 40
1.0
 40
1.0
 10
13.5720163399
 20
12.001003775
 30
0.0
 10
13.5690929733
 20
12.0015493119
 30
0.0
 10
13.5633258305
 20
12.0028014885
 30
0.0
 10
13.5576225753
 20
12.0043177663
 30
0.0
 10
13.5548187433
 20
12.0051502955
 30
0.0
  0
SPLINE
  5
626
100
AcDbEntity
  8
0
100
AcDbSpline
 62
7
  6
CONTINUOUS
 70
0
 71
3
 72
14
 73
10
 74
0
 42
0.0000001
 43
0.0000001
 44
0.0000000001
 40
0.0
 40
0.0
 40
0.0
 40
0.0
 40
0.102547734
 40
0.2192185244
 40
0.3465755237
 40
0.4808532792
 40
0.7525240096
 40
0.8814552947
 40
1.0
 40
1.0
 40
1.0
 40
1.0
 10
16.3970916018
 20
12.0010037619
 30
0.0
 10
16.3969118989
 20
12.0013699577
 30
0.0
 10
16.3965935107
 20
12.0021852618
 30
0.0
 10
16.3962409755
 20
12.0035200804
 30
0.0
 10
16.3959946062
 20
12.0050067799
 30
0.0
 10
16.3958204734
 20
12.0071224166
 30
0.0
 10
16.3958834903
 20
12.0092595201
 30
0.0
 10
16.396192434
 20
12.011303057
 30
0.0
 10
16.3964275391
 20
12.0122611567
 30
0.0
 10
16.3965667614
 20
12.0127116805
 30
0.0
  0
SPLINE
  5
627
100
AcDbEntity
  8
0
100
AcDbSpline
 62
7
  6
CONTINUOUS
 70
0
 71
3
 72
15
 73
11
 74
0
 42
0.0000001
 43
0.0000001
 44
0.0000000001
 40
0.0
 40
0.0
 40
0.0
 40
0.0
 40
0.1003710209
 40
0.2122513675
 40
0.3342542175
 40
0.4642564827
 40
0.5992461729
 40
0.7358379374
 40
0.8706712666
 40
1.0
 40
1.0
 40
1.0
 40
1.0
 10
16.677550988
 20
12.7998599085
 30
0.0
 10
16.6779072071
 20
12.7991434497
 30
0.0
 10
16.6788479387
 20
12.797719462
 30
0.0
 10
16.6807026782
 20
12.7957915322
 30
0.0
 10
16.6830132394
 20
12.7940215678
 30
0.0
 10
16.6856911692
 20
12.7924747152
 30
0.0
 10
16.6886372057
 20
12.791204533
 30
0.0
 10
16.6917436803
 20
12.7902605663
 30
0.0
 10
16.6948916619
 20
12.7896796295
 30
0.0
 10
16.6969995278
 20
12.7895420114
 30
0.0
 10
16.6980304939
 20
12.7895450452
 30
0.0
  0
SPLINE
  5
628
100
AcDbEntity
  8
0
100
AcDbSpline
 62
7
  6
CONTINUOUS
 70
0
 71
3
 72
13
 73
9
 74
0
 42
0.0000001
 43
0.0000001
 44
0.0000000001
 40
0.0
 40
0.0
 40
0.0
 40
0.0
 40
0.0997408268
 40
0.2030670052
 40
0.3128968848
 40
0.4312700704
 40
0.6969168305
 40
1.0
 40
1.0
 40
1.0
 40
1.0
 10
16.4535177756
 20
13.2012319089
 30
0.0
 10
16.4535811493
 20
13.2014369886
 30
0.0
 10
16.4537606956
 20
13.2018406435
 30
0.0
 10
16.4541710463
 20
13.2023809477
 30
0.0
 10
16.4547121818
 20
13.2028527092
 30
0.0
 10
16.4556289702
 20
13.2033995439
 30
0.0
 10
16.4570577945
 20
13.2038482111
 30
0.0
 10
16.4582853597
 20
13.2039515925
 30
0.0
 10
16.4589376132
 20
13.2039515925
 30
0.0
  0
SPLINE
  5
629
100
AcDbEntity
  8
0
100
AcDbSpline
 62
7
  6
CONTINUOUS
 70
0
 71
3
 72
14
 73
10
 74
0
 42
0.0000001
 43
0.0000001
 44
0.0000000001
 40
0.0
 40
0.0
 40
0.0
 40
0.0
 40
0.100401519
 40
0.2122867982
 40
0.3342813316
 40
0.4642790941
 40
0.7355103931
 40
0.8704700738
 40
1.0
 40
1.0
 40
1.0
 40
1.0
 10
16.4792032751
 20
13.1987941117
 30
0.0
 10
16.4790256849
 20
13.1991512964
 30
0.0
 10
16.4785570175
 20
13.1998612585
 30
0.0
 10
16.4776333038
 20
13.2008228204
 30
0.0
 10
16.4764825071
 20
13.201706212
 30
0.0
 10
16.4746801142
 20
13.2027498739
 30
0.0
 10
16.4726585094
 20
13.2034888722
 30
0.0
 10
16.4705633925
 20
13.2038802599
 30
0.0
 10
16.4695115411
 20
13.2039515925
 30
0.0
 10
16.4689969159
 20
13.2039515925
 30
0.0
  0
SPLINE
  5
62A
100
AcDbEntity
  8
0
100
AcDbSpline
 62
7
  6
CONTINUOUS
 70
0
 71
3
 72
14
 73
10
 74
0
 42
0.0000001
 43
0.0000001
 44
0.0000000001
 40
0.0
 40
0.0
 40
0.0
 40
0.0
 40
0.1185447901
 40
0.2474761798
 40
0.5191470764
 40
0.6534249996
 40
0.7807821822
 40
0.8974526074
 40
1.0
 40
1.0
 40
1.0
 40
1.0
 10
16.4579708277
 20
12.0127116805
 30
0.0
 10
16.4578316053
 20
12.0122611568
 30
0.0
 10
16.4575965003
 20
12.0113030573
 30
0.0
 10
16.4572875566
 20
12.0092595208
 30
0.0
 10
16.4572245399
 20
12.0071224175
 30
0.0
 10
16.4573986726
 20
12.0050067807
 30
0.0
 10
16.4576450394
 20
12.0035200823
 30
0.0
 10
16.4579975776
 20
12.0021852676
 30
0.0
 10
16.45831597
 20
12.0013699692
 30
0.0
 10
16.4584956721
 20
12.001003775
 30
0.0
  0
SPLINE
  5
62B
100
AcDbEntity
  8
0
100
AcDbSpline
 62
7
  6
CONTINUOUS
 70
0
 71
3
 72
14
 73
10
 74
0
 42
0.0000001
 43
0.0000001
 44
0.0000000001
 40
0.0
 40
0.0
 40
0.0
 40
0.0
 40
0.102547734
 40
0.2192185244
 40
0.3465755237
 40
0.4808532792
 40
0.7525240096
 40
0.8814552947
 40
1.0
 40
1.0
 40
1.0
 40
1.0
 10
16.8576220988
 20
12.0010037619
 30
0.0
 10
16.8574423959
 20
12.0013699577
 30
0.0
 10
16.8571240077
 20
12.0021852618
 30
0.0
 10
16.8567714725
 20
12.0035200804
 30
0.0
 10
16.8565251032
 20
12.0050067799
 30
0.0
 10
16.8563509704
 20
12.0071224166
 30
0.0
 10
16.8564139873
 20
12.0092595201
 30
0.0
 10
16.856722931
 20
12.011303057
 30
0.0
 10
16.8569580361
 20
12.0122611567
 30
0.0
 10
16.8570972584
 20
12.0127116805
 30
0.0
  0
SPLINE
  5
62C
100
AcDbEntity
  8
0
100
AcDbSpline
 62
7
  6
CONTINUOUS
 70
0
 71
3
 72
15
 73
11
 74
0
 42
0.0000001
 43
0.0000001
 44
0.0000000001
 40
0.0
 40
0.0
 40
0.0
 40
0.0
 40
0.1003710209
 40
0.2122513675
 40
0.3342542175
 40
0.4642564827
 40
0.5992461729
 40
0.7358379374
 40
0.8706712666
 40
1.0
 40
1.0
 40
1.0
 40
1.0
 10
17.138081485
 20
12.7998599085
 30
0.0
 10
17.1384377041
 20
12.7991434497
 30
0.0
 10
17.1393784357
 20
12.797719462
 30
0.0
 10
17.1412331752
 20
12.7957915322
 30
0.0
 10
17.1435437364
 20
12.7940215678
 30
0.0
 10
17.1462216662
 20
12.7924747152
 30
0.0
 10
17.1491677027
 20
12.791204533
 30
0.0
 10
17.1522741773
 20
12.7902605663
 30
0.0
 10
17.1554221589
 20
12.7896796295
 30
0.0
 10
17.1575300248
 20
12.7895420114
 30
0.0
 10
17.1585609909
 20
12.7895450452
 30
0.0
  0
SPLINE
  5
62D
100
AcDbEntity
  8
0
100
AcDbSpline
 62
7
  6
CONTINUOUS
 70
0
 71
3
 72
13
 73
9
 74
0
 42
0.0000001
 43
0.0000001
 44
0.0000000001
 40
0.0
 40
0.0
 40
0.0
 40
0.0
 40
0.0997408268
 40
0.2030670052
 40
0.3128968848
 40
0.4312700704
 40
0.6969168305
 40
1.0
 40
1.0
 40
1.0
 40
1.0
 10
16.9140482726
 20
13.2012319089
 30
0.0
 10
16.9141116463
 20
13.2014369886
 30
0.0
 10
16.9142911926
 20
13.2018406435
 30
0.0
 10
16.9147015433
 20
13.2023809477
 30
0.0
 10
16.9152426788
 20
13.2028527092
 30
0.0
 10
16.9161594672
 20
13.2033995439
 30
0.0
 10
16.9175882915
 20
13.2038482111
 30
0.0
 10
16.9188158567
 20
13.2039515925
 30
0.0
 10
16.9194681102
 20
13.2039515925
 30
0.0
  0
SPLINE
  5
62E
100
AcDbEntity
  8
0
100
AcDbSpline
 62
7
  6
CONTINUOUS
 70
0
 71
3
 72
14
 73
10
 74
0
 42
0.0000001
 43
0.0000001
 44
0.0000000001
 40
0.0
 40
0.0
 40
0.0
 40
0.0
 40
0.100401519
 40
0.2122867982
 40
0.3342813316
 40
0.4642790941
 40
0.7355103931
 40
0.8704700738
 40
1.0
 40
1.0
 40
1.0
 40
1.0
 10
16.9397337721
 20
13.1987941117
 30
0.0
 10
16.9395561819
 20
13.1991512964
 30
0.0
 10
16.9390875145
 20
13.1998612585
 30
0.0
 10
16.9381638008
 20
13.2008228204
 30
0.0
 10
16.9370130041
 20
13.201706212
 30
0.0
 10
16.9352106112
 20
13.2027498739
 30
0.0
 10
16.9331890064
 20
13.2034888722
 30
0.0
 10
16.9310938895
 20
13.2038802599
 30
0.0
 10
16.9300420381
 20
13.2039515925
 30
0.0
 10
16.9295274129
 20
13.2039515925
 30
0.0
  0
SPLINE
  5
62F
100
AcDbEntity
  8
0
100
AcDbSpline
 62
7
  6
CONTINUOUS
 70
0
 71
3
 72
14
 73
10
 74
0
 42
0.0000001
 43
0.0000001
 44
0.0000000001
 40
0.0
 40
0.0
 40
0.0
 40
0.0
 40
0.1185447901
 40
0.2474761798
 40
0.5191470764
 40
0.6534249996
 40
0.7807821822
 40
0.8974526074
 40
1.0
 40
1.0
 40
1.0
 40
1.0
 10
16.9185013247
 20
12.0127116805
 30
0.0
 10
16.9183621023
 20
12.0122611568
 30
0.0
 10
16.9181269973
 20
12.0113030573
 30
0.0
 10
16.9178180536
 20
12.0092595208
 30
0.0
 10
16.9177550369
 20
12.0071224175
 30
0.0
 10
16.9179291696
 20
12.0050067807
 30
0.0
 10
16.9181755364
 20
12.0035200823
 30
0.0
 10
16.9185280746
 20
12.0021852676
 30
0.0
 10
16.918846467
 20
12.0013699692
 30
0.0
 10
16.9190261691
 20
12.001003775
 30
0.0
  0
SPLINE
  5
630
100
AcDbEntity
  8
0
100
AcDbSpline
 62
7
  6
CONTINUOUS
 70
0
 71
3
 72
20
 73
16
 74
0
 42
0.0000001
 43
0.0000001
 44
0.0000000001
 40
0.0
 40
0.0
 40
0.0
 40
0.0
 40
0.0714635135
 40
0.1452707746
 40
0.2964296691
 40
0.4471878868
 40
0.5911431813
 40
0.6587250193
 40
0.7224135364
 40
0.7815922771
 40
0.8357487702
 40
0.8845062056
 40
0.9278150473
 40
0.9659619451
 40
1.0
 40
1.0
 40
1.0
 40
1.0
 10
14.4208468674
 20
11.9715211692
 30
0.0
 10
14.4187804402
 20
11.9728547413
 30
0.0
 10
14.4144708337
 20
11.9754001612
 30
0.0
 10
14.4053301427
 20
11.9799447071
 30
0.0
 10
14.3931747897
 20
11.9844810879
 30
0.0
 10
14.3781766237
 20
11.987916107
 30
0.0
 10
14.3657055934
 20
11.9890088625
 30
0.0
 10
14.3562292094
 20
11.9887058957
 30
0.0
 10
14.3497115518
 20
11.9879324237
 30
0.0
 10
14.3437478833
 20
11.9866383902
 30
0.0
 10
14.3384433863
 20
11.9848718232
 30
0.0
 10
14.3338909278
 20
11.9826931694
 30
0.0
 10
14.3301495976
 20
11.9801941329
 30
0.0
 10
14.3272404546
 20
11.9774566409
 30
0.0
 10
14.3257766656
 20
11.9754253415
 30
0.0
 10
14.3251980568
 20
11.9744068172
 30
0.0
  0
SPLINE
  5
631
100
AcDbEntity
  8
0
100
AcDbSpline
 62
7
  6
CONTINUOUS
 70
0
 71
3
 72
9
 73
5
 74
0
 42
0.0000001
 43
0.0000001
 44
0.0000000001
 40
0.0
 40
0.0
 40
0.0
 40
0.0
 40
0.5257522719
 40
1.0
 40
1.0
 40
1.0
 40
1.0
 10
14.0073878873
 20
12.0078234277
 30
0.0
 10
14.0073773369
 20
12.0086871713
 30
0.0
 10
14.0074500303
 20
12.0103323442
 30
0.0
 10
14.0077282585
 20
12.0119589485
 30
0.0
 10
14.0079299361
 20
12.0127115823
 30
0.0
  0
SPLINE
  5
632
100
AcDbEntity
  8
0
100
AcDbSpline
 62
7
  6
CONTINUOUS
 70
0
 71
3
 72
13
 73
9
 74
0
 42
0.0000001
 43
0.0000001
 44
0.0000000001
 40
0.0
 40
0.0
 40
0.0
 40
0.0
 40
0.3065667038
 40
0.5922548206
 40
0.7203077134
 40
0.8339031089
 40
0.9286847767
 40
1.0
 40
1.0
 40
1.0
 40
1.0
 10
14.2080458307
 20
11.9544968355
 30
0.0
 10
14.208041924
 20
11.9554618922
 30
0.0
 10
14.2079565269
 20
11.9573267861
 30
0.0
 10
14.2076579277
 20
11.9595782863
 30
0.0
 10
14.2073106943
 20
11.961202315
 30
0.0
 10
14.207032469
 20
11.9622249208
 30
0.0
 10
14.2067459187
 20
11.9630580494
 30
0.0
 10
14.2065413835
 20
11.9635400424
 30
0.0
 10
14.2064424823
 20
11.9637415819
 30
0.0
  0
SPLINE
  5
633
100
AcDbEntity
  8
0
100
AcDbSpline
 62
7
  6
CONTINUOUS
 70
0
 71
3
 72
11
 73
7
 74
0
 42
0.0000001
 43
0.0000001
 44
0.0000000001
 40
0.0
 40
0.0
 40
0.0
 40
0.0
 40
0.2407342138
 40
0.486210593
 40
0.7386472872
 40
1.0
 40
1.0
 40
1.0
 40
1.0
 10
14.6077392594
 20
11.9700132368
 30
0.0
 10
14.6063384974
 20
11.9669631755
 30
0.0
 10
14.6030328861
 20
11.9610107755
 30
0.0
 10
14.5967544601
 20
11.9528061984
 30
0.0
 10
14.5892151007
 20
11.9453330206
 30
0.0
 10
14.5835191698
 20
11.9409563583
 30
0.0
 10
14.5805103439
 20
11.9389010551
 30
0.0
  0
SPLINE
  5
634
100
AcDbEntity
  8
0
100
AcDbSpline
 62
7
  6
CONTINUOUS
 70
0
 71
3
 72
9
 73
5
 74
0
 42
0.0000001
 43
0.0000001
 44
0.0000000001
 40
0.0
 40
0.0
 40
0.0
 40
0.0
 40
0.2543911695
 40
1.0
 40
1.0
 40
1.0
 40
1.0
 10
14.4666427175
 20
12.2244474032
 30
0.0
 10
14.4644624575
 20
12.2247135208
 30
0.0
 10
14.4558774832
 20
12.2256353291
 30
0.0
 10
14.4472369723
 20
12.2260575533
 30
0.0
 10
14.4407993051
 20
12.2260575533
 30
0.0
  0
SPLINE
  5
635
100
AcDbEntity
  8
0
100
AcDbSpline
 62
7
  6
CONTINUOUS
 70
0
 71
3
 72
11
 73
7
 74
0
 42
0.0000001
 43
0.0000001
 44
0.0000000001
 40
0.0
 40
0.0
 40
0.0
 40
0.0
 40
0.2280761198
 40
0.483446324
 40
0.7469628066
 40
1.0
 40
1.0
 40
1.0
 40
1.0
 10
14.4954778338
 20
11.91556674
 30
0.0
 10
14.4947321228
 20
11.91556674
 30
0.0
 10
14.4931493905
 20
11.9153883562
 30
0.0
 10
14.4908006174
 20
11.9146766129
 30
0.0
 10
14.4885360431
 20
11.9135352893
 30
0.0
 10
14.4871728237
 20
11.9125197955
 30
0.0
 10
14.4865608944
 20
11.9119630138
 30
0.0
  0
LINE
  5
636
100
AcDbEntity
  8
0
100
AcDbLine
 62
7
  6
CONTINUOUS
 10
14.4865608944
 20
11.9119630138
 11
14.4851063381
 21
11.9103658773
  0
SPLINE
  5
637
100
AcDbEntity
  8
0
100
AcDbSpline
 62
7
  6
CONTINUOUS
 70
0
 71
3
 72
10
 73
6
 74
0
 42
0.0000001
 43
0.0000001
 44
0.0000000001
 40
0.0
 40
0.0
 40
0.0
 40
0.0
 40
0.5218832769
 40
0.7713026939
 40
1.0
 40
1.0
 40
1.0
 40
1.0
 10
14.3644883279
 20
12.2260566685
 30
0.0
 10
14.3643964656
 20
12.2272459552
 30
0.0
 10
14.3644086166
 20
12.2290202802
 30
0.0
 10
14.3647187164
 20
12.2312866655
 30
0.0
 10
14.3649735379
 20
12.2323522877
 30
0.0
 10
14.3651278684
 20
12.2328517017
 30
0.0
  0
LINE
  5
638
100
AcDbEntity
  8
0
100
AcDbLine
 62
7
  6
CONTINUOUS
 10
14.0153492403
 20
12.0051502955
 11
14.0073879392
 21
12.0078241224
  0
SPLINE
  5
639
100
AcDbEntity
  8
0
100
AcDbSpline
 62
7
  6
CONTINUOUS
 70
0
 71
3
 72
13
 73
9
 74
0
 42
0.0000001
 43
0.0000001
 44
0.0000000001
 40
0.0
 40
0.0
 40
0.0
 40
0.0
 40
0.3316761279
 40
0.6056751872
 40
0.7206378
 40
0.8224620443
 40
0.9140797662
 40
1.0
 40
1.0
 40
1.0
 40
1.0
 10
14.3595682204
 20
12.222904303
 30
0.0
 10
14.3597080771
 20
12.2233568795
 30
0.0
 10
14.3600123374
 20
12.2241693237
 30
0.0
 10
14.3605364123
 20
12.2250665563
 30
0.0
 10
14.361012327
 20
12.2255849376
 30
0.0
 10
14.3613654108
 20
12.2258532722
 30
0.0
 10
14.3617327727
 20
12.2260188239
 30
0.0
 10
14.3619875267
 20
12.2260572219
 30
0.0
 10
14.3621102362
 20
12.2260573541
 30
0.0
  0
SPLINE
  5
63A
100
AcDbEntity
  8
0
100
AcDbSpline
 62
7
  6
CONTINUOUS
 70
0
 71
3
 72
9
 73
5
 74
0
 42
0.0000001
 43
0.0000001
 44
0.0000000001
 40
0.0
 40
0.0
 40
0.0
 40
0.0
 40
0.5041544929
 40
1.0
 40
1.0
 40
1.0
 40
1.0
 10
14.0325468369
 20
12.001003775
 30
0.0
 10
14.0296234703
 20
12.0015493119
 30
0.0
 10
14.0238563275
 20
12.0028014885
 30
0.0
 10
14.0181530723
 20
12.0043177663
 30
0.0
 10
14.0153492403
 20
12.0051502955
 30
0.0
  0
SPLINE
  5
63B
100
AcDbEntity
  8
0
100
AcDbSpline
 62
7
  6
CONTINUOUS
 70
0
 71
3
 72
20
 73
16
 74
0
 42
0.0000001
 43
0.0000001
 44
0.0000000001
 40
0.0
 40
0.0
 40
0.0
 40
0.0
 40
0.0714635135
 40
0.1452707746
 40
0.2964296691
 40
0.4471878868
 40
0.5911431813
 40
0.6587250193
 40
0.7224135364
 40
0.7815922771
 40
0.8357487702
 40
0.8845062056
 40
0.9278150473
 40
0.9659619451
 40
1.0
 40
1.0
 40
1.0
 40
1.0
 10
14.8813773644
 20
11.9715211692
 30
0.0
 10
14.8793109372
 20
11.9728547413
 30
0.0
 10
14.8750013307
 20
11.9754001612
 30
0.0
 10
14.8658606397
 20
11.9799447071
 30
0.0
 10
14.8537052867
 20
11.9844810879
 30
0.0
 10
14.8387071207
 20
11.987916107
 30
0.0
 10
14.8262360904
 20
11.9890088625
 30
0.0
 10
14.8167597064
 20
11.9887058957
 30
0.0
 10
14.8102420488
 20
11.9879324237
 30
0.0
 10
14.8042783803
 20
11.9866383902
 30
0.0
 10
14.7989738833
 20
11.9848718232
 30
0.0
 10
14.7944214248
 20
11.9826931694
 30
0.0
 10
14.7906800946
 20
11.9801941329
 30
0.0
 10
14.7877709516
 20
11.9774566409
 30
0.0
 10
14.7863071626
 20
11.9754253415
 30
0.0
 10
14.7857285538
 20
11.9744068172
 30
0.0
  0
SPLINE
  5
63C
100
AcDbEntity
  8
0
100
AcDbSpline
 62
7
  6
CONTINUOUS
 70
0
 71
3
 72
9
 73
5
 74
0
 42
0.0000001
 43
0.0000001
 44
0.0000000001
 40
0.0
 40
0.0
 40
0.0
 40
0.0
 40
0.5257522719
 40
1.0
 40
1.0
 40
1.0
 40
1.0
 10
14.4679183843
 20
12.0078234277
 30
0.0
 10
14.4679078339
 20
12.0086871713
 30
0.0
 10
14.4679805273
 20
12.0103323442
 30
0.0
 10
14.4682587555
 20
12.0119589485
 30
0.0
 10
14.4684604331
 20
12.0127115823
 30
0.0
  0
SPLINE
  5
63D
100
AcDbEntity
  8
0
100
AcDbSpline
 62
7
  6
CONTINUOUS
 70
0
 71
3
 72
13
 73
9
 74
0
 42
0.0000001
 43
0.0000001
 44
0.0000000001
 40
0.0
 40
0.0
 40
0.0
 40
0.0
 40
0.3065667038
 40
0.5922548206
 40
0.7203077134
 40
0.8339031089
 40
0.9286847767
 40
1.0
 40
1.0
 40
1.0
 40
1.0
 10
14.6685763277
 20
11.9544968355
 30
0.0
 10
14.668572421
 20
11.9554618922
 30
0.0
 10
14.6684870239
 20
11.9573267861
 30
0.0
 10
14.6681884247
 20
11.9595782863
 30
0.0
 10
14.6678411913
 20
11.961202315
 30
0.0
 10
14.667562966
 20
11.9622249208
 30
0.0
 10
14.6672764157
 20
11.9630580494
 30
0.0
 10
14.6670718805
 20
11.9635400424
 30
0.0
 10
14.6669729793
 20
11.9637415819
 30
0.0
  0
SPLINE
  5
63E
100
AcDbEntity
  8
0
100
AcDbSpline
 62
7
  6
CONTINUOUS
 70
0
 71
3
 72
11
 73
7
 74
0
 42
0.0000001
 43
0.0000001
 44
0.0000000001
 40
0.0
 40
0.0
 40
0.0
 40
0.0
 40
0.2407342138
 40
0.486210593
 40
0.7386472872
 40
1.0
 40
1.0
 40
1.0
 40
1.0
 10
15.0682697564
 20
11.9700132368
 30
0.0
 10
15.0668689944
 20
11.9669631755
 30
0.0
 10
15.0635633831
 20
11.9610107755
 30
0.0
 10
15.0572849571
 20
11.9528061984
 30
0.0
 10
15.0497455977
 20
11.9453330206
 30
0.0
 10
15.0440496668
 20
11.9409563583
 30
0.0
 10
15.0410408409
 20
11.9389010551
 30
0.0
  0
SPLINE
  5
63F
100
AcDbEntity
  8
0
100
AcDbSpline
 62
7
  6
CONTINUOUS
 70
0
 71
3
 72
9
 73
5
 74
0
 42
0.0000001
 43
0.0000001
 44
0.0000000001
 40
0.0
 40
0.0
 40
0.0
 40
0.0
 40
0.2543911695
 40
1.0
 40
1.0
 40
1.0
 40
1.0
 10
14.9271732145
 20
12.2244474032
 30
0.0
 10
14.9249929545
 20
12.2247135208
 30
0.0
 10
14.9164079802
 20
12.2256353291
 30
0.0
 10
14.9077674693
 20
12.2260575533
 30
0.0
 10
14.9013298021
 20
12.2260575533
 30
0.0
  0
SPLINE
  5
640
100
AcDbEntity
  8
0
100
AcDbSpline
 62
7
  6
CONTINUOUS
 70
0
 71
3
 72
11
 73
7
 74
0
 42
0.0000001
 43
0.0000001
 44
0.0000000001
 40
0.0
 40
0.0
 40
0.0
 40
0.0
 40
0.2280761198
 40
0.483446324
 40
0.7469628066
 40
1.0
 40
1.0
 40
1.0
 40
1.0
 10
14.9560083308
 20
11.91556674
 30
0.0
 10
14.9552626198
 20
11.91556674
 30
0.0
 10
14.9536798875
 20
11.9153883562
 30
0.0
 10
14.9513311144
 20
11.9146766129
 30
0.0
 10
14.9490665401
 20
11.9135352893
 30
0.0
 10
14.9477033207
 20
11.9125197955
 30
0.0
 10
14.9470913914
 20
11.9119630138
 30
0.0
  0
LINE
  5
641
100
AcDbEntity
  8
0
100
AcDbLine
 62
7
  6
CONTINUOUS
 10
14.9470913914
 20
11.9119630138
 11
14.9456368351
 21
11.9103658773
  0
SPLINE
  5
642
100
AcDbEntity
  8
0
100
AcDbSpline
 62
7
  6
CONTINUOUS
 70
0
 71
3
 72
10
 73
6
 74
0
 42
0.0000001
 43
0.0000001
 44
0.0000000001
 40
0.0
 40
0.0
 40
0.0
 40
0.0
 40
0.5218832769
 40
0.7713026939
 40
1.0
 40
1.0
 40
1.0
 40
1.0
 10
14.8250188249
 20
12.2260566685
 30
0.0
 10
14.8249269626
 20
12.2272459552
 30
0.0
 10
14.8249391136
 20
12.2290202802
 30
0.0
 10
14.8252492134
 20
12.2312866655
 30
0.0
 10
14.8255040349
 20
12.2323522877
 30
0.0
 10
14.8256583654
 20
12.2328517017
 30
0.0
  0
LINE
  5
643
100
AcDbEntity
  8
0
100
AcDbLine
 62
7
  6
CONTINUOUS
 10
14.4758797373
 20
12.0051502955
 11
14.4679184362
 21
12.0078241224
  0
SPLINE
  5
644
100
AcDbEntity
  8
0
100
AcDbSpline
 62
7
  6
CONTINUOUS
 70
0
 71
3
 72
13
 73
9
 74
0
 42
0.0000001
 43
0.0000001
 44
0.0000000001
 40
0.0
 40
0.0
 40
0.0
 40
0.0
 40
0.3316761279
 40
0.6056751872
 40
0.7206378
 40
0.8224620443
 40
0.9140797662
 40
1.0
 40
1.0
 40
1.0
 40
1.0
 10
14.8200987174
 20
12.222904303
 30
0.0
 10
14.8202385741
 20
12.2233568795
 30
0.0
 10
14.8205428344
 20
12.2241693237
 30
0.0
 10
14.8210669093
 20
12.2250665563
 30
0.0
 10
14.821542824
 20
12.2255849376
 30
0.0
 10
14.8218959078
 20
12.2258532722
 30
0.0
 10
14.8222632697
 20
12.2260188239
 30
0.0
 10
14.8225180237
 20
12.2260572219
 30
0.0
 10
14.8226407332
 20
12.2260573541
 30
0.0
  0
SPLINE
  5
645
100
AcDbEntity
  8
0
100
AcDbSpline
 62
7
  6
CONTINUOUS
 70
0
 71
3
 72
9
 73
5
 74
0
 42
0.0000001
 43
0.0000001
 44
0.0000000001
 40
0.0
 40
0.0
 40
0.0
 40
0.0
 40
0.5041544929
 40
1.0
 40
1.0
 40
1.0
 40
1.0
 10
14.4930773339
 20
12.001003775
 30
0.0
 10
14.4901539673
 20
12.0015493119
 30
0.0
 10
14.4843868245
 20
12.0028014885
 30
0.0
 10
14.4786835693
 20
12.0043177663
 30
0.0
 10
14.4758797373
 20
12.0051502955
 30
0.0
  0
SPLINE
  5
646
100
AcDbEntity
  8
0
100
AcDbSpline
 62
7
  6
CONTINUOUS
 70
0
 71
3
 72
20
 73
16
 74
0
 42
0.0000001
 43
0.0000001
 44
0.0000000001
 40
0.0
 40
0.0
 40
0.0
 40
0.0
 40
0.0714635135
 40
0.1452707746
 40
0.2964296691
 40
0.4471878868
 40
0.5911431813
 40
0.6587250193
 40
0.7224135364
 40
0.7815922771
 40
0.8357487702
 40
0.8845062056
 40
0.9278150473
 40
0.9659619451
 40
1.0
 40
1.0
 40
1.0
 40
1.0
 10
15.3419078614
 20
11.9715211692
 30
0.0
 10
15.3398414342
 20
11.9728547413
 30
0.0
 10
15.3355318277
 20
11.9754001612
 30
0.0
 10
15.3263911367
 20
11.9799447071
 30
0.0
 10
15.3142357837
 20
11.9844810879
 30
0.0
 10
15.2992376177
 20
11.987916107
 30
0.0
 10
15.2867665874
 20
11.9890088625
 30
0.0
 10
15.2772902034
 20
11.9887058957
 30
0.0
 10
15.2707725458
 20
11.9879324237
 30
0.0
 10
15.2648088773
 20
11.9866383902
 30
0.0
 10
15.2595043803
 20
11.9848718232
 30
0.0
 10
15.2549519218
 20
11.9826931694
 30
0.0
 10
15.2512105916
 20
11.9801941329
 30
0.0
 10
15.2483014486
 20
11.9774566409
 30
0.0
 10
15.2468376596
 20
11.9754253415
 30
0.0
 10
15.2462590508
 20
11.9744068172
 30
0.0
  0
SPLINE
  5
647
100
AcDbEntity
  8
0
100
AcDbSpline
 62
7
  6
CONTINUOUS
 70
0
 71
3
 72
9
 73
5
 74
0
 42
0.0000001
 43
0.0000001
 44
0.0000000001
 40
0.0
 40
0.0
 40
0.0
 40
0.0
 40
0.5257522719
 40
1.0
 40
1.0
 40
1.0
 40
1.0
 10
14.9284488813
 20
12.0078234277
 30
0.0
 10
14.9284383309
 20
12.0086871713
 30
0.0
 10
14.9285110243
 20
12.0103323442
 30
0.0
 10
14.9287892525
 20
12.0119589485
 30
0.0
 10
14.9289909301
 20
12.0127115823
 30
0.0
  0
SPLINE
  5
648
100
AcDbEntity
  8
0
100
AcDbSpline
 62
7
  6
CONTINUOUS
 70
0
 71
3
 72
13
 73
9
 74
0
 42
0.0000001
 43
0.0000001
 44
0.0000000001
 40
0.0
 40
0.0
 40
0.0
 40
0.0
 40
0.3065667038
 40
0.5922548206
 40
0.7203077134
 40
0.8339031089
 40
0.9286847767
 40
1.0
 40
1.0
 40
1.0
 40
1.0
 10
15.1291068247
 20
11.9544968355
 30
0.0
 10
15.129102918
 20
11.9554618922
 30
0.0
 10
15.1290175209
 20
11.9573267861
 30
0.0
 10
15.1287189217
 20
11.9595782863
 30
0.0
 10
15.1283716883
 20
11.961202315
 30
0.0
 10
15.128093463
 20
11.9622249208
 30
0.0
 10
15.1278069127
 20
11.9630580494
 30
0.0
 10
15.1276023775
 20
11.9635400424
 30
0.0
 10
15.1275034763
 20
11.9637415819
 30
0.0
  0
SPLINE
  5
649
100
AcDbEntity
  8
0
100
AcDbSpline
 62
7
  6
CONTINUOUS
 70
0
 71
3
 72
11
 73
7
 74
0
 42
0.0000001
 43
0.0000001
 44
0.0000000001
 40
0.0
 40
0.0
 40
0.0
 40
0.0
 40
0.2407342138
 40
0.486210593
 40
0.7386472872
 40
1.0
 40
1.0
 40
1.0
 40
1.0
 10
15.5288002535
 20
11.9700132368
 30
0.0
 10
15.5273994914
 20
11.9669631755
 30
0.0
 10
15.5240938801
 20
11.9610107755
 30
0.0
 10
15.5178154541
 20
11.9528061984
 30
0.0
 10
15.5102760947
 20
11.9453330206
 30
0.0
 10
15.5045801638
 20
11.9409563583
 30
0.0
 10
15.5015713379
 20
11.9389010551
 30
0.0
  0
SPLINE
  5
64A
100
AcDbEntity
  8
0
100
AcDbSpline
 62
7
  6
CONTINUOUS
 70
0
 71
3
 72
9
 73
5
 74
0
 42
0.0000001
 43
0.0000001
 44
0.0000000001
 40
0.0
 40
0.0
 40
0.0
 40
0.0
 40
0.2543911695
 40
1.0
 40
1.0
 40
1.0
 40
1.0
 10
15.3877037115
 20
12.2244474032
 30
0.0
 10
15.3855234515
 20
12.2247135208
 30
0.0
 10
15.3769384772
 20
12.2256353291
 30
0.0
 10
15.3682979663
 20
12.2260575533
 30
0.0
 10
15.3618602991
 20
12.2260575533
 30
0.0
  0
SPLINE
  5
64B
100
AcDbEntity
  8
0
100
AcDbSpline
 62
7
  6
CONTINUOUS
 70
0
 71
3
 72
11
 73
7
 74
0
 42
0.0000001
 43
0.0000001
 44
0.0000000001
 40
0.0
 40
0.0
 40
0.0
 40
0.0
 40
0.2280761198
 40
0.483446324
 40
0.7469628066
 40
1.0
 40
1.0
 40
1.0
 40
1.0
 10
15.4165388278
 20
11.91556674
 30
0.0
 10
15.4157931168
 20
11.91556674
 30
0.0
 10
15.4142103845
 20
11.9153883562
 30
0.0
 10
15.4118616114
 20
11.9146766129
 30
0.0
 10
15.4095970371
 20
11.9135352893
 30
0.0
 10
15.4082338177
 20
11.9125197955
 30
0.0
 10
15.4076218884
 20
11.9119630138
 30
0.0
  0
LINE
  5
64C
100
AcDbEntity
  8
0
100
AcDbLine
 62
7
  6
CONTINUOUS
 10
15.4076218884
 20
11.9119630138
 11
15.4061673321
 21
11.9103658773
  0
SPLINE
  5
64D
100
AcDbEntity
  8
0
100
AcDbSpline
 62
7
  6
CONTINUOUS
 70
0
 71
3
 72
10
 73
6
 74
0
 42
0.0000001
 43
0.0000001
 44
0.0000000001
 40
0.0
 40
0.0
 40
0.0
 40
0.0
 40
0.5218832769
 40
0.7713026939
 40
1.0
 40
1.0
 40
1.0
 40
1.0
 10
15.2855493219
 20
12.2260566685
 30
0.0
 10
15.2854574596
 20
12.2272459552
 30
0.0
 10
15.2854696106
 20
12.2290202802
 30
0.0
 10
15.2857797104
 20
12.2312866655
 30
0.0
 10
15.2860345319
 20
12.2323522877
 30
0.0
 10
15.2861888624
 20
12.2328517017
 30
0.0
  0
LINE
  5
64E
100
AcDbEntity
  8
0
100
AcDbLine
 62
7
  6
CONTINUOUS
 10
14.9364102343
 20
12.0051502955
 11
14.9284489332
 21
12.0078241224
  0
SPLINE
  5
64F
100
AcDbEntity
  8
0
100
AcDbSpline
 62
7
  6
CONTINUOUS
 70
0
 71
3
 72
13
 73
9
 74
0
 42
0.0000001
 43
0.0000001
 44
0.0000000001
 40
0.0
 40
0.0
 40
0.0
 40
0.0
 40
0.3316761279
 40
0.6056751872
 40
0.7206378
 40
0.8224620443
 40
0.9140797662
 40
1.0
 40
1.0
 40
1.0
 40
1.0
 10
15.2806292144
 20
12.222904303
 30
0.0
 10
15.2807690711
 20
12.2233568795
 30
0.0
 10
15.2810733314
 20
12.2241693237
 30
0.0
 10
15.2815974063
 20
12.2250665563
 30
0.0
 10
15.282073321
 20
12.2255849376
 30
0.0
 10
15.2824264048
 20
12.2258532722
 30
0.0
 10
15.2827937667
 20
12.2260188239
 30
0.0
 10
15.2830485207
 20
12.2260572219
 30
0.0
 10
15.2831712302
 20
12.2260573541
 30
0.0
  0
SPLINE
  5
650
100
AcDbEntity
  8
0
100
AcDbSpline
 62
7
  6
CONTINUOUS
 70
0
 71
3
 72
9
 73
5
 74
0
 42
0.0000001
 43
0.0000001
 44
0.0000000001
 40
0.0
 40
0.0
 40
0.0
 40
0.0
 40
0.5041544929
 40
1.0
 40
1.0
 40
1.0
 40
1.0
 10
14.9536078309
 20
12.001003775
 30
0.0
 10
14.9506844643
 20
12.0015493119
 30
0.0
 10
14.9449173215
 20
12.0028014885
 30
0.0
 10
14.9392140663
 20
12.0043177663
 30
0.0
 10
14.9364102343
 20
12.0051502955
 30
0.0
  0
SPLINE
  5
651
100
AcDbEntity
  8
0
100
AcDbSpline
 62
7
  6
CONTINUOUS
 70
0
 71
3
 72
20
 73
16
 74
0
 42
0.0000001
 43
0.0000001
 44
0.0000000001
 40
0.0
 40
0.0
 40
0.0
 40
0.0
 40
0.0714635135
 40
0.1452707746
 40
0.2964296691
 40
0.4471878868
 40
0.5911431813
 40
0.6587250193
 40
0.7224135364
 40
0.7815922771
 40
0.8357487702
 40
0.8845062056
 40
0.9278150473
 40
0.9659619451
 40
1.0
 40
1.0
 40
1.0
 40
1.0
 10
15.8024383584
 20
11.9715211692
 30
0.0
 10
15.8003719312
 20
11.9728547413
 30
0.0
 10
15.7960623247
 20
11.9754001612
 30
0.0
 10
15.7869216337
 20
11.9799447071
 30
0.0
 10
15.7747662807
 20
11.9844810879
 30
0.0
 10
15.7597681147
 20
11.987916107
 30
0.0
 10
15.7472970844
 20
11.9890088625
 30
0.0
 10
15.7378207004
 20
11.9887058957
 30
0.0
 10
15.7313030428
 20
11.9879324237
 30
0.0
 10
15.7253393743
 20
11.9866383902
 30
0.0
 10
15.7200348773
 20
11.9848718232
 30
0.0
 10
15.7154824188
 20
11.9826931694
 30
0.0
 10
15.7117410886
 20
11.9801941329
 30
0.0
 10
15.7088319456
 20
11.9774566409
 30
0.0
 10
15.7073681566
 20
11.9754253415
 30
0.0
 10
15.7067895478
 20
11.9744068172
 30
0.0
  0
SPLINE
  5
652
100
AcDbEntity
  8
0
100
AcDbSpline
 62
7
  6
CONTINUOUS
 70
0
 71
3
 72
9
 73
5
 74
0
 42
0.0000001
 43
0.0000001
 44
0.0000000001
 40
0.0
 40
0.0
 40
0.0
 40
0.0
 40
0.5257522719
 40
1.0
 40
1.0
 40
1.0
 40
1.0
 10
15.3889793783
 20
12.0078234277
 30
0.0
 10
15.3889688279
 20
12.0086871713
 30
0.0
 10
15.3890415213
 20
12.0103323442
 30
0.0
 10
15.3893197495
 20
12.0119589485
 30
0.0
 10
15.3895214271
 20
12.0127115823
 30
0.0
  0
SPLINE
  5
653
100
AcDbEntity
  8
0
100
AcDbSpline
 62
7
  6
CONTINUOUS
 70
0
 71
3
 72
13
 73
9
 74
0
 42
0.0000001
 43
0.0000001
 44
0.0000000001
 40
0.0
 40
0.0
 40
0.0
 40
0.0
 40
0.3065667038
 40
0.5922548206
 40
0.7203077134
 40
0.8339031089
 40
0.9286847767
 40
1.0
 40
1.0
 40
1.0
 40
1.0
 10
15.5896373217
 20
11.9544968355
 30
0.0
 10
15.589633415
 20
11.9554618922
 30
0.0
 10
15.5895480179
 20
11.9573267861
 30
0.0
 10
15.5892494187
 20
11.9595782863
 30
0.0
 10
15.5889021853
 20
11.961202315
 30
0.0
 10
15.58862396
 20
11.9622249208
 30
0.0
 10
15.5883374097
 20
11.9630580494
 30
0.0
 10
15.5881328745
 20
11.9635400424
 30
0.0
 10
15.5880339733
 20
11.9637415819
 30
0.0
  0
SPLINE
  5
654
100
AcDbEntity
  8
0
100
AcDbSpline
 62
7
  6
CONTINUOUS
 70
0
 71
3
 72
11
 73
7
 74
0
 42
0.0000001
 43
0.0000001
 44
0.0000000001
 40
0.0
 40
0.0
 40
0.0
 40
0.0
 40
0.2407342138
 40
0.486210593
 40
0.7386472872
 40
1.0
 40
1.0
 40
1.0
 40
1.0
 10
15.9893307505
 20
11.9700132368
 30
0.0
 10
15.9879299884
 20
11.9669631755
 30
0.0
 10
15.9846243771
 20
11.9610107755
 30
0.0
 10
15.9783459511
 20
11.9528061984
 30
0.0
 10
15.9708065917
 20
11.9453330206
 30
0.0
 10
15.9651106608
 20
11.9409563583
 30
0.0
 10
15.9621018349
 20
11.9389010551
 30
0.0
  0
SPLINE
  5
655
100
AcDbEntity
  8
0
100
AcDbSpline
 62
7
  6
CONTINUOUS
 70
0
 71
3
 72
9
 73
5
 74
0
 42
0.0000001
 43
0.0000001
 44
0.0000000001
 40
0.0
 40
0.0
 40
0.0
 40
0.0
 40
0.2543911695
 40
1.0
 40
1.0
 40
1.0
 40
1.0
 10
15.8482342085
 20
12.2244474032
 30
0.0
 10
15.8460539485
 20
12.2247135208
 30
0.0
 10
15.8374689743
 20
12.2256353291
 30
0.0
 10
15.8288284633
 20
12.2260575533
 30
0.0
 10
15.8223907961
 20
12.2260575533
 30
0.0
  0
SPLINE
  5
656
100
AcDbEntity
  8
0
100
AcDbSpline
 62
7
  6
CONTINUOUS
 70
0
 71
3
 72
11
 73
7
 74
0
 42
0.0000001
 43
0.0000001
 44
0.0000000001
 40
0.0
 40
0.0
 40
0.0
 40
0.0
 40
0.2280761198
 40
0.483446324
 40
0.7469628066
 40
1.0
 40
1.0
 40
1.0
 40
1.0
 10
15.8770693248
 20
11.91556674
 30
0.0
 10
15.8763236138
 20
11.91556674
 30
0.0
 10
15.8747408815
 20
11.9153883562
 30
0.0
 10
15.8723921084
 20
11.9146766129
 30
0.0
 10
15.8701275341
 20
11.9135352893
 30
0.0
 10
15.8687643147
 20
11.9125197955
 30
0.0
 10
15.8681523854
 20
11.9119630138
 30
0.0
  0
LINE
  5
657
100
AcDbEntity
  8
0
100
AcDbLine
 62
7
  6
CONTINUOUS
 10
15.8681523854
 20
11.9119630138
 11
15.8666978291
 21
11.9103658773
  0
SPLINE
  5
658
100
AcDbEntity
  8
0
100
AcDbSpline
 62
7
  6
CONTINUOUS
 70
0
 71
3
 72
10
 73
6
 74
0
 42
0.0000001
 43
0.0000001
 44
0.0000000001
 40
0.0
 40
0.0
 40
0.0
 40
0.0
 40
0.5218832769
 40
0.7713026939
 40
1.0
 40
1.0
 40
1.0
 40
1.0
 10
15.7460798189
 20
12.2260566685
 30
0.0
 10
15.7459879566
 20
12.2272459552
 30
0.0
 10
15.7460001076
 20
12.2290202802
 30
0.0
 10
15.7463102074
 20
12.2312866655
 30
0.0
 10
15.7465650289
 20
12.2323522877
 30
0.0
 10
15.7467193594
 20
12.2328517017
 30
0.0
  0
LINE
  5
659
100
AcDbEntity
  8
0
100
AcDbLine
 62
7
  6
CONTINUOUS
 10
15.3969407313
 20
12.0051502955
 11
15.3889794302
 21
12.0078241224
  0
SPLINE
  5
65A
100
AcDbEntity
  8
0
100
AcDbSpline
 62
7
  6
CONTINUOUS
 70
0
 71
3
 72
13
 73
9
 74
0
 42
0.0000001
 43
0.0000001
 44
0.0000000001
 40
0.0
 40
0.0
 40
0.0
 40
0.0
 40
0.3316761279
 40
0.6056751872
 40
0.7206378
 40
0.8224620443
 40
0.9140797662
 40
1.0
 40
1.0
 40
1.0
 40
1.0
 10
15.7411597114
 20
12.222904303
 30
0.0
 10
15.7412995681
 20
12.2233568795
 30
0.0
 10
15.7416038284
 20
12.2241693237
 30
0.0
 10
15.7421279033
 20
12.2250665563
 30
0.0
 10
15.742603818
 20
12.2255849376
 30
0.0
 10
15.7429569018
 20
12.2258532722
 30
0.0
 10
15.7433242637
 20
12.2260188239
 30
0.0
 10
15.7435790177
 20
12.2260572219
 30
0.0
 10
15.7437017272
 20
12.2260573541
 30
0.0
  0
SPLINE
  5
65B
100
AcDbEntity
  8
0
100
AcDbSpline
 62
7
  6
CONTINUOUS
 70
0
 71
3
 72
9
 73
5
 74
0
 42
0.0000001
 43
0.0000001
 44
0.0000000001
 40
0.0
 40
0.0
 40
0.0
 40
0.0
 40
0.5041544929
 40
1.0
 40
1.0
 40
1.0
 40
1.0
 10
15.4141383279
 20
12.001003775
 30
0.0
 10
15.4112149613
 20
12.0015493119
 30
0.0
 10
15.4054478185
 20
12.0028014885
 30
0.0
 10
15.3997445633
 20
12.0043177663
 30
0.0
 10
15.3969407313
 20
12.0051502955
 30
0.0
  0
SPLINE
  5
65C
100
AcDbEntity
  8
0
100
AcDbSpline
 62
7
  6
CONTINUOUS
 70
0
 71
3
 72
20
 73
16
 74
0
 42
0.0000001
 43
0.0000001
 44
0.0000000001
 40
0.0
 40
0.0
 40
0.0
 40
0.0
 40
0.0714635135
 40
0.1452707746
 40
0.2964296691
 40
0.4471878868
 40
0.5911431813
 40
0.6587250193
 40
0.7224135364
 40
0.7815922771
 40
0.8357487702
 40
0.8845062056
 40
0.9278150473
 40
0.9659619451
 40
1.0
 40
1.0
 40
1.0
 40
1.0
 10
16.2629688554
 20
11.9715211692
 30
0.0
 10
16.2609024282
 20
11.9728547413
 30
0.0
 10
16.2565928217
 20
11.9754001612
 30
0.0
 10
16.2474521307
 20
11.9799447071
 30
0.0
 10
16.2352967777
 20
11.9844810879
 30
0.0
 10
16.2202986117
 20
11.987916107
 30
0.0
 10
16.2078275814
 20
11.9890088625
 30
0.0
 10
16.1983511974
 20
11.9887058957
 30
0.0
 10
16.1918335398
 20
11.9879324237
 30
0.0
 10
16.1858698713
 20
11.9866383902
 30
0.0
 10
16.1805653743
 20
11.9848718232
 30
0.0
 10
16.1760129158
 20
11.9826931694
 30
0.0
 10
16.1722715856
 20
11.9801941329
 30
0.0
 10
16.1693624426
 20
11.9774566409
 30
0.0
 10
16.1678986536
 20
11.9754253415
 30
0.0
 10
16.1673200448
 20
11.9744068172
 30
0.0
  0
SPLINE
  5
65D
100
AcDbEntity
  8
0
100
AcDbSpline
 62
7
  6
CONTINUOUS
 70
0
 71
3
 72
9
 73
5
 74
0
 42
0.0000001
 43
0.0000001
 44
0.0000000001
 40
0.0
 40
0.0
 40
0.0
 40
0.0
 40
0.5257522719
 40
1.0
 40
1.0
 40
1.0
 40
1.0
 10
15.8495098753
 20
12.0078234277
 30
0.0
 10
15.8494993249
 20
12.0086871713
 30
0.0
 10
15.8495720183
 20
12.0103323442
 30
0.0
 10
15.8498502465
 20
12.0119589485
 30
0.0
 10
15.8500519241
 20
12.0127115823
 30
0.0
  0
SPLINE
  5
65E
100
AcDbEntity
  8
0
100
AcDbSpline
 62
7
  6
CONTINUOUS
 70
0
 71
3
 72
13
 73
9
 74
0
 42
0.0000001
 43
0.0000001
 44
0.0000000001
 40
0.0
 40
0.0
 40
0.0
 40
0.0
 40
0.3065667038
 40
0.5922548206
 40
0.7203077134
 40
0.8339031089
 40
0.9286847767
 40
1.0
 40
1.0
 40
1.0
 40
1.0
 10
16.0501678187
 20
11.9544968355
 30
0.0
 10
16.050163912
 20
11.9554618922
 30
0.0
 10
16.0500785149
 20
11.9573267861
 30
0.0
 10
16.0497799157
 20
11.9595782863
 30
0.0
 10
16.0494326823
 20
11.961202315
 30
0.0
 10
16.049154457
 20
11.9622249208
 30
0.0
 10
16.0488679067
 20
11.9630580494
 30
0.0
 10
16.0486633715
 20
11.9635400424
 30
0.0
 10
16.0485644703
 20
11.9637415819
 30
0.0
  0
SPLINE
  5
65F
100
AcDbEntity
  8
0
100
AcDbSpline
 62
7
  6
CONTINUOUS
 70
0
 71
3
 72
11
 73
7
 74
0
 42
0.0000001
 43
0.0000001
 44
0.0000000001
 40
0.0
 40
0.0
 40
0.0
 40
0.0
 40
0.2407342138
 40
0.486210593
 40
0.7386472872
 40
1.0
 40
1.0
 40
1.0
 40
1.0
 10
16.4498612475
 20
11.9700132368
 30
0.0
 10
16.4484604854
 20
11.9669631755
 30
0.0
 10
16.4451548741
 20
11.9610107755
 30
0.0
 10
16.4388764481
 20
11.9528061984
 30
0.0
 10
16.4313370887
 20
11.9453330206
 30
0.0
 10
16.4256411578
 20
11.9409563583
 30
0.0
 10
16.4226323319
 20
11.9389010551
 30
0.0
  0
SPLINE
  5
660
100
AcDbEntity
  8
0
100
AcDbSpline
 62
7
  6
CONTINUOUS
 70
0
 71
3
 72
9
 73
5
 74
0
 42
0.0000001
 43
0.0000001
 44
0.0000000001
 40
0.0
 40
0.0
 40
0.0
 40
0.0
 40
0.2543911695
 40
1.0
 40
1.0
 40
1.0
 40
1.0
 10
16.3087647055
 20
12.2244474032
 30
0.0
 10
16.3065844455
 20
12.2247135208
 30
0.0
 10
16.2979994713
 20
12.2256353291
 30
0.0
 10
16.2893589603
 20
12.2260575533
 30
0.0
 10
16.2829212931
 20
12.2260575533
 30
0.0
  0
SPLINE
  5
661
100
AcDbEntity
  8
0
100
AcDbSpline
 62
7
  6
CONTINUOUS
 70
0
 71
3
 72
11
 73
7
 74
0
 42
0.0000001
 43
0.0000001
 44
0.0000000001
 40
0.0
 40
0.0
 40
0.0
 40
0.0
 40
0.2280761198
 40
0.483446324
 40
0.7469628066
 40
1.0
 40
1.0
 40
1.0
 40
1.0
 10
16.3375998218
 20
11.91556674
 30
0.0
 10
16.3368541108
 20
11.91556674
 30
0.0
 10
16.3352713785
 20
11.9153883562
 30
0.0
 10
16.3329226054
 20
11.9146766129
 30
0.0
 10
16.3306580311
 20
11.9135352893
 30
0.0
 10
16.3292948117
 20
11.9125197955
 30
0.0
 10
16.3286828824
 20
11.9119630138
 30
0.0
  0
LINE
  5
662
100
AcDbEntity
  8
0
100
AcDbLine
 62
7
  6
CONTINUOUS
 10
16.3286828824
 20
11.9119630138
 11
16.3272283261
 21
11.9103658773
  0
SPLINE
  5
663
100
AcDbEntity
  8
0
100
AcDbSpline
 62
7
  6
CONTINUOUS
 70
0
 71
3
 72
10
 73
6
 74
0
 42
0.0000001
 43
0.0000001
 44
0.0000000001
 40
0.0
 40
0.0
 40
0.0
 40
0.0
 40
0.5218832769
 40
0.7713026939
 40
1.0
 40
1.0
 40
1.0
 40
1.0
 10
16.2066103159
 20
12.2260566685
 30
0.0
 10
16.2065184536
 20
12.2272459552
 30
0.0
 10
16.2065306046
 20
12.2290202802
 30
0.0
 10
16.2068407044
 20
12.2312866655
 30
0.0
 10
16.2070955259
 20
12.2323522877
 30
0.0
 10
16.2072498564
 20
12.2328517017
 30
0.0
  0
LINE
  5
664
100
AcDbEntity
  8
0
100
AcDbLine
 62
7
  6
CONTINUOUS
 10
15.8574712283
 20
12.0051502955
 11
15.8495099272
 21
12.0078241224
  0
SPLINE
  5
665
100
AcDbEntity
  8
0
100
AcDbSpline
 62
7
  6
CONTINUOUS
 70
0
 71
3
 72
13
 73
9
 74
0
 42
0.0000001
 43
0.0000001
 44
0.0000000001
 40
0.0
 40
0.0
 40
0.0
 40
0.0
 40
0.3316761279
 40
0.6056751872
 40
0.7206378
 40
0.8224620443
 40
0.9140797662
 40
1.0
 40
1.0
 40
1.0
 40
1.0
 10
16.2016902084
 20
12.222904303
 30
0.0
 10
16.2018300651
 20
12.2233568795
 30
0.0
 10
16.2021343254
 20
12.2241693237
 30
0.0
 10
16.2026584003
 20
12.2250665563
 30
0.0
 10
16.203134315
 20
12.2255849376
 30
0.0
 10
16.2034873988
 20
12.2258532722
 30
0.0
 10
16.2038547607
 20
12.2260188239
 30
0.0
 10
16.2041095147
 20
12.2260572219
 30
0.0
 10
16.2042322242
 20
12.2260573541
 30
0.0
  0
SPLINE
  5
666
100
AcDbEntity
  8
0
100
AcDbSpline
 62
7
  6
CONTINUOUS
 70
0
 71
3
 72
9
 73
5
 74
0
 42
0.0000001
 43
0.0000001
 44
0.0000000001
 40
0.0
 40
0.0
 40
0.0
 40
0.0
 40
0.5041544929
 40
1.0
 40
1.0
 40
1.0
 40
1.0
 10
15.8746688249
 20
12.001003775
 30
0.0
 10
15.8717454583
 20
12.0015493119
 30
0.0
 10
15.8659783155
 20
12.0028014885
 30
0.0
 10
15.8602750603
 20
12.0043177663
 30
0.0
 10
15.8574712283
 20
12.0051502955
 30
0.0
  0
SPLINE
  5
667
100
AcDbEntity
  8
0
100
AcDbSpline
 62
7
  6
CONTINUOUS
 70
0
 71
3
 72
20
 73
16
 74
0
 42
0.0000001
 43
0.0000001
 44
0.0000000001
 40
0.0
 40
0.0
 40
0.0
 40
0.0
 40
0.0714635135
 40
0.1452707746
 40
0.2964296691
 40
0.4471878868
 40
0.5911431813
 40
0.6587250193
 40
0.7224135364
 40
0.7815922771
 40
0.8357487702
 40
0.8845062056
 40
0.9278150473
 40
0.9659619451
 40
1.0
 40
1.0
 40
1.0
 40
1.0
 10
16.7234993524
 20
11.9715211692
 30
0.0
 10
16.7214329252
 20
11.9728547413
 30
0.0
 10
16.7171233187
 20
11.9754001612
 30
0.0
 10
16.7079826277
 20
11.9799447071
 30
0.0
 10
16.6958272747
 20
11.9844810879
 30
0.0
 10
16.6808291087
 20
11.987916107
 30
0.0
 10
16.6683580784
 20
11.9890088625
 30
0.0
 10
16.6588816944
 20
11.9887058957
 30
0.0
 10
16.6523640368
 20
11.9879324237
 30
0.0
 10
16.6464003683
 20
11.9866383902
 30
0.0
 10
16.6410958713
 20
11.9848718232
 30
0.0
 10
16.6365434128
 20
11.9826931694
 30
0.0
 10
16.6328020826
 20
11.9801941329
 30
0.0
 10
16.6298929396
 20
11.9774566409
 30
0.0
 10
16.6284291506
 20
11.9754253415
 30
0.0
 10
16.6278505418
 20
11.9744068172
 30
0.0
  0
SPLINE
  5
668
100
AcDbEntity
  8
0
100
AcDbSpline
 62
7
  6
CONTINUOUS
 70
0
 71
3
 72
9
 73
5
 74
0
 42
0.0000001
 43
0.0000001
 44
0.0000000001
 40
0.0
 40
0.0
 40
0.0
 40
0.0
 40
0.5257522719
 40
1.0
 40
1.0
 40
1.0
 40
1.0
 10
16.3100403723
 20
12.0078234277
 30
0.0
 10
16.3100298219
 20
12.0086871713
 30
0.0
 10
16.3101025153
 20
12.0103323442
 30
0.0
 10
16.3103807435
 20
12.0119589485
 30
0.0
 10
16.3105824211
 20
12.0127115823
 30
0.0
  0
SPLINE
  5
669
100
AcDbEntity
  8
0
100
AcDbSpline
 62
7
  6
CONTINUOUS
 70
0
 71
3
 72
13
 73
9
 74
0
 42
0.0000001
 43
0.0000001
 44
0.0000000001
 40
0.0
 40
0.0
 40
0.0
 40
0.0
 40
0.3065667038
 40
0.5922548206
 40
0.7203077134
 40
0.8339031089
 40
0.9286847767
 40
1.0
 40
1.0
 40
1.0
 40
1.0
 10
16.5106983157
 20
11.9544968355
 30
0.0
 10
16.510694409
 20
11.9554618922
 30
0.0
 10
16.5106090119
 20
11.9573267861
 30
0.0
 10
16.5103104127
 20
11.9595782863
 30
0.0
 10
16.5099631793
 20
11.961202315
 30
0.0
 10
16.509684954
 20
11.9622249208
 30
0.0
 10
16.5093984037
 20
11.9630580494
 30
0.0
 10
16.5091938685
 20
11.9635400424
 30
0.0
 10
16.5090949673
 20
11.9637415819
 30
0.0
  0
SPLINE
  5
66A
100
AcDbEntity
  8
0
100
AcDbSpline
 62
7
  6
CONTINUOUS
 70
0
 71
3
 72
11
 73
7
 74
0
 42
0.0000001
 43
0.0000001
 44
0.0000000001
 40
0.0
 40
0.0
 40
0.0
 40
0.0
 40
0.2407342138
 40
0.486210593
 40
0.7386472872
 40
1.0
 40
1.0
 40
1.0
 40
1.0
 10
16.9103917445
 20
11.9700132368
 30
0.0
 10
16.9089909824
 20
11.9669631755
 30
0.0
 10
16.9056853711
 20
11.9610107755
 30
0.0
 10
16.8994069451
 20
11.9528061984
 30
0.0
 10
16.8918675857
 20
11.9453330206
 30
0.0
 10
16.8861716548
 20
11.9409563583
 30
0.0
 10
16.8831628289
 20
11.9389010551
 30
0.0
  0
SPLINE
  5
66B
100
AcDbEntity
  8
0
100
AcDbSpline
 62
7
  6
CONTINUOUS
 70
0
 71
3
 72
9
 73
5
 74
0
 42
0.0000001
 43
0.0000001
 44
0.0000000001
 40
0.0
 40
0.0
 40
0.0
 40
0.0
 40
0.2543911695
 40
1.0
 40
1.0
 40
1.0
 40
1.0
 10
16.7692952025
 20
12.2244474032
 30
0.0
 10
16.7671149425
 20
12.2247135208
 30
0.0
 10
16.7585299683
 20
12.2256353291
 30
0.0
 10
16.7498894573
 20
12.2260575533
 30
0.0
 10
16.7434517901
 20
12.2260575533
 30
0.0
  0
SPLINE
  5
66C
100
AcDbEntity
  8
0
100
AcDbSpline
 62
7
  6
CONTINUOUS
 70
0
 71
3
 72
11
 73
7
 74
0
 42
0.0000001
 43
0.0000001
 44
0.0000000001
 40
0.0
 40
0.0
 40
0.0
 40
0.0
 40
0.2280761198
 40
0.483446324
 40
0.7469628066
 40
1.0
 40
1.0
 40
1.0
 40
1.0
 10
16.7981303188
 20
11.91556674
 30
0.0
 10
16.7973846078
 20
11.91556674
 30
0.0
 10
16.7958018755
 20
11.9153883562
 30
0.0
 10
16.7934531024
 20
11.9146766129
 30
0.0
 10
16.7911885281
 20
11.9135352893
 30
0.0
 10
16.7898253087
 20
11.9125197955
 30
0.0
 10
16.7892133794
 20
11.9119630138
 30
0.0
  0
LINE
  5
66D
100
AcDbEntity
  8
0
100
AcDbLine
 62
7
  6
CONTINUOUS
 10
16.7892133794
 20
11.9119630138
 11
16.7877588231
 21
11.9103658773
  0
SPLINE
  5
66E
100
AcDbEntity
  8
0
100
AcDbSpline
 62
7
  6
CONTINUOUS
 70
0
 71
3
 72
10
 73
6
 74
0
 42
0.0000001
 43
0.0000001
 44
0.0000000001
 40
0.0
 40
0.0
 40
0.0
 40
0.0
 40
0.5218832769
 40
0.7713026939
 40
1.0
 40
1.0
 40
1.0
 40
1.0
 10
16.6671408129
 20
12.2260566685
 30
0.0
 10
16.6670489506
 20
12.2272459552
 30
0.0
 10
16.6670611016
 20
12.2290202802
 30
0.0
 10
16.6673712014
 20
12.2312866655
 30
0.0
 10
16.6676260229
 20
12.2323522877
 30
0.0
 10
16.6677803534
 20
12.2328517017
 30
0.0
  0
LINE
  5
66F
100
AcDbEntity
  8
0
100
AcDbLine
 62
7
  6
CONTINUOUS
 10
16.3180017253
 20
12.0051502955
 11
16.3100404242
 21
12.0078241224
  0
SPLINE
  5
670
100
AcDbEntity
  8
0
100
AcDbSpline
 62
7
  6
CONTINUOUS
 70
0
 71
3
 72
13
 73
9
 74
0
 42
0.0000001
 43
0.0000001
 44
0.0000000001
 40
0.0
 40
0.0
 40
0.0
 40
0.0
 40
0.3316761279
 40
0.6056751872
 40
0.7206378
 40
0.8224620443
 40
0.9140797662
 40
1.0
 40
1.0
 40
1.0
 40
1.0
 10
16.6622207054
 20
12.222904303
 30
0.0
 10
16.6623605621
 20
12.2233568795
 30
0.0
 10
16.6626648224
 20
12.2241693237
 30
0.0
 10
16.6631888973
 20
12.2250665563
 30
0.0
 10
16.663664812
 20
12.2255849376
 30
0.0
 10
16.6640178958
 20
12.2258532722
 30
0.0
 10
16.6643852577
 20
12.2260188239
 30
0.0
 10
16.6646400117
 20
12.2260572219
 30
0.0
 10
16.6647627212
 20
12.2260573541
 30
0.0
  0
SPLINE
  5
671
100
AcDbEntity
  8
0
100
AcDbSpline
 62
7
  6
CONTINUOUS
 70
0
 71
3
 72
9
 73
5
 74
0
 42
0.0000001
 43
0.0000001
 44
0.0000000001
 40
0.0
 40
0.0
 40
0.0
 40
0.0
 40
0.5041544929
 40
1.0
 40
1.0
 40
1.0
 40
1.0
 10
16.3351993219
 20
12.001003775
 30
0.0
 10
16.3322759553
 20
12.0015493119
 30
0.0
 10
16.3265088125
 20
12.0028014885
 30
0.0
 10
16.3208055573
 20
12.0043177663
 30
0.0
 10
16.3180017253
 20
12.0051502955
 30
0.0
  0
SPLINE
  5
672
100
AcDbEntity
  8
0
100
AcDbSpline
 62
7
  6
CONTINUOUS
 70
0
 71
3
 72
20
 73
16
 74
0
 42
0.0000001
 43
0.0000001
 44
0.0000000001
 40
0.0
 40
0.0
 40
0.0
 40
0.0
 40
0.0714635135
 40
0.1452707746
 40
0.2964296691
 40
0.4471878868
 40
0.5911431813
 40
0.6587250193
 40
0.7224135364
 40
0.7815922771
 40
0.8357487702
 40
0.8845062056
 40
0.9278150473
 40
0.9659619451
 40
1.0
 40
1.0
 40
1.0
 40
1.0
 10
17.1840298494
 20
11.9715211692
 30
0.0
 10
17.1819634222
 20
11.9728547413
 30
0.0
 10
17.1776538157
 20
11.9754001612
 30
0.0
 10
17.1685131247
 20
11.9799447071
 30
0.0
 10
17.1563577717
 20
11.9844810879
 30
0.0
 10
17.1413596057
 20
11.987916107
 30
0.0
 10
17.1288885754
 20
11.9890088625
 30
0.0
 10
17.1194121914
 20
11.9887058957
 30
0.0
 10
17.1128945338
 20
11.9879324237
 30
0.0
 10
17.1069308653
 20
11.9866383902
 30
0.0
 10
17.1016263683
 20
11.9848718232
 30
0.0
 10
17.0970739098
 20
11.9826931694
 30
0.0
 10
17.0933325796
 20
11.9801941329
 30
0.0
 10
17.0904234366
 20
11.9774566409
 30
0.0
 10
17.0889596476
 20
11.9754253415
 30
0.0
 10
17.0883810388
 20
11.9744068172
 30
0.0
  0
SPLINE
  5
673
100
AcDbEntity
  8
0
100
AcDbSpline
 62
7
  6
CONTINUOUS
 70
0
 71
3
 72
9
 73
5
 74
0
 42
0.0000001
 43
0.0000001
 44
0.0000000001
 40
0.0
 40
0.0
 40
0.0
 40
0.0
 40
0.5257522719
 40
1.0
 40
1.0
 40
1.0
 40
1.0
 10
16.7705708693
 20
12.0078234277
 30
0.0
 10
16.7705603189
 20
12.0086871713
 30
0.0
 10
16.7706330123
 20
12.0103323442
 30
0.0
 10
16.7709112405
 20
12.0119589485
 30
0.0
 10
16.7711129181
 20
12.0127115823
 30
0.0
  0
SPLINE
  5
674
100
AcDbEntity
  8
0
100
AcDbSpline
 62
7
  6
CONTINUOUS
 70
0
 71
3
 72
13
 73
9
 74
0
 42
0.0000001
 43
0.0000001
 44
0.0000000001
 40
0.0
 40
0.0
 40
0.0
 40
0.0
 40
0.3065667038
 40
0.5922548206
 40
0.7203077134
 40
0.8339031089
 40
0.9286847767
 40
1.0
 40
1.0
 40
1.0
 40
1.0
 10
16.9712288127
 20
11.9544968355
 30
0.0
 10
16.971224906
 20
11.9554618922
 30
0.0
 10
16.9711395089
 20
11.9573267861
 30
0.0
 10
16.9708409097
 20
11.9595782863
 30
0.0
 10
16.9704936763
 20
11.961202315
 30
0.0
 10
16.970215451
 20
11.9622249208
 30
0.0
 10
16.9699289007
 20
11.9630580494
 30
0.0
 10
16.9697243655
 20
11.9635400424
 30
0.0
 10
16.9696254643
 20
11.9637415819
 30
0.0
  0
SPLINE
  5
675
100
AcDbEntity
  8
0
100
AcDbSpline
 62
7
  6
CONTINUOUS
 70
0
 71
3
 72
11
 73
7
 74
0
 42
0.0000001
 43
0.0000001
 44
0.0000000001
 40
0.0
 40
0.0
 40
0.0
 40
0.0
 40
0.2409507058
 40
0.4855439049
 40
0.7375598123
 40
1.0
 40
1.0
 40
1.0
 40
1.0
 10
17.3739805636
 20
11.9780091953
 30
0.0
 10
17.3727862212
 20
11.9741443018
 30
0.0
 10
17.3696406474
 20
11.9665639206
 30
0.0
 10
17.36285316
 20
11.9561324692
 30
0.0
 10
17.3541469744
 20
11.946750322
 30
0.0
 10
17.34733153
 20
11.9413862812
 30
0.0
 10
17.3436933259
 20
11.9389010551
 30
0.0
  0
SPLINE
  5
676
100
AcDbEntity
  8
0
100
AcDbSpline
 62
7
  6
CONTINUOUS
 70
0
 71
3
 72
11
 73
7
 74
0
 42
0.0000001
 43
0.0000001
 44
0.0000000001
 40
0.0
 40
0.0
 40
0.0
 40
0.0
 40
0.2393722067
 40
0.4830113215
 40
0.7354351767
 40
1.0
 40
1.0
 40
1.0
 40
1.0
 10
17.3981871959
 20
12.0563418863
 30
0.0
 10
17.3994920722
 20
12.0605644676
 30
0.0
 10
17.4012541528
 20
12.0693805134
 30
0.0
 10
17.4012198569
 20
12.0830395442
 30
0.0
 10
17.3986003575
 20
12.0969084542
 30
0.0
 10
17.3952946685
 20
12.1059100125
 30
0.0
 10
17.3932936353
 20
12.1103660844
 30
0.0
  0
SPLINE
  5
677
100
AcDbEntity
  8
0
100
AcDbSpline
 62
7
  6
CONTINUOUS
 70
0
 71
3
 72
19
 73
15
 74
0
 42
0.0000001
 43
0.0000001
 44
0.0000000001
 40
0.0
 40
0.0
 40
0.0
 40
0.0
 40
0.0504380981
 40
0.1032808089
 40
0.1585232337
 40
0.2161647651
 40
0.2761085402
 40
0.3381560691
 40
0.4674147209
 40
0.6013896264
 40
0.7369618298
 40
0.8708427371
 40
0.9362217373
 40
1.0
 40
1.0
 40
1.0
 40
1.0
 10
17.38107428
 20
12.1354060303
 30
0.0
 10
17.3795357624
 20
12.1385411994
 30
0.0
 10
17.3760025815
 20
12.1447782261
 30
0.0
 10
17.36962835
 20
12.1537337268
 30
0.0
 10
17.3621250861
 20
12.1624357053
 30
0.0
 10
17.3535694294
 20
12.1708201917
 30
0.0
 10
17.3440387883
 20
12.1788295363
 30
0.0
 10
17.3299540812
 20
12.1890605258
 30
0.0
 10
17.3104494612
 20
12.2004510657
 30
0.0
 10
17.2850772519
 20
12.2114950458
 30
0.0
 10
17.2583222712
 20
12.2197179402
 30
0.0
 10
17.2354816584
 20
12.2240121606
 30
0.0
 10
17.2173436238
 20
12.2257567582
 30
0.0
 10
17.2083982805
 20
12.2260575533
 30
0.0
 10
17.2039822871
 20
12.2260575533
 30
0.0
  0
SPLINE
  5
678
100
AcDbEntity
  8
0
100
AcDbSpline
 62
7
  6
CONTINUOUS
 70
0
 71
3
 72
11
 73
7
 74
0
 42
0.0000001
 43
0.0000001
 44
0.0000000001
 40
0.0
 40
0.0
 40
0.0
 40
0.0
 40
0.2409507058
 40
0.4855439049
 40
0.7375598123
 40
1.0
 40
1.0
 40
1.0
 40
1.0
 10
17.5264823473
 20
12.4715051484
 30
0.0
 10
17.5252880049
 20
12.4676402549
 30
0.0
 10
17.5221424311
 20
12.4600598737
 30
0.0
 10
17.5153549438
 20
12.4496284222
 30
0.0
 10
17.5066487582
 20
12.4402462751
 30
0.0
 10
17.4998333138
 20
12.4348822342
 30
0.0
 10
17.4961951097
 20
12.4323970082
 30
0.0
  0
SPLINE
  5
679
100
AcDbEntity
  8
0
100
AcDbSpline
 62
7
  6
CONTINUOUS
 70
0
 71
3
 72
11
 73
7
 74
0
 42
0.0000001
 43
0.0000001
 44
0.0000000001
 40
0.0
 40
0.0
 40
0.0
 40
0.0
 40
0.2274615423
 40
0.470128219
 40
0.7279596982
 40
1.0
 40
1.0
 40
1.0
 40
1.0
 10
17.5335760637
 20
12.6289019833
 30
0.0
 10
17.5313848227
 20
12.6333672631
 30
0.0
 10
17.5260725576
 20
12.6422235158
 30
0.0
 10
17.5160482591
 20
12.6546415959
 30
0.0
 10
17.5039095707
 20
12.6664411452
 30
0.0
 10
17.4947808756
 20
12.6736129829
 30
0.0
 10
17.4899378975
 20
12.6770674677
 30
0.0
  0
SPLINE
  5
67A
100
AcDbEntity
  8
0
100
AcDbSpline
 62
7
  6
CONTINUOUS
 70
0
 71
3
 72
14
 73
10
 74
0
 42
0.0000001
 43
0.0000001
 44
0.0000000001
 40
0.0
 40
0.0
 40
0.0
 40
0.0
 40
0.1189154604
 40
0.2383107147
 40
0.3589163104
 40
0.4813995154
 40
0.6063280427
 40
0.7341688252
 40
1.0
 40
1.0
 40
1.0
 40
1.0
 10
17.5506889797
 20
12.5498378394
 30
0.0
 10
17.5513801576
 20
12.552074492
 30
0.0
 10
17.5525233276
 20
12.5566356238
 30
0.0
 10
17.5535013907
 20
12.5636460327
 30
0.0
 10
17.5537435036
 20
12.570790817
 30
0.0
 10
17.5532553886
 20
12.5780308678
 30
0.0
 10
17.5520523057
 20
12.585331092
 30
0.0
 10
17.5494793155
 20
12.5952217011
 30
0.0
 10
17.5465579988
 20
12.6024475809
 30
0.0
 10
17.544252529
 20
12.6071456344
 30
0.0
  0
SPLINE
  5
67B
100
AcDbEntity
  8
0
100
AcDbSpline
 62
7
  6
CONTINUOUS
 70
0
 71
3
 72
17
 73
13
 74
0
 42
0.0000001
 43
0.0000001
 44
0.0000000001
 40
0.0
 40
0.0
 40
0.0
 40
0.0
 40
0.0464055737
 40
0.093500396
 40
0.1419275167
 40
0.1922401852
 40
0.2999920253
 40
0.4190973548
 40
0.5499944674
 40
0.6917582804
 40
0.8426632616
 40
1.0
 40
1.0
 40
1.0
 40
1.0
 10
17.2937953751
 20
12.5695331788
 30
0.0
 10
17.2940702123
 20
12.5704220855
 30
0.0
 10
17.2947605657
 20
12.5721739218
 30
0.0
 10
17.2961882376
 20
12.5746465326
 30
0.0
 10
17.2980010455
 20
12.5769528671
 30
0.0
 10
17.3009748824
 20
12.5798481995
 30
0.0
 10
17.3056487209
 20
12.5829482269
 30
0.0
 10
17.3123255184
 20
12.5856662394
 30
0.0
 10
17.3200118536
 20
12.5874204735
 30
0.0
 10
17.3284937221
 20
12.5881708702
 30
0.0
 10
17.3375302341
 20
12.5878974962
 30
0.0
 10
17.3436654912
 20
12.5870533999
 30
0.0
 10
17.3467654911
 20
12.5864691333
 30
0.0
  0
SPLINE
  5
67C
100
AcDbEntity
  8
0
100
AcDbSpline
 62
7
  6
CONTINUOUS
 70
0
 71
3
 72
13
 73
9
 74
0
 42
0.0000001
 43
0.0000001
 44
0.0000000001
 40
0.0
 40
0.0
 40
0.0
 40
0.0
 40
0.1239910328
 40
0.2500783662
 40
0.5046894688
 40
0.7568838841
 40
0.8800205709
 40
1.0
 40
1.0
 40
1.0
 40
1.0
 10
17.5109347624
 20
12.8213580639
 30
0.0
 10
17.5066427764
 20
12.8237401654
 30
0.0
 10
17.4978240188
 20
12.8282583803
 30
0.0
 10
17.4794956096
 20
12.8362391223
 30
0.0
 10
17.4556411256
 20
12.8441135365
 30
0.0
 10
17.431126441
 20
12.8490522843
 30
0.0
 10
17.4116096729
 20
12.8510656528
 30
0.0
 10
17.4019818072
 20
12.8514135361
 30
0.0
 10
17.397231902
 20
12.8514135361
 30
0.0
  0
SPLINE
  5
67D
100
AcDbEntity
  8
0
100
AcDbSpline
 62
7
  6
CONTINUOUS
 70
0
 71
3
 72
13
 73
9
 74
0
 42
0.0000001
 43
0.0000001
 44
0.0000000001
 40
0.0
 40
0.0
 40
0.0
 40
0.0
 40
0.3301126155
 40
0.6037873974
 40
0.7193311719
 40
0.8219200688
 40
0.9141222336
 40
1.0
 40
1.0
 40
1.0
 40
1.0
 10
17.2485371244
 20
12.6219040668
 30
0.0
 10
17.2486740179
 20
12.6223470544
 30
0.0
 10
17.2489711042
 20
12.6231439951
 30
0.0
 10
17.2494808189
 20
12.6240267091
 30
0.0
 10
17.2499421553
 20
12.6245441793
 30
0.0
 10
17.2502850078
 20
12.6248176299
 30
0.0
 10
17.250641459
 20
12.6249940643
 30
0.0
 10
17.2508904019
 20
12.6250438578
 30
0.0
 10
17.2510108556
 20
12.6250501703
 30
0.0
  0
SPLINE
  5
67E
100
AcDbEntity
  8
0
100
AcDbSpline
 62
7
  6
CONTINUOUS
 70
0
 71
3
 72
11
 73
7
 74
0
 42
0.0000001
 43
0.0000001
 44
0.0000000001
 40
0.0
 40
0.0
 40
0.0
 40
0.0
 40
0.2280761198
 40
0.483446324
 40
0.7469628066
 40
1.0
 40
1.0
 40
1.0
 40
1.0
 10
17.2586608158
 20
11.91556674
 30
0.0
 10
17.2579151048
 20
11.91556674
 30
0.0
 10
17.2563323725
 20
11.9153883562
 30
0.0
 10
17.2539835994
 20
11.9146766129
 30
0.0
 10
17.2517190251
 20
11.9135352893
 30
0.0
 10
17.2503558057
 20
11.9125197955
 30
0.0
 10
17.2497438764
 20
11.9119630138
 30
0.0
  0
LINE
  5
67F
100
AcDbEntity
  8
0
100
AcDbLine
 62
7
  6
CONTINUOUS
 10
17.2497438764
 20
11.9119630138
 11
17.2482893201
 21
11.9103658773
  0
SPLINE
  5
680
100
AcDbEntity
  8
0
100
AcDbSpline
 62
7
  6
CONTINUOUS
 70
0
 71
3
 72
10
 73
6
 74
0
 42
0.0000001
 43
0.0000001
 44
0.0000000001
 40
0.0
 40
0.0
 40
0.0
 40
0.0
 40
0.5218832769
 40
0.7713026939
 40
1.0
 40
1.0
 40
1.0
 40
1.0
 10
17.1276713099
 20
12.2260566685
 30
0.0
 10
17.1275794476
 20
12.2272459552
 30
0.0
 10
17.1275915986
 20
12.2290202802
 30
0.0
 10
17.1279016984
 20
12.2312866655
 30
0.0
 10
17.1281565199
 20
12.2323522877
 30
0.0
 10
17.1283108504
 20
12.2328517017
 30
0.0
  0
LINE
  5
681
100
AcDbEntity
  8
0
100
AcDbLine
 62
7
  6
CONTINUOUS
 10
16.7785322223
 20
12.0051502955
 11
16.7705709212
 21
12.0078241224
  0
SPLINE
  5
682
100
AcDbEntity
  8
0
100
AcDbSpline
 62
7
  6
CONTINUOUS
 70
0
 71
3
 72
13
 73
9
 74
0
 42
0.0000001
 43
0.0000001
 44
0.0000000001
 40
0.0
 40
0.0
 40
0.0
 40
0.0
 40
0.3316761279
 40
0.6056751872
 40
0.7206378
 40
0.8224620443
 40
0.9140797662
 40
1.0
 40
1.0
 40
1.0
 40
1.0
 10
17.1227512024
 20
12.222904303
 30
0.0
 10
17.1228910591
 20
12.2233568795
 30
0.0
 10
17.1231953194
 20
12.2241693237
 30
0.0
 10
17.1237193943
 20
12.2250665563
 30
0.0
 10
17.124195309
 20
12.2255849376
 30
0.0
 10
17.1245483928
 20
12.2258532722
 30
0.0
 10
17.1249157547
 20
12.2260188239
 30
0.0
 10
17.1251705087
 20
12.2260572219
 30
0.0
 10
17.1252932182
 20
12.2260573541
 30
0.0
  0
SPLINE
  5
683
100
AcDbEntity
  8
0
100
AcDbSpline
 62
7
  6
CONTINUOUS
 70
0
 71
3
 72
14
 73
10
 74
0
 42
0.0000001
 43
0.0000001
 44
0.0000000001
 40
0.0
 40
0.0
 40
0.0
 40
0.0
 40
0.1025508213
 40
0.2192253901
 40
0.3465813711
 40
0.4808552616
 40
0.7525189757
 40
0.8814528471
 40
1.0
 40
1.0
 40
1.0
 40
1.0
 10
17.25157115
 20
12.6263597578
 30
0.0
 10
17.2513914437
 20
12.6267259607
 30
0.0
 10
17.2510730712
 20
12.6275412909
 30
0.0
 10
17.2507205442
 20
12.6288761195
 30
0.0
 10
17.2504742078
 20
12.6303628037
 30
0.0
 10
17.2503000958
 20
12.6324783704
 30
0.0
 10
17.2503630995
 20
12.6346154178
 30
0.0
 10
17.2506720378
 20
12.6366589243
 30
0.0
 10
17.2509071301
 20
12.637617037
 30
0.0
 10
17.2510463538
 20
12.6380675651
 30
0.0
  0
SPLINE
  5
684
100
AcDbEntity
  8
0
100
AcDbSpline
 62
7
  6
CONTINUOUS
 70
0
 71
3
 72
11
 73
7
 74
0
 42
0.0000001
 43
0.0000001
 44
0.0000000001
 40
0.0
 40
0.0
 40
0.0
 40
0.0
 40
0.1953962229
 40
0.4166912757
 40
0.6825807512
 40
1.0
 40
1.0
 40
1.0
 40
1.0
 10
17.2510108556
 20
12.6250501703
 30
0.0
 10
17.2512004495
 20
12.6250601062
 30
0.0
 10
17.2516135918
 20
12.6249835418
 30
0.0
 10
17.2521743616
 20
12.624607081
 30
0.0
 10
17.2526858378
 20
12.6240077173
 30
0.0
 10
17.2529680969
 20
12.6235130793
 30
0.0
 10
17.2531039674
 20
12.6232362044
 30
0.0
  0
SPLINE
  5
685
100
AcDbEntity
  8
0
100
AcDbSpline
 62
7
  6
CONTINUOUS
 70
0
 71
3
 72
9
 73
5
 74
0
 42
0.0000001
 43
0.0000001
 44
0.0000000001
 40
0.0
 40
0.0
 40
0.0
 40
0.0
 40
0.5041544929
 40
1.0
 40
1.0
 40
1.0
 40
1.0
 10
16.7957298189
 20
12.001003775
 30
0.0
 10
16.7928064523
 20
12.0015493119
 30
0.0
 10
16.7870393095
 20
12.0028014885
 30
0.0
 10
16.7813360543
 20
12.0043177663
 30
0.0
 10
16.7785322223
 20
12.0051502955
 30
0.0
  0
ELLIPSE
  5
686
100
AcDbEntity
  8
0
100
AcDbEllipse
 62
7
  6
CONTINUOUS
 10
4.2434368884
 20
5.3601198968
 30
0.0
 11
0.0
 21
0.0083333333
 31
0.0
 40
0.0349207695
 41
-1.5707963268
 42
0.0
  0
ELLIPSE
  5
687
100
AcDbEntity
  8
0
100
AcDbEllipse
 62
7
  6
CONTINUOUS
 10
4.7434368884
 20
5.3601198968
 30
0.0
 11
0.0
 21
0.0083333333
 31
0.0
 40
0.0349207695
 41
-1.5707963268
 42
-0.0
  0
ELLIPSE
  5
688
100
AcDbEntity
  8
0
100
AcDbEllipse
 62
7
  6
CONTINUOUS
 10
5.2434368884
 20
5.3601198968
 30
0.0
 11
0.0
 21
0.0083333333
 31
0.0
 40
0.0349207695
 41
-1.5707963268
 42
-0.0
  0
ELLIPSE
  5
689
100
AcDbEntity
  8
0
100
AcDbEllipse
 62
7
  6
CONTINUOUS
 10
5.7434368884
 20
5.3601198968
 30
0.0
 11
0.0
 21
0.0083333333
 31
0.0
 40
0.0349207695
 41
-1.5707963268
 42
-0.0
  0
ELLIPSE
  5
68A
100
AcDbEntity
  8
0
100
AcDbEllipse
 62
7
  6
CONTINUOUS
 10
6.2434368884
 20
5.3601198968
 30
0.0
 11
0.0
 21
0.0083333333
 31
0.0
 40
0.0349207695
 41
-1.5707963268
 42
-0.0
  0
ELLIPSE
  5
68B
100
AcDbEntity
  8
0
100
AcDbEllipse
 62
7
  6
CONTINUOUS
 10
6.7434368884
 20
5.3601198968
 30
0.0
 11
0.0
 21
0.0083333333
 31
0.0
 40
0.0349207695
 41
-1.5707963268
 42
-0.0
  0
ELLIPSE
  5
68C
100
AcDbEntity
  8
0
100
AcDbEllipse
 62
7
  6
CONTINUOUS
 10
7.2434368884
 20
5.3601198968
 30
0.0
 11
0.0
 21
0.0083333333
 31
0.0
 40
0.0349207695
 41
-1.5707963268
 42
-0.0
  0
ELLIPSE
  5
68D
100
AcDbEntity
  8
0
100
AcDbEllipse
 62
7
  6
CONTINUOUS
 10
7.7434368884
 20
5.3601198968
 30
0.0
 11
-0.0
 21
0.0083333333
 31
0.0
 40
0.0349207695
 41
-1.5707963268
 42
-0.0
  0
ENDSEC
  0
SECTION
  2
OBJECTS
  0
DICTIONARY
  5
C
100
AcDbDictionary
280
0
281
1
  3
ACAD_GROUP
350
D
  3
ACAD_MLINESTYLE
350
17
  3
ACAD_LAYOUT
350
1A
  3
ACAD_PLOTSETTINGS
350
19
  3
ACAD_PLOTSTYLENAME
350
E
  0
DICTIONARY
  5
D
102
{ACAD_REACTORS
330
C
102
}
100
AcDbDictionary
280
0
281
1
  0
ACDBDICTIONARYWDFLT
  5
E
102
{ACAD_REACTORS
330
C
102
}
100
AcDbDictionary
281
1
  3
Normal
350
F
100
AcDbDictionaryWithDefault
340
F
  0
DICTIONARY
  5
17
102
{ACAD_REACTORS
330
C
102
}
100
AcDbDictionary
280
0
281
1
  3
Standard
350
18
  0
DICTIONARY
  5
19
102
{ACAD_REACTORS
330
C
102
}
100
AcDbDictionary
281
1
  0
DICTIONARY
  5
1A
102
{ACAD_REACTORS
330
C
102
}
100
AcDbDictionary
281
1
  3
Model
350
68E
  3
Layout1
350
68F
  0
ACDBPLACEHOLDER
  5
F
102
{ACAD_REACTORS
330
E
102
}
  0
MLINESTYLE
  5
18
102
{ACAD_REACTORS
330
17
102
}
100
AcDbMlineStyle
  2
STANDARD
 70
0
  3

 62
256
 51
90.0
 52
90.0
 71
2
 49
0.5
 62
256
  6
BYLAYER
 49
-0.5
 62
256
  6
BYLAYER
  0
LAYOUT
  5
68E
102
{ACAD_REACTORS
330
1A
102
}
100
AcDbPlotSettings
  1

  2
none_device
  4
ANSI_C_(22.00_x_17.00_Inches)
  6

 40
0.0
 41
0.0
 42
0.0
 43
0.0
 44
558.8
 45
431.8
 46
0.0
 47
0.0
 48
0.0
 49
0.0
140
0.0
141
0.0
142
1.0
143
1.0
 70
1024
 72
0
 73
0
 74
0
  7

 75
0
147
1.0
148
0.0
149
0.0
100
AcDbLayout
  1
Model
 70
0
 71
0
 10
0.0
 20
0.0
 11
22.0
 21
17.0
 12
0.0
 22
0.0
 32
0.0
 14
0.0
 24
0.0
 34
0.0
 15
0.0
 25
0.0
 35
0.0
146
0.0
 13
0.0
 23
0.0
 33
0.0
 16
1.0
 26
0.0
 36
0.0
 17
0.0
 27
1.0
 37
0.0
 76
0
330
218
345
0
346
0
  0
LAYOUT
  5
68F
102
{ACAD_REACTORS
330
1A
102
}
100
AcDbPlotSettings
  1

  2
none_device
  4
ANSI_C_(22.00_x_17.00_Inches)
  6

 40
0.0
 41
0.0
 42
0.0
 43
0.0
 44
558.8
 45
431.8
 46
0.0
 47
0.0
 48
0.0
 49
0.0
140
0.0
141
0.0
142
1.0
143
1.0
 70
0
 72
0
 73
0
 74
0
  7

 75
0
147
1.0
148
0.0
149
0.0
100
AcDbLayout
  1
Layout1
 70
0
 71
1
 10
0.0
 20
0.0
 11
22.0
 21
17.0
 12
0.0
 22
0.0
 32
0.0
 14
0.0
 24
0.0
 34
0.0
 15
0.0
 25
0.0
 35
0.0
146
0.0
 13
0.0
 23
0.0
 33
0.0
 16
1.0
 26
0.0
 36
0.0
 17
0.0
 27
1.0
 37
0.0
 76
0
330
219
345
0
346
0
  0
ENDSEC
  0
EOF