999
DXF file: _cgs_temp_output.dxf
999
Pro/ENGINEER 2016360 by Parametric Technology Corporation
  0
SECTION
  2
HEADER
  9
$ACADVER
  1
AC1021
  9
$DWGCODEPAGE
  3
ANSI_1252
  9
$EXTMAX
 10
22.0
 20
17.0
 30
0.0
  9
$EXTMIN
 10
0.0
 20
0.0
 30
0.0
  9
$LIMMIN
 10
0.0
 20
0.0
  9
$LIMMAX
 10
22.0
 20
17.0
  9
$VIEWCTR
 10
11.0
 20
8.5
  9
$VIEWSIZE
 40
17.0
  9
$CLAYER
  8
0
  9
$LTSCALE
 40
1.21
  9
$CELTYPE
  6
BYLAYER
  9
$DIMSCALE
 40
1.0
  9
$DIMASZ
 40
0.1875
  9
$DIMEXO
 40
0.0625
  9
$DIMDLI
 40
0.836
  9
$DIMEXE
 40
0.125
  9
$DIMCEN
 40
0.198
  9
$DIMLFAC
 40
1.0
  9
$DIMBLK
  1
_CLOSED
  9
$DIMALT
 70
0
  9
$DIMALTF
 40
25.4
  9
$DIMTXT
 40
0.15625
  9
$DIMTOL
 70
0
  9
$DIMLIM
 70
0
  9
$DIMTFAC
 40
1.0
  9
$DIMGAP
 40
0.09
  9
$DIMDSEP
 70
46
  9
$AUNITS
 70
0
  9
$PDMODE
 70
3
  9
$PDSIZE
 40
0.3125
  9
$HANDSEED
  5
610
  9
$TILEMODE
 70
1
  9
$MEASUREMENT
 70
0
  9
$INSUNITS
 70
1
  0
ENDSEC
  0
SECTION
  2
CLASSES
  0
CLASS
  1
ACDBDICTIONARYWDFLT
  2
AcDbDictionaryWithDefault
  3
AutoCAD 2000
 90
0
 91
1
280
0
281
0
  0
CLASS
  1
ACDBPLACEHOLDER
  2
AcDbPlaceHolder
  3
AutoCAD 2000
 90
0
 91
1
280
0
281
0
  0
CLASS
  1
LAYOUT
  2
AcDbLayout
  3
AutoCAD 2000
 90
0
 91
0
280
0
281
0
  0
ENDSEC
  0
SECTION
  2
TABLES
  0
TABLE
  2
VPORT
  5
8
100
AcDbSymbolTable
 70
2
  0
VPORT
  5
1F4
100
AcDbSymbolTableRecord
100
AcDbViewportTableRecord
  2
*ACTIVE
 70
0
 10
0.0
 20
0.0
 11
1.0
 21
1.0
 12
11.0
 22
8.5
 13
0.0
 23
0.0
 14
1.0
 24
1.0
 15
0.0
 25
0.0
 16
0.0
 26
0.0
 36
1.0
 17
0.0
 27
0.0
 37
0.0
 40
17.0
 41
1.2941176471
 42
50.0
 43
0.0
 44
0.0
 50
0.0
 51
0.0
 71
0
 72
100
 73
1
 74
1
 75
0
 76
0
 77
0
 78
0
  0
ENDTAB
  0
TABLE
  2
LTYPE
  5
5
100
AcDbSymbolTable
 70
6
  0
LTYPE
  5
14
100
AcDbSymbolTableRecord
100
AcDbLinetypeTableRecord
  2
BYBLOCK
 70
0
  3

 72
65
 73
0
 40
0.0
  0
LTYPE
  5
15
100
AcDbSymbolTableRecord
100
AcDbLinetypeTableRecord
  2
BYLAYER
 70
0
  3

 72
65
 73
0
 40
0.0
  0
LTYPE
  5
16
100
AcDbSymbolTableRecord
100
AcDbLinetypeTableRecord
  2
CONTINUOUS
 70
64
  3
Solid line
 72
65
 73
0
 40
0.0
  0
LTYPE
  5
1F5
100
AcDbSymbolTableRecord
100
AcDbLinetypeTableRecord
  2
CENTER
 70
64
  3
____ _ ____ _ ____ _ ____ _ ____ _ ____ _ ____
 72
65
 73
4
 40
0.6
 49
0.375
 74
0
 49
-0.075
 74
0
 49
0.075
 74
0
 49
-0.075
 74
0
  0
LTYPE
  5
1F6
100
AcDbSymbolTableRecord
100
AcDbLinetypeTableRecord
  2
HIDDEN
 70
64
  3
- - - - - - - - - - - - - - - - - - - -
 72
65
 73
2
 40
0.2
 49
0.1
 74
0
 49
-0.1
 74
0
  0
LTYPE
  5
1F7
100
AcDbSymbolTableRecord
100
AcDbLinetypeTableRecord
  2
PHANTOM
 70
64
  3
_____ _ _ _____ _ _ _____ _ _ _____
 72
65
 73
6
 40
0.8
 49
0.45
 74
0
 49
-0.05
 74
0
 49
0.1
 74
0
 49
-0.05
 74
0
 49
0.1
 74
0
 49
-0.05
 74
0
  0
LTYPE
  5
1F8
100
AcDbSymbolTableRecord
100
AcDbLinetypeTableRecord
  2
DOT
 70
64
  3
. . . . . . . . . . . . . . . . . . . .
 72
65
 73
2
 40
0.2
 49
0.1
 74
0
 49
-0.1
 74
0
  0
LTYPE
  5
1F9
100
AcDbSymbolTableRecord
100
AcDbLinetypeTableRecord
  2
DASHED
 70
64
  3
- - - - - - - - - - - - - - - - - - - -
 72
65
 73
2
 40
0.2
 49
0.1
 74
0
 49
-0.1
 74
0
  0
ENDTAB
  0
TABLE
  2
LAYER
  5
2
100
AcDbSymbolTable
 70
36
  0
LAYER
  5
10
100
AcDbSymbolTableRecord
100
AcDbLayerTableRecord
  2
0
 70
0
 62
7
  6
CONTINUOUS
370
-3
390
F
  0
LAYER
  5
1FA
100
AcDbSymbolTableRecord
100
AcDbLayerTableRecord
  2
DEFAULT_1
 70
0
 62
7
  6
CENTER
370
-3
390
F
  0
LAYER
  5
1FB
100
AcDbSymbolTableRecord
100
AcDbLayerTableRecord
  2
DEFAULT_2
 70
0
 62
8
  6
HIDDEN
370
-3
390
F
  0
LAYER
  5
1FC
100
AcDbSymbolTableRecord
100
AcDbLayerTableRecord
  2
DEFAULT_3
 70
0
 62
7
  6
PHANTOM
370
-3
390
F
  0
LAYER
  5
1FD
100
AcDbSymbolTableRecord
100
AcDbLayerTableRecord
  2
01_ALL_DTM_PLN
 70
0
 62
7
  6
CONTINUOUS
370
-3
390
F
  0
LAYER
  5
1FE
100
AcDbSymbolTableRecord
100
AcDbLayerTableRecord
  2
01__ASM_ALL_DTM_PLN
 70
0
 62
7
  6
CONTINUOUS
370
-3
390
F
  0
LAYER
  5
1FF
100
AcDbSymbolTableRecord
100
AcDbLayerTableRecord
  2
01__ASM_DEF_DTM_PLN
 70
0
 62
7
  6
CONTINUOUS
370
-3
390
F
  0
LAYER
  5
200
100
AcDbSymbolTableRecord
100
AcDbLayerTableRecord
  2
01___PRT_ALL_DTM_PLN
 70
0
 62
7
  6
CONTINUOUS
370
-3
390
F
  0
LAYER
  5
201
100
AcDbSymbolTableRecord
100
AcDbLayerTableRecord
  2
01___PRT_DEF_DTM_PLN
 70
0
 62
7
  6
CONTINUOUS
370
-3
390
F
  0
LAYER
  5
202
100
AcDbSymbolTableRecord
100
AcDbLayerTableRecord
  2
02_ALL_AXES
 70
0
 62
7
  6
CONTINUOUS
370
-3
390
F
  0
LAYER
  5
203
100
AcDbSymbolTableRecord
100
AcDbLayerTableRecord
  2
02__ASM_ALL_AXES
 70
0
 62
7
  6
CONTINUOUS
370
-3
390
F
  0
LAYER
  5
204
100
AcDbSymbolTableRecord
100
AcDbLayerTableRecord
  2
02___PRT_ALL_AXES
 70
0
 62
7
  6
CONTINUOUS
370
-3
390
F
  0
LAYER
  5
205
100
AcDbSymbolTableRecord
100
AcDbLayerTableRecord
  2
03_ALL_CURVES
 70
0
 62
7
  6
CONTINUOUS
370
-3
390
F
  0
LAYER
  5
206
100
AcDbSymbolTableRecord
100
AcDbLayerTableRecord
  2
03__ASM_ALL_CURVES
 70
0
 62
7
  6
CONTINUOUS
370
-3
390
F
  0
LAYER
  5
207
100
AcDbSymbolTableRecord
100
AcDbLayerTableRecord
  2
03___PRT_ALL_CURVES
 70
0
 62
7
  6
CONTINUOUS
370
-3
390
F
  0
LAYER
  5
208
100
AcDbSymbolTableRecord
100
AcDbLayerTableRecord
  2
04_ALL_DTM_PNT
 70
0
 62
7
  6
CONTINUOUS
370
-3
390
F
  0
LAYER
  5
209
100
AcDbSymbolTableRecord
100
AcDbLayerTableRecord
  2
04__ASM_ALL_DTM_PNT
 70
0
 62
7
  6
CONTINUOUS
370
-3
390
F
  0
LAYER
  5
20A
100
AcDbSymbolTableRecord
100
AcDbLayerTableRecord
  2
04___PRT_ALL_DTM_PNT
 70
0
 62
7
  6
CONTINUOUS
370
-3
390
F
  0
LAYER
  5
20B
100
AcDbSymbolTableRecord
100
AcDbLayerTableRecord
  2
05_ALL_DTM_CSYS
 70
0
 62
7
  6
CONTINUOUS
370
-3
390
F
  0
LAYER
  5
20C
100
AcDbSymbolTableRecord
100
AcDbLayerTableRecord
  2
05__ASM_ALL_DTM_CSYS
 70
0
 62
7
  6
CONTINUOUS
370
-3
390
F
  0
LAYER
  5
20D
100
AcDbSymbolTableRecord
100
AcDbLayerTableRecord
  2
05__ASM_DEF_DTM_CSYS
 70
0
 62
7
  6
CONTINUOUS
370
-3
390
F
  0
LAYER
  5
20E
100
AcDbSymbolTableRecord
100
AcDbLayerTableRecord
  2
05___PRT_ALL_DTM_CSYS
 70
0
 62
7
  6
CONTINUOUS
370
-3
390
F
  0
LAYER
  5
20F
100
AcDbSymbolTableRecord
100
AcDbLayerTableRecord
  2
05___PRT_DEF_DTM_CSYS
 70
0
 62
7
  6
CONTINUOUS
370
-3
390
F
  0
LAYER
  5
210
100
AcDbSymbolTableRecord
100
AcDbLayerTableRecord
  2
06_ALL_SURFS
 70
0
 62
7
  6
CONTINUOUS
370
-3
390
F
  0
LAYER
  5
211
100
AcDbSymbolTableRecord
100
AcDbLayerTableRecord
  2
06__ASM_ALL_SURFS
 70
0
 62
7
  6
CONTINUOUS
370
-3
390
F
  0
LAYER
  5
212
100
AcDbSymbolTableRecord
100
AcDbLayerTableRecord
  2
06___PRT_ALL_SURFS
 70
0
 62
7
  6
CONTINUOUS
370
-3
390
F
  0
LAYER
  5
213
100
AcDbSymbolTableRecord
100
AcDbLayerTableRecord
  2
07__ASM_ALL_SKELETONS
 70
0
 62
7
  6
CONTINUOUS
370
-3
390
F
  0
LAYER
  5
214
100
AcDbSymbolTableRecord
100
AcDbLayerTableRecord
  2
DRAWINGS
 70
0
 62
7
  6
CONTINUOUS
370
-3
390
F
  0
LAYER
  5
215
100
AcDbSymbolTableRecord
100
AcDbLayerTableRecord
  2
SHELL
 70
0
 62
7
  6
CONTINUOUS
370
-3
390
F
  0
ENDTAB
  0
TABLE
  2
STYLE
  5
3
100
AcDbSymbolTable
 70
1
  0
STYLE
  5
11
100
AcDbSymbolTableRecord
100
AcDbTextStyleTableRecord
  2
STANDARD
 70
0
 40
0.0
 41
0.8
 50
0.0
 71
0
 42
0.2
  3
txt
  4

  0
STYLE
  5
216
100
AcDbSymbolTableRecord
100
AcDbTextStyleTableRecord
  2
TEXTSTYLE_1
 70
0
 40
0.0
 41
0.8
 50
0.0
 71
0
 42
0.2
  3
gdt
  4

  0
ENDTAB
  0
TABLE
  2
VIEW
  5
6
100
AcDbSymbolTable
 70
0
  0
ENDTAB
  0
TABLE
  2
UCS
  5
7
100
AcDbSymbolTable
 70
0
  0
ENDTAB
  0
TABLE
  2
APPID
  5
9
100
AcDbSymbolTable
 70
1
  0
APPID
  5
217
100
AcDbSymbolTableRecord
100
AcDbRegAppTableRecord
  2
ACAD
 70
0
  0
ENDTAB
  0
TABLE
  2
BLOCK_RECORD
  5
1
100
AcDbSymbolTable
 70
0
  0
BLOCK_RECORD
  5
218
100
AcDbSymbolTableRecord
100
AcDbBlockTableRecord
  2
*Model_Space
  0
BLOCK_RECORD
  5
219
100
AcDbSymbolTableRecord
100
AcDbBlockTableRecord
  2
*Paper_Space
  0
ENDTAB
  0
TABLE
  2
DIMSTYLE
  5
A
100
AcDbSymbolTable
 70
1
100
AcDbDimStyleTable
 71
0
  0
DIMSTYLE
105
21A
100
AcDbSymbolTableRecord
100
AcDbDimStyleTableRecord
  2
STANDARD
 70
0
  3

  4

 40
1.0
 41
0.1875
 42
0.0625
 43
0.38
 44
0.125
 45
0.0
 46
0.0
 47
0.0001
 48
0.0001
140
0.15625
141
0.09
142
0.0
143
25.4
144
1.0
145
0.0
146
1.0
147
0.09
 71
0.0
 72
0.0
 73
1
 74
1
 75
0
 76
0
 77
0
 78
4
 79
1
170
0
171
3
172
0
173
0
174
0
175
0
176
0
177
0
178
0
270
2
179
4
271
4
272
4
273
2
274
2
275
0
280
0
281
0
282
0
283
1
284
4
285
0
286
0
287
3
288
0
340
11
278
46
  0
ENDTAB
  0
ENDSEC
  0
SECTION
  2
BLOCKS
  0
BLOCK
  5
20
100
AcDbEntity
  8
0
100
AcDbBlockBegin
  2
*Model_Space
 70
0
 10
0.0
 20
0.0
 30
0.0
  3
*Model_Space
  1

  0
ENDBLK
  5
21
100
AcDbEntity
  8
0
100
AcDbBlockEnd
  0
BLOCK
  5
1C
100
AcDbEntity
  8
0
100
AcDbBlockBegin
  2
*Paper_Space
 70
0
 10
0.0
 20
0.0
 30
0.0
  3
*Paper_Space
  1

  0
ENDBLK
  5
1D
100
AcDbEntity
  8
0
100
AcDbBlockEnd
  0
ENDSEC
  0
SECTION
  2
ENTITIES
  0
MTEXT
  5
21B
100
AcDbEntity
  8
0
100
AcDbMText
 62
7
  6
CONTINUOUS
  7
STANDARD
 71
1
 72
1
 10
15.9560215477
 20
0.9479130325
 30
0.0
 11
1.0
 21
0.0
 31
0.0
 44
0.9
  1
SCALE: 1:0.333
 40
0.3
 41
3.36
  0
LINE
  5
21C
100
AcDbEntity
  8
0
100
AcDbLine
 62
7
  6
CONTINUOUS
 10
0.0
 20
0.0
 11
0.0
 21
17.0
  0
LINE
  5
21D
100
AcDbEntity
  8
0
100
AcDbLine
 62
7
  6
CONTINUOUS
 10
0.0
 20
0.0
 11
22.0
 21
0.0
  0
LINE
  5
21E
100
AcDbEntity
  8
0
100
AcDbLine
 62
7
  6
CONTINUOUS
 10
0.0
 20
17.0
 11
22.0
 21
17.0
  0
LINE
  5
21F
100
AcDbEntity
  8
0
100
AcDbLine
 62
7
  6
CONTINUOUS
 10
22.0
 20
0.0
 11
22.0
 21
17.0
  0
LINE
  5
220
100
AcDbEntity
  8
0
100
AcDbLine
 62
7
  6
CONTINUOUS
 10
3.9637006119
 20
5.2217865634
 11
3.9637006119
 21
5.1875986391
  0
LINE
  5
221
100
AcDbEntity
  8
0
100
AcDbLine
 62
7
  6
CONTINUOUS
 10
4.1453672786
 20
5.0384532301
 11
4.1453281067
 21
5.0467865634
  0
LINE
  5
222
100
AcDbEntity
  8
0
100
AcDbLine
 62
7
  6
CONTINUOUS
 10
4.2189923495
 20
5.3560675533
 11
4.2189923495
 21
5.3601198968
  0
LINE
  5
223
100
AcDbEntity
  8
0
100
AcDbLine
 62
7
  6
CONTINUOUS
 10
4.3303672786
 20
5.0134532301
 11
4.3303672786
 21
5.2967865634
  0
LINE
  5
224
100
AcDbEntity
  8
0
100
AcDbLine
 62
7
  6
CONTINUOUS
 10
4.3470339452
 20
5.3601198968
 11
4.3470339452
 21
5.3684533881
  0
LINE
  5
225
100
AcDbEntity
  8
0
100
AcDbLine
 62
7
  6
CONTINUOUS
 10
4.3637730171
 20
5.3850471749
 11
4.3665733098
 21
6.0268229243
  0
LINE
  5
226
100
AcDbEntity
  8
0
100
AcDbLine
 62
7
  6
CONTINUOUS
 10
4.3941612473
 20
6.0268229243
 11
4.39696154
 21
5.3850471749
  0
LINE
  5
227
100
AcDbEntity
  8
0
100
AcDbLine
 62
7
  6
CONTINUOUS
 10
4.4137006119
 20
5.3684533881
 11
4.4137006119
 21
5.3601198968
  0
LINE
  5
228
100
AcDbEntity
  8
0
100
AcDbLine
 62
7
  6
CONTINUOUS
 10
4.6428672786
 20
5.1907963683
 11
4.6428672786
 21
5.2927767586
  0
LINE
  5
229
100
AcDbEntity
  8
0
100
AcDbLine
 62
7
  6
CONTINUOUS
 10
4.6470339452
 20
5.2959468195
 11
4.6470339452
 21
5.1876263074
  0
LINE
  5
22A
100
AcDbEntity
  8
0
100
AcDbLine
 62
7
  6
CONTINUOUS
 10
4.7189923495
 20
5.3560675533
 11
4.7189923495
 21
5.3601198968
  0
LINE
  5
22B
100
AcDbEntity
  8
0
100
AcDbLine
 62
7
  6
CONTINUOUS
 10
4.7970339452
 20
5.1867865634
 11
4.7970339452
 21
5.2217865634
  0
LINE
  5
22C
100
AcDbEntity
  8
0
100
AcDbLine
 62
7
  6
CONTINUOUS
 10
4.8941612473
 20
6.0268229243
 11
4.89696154
 21
5.3850471749
  0
LINE
  5
22D
100
AcDbEntity
  8
0
100
AcDbLine
 62
7
  6
CONTINUOUS
 10
4.8303672786
 20
5.0134532301
 11
4.8303672786
 21
5.2967865634
  0
LINE
  5
22E
100
AcDbEntity
  8
0
100
AcDbLine
 62
7
  6
CONTINUOUS
 10
4.8470339452
 20
5.3601198968
 11
4.8470339452
 21
5.3684533881
  0
LINE
  5
22F
100
AcDbEntity
  8
0
100
AcDbLine
 62
7
  6
CONTINUOUS
 10
4.9137006119
 20
5.3684533881
 11
4.9137006119
 21
5.3601198968
  0
LINE
  5
230
100
AcDbEntity
  8
0
100
AcDbLine
 62
7
  6
CONTINUOUS
 10
4.8637730171
 20
5.3850471749
 11
4.8665733098
 21
6.0268229243
  0
LINE
  5
231
100
AcDbEntity
  8
0
100
AcDbLine
 62
7
  6
CONTINUOUS
 10
4.6470339452
 20
5.1876263074
 11
4.6428672786
 21
5.1907963683
  0
LINE
  5
232
100
AcDbEntity
  8
0
100
AcDbLine
 62
7
  6
CONTINUOUS
 10
5.1428672786
 20
5.1907963683
 11
5.1428672786
 21
5.2927767586
  0
LINE
  5
233
100
AcDbEntity
  8
0
100
AcDbLine
 62
7
  6
CONTINUOUS
 10
5.1470339452
 20
5.2959468195
 11
5.1470339452
 21
5.1876263074
  0
LINE
  5
234
100
AcDbEntity
  8
0
100
AcDbLine
 62
7
  6
CONTINUOUS
 10
5.2189923495
 20
5.3560675533
 11
5.2189923495
 21
5.3601198968
  0
LINE
  5
235
100
AcDbEntity
  8
0
100
AcDbLine
 62
7
  6
CONTINUOUS
 10
5.3941612473
 20
6.0268229243
 11
5.39696154
 21
5.3850471749
  0
LINE
  5
236
100
AcDbEntity
  8
0
100
AcDbLine
 62
7
  6
CONTINUOUS
 10
5.2970339452
 20
5.1867865634
 11
5.2970339452
 21
5.2217865634
  0
LINE
  5
237
100
AcDbEntity
  8
0
100
AcDbLine
 62
7
  6
CONTINUOUS
 10
5.3303672786
 20
5.0134532301
 11
5.3303672786
 21
5.2967865634
  0
LINE
  5
238
100
AcDbEntity
  8
0
100
AcDbLine
 62
7
  6
CONTINUOUS
 10
5.3470339452
 20
5.3601198968
 11
5.3470339452
 21
5.3684533881
  0
LINE
  5
239
100
AcDbEntity
  8
0
100
AcDbLine
 62
7
  6
CONTINUOUS
 10
5.3637730171
 20
5.3850471749
 11
5.3665733098
 21
6.0268229243
  0
LINE
  5
23A
100
AcDbEntity
  8
0
100
AcDbLine
 62
7
  6
CONTINUOUS
 10
5.1470339452
 20
5.1876263074
 11
5.1428672786
 21
5.1907963683
  0
LINE
  5
23B
100
AcDbEntity
  8
0
100
AcDbLine
 62
7
  6
CONTINUOUS
 10
5.4137006119
 20
5.3684533881
 11
5.4137006119
 21
5.3601198968
  0
LINE
  5
23C
100
AcDbEntity
  8
0
100
AcDbLine
 62
7
  6
CONTINUOUS
 10
4.6870685384
 20
5.007301249
 11
4.7245248504
 21
5.0415257313
  0
LINE
  5
23D
100
AcDbEntity
  8
0
100
AcDbLine
 62
7
  6
CONTINUOUS
 10
4.6428672786
 20
5.2927767586
 11
4.6470339452
 21
5.2959468195
  0
LINE
  5
23E
100
AcDbEntity
  8
0
100
AcDbLine
 62
7
  6
CONTINUOUS
 10
5.6428672786
 20
5.1907963683
 11
5.6428672786
 21
5.2927767586
  0
LINE
  5
23F
100
AcDbEntity
  8
0
100
AcDbLine
 62
7
  6
CONTINUOUS
 10
5.6470339452
 20
5.2959468195
 11
5.6470339452
 21
5.1876263074
  0
LINE
  5
240
100
AcDbEntity
  8
0
100
AcDbLine
 62
7
  6
CONTINUOUS
 10
4.2413009896
 20
5.0051198968
 11
4.6814473666
 21
5.0051198968
  0
LINE
  5
241
100
AcDbEntity
  8
0
100
AcDbLine
 62
7
  6
CONTINUOUS
 10
4.7413009896
 20
5.0051198968
 11
5.1814473666
 21
5.0051198968
  0
LINE
  5
242
100
AcDbEntity
  8
0
100
AcDbLine
 62
7
  6
CONTINUOUS
 10
5.2413009896
 20
5.0051198968
 11
5.6814473666
 21
5.0051198968
  0
LINE
  5
243
100
AcDbEntity
  8
0
100
AcDbLine
 62
7
  6
CONTINUOUS
 10
5.7413009896
 20
5.0051198968
 11
6.1814473666
 21
5.0051198968
  0
LINE
  5
244
100
AcDbEntity
  8
0
100
AcDbLine
 62
7
  6
CONTINUOUS
 10
6.2413009896
 20
5.0051198968
 11
6.6814473666
 21
5.0051198968
  0
LINE
  5
245
100
AcDbEntity
  8
0
100
AcDbLine
 62
7
  6
CONTINUOUS
 10
6.7413009896
 20
5.0051198968
 11
7.1814473666
 21
5.0051198968
  0
LINE
  5
246
100
AcDbEntity
  8
0
100
AcDbLine
 62
7
  6
CONTINUOUS
 10
7.2413009896
 20
5.0051198968
 11
7.6814473666
 21
5.0051198968
  0
LINE
  5
247
100
AcDbEntity
  8
0
100
AcDbLine
 62
7
  6
CONTINUOUS
 10
7.7413009896
 20
5.0051198968
 11
8.1814473666
 21
5.0051198968
  0
LINE
  5
248
100
AcDbEntity
  8
0
100
AcDbLine
 62
7
  6
CONTINUOUS
 10
4.1453672786
 20
5.0384532301
 11
4.1667653903
 21
5.0384532301
  0
LINE
  5
249
100
AcDbEntity
  8
0
100
AcDbLine
 62
7
  6
CONTINUOUS
 10
4.3445393721
 20
5.0751198968
 11
4.6034660452
 21
5.0751198968
  0
LINE
  5
24A
100
AcDbEntity
  8
0
100
AcDbLine
 62
7
  6
CONTINUOUS
 10
4.8445393721
 20
5.0751198968
 11
5.1034660452
 21
5.0751198968
  0
LINE
  5
24B
100
AcDbEntity
  8
0
100
AcDbLine
 62
7
  6
CONTINUOUS
 10
5.3445393721
 20
5.0751198968
 11
5.6034660452
 21
5.0751198968
  0
LINE
  5
24C
100
AcDbEntity
  8
0
100
AcDbLine
 62
7
  6
CONTINUOUS
 10
5.8445393721
 20
5.0751198968
 11
6.1034660452
 21
5.0751198968
  0
LINE
  5
24D
100
AcDbEntity
  8
0
100
AcDbLine
 62
7
  6
CONTINUOUS
 10
6.3445393721
 20
5.0751198968
 11
6.6034660452
 21
5.0751198968
  0
LINE
  5
24E
100
AcDbEntity
  8
0
100
AcDbLine
 62
7
  6
CONTINUOUS
 10
6.8445393721
 20
5.0751198968
 11
7.1034660452
 21
5.0751198968
  0
LINE
  5
24F
100
AcDbEntity
  8
0
100
AcDbLine
 62
7
  6
CONTINUOUS
 10
7.3445393721
 20
5.0751198968
 11
7.6034660452
 21
5.0751198968
  0
LINE
  5
250
100
AcDbEntity
  8
0
100
AcDbLine
 62
7
  6
CONTINUOUS
 10
7.8445393721
 20
5.0751198968
 11
8.1034660452
 21
5.0751198968
  0
LINE
  5
251
100
AcDbEntity
  8
0
100
AcDbLine
 62
7
  6
CONTINUOUS
 10
4.2906580935
 20
5.3051198968
 11
4.2887349429
 21
5.3053440037
  0
LINE
  5
252
100
AcDbEntity
  8
0
100
AcDbLine
 62
7
  6
CONTINUOUS
 10
5.6470339452
 20
5.1876263074
 11
5.6428672786
 21
5.1907963683
  0
LINE
  5
253
100
AcDbEntity
  8
0
100
AcDbLine
 62
7
  6
CONTINUOUS
 10
5.7189923495
 20
5.3560675533
 11
5.7189923495
 21
5.3601198968
  0
LINE
  5
254
100
AcDbEntity
  8
0
100
AcDbLine
 62
7
  6
CONTINUOUS
 10
5.7970339452
 20
5.1867865634
 11
5.7970339452
 21
5.2217865634
  0
LINE
  5
255
100
AcDbEntity
  8
0
100
AcDbLine
 62
7
  6
CONTINUOUS
 10
5.8303672786
 20
5.0134532301
 11
5.8303672786
 21
5.2967865634
  0
LINE
  5
256
100
AcDbEntity
  8
0
100
AcDbLine
 62
7
  6
CONTINUOUS
 10
5.8470339452
 20
5.3601198968
 11
5.8470339452
 21
5.3684533881
  0
LINE
  5
257
100
AcDbEntity
  8
0
100
AcDbLine
 62
7
  6
CONTINUOUS
 10
5.1428672786
 20
5.2927767586
 11
5.1470339452
 21
5.2959468195
  0
LINE
  5
258
100
AcDbEntity
  8
0
100
AcDbLine
 62
7
  6
CONTINUOUS
 10
4.7906580935
 20
5.3051198968
 11
4.7887349429
 21
5.3053440037
  0
LINE
  5
259
100
AcDbEntity
  8
0
100
AcDbLine
 62
7
  6
CONTINUOUS
 10
5.2906580935
 20
5.3051198968
 11
5.2887349429
 21
5.3053440037
  0
LINE
  5
25A
100
AcDbEntity
  8
0
100
AcDbLine
 62
7
  6
CONTINUOUS
 10
5.8941612473
 20
6.0268229243
 11
5.89696154
 21
5.3850471749
  0
LINE
  5
25B
100
AcDbEntity
  8
0
100
AcDbLine
 62
7
  6
CONTINUOUS
 10
5.9137006119
 20
5.3684533881
 11
5.9137006119
 21
5.3601198968
  0
LINE
  5
25C
100
AcDbEntity
  8
0
100
AcDbLine
 62
7
  6
CONTINUOUS
 10
5.8637730171
 20
5.3850471749
 11
5.8665733098
 21
6.0268229243
  0
LINE
  5
25D
100
AcDbEntity
  8
0
100
AcDbLine
 62
7
  6
CONTINUOUS
 10
5.1870685384
 20
5.007301249
 11
5.2245248504
 21
5.0415257313
  0
LINE
  5
25E
100
AcDbEntity
  8
0
100
AcDbLine
 62
7
  6
CONTINUOUS
 10
4.2906580935
 20
5.3051198968
 11
4.5720577596
 21
5.3051198968
  0
LINE
  5
25F
100
AcDbEntity
  8
0
100
AcDbLine
 62
7
  6
CONTINUOUS
 10
4.6886767975
 20
5.3051198968
 11
4.7539690803
 21
5.3051198968
  0
LINE
  5
260
100
AcDbEntity
  8
0
100
AcDbLine
 62
7
  6
CONTINUOUS
 10
4.7906580935
 20
5.3051198968
 11
5.0720577596
 21
5.3051198968
  0
LINE
  5
261
100
AcDbEntity
  8
0
100
AcDbLine
 62
7
  6
CONTINUOUS
 10
5.1886767975
 20
5.3051198968
 11
5.2539690803
 21
5.3051198968
  0
LINE
  5
262
100
AcDbEntity
  8
0
100
AcDbLine
 62
7
  6
CONTINUOUS
 10
5.2906580935
 20
5.3051198968
 11
5.5720577596
 21
5.3051198968
  0
LINE
  5
263
100
AcDbEntity
  8
0
100
AcDbLine
 62
7
  6
CONTINUOUS
 10
5.6886767975
 20
5.3051198968
 11
5.7539690803
 21
5.3051198968
  0
LINE
  5
264
100
AcDbEntity
  8
0
100
AcDbLine
 62
7
  6
CONTINUOUS
 10
5.7906580935
 20
5.3051198968
 11
6.0720577596
 21
5.3051198968
  0
LINE
  5
265
100
AcDbEntity
  8
0
100
AcDbLine
 62
7
  6
CONTINUOUS
 10
6.1886767975
 20
5.3051198968
 11
6.2539690803
 21
5.3051198968
  0
LINE
  5
266
100
AcDbEntity
  8
0
100
AcDbLine
 62
7
  6
CONTINUOUS
 10
6.2906580935
 20
5.3051198968
 11
6.5720577596
 21
5.3051198968
  0
LINE
  5
267
100
AcDbEntity
  8
0
100
AcDbLine
 62
7
  6
CONTINUOUS
 10
6.6886767975
 20
5.3051198968
 11
6.7539690803
 21
5.3051198968
  0
LINE
  5
268
100
AcDbEntity
  8
0
100
AcDbLine
 62
7
  6
CONTINUOUS
 10
6.7906580935
 20
5.3051198968
 11
7.0720577596
 21
5.3051198968
  0
LINE
  5
269
100
AcDbEntity
  8
0
100
AcDbLine
 62
7
  6
CONTINUOUS
 10
7.1886767975
 20
5.3051198968
 11
7.2539690803
 21
5.3051198968
  0
LINE
  5
26A
100
AcDbEntity
  8
0
100
AcDbLine
 62
7
  6
CONTINUOUS
 10
7.2906580935
 20
5.3051198968
 11
7.5720577596
 21
5.3051198968
  0
LINE
  5
26B
100
AcDbEntity
  8
0
100
AcDbLine
 62
7
  6
CONTINUOUS
 10
7.6886767975
 20
5.3051198968
 11
7.7539690803
 21
5.3051198968
  0
LINE
  5
26C
100
AcDbEntity
  8
0
100
AcDbLine
 62
7
  6
CONTINUOUS
 10
7.7906580935
 20
5.3051198968
 11
8.0720577596
 21
5.3051198968
  0
LINE
  5
26D
100
AcDbEntity
  8
0
100
AcDbLine
 62
7
  6
CONTINUOUS
 10
8.1886767975
 20
5.3051198968
 11
8.2539690803
 21
5.3051198968
  0
LINE
  5
26E
100
AcDbEntity
  8
0
100
AcDbLine
 62
7
  6
CONTINUOUS
 10
4.3470331741
 20
5.3601198968
 11
4.4136280506
 21
5.3601198968
  0
LINE
  5
26F
100
AcDbEntity
  8
0
100
AcDbLine
 62
7
  6
CONTINUOUS
 10
4.8470331741
 20
5.3601198968
 11
4.9136280506
 21
5.3601198968
  0
LINE
  5
270
100
AcDbEntity
  8
0
100
AcDbLine
 62
7
  6
CONTINUOUS
 10
5.3470331741
 20
5.3601198968
 11
5.4136280506
 21
5.3601198968
  0
LINE
  5
271
100
AcDbEntity
  8
0
100
AcDbLine
 62
7
  6
CONTINUOUS
 10
5.8470331741
 20
5.3601198968
 11
5.9136280506
 21
5.3601198968
  0
LINE
  5
272
100
AcDbEntity
  8
0
100
AcDbLine
 62
7
  6
CONTINUOUS
 10
6.3470331741
 20
5.3601198968
 11
6.4136280506
 21
5.3601198968
  0
LINE
  5
273
100
AcDbEntity
  8
0
100
AcDbLine
 62
7
  6
CONTINUOUS
 10
6.8470331741
 20
5.3601198968
 11
6.9136280506
 21
5.3601198968
  0
LINE
  5
274
100
AcDbEntity
  8
0
100
AcDbLine
 62
7
  6
CONTINUOUS
 10
7.3470331741
 20
5.3601198968
 11
7.4136280506
 21
5.3601198968
  0
LINE
  5
275
100
AcDbEntity
  8
0
100
AcDbLine
 62
7
  6
CONTINUOUS
 10
7.8470331741
 20
5.3601198968
 11
7.9136280506
 21
5.3601198968
  0
LINE
  5
276
100
AcDbEntity
  8
0
100
AcDbLine
 62
7
  6
CONTINUOUS
 10
7.7536850553
 20
5.3651198968
 11
7.7192791933
 21
5.3651198968
  0
LINE
  5
277
100
AcDbEntity
  8
0
100
AcDbLine
 62
7
  6
CONTINUOUS
 10
7.2536850553
 20
5.3651198968
 11
7.2192791933
 21
5.3651198968
  0
LINE
  5
278
100
AcDbEntity
  8
0
100
AcDbLine
 62
7
  6
CONTINUOUS
 10
6.7536850553
 20
5.3651198968
 11
6.7192791933
 21
5.3651198968
  0
LINE
  5
279
100
AcDbEntity
  8
0
100
AcDbLine
 62
7
  6
CONTINUOUS
 10
6.2536850553
 20
5.3651198968
 11
6.2192791933
 21
5.3651198968
  0
LINE
  5
27A
100
AcDbEntity
  8
0
100
AcDbLine
 62
7
  6
CONTINUOUS
 10
5.7536850553
 20
5.3651198968
 11
5.7192791933
 21
5.3651198968
  0
LINE
  5
27B
100
AcDbEntity
  8
0
100
AcDbLine
 62
7
  6
CONTINUOUS
 10
5.2536850553
 20
5.3651198968
 11
5.2192791933
 21
5.3651198968
  0
LINE
  5
27C
100
AcDbEntity
  8
0
100
AcDbLine
 62
7
  6
CONTINUOUS
 10
4.7536850553
 20
5.3651198968
 11
4.7192791933
 21
5.3651198968
  0
LINE
  5
27D
100
AcDbEntity
  8
0
100
AcDbLine
 62
7
  6
CONTINUOUS
 10
4.2536850553
 20
5.3651198968
 11
4.2192791933
 21
5.3651198968
  0
LINE
  5
27E
100
AcDbEntity
  8
0
100
AcDbLine
 62
7
  6
CONTINUOUS
 10
8.1503672786
 20
5.3684532301
 11
7.9137006119
 21
5.3684532301
  0
LINE
  5
27F
100
AcDbEntity
  8
0
100
AcDbLine
 62
7
  6
CONTINUOUS
 10
4.1103672786
 20
5.3684532301
 11
4.3470339452
 21
5.3684532301
  0
LINE
  5
280
100
AcDbEntity
  8
0
100
AcDbLine
 62
7
  6
CONTINUOUS
 10
4.4137006119
 20
5.3684532301
 11
4.8470339452
 21
5.3684532301
  0
LINE
  5
281
100
AcDbEntity
  8
0
100
AcDbLine
 62
7
  6
CONTINUOUS
 10
4.9137006119
 20
5.3684532301
 11
5.3470339452
 21
5.3684532301
  0
LINE
  5
282
100
AcDbEntity
  8
0
100
AcDbLine
 62
7
  6
CONTINUOUS
 10
5.4137006119
 20
5.3684532301
 11
5.8470339452
 21
5.3684532301
  0
LINE
  5
283
100
AcDbEntity
  8
0
100
AcDbLine
 62
7
  6
CONTINUOUS
 10
5.9137006119
 20
5.3684532301
 11
6.3470339452
 21
5.3684532301
  0
LINE
  5
284
100
AcDbEntity
  8
0
100
AcDbLine
 62
7
  6
CONTINUOUS
 10
6.4137006119
 20
5.3684532301
 11
6.8470339452
 21
5.3684532301
  0
LINE
  5
285
100
AcDbEntity
  8
0
100
AcDbLine
 62
7
  6
CONTINUOUS
 10
6.9137006119
 20
5.3684532301
 11
7.3470339452
 21
5.3684532301
  0
LINE
  5
286
100
AcDbEntity
  8
0
100
AcDbLine
 62
7
  6
CONTINUOUS
 10
7.4137006119
 20
5.3684532301
 11
7.8470339452
 21
5.3684532301
  0
LINE
  5
287
100
AcDbEntity
  8
0
100
AcDbLine
 62
7
  6
CONTINUOUS
 10
4.3950138464
 20
5.3684544626
 11
4.3657203185
 21
5.3684544688
  0
LINE
  5
288
100
AcDbEntity
  8
0
100
AcDbLine
 62
7
  6
CONTINUOUS
 10
4.8950138464
 20
5.3684544626
 11
4.8657203185
 21
5.3684544688
  0
LINE
  5
289
100
AcDbEntity
  8
0
100
AcDbLine
 62
7
  6
CONTINUOUS
 10
5.3950138464
 20
5.3684544626
 11
5.3657203185
 21
5.3684544688
  0
LINE
  5
28A
100
AcDbEntity
  8
0
100
AcDbLine
 62
7
  6
CONTINUOUS
 10
5.8950138464
 20
5.3684544626
 11
5.8657203185
 21
5.3684544688
  0
LINE
  5
28B
100
AcDbEntity
  8
0
100
AcDbLine
 62
7
  6
CONTINUOUS
 10
6.3950138464
 20
5.3684544626
 11
6.3657203185
 21
5.3684544688
  0
LINE
  5
28C
100
AcDbEntity
  8
0
100
AcDbLine
 62
7
  6
CONTINUOUS
 10
6.8950138464
 20
5.3684544626
 11
6.8657203185
 21
5.3684544688
  0
LINE
  5
28D
100
AcDbEntity
  8
0
100
AcDbLine
 62
7
  6
CONTINUOUS
 10
7.3950138464
 20
5.3684544626
 11
7.3657203185
 21
5.3684544688
  0
LINE
  5
28E
100
AcDbEntity
  8
0
100
AcDbLine
 62
7
  6
CONTINUOUS
 10
7.8950138464
 20
5.3684544626
 11
7.8657203185
 21
5.3684544688
  0
LINE
  5
28F
100
AcDbEntity
  8
0
100
AcDbLine
 62
7
  6
CONTINUOUS
 10
5.7906580935
 20
5.3051198968
 11
5.7887349429
 21
5.3053440037
  0
LINE
  5
290
100
AcDbEntity
  8
0
100
AcDbLine
 62
7
  6
CONTINUOUS
 10
6.2906580935
 20
5.3051198968
 11
6.2887349429
 21
5.3053440037
  0
LINE
  5
291
100
AcDbEntity
  8
0
100
AcDbLine
 62
7
  6
CONTINUOUS
 10
6.7906580935
 20
5.3051198968
 11
6.7887349429
 21
5.3053440037
  0
LINE
  5
292
100
AcDbEntity
  8
0
100
AcDbLine
 62
7
  6
CONTINUOUS
 10
6.1470339452
 20
5.1876263074
 11
6.1428672786
 21
5.1907963683
  0
LINE
  5
293
100
AcDbEntity
  8
0
100
AcDbLine
 62
7
  6
CONTINUOUS
 10
6.1428672786
 20
5.1907963683
 11
6.1428672786
 21
5.2927767586
  0
LINE
  5
294
100
AcDbEntity
  8
0
100
AcDbLine
 62
7
  6
CONTINUOUS
 10
6.1470339452
 20
5.2959468195
 11
6.1470339452
 21
5.1876263074
  0
LINE
  5
295
100
AcDbEntity
  8
0
100
AcDbLine
 62
7
  6
CONTINUOUS
 10
5.6428672786
 20
5.2927767586
 11
5.6470339452
 21
5.2959468195
  0
LINE
  5
296
100
AcDbEntity
  8
0
100
AcDbLine
 62
7
  6
CONTINUOUS
 10
7.2906580935
 20
5.3051198968
 11
7.2887349429
 21
5.3053440037
  0
LINE
  5
297
100
AcDbEntity
  8
0
100
AcDbLine
 62
7
  6
CONTINUOUS
 10
7.7906580935
 20
5.3051198968
 11
7.7887349429
 21
5.3053440037
  0
LINE
  5
298
100
AcDbEntity
  8
0
100
AcDbLine
 62
7
  6
CONTINUOUS
 10
6.2189923495
 20
5.3560675533
 11
6.2189923495
 21
5.3601198968
  0
LINE
  5
299
100
AcDbEntity
  8
0
100
AcDbLine
 62
7
  6
CONTINUOUS
 10
6.2970339452
 20
5.1867865634
 11
6.2970339452
 21
5.2217865634
  0
LINE
  5
29A
100
AcDbEntity
  8
0
100
AcDbLine
 62
7
  6
CONTINUOUS
 10
5.6870685384
 20
5.007301249
 11
5.7245248504
 21
5.0415257313
  0
LINE
  5
29B
100
AcDbEntity
  8
0
100
AcDbLine
 62
7
  6
CONTINUOUS
 10
6.6470339452
 20
5.1876263074
 11
6.6428672786
 21
5.1907963683
  0
LINE
  5
29C
100
AcDbEntity
  8
0
100
AcDbLine
 62
7
  6
CONTINUOUS
 10
6.3941612473
 20
6.0268229243
 11
6.39696154
 21
5.3850471749
  0
LINE
  5
29D
100
AcDbEntity
  8
0
100
AcDbLine
 62
7
  6
CONTINUOUS
 10
6.3303672786
 20
5.0134532301
 11
6.3303672786
 21
5.2967865634
  0
LINE
  5
29E
100
AcDbEntity
  8
0
100
AcDbLine
 62
7
  6
CONTINUOUS
 10
6.3470339452
 20
5.3601198968
 11
6.3470339452
 21
5.3684533881
  0
LINE
  5
29F
100
AcDbEntity
  8
0
100
AcDbLine
 62
7
  6
CONTINUOUS
 10
6.4137006119
 20
5.3684533881
 11
6.4137006119
 21
5.3601198968
  0
LINE
  5
2A0
100
AcDbEntity
  8
0
100
AcDbLine
 62
7
  6
CONTINUOUS
 10
6.3637730171
 20
5.3850471749
 11
6.3665733098
 21
6.0268229243
  0
LINE
  5
2A1
100
AcDbEntity
  8
0
100
AcDbLine
 62
7
  6
CONTINUOUS
 10
6.1428672786
 20
5.2927767586
 11
6.1470339452
 21
5.2959468195
  0
LINE
  5
2A2
100
AcDbEntity
  8
0
100
AcDbLine
 62
7
  6
CONTINUOUS
 10
6.1870685384
 20
5.007301249
 11
6.2245248504
 21
5.0415257313
  0
LINE
  5
2A3
100
AcDbEntity
  8
0
100
AcDbLine
 62
7
  6
CONTINUOUS
 10
7.1470339452
 20
5.1876263074
 11
7.1428672786
 21
5.1907963683
  0
LINE
  5
2A4
100
AcDbEntity
  8
0
100
AcDbLine
 62
7
  6
CONTINUOUS
 10
6.6428672786
 20
5.1907963683
 11
6.6428672786
 21
5.2927767586
  0
LINE
  5
2A5
100
AcDbEntity
  8
0
100
AcDbLine
 62
7
  6
CONTINUOUS
 10
6.6470339452
 20
5.2959468195
 11
6.6470339452
 21
5.1876263074
  0
LINE
  5
2A6
100
AcDbEntity
  8
0
100
AcDbLine
 62
7
  6
CONTINUOUS
 10
6.7189923495
 20
5.3560675533
 11
6.7189923495
 21
5.3601198968
  0
LINE
  5
2A7
100
AcDbEntity
  8
0
100
AcDbLine
 62
7
  6
CONTINUOUS
 10
6.6428672786
 20
5.2927767586
 11
6.6470339452
 21
5.2959468195
  0
LINE
  5
2A8
100
AcDbEntity
  8
0
100
AcDbLine
 62
7
  6
CONTINUOUS
 10
7.8858279933
 20
6.0351198968
 11
7.8749065638
 21
6.0351198968
  0
LINE
  5
2A9
100
AcDbEntity
  8
0
100
AcDbLine
 62
7
  6
CONTINUOUS
 10
7.3858279933
 20
6.0351198968
 11
7.3749065638
 21
6.0351198968
  0
LINE
  5
2AA
100
AcDbEntity
  8
0
100
AcDbLine
 62
7
  6
CONTINUOUS
 10
6.8858279933
 20
6.0351198968
 11
6.8749065638
 21
6.0351198968
  0
LINE
  5
2AB
100
AcDbEntity
  8
0
100
AcDbLine
 62
7
  6
CONTINUOUS
 10
6.3858279933
 20
6.0351198968
 11
6.3749065638
 21
6.0351198968
  0
LINE
  5
2AC
100
AcDbEntity
  8
0
100
AcDbLine
 62
7
  6
CONTINUOUS
 10
5.8858279933
 20
6.0351198968
 11
5.8749065638
 21
6.0351198968
  0
LINE
  5
2AD
100
AcDbEntity
  8
0
100
AcDbLine
 62
7
  6
CONTINUOUS
 10
5.3858279933
 20
6.0351198968
 11
5.3749065638
 21
6.0351198968
  0
LINE
  5
2AE
100
AcDbEntity
  8
0
100
AcDbLine
 62
7
  6
CONTINUOUS
 10
4.8858279933
 20
6.0351198968
 11
4.8749065638
 21
6.0351198968
  0
LINE
  5
2AF
100
AcDbEntity
  8
0
100
AcDbLine
 62
7
  6
CONTINUOUS
 10
4.3858279933
 20
6.0351198968
 11
4.3749065638
 21
6.0351198968
  0
LINE
  5
2B0
100
AcDbEntity
  8
0
100
AcDbLine
 62
7
  6
CONTINUOUS
 10
6.7970339452
 20
5.1867865634
 11
6.7970339452
 21
5.2217865634
  0
LINE
  5
2B1
100
AcDbEntity
  8
0
100
AcDbLine
 62
7
  6
CONTINUOUS
 10
6.8303672786
 20
5.0134532301
 11
6.8303672786
 21
5.2967865634
  0
LINE
  5
2B2
100
AcDbEntity
  8
0
100
AcDbLine
 62
7
  6
CONTINUOUS
 10
6.8470339452
 20
5.3601198968
 11
6.8470339452
 21
5.3684533881
  0
LINE
  5
2B3
100
AcDbEntity
  8
0
100
AcDbLine
 62
7
  6
CONTINUOUS
 10
6.8637730171
 20
5.3850471749
 11
6.8665733098
 21
6.0268229243
  0
LINE
  5
2B4
100
AcDbEntity
  8
0
100
AcDbLine
 62
7
  6
CONTINUOUS
 10
6.6870685384
 20
5.007301249
 11
6.7245248504
 21
5.0415257313
  0
LINE
  5
2B5
100
AcDbEntity
  8
0
100
AcDbLine
 62
7
  6
CONTINUOUS
 10
7.6470339452
 20
5.1876263074
 11
7.6428672786
 21
5.1907963683
  0
LINE
  5
2B6
100
AcDbEntity
  8
0
100
AcDbLine
 62
7
  6
CONTINUOUS
 10
6.8941612473
 20
6.0268229243
 11
6.89696154
 21
5.3850471749
  0
LINE
  5
2B7
100
AcDbEntity
  8
0
100
AcDbLine
 62
7
  6
CONTINUOUS
 10
6.9137006119
 20
5.3684533881
 11
6.9137006119
 21
5.3601198968
  0
LINE
  5
2B8
100
AcDbEntity
  8
0
100
AcDbLine
 62
7
  6
CONTINUOUS
 10
7.1428672786
 20
5.2927767586
 11
7.1470339452
 21
5.2959468195
  0
LINE
  5
2B9
100
AcDbEntity
  8
0
100
AcDbLine
 62
7
  6
CONTINUOUS
 10
7.1428672786
 20
5.1907963683
 11
7.1428672786
 21
5.2927767586
  0
LINE
  5
2BA
100
AcDbEntity
  8
0
100
AcDbLine
 62
7
  6
CONTINUOUS
 10
7.1470339452
 20
5.2959468195
 11
7.1470339452
 21
5.1876263074
  0
LINE
  5
2BB
100
AcDbEntity
  8
0
100
AcDbLine
 62
7
  6
CONTINUOUS
 10
8.1470339452
 20
5.1876263074
 11
8.1428672786
 21
5.1907963683
  0
LINE
  5
2BC
100
AcDbEntity
  8
0
100
AcDbLine
 62
7
  6
CONTINUOUS
 10
7.2189923495
 20
5.3560675533
 11
7.2189923495
 21
5.3601198968
  0
LINE
  5
2BD
100
AcDbEntity
  8
0
100
AcDbLine
 62
7
  6
CONTINUOUS
 10
7.2970339452
 20
5.1867865634
 11
7.2970339452
 21
5.2217865634
  0
LINE
  5
2BE
100
AcDbEntity
  8
0
100
AcDbLine
 62
7
  6
CONTINUOUS
 10
7.3303672786
 20
5.0134532301
 11
7.3303672786
 21
5.2967865634
  0
LINE
  5
2BF
100
AcDbEntity
  8
0
100
AcDbLine
 62
7
  6
CONTINUOUS
 10
7.1870685384
 20
5.007301249
 11
7.2245248504
 21
5.0415257313
  0
LINE
  5
2C0
100
AcDbEntity
  8
0
100
AcDbLine
 62
7
  6
CONTINUOUS
 10
7.6428672786
 20
5.2927767586
 11
7.6470339452
 21
5.2959468195
  0
LINE
  5
2C1
100
AcDbEntity
  8
0
100
AcDbLine
 62
7
  6
CONTINUOUS
 10
7.3941612473
 20
6.0268229243
 11
7.39696154
 21
5.3850471749
  0
LINE
  5
2C2
100
AcDbEntity
  8
0
100
AcDbLine
 62
7
  6
CONTINUOUS
 10
7.3470339452
 20
5.3601198968
 11
7.3470339452
 21
5.3684533881
  0
LINE
  5
2C3
100
AcDbEntity
  8
0
100
AcDbLine
 62
7
  6
CONTINUOUS
 10
7.4137006119
 20
5.3684533881
 11
7.4137006119
 21
5.3601198968
  0
LINE
  5
2C4
100
AcDbEntity
  8
0
100
AcDbLine
 62
7
  6
CONTINUOUS
 10
7.3637730171
 20
5.3850471749
 11
7.3665733098
 21
6.0268229243
  0
LINE
  5
2C5
100
AcDbEntity
  8
0
100
AcDbLine
 62
7
  6
CONTINUOUS
 10
7.6870685384
 20
5.007301249
 11
7.7245248504
 21
5.0415257313
  0
LINE
  5
2C6
100
AcDbEntity
  8
0
100
AcDbLine
 62
7
  6
CONTINUOUS
 10
8.1428672786
 20
5.2927767586
 11
8.1470339452
 21
5.2959468195
  0
LINE
  5
2C7
100
AcDbEntity
  8
0
100
AcDbLine
 62
7
  6
CONTINUOUS
 10
7.6428672786
 20
5.1907963683
 11
7.6428672786
 21
5.2927767586
  0
LINE
  5
2C8
100
AcDbEntity
  8
0
100
AcDbLine
 62
7
  6
CONTINUOUS
 10
7.6470339452
 20
5.2959468195
 11
7.6470339452
 21
5.1876263074
  0
LINE
  5
2C9
100
AcDbEntity
  8
0
100
AcDbLine
 62
7
  6
CONTINUOUS
 10
7.7189923495
 20
5.3560675533
 11
7.7189923495
 21
5.3601198968
  0
LINE
  5
2CA
100
AcDbEntity
  8
0
100
AcDbLine
 62
7
  6
CONTINUOUS
 10
7.8941612473
 20
6.0268229243
 11
7.89696154
 21
5.3850471749
  0
LINE
  5
2CB
100
AcDbEntity
  8
0
100
AcDbLine
 62
7
  6
CONTINUOUS
 10
7.7970339452
 20
5.1867865634
 11
7.7970339452
 21
5.2217865634
  0
LINE
  5
2CC
100
AcDbEntity
  8
0
100
AcDbLine
 62
7
  6
CONTINUOUS
 10
7.8303672786
 20
5.0134532301
 11
7.8303672786
 21
5.2967865634
  0
LINE
  5
2CD
100
AcDbEntity
  8
0
100
AcDbLine
 62
7
  6
CONTINUOUS
 10
7.8470339452
 20
5.3601198968
 11
7.8470339452
 21
5.3684533881
  0
LINE
  5
2CE
100
AcDbEntity
  8
0
100
AcDbLine
 62
7
  6
CONTINUOUS
 10
7.9137006119
 20
5.3684533881
 11
7.9137006119
 21
5.3601198968
  0
LINE
  5
2CF
100
AcDbEntity
  8
0
100
AcDbLine
 62
7
  6
CONTINUOUS
 10
7.8637730171
 20
5.3850471749
 11
7.8665733098
 21
6.0268229243
  0
LINE
  5
2D0
100
AcDbEntity
  8
0
100
AcDbLine
 62
7
  6
CONTINUOUS
 10
8.1870685384
 20
5.007301249
 11
8.2245248504
 21
5.0415257313
  0
LINE
  5
2D1
100
AcDbEntity
  8
0
100
AcDbLine
 62
7
  6
CONTINUOUS
 10
8.1428672786
 20
5.1907963683
 11
8.1428672786
 21
5.2927767586
  0
LINE
  5
2D2
100
AcDbEntity
  8
0
100
AcDbLine
 62
7
  6
CONTINUOUS
 10
8.1470339452
 20
5.2959468195
 11
8.1470339452
 21
5.1876263074
  0
LINE
  5
2D3
100
AcDbEntity
  8
0
100
AcDbLine
 62
7
  6
CONTINUOUS
 10
8.2970339452
 20
5.1867865634
 11
8.2970339452
 21
5.2217865634
  0
LINE
  5
2D4
100
AcDbEntity
  8
0
100
AcDbLine
 62
7
  6
CONTINUOUS
 10
3.9042054196
 20
12.8400477918
 11
3.9042054196
 21
12.3600477918
  0
LINE
  5
2D5
100
AcDbEntity
  8
0
100
AcDbLine
 62
7
  6
CONTINUOUS
 10
4.1943579268
 20
11.3534326295
 11
4.1592061507
 21
12.3600477918
  0
LINE
  5
2D6
100
AcDbEntity
  8
0
100
AcDbLine
 62
7
  6
CONTINUOUS
 10
4.1592061507
 20
12.8400477918
 11
4.1943574523
 21
13.8466493673
  0
LINE
  5
2D7
100
AcDbEntity
  8
0
100
AcDbLine
 62
7
  6
CONTINUOUS
 10
4.2875387529
 20
11.3500477709
 11
4.2875387529
 21
13.766758092
  0
LINE
  5
2D8
100
AcDbEntity
  8
0
100
AcDbLine
 62
7
  6
CONTINUOUS
 10
4.3042778248
 20
11.3584534511
 11
4.3042778248
 21
13.766758092
  0
LINE
  5
2D9
100
AcDbEntity
  8
0
100
AcDbLine
 62
7
  6
CONTINUOUS
 10
4.3070781175
 20
11.3961013597
 11
4.3070781175
 21
13.766758092
  0
LINE
  5
2DA
100
AcDbEntity
  8
0
100
AcDbLine
 62
7
  6
CONTINUOUS
 10
4.334666055
 20
13.766758092
 11
4.334666055
 21
11.3961013597
  0
LINE
  5
2DB
100
AcDbEntity
  8
0
100
AcDbLine
 62
7
  6
CONTINUOUS
 10
4.3374663477
 20
13.766758092
 11
4.3374663477
 21
11.3584534511
  0
LINE
  5
2DC
100
AcDbEntity
  8
0
100
AcDbLine
 62
7
  6
CONTINUOUS
 10
4.3542054196
 20
13.766758092
 11
4.3542054196
 21
11.3500477918
  0
LINE
  5
2DD
100
AcDbEntity
  8
0
100
AcDbLine
 62
7
  6
CONTINUOUS
 10
4.5054390154
 20
12.3350477918
 11
4.5054390154
 21
12.8650477918
  0
LINE
  5
2DE
100
AcDbEntity
  8
0
100
AcDbLine
 62
7
  6
CONTINUOUS
 10
4.5142054196
 20
12.3433811252
 11
4.5142054196
 21
12.3517144585
  0
LINE
  5
2DF
100
AcDbEntity
  8
0
100
AcDbLine
 62
7
  6
CONTINUOUS
 10
4.5142054196
 20
12.8483811252
 11
4.5142054196
 21
12.8567144585
  0
LINE
  5
2E0
100
AcDbEntity
  8
0
100
AcDbLine
 62
7
  6
CONTINUOUS
 10
4.5875387529
 20
12.3433811252
 11
4.5875387529
 21
12.3517144585
  0
LINE
  5
2E1
100
AcDbEntity
  8
0
100
AcDbLine
 62
7
  6
CONTINUOUS
 10
4.5875387529
 20
12.8483811252
 11
4.5875387529
 21
12.8567144585
  0
LINE
  5
2E2
100
AcDbEntity
  8
0
100
AcDbLine
 62
7
  6
CONTINUOUS
 10
4.6943579268
 20
11.3534326295
 11
4.6592061507
 21
12.3600477918
  0
LINE
  5
2E3
100
AcDbEntity
  8
0
100
AcDbLine
 62
7
  6
CONTINUOUS
 10
4.6592061507
 20
12.8400477918
 11
4.6943574523
 21
13.8466493673
  0
LINE
  5
2E4
100
AcDbEntity
  8
0
100
AcDbLine
 62
7
  6
CONTINUOUS
 10
4.7875387529
 20
11.3500477709
 11
4.7875387529
 21
13.766758092
  0
LINE
  5
2E5
100
AcDbEntity
  8
0
100
AcDbLine
 62
7
  6
CONTINUOUS
 10
4.8042778248
 20
11.3584534511
 11
4.8042778248
 21
13.766758092
  0
LINE
  5
2E6
100
AcDbEntity
  8
0
100
AcDbLine
 62
7
  6
CONTINUOUS
 10
4.8070781175
 20
11.3961013597
 11
4.8070781175
 21
13.766758092
  0
LINE
  5
2E7
100
AcDbEntity
  8
0
100
AcDbLine
 62
7
  6
CONTINUOUS
 10
4.834666055
 20
13.766758092
 11
4.834666055
 21
11.3961013597
  0
LINE
  5
2E8
100
AcDbEntity
  8
0
100
AcDbLine
 62
7
  6
CONTINUOUS
 10
4.8374663477
 20
13.766758092
 11
4.8374663477
 21
11.3584534511
  0
LINE
  5
2E9
100
AcDbEntity
  8
0
100
AcDbLine
 62
7
  6
CONTINUOUS
 10
4.8542054196
 20
13.766758092
 11
4.8542054196
 21
11.3500477918
  0
LINE
  5
2EA
100
AcDbEntity
  8
0
100
AcDbLine
 62
7
  6
CONTINUOUS
 10
7.8264848519
 20
11.3527684389
 11
7.8152593206
 21
11.3527684389
  0
LINE
  5
2EB
100
AcDbEntity
  8
0
100
AcDbLine
 62
7
  6
CONTINUOUS
 10
7.3264848519
 20
11.3527684389
 11
7.3152593206
 21
11.3527684389
  0
LINE
  5
2EC
100
AcDbEntity
  8
0
100
AcDbLine
 62
7
  6
CONTINUOUS
 10
6.8264848519
 20
11.3527684389
 11
6.8152593206
 21
11.3527684389
  0
LINE
  5
2ED
100
AcDbEntity
  8
0
100
AcDbLine
 62
7
  6
CONTINUOUS
 10
6.3264848519
 20
11.3527684389
 11
6.3152593206
 21
11.3527684389
  0
LINE
  5
2EE
100
AcDbEntity
  8
0
100
AcDbLine
 62
7
  6
CONTINUOUS
 10
5.8264848519
 20
11.3527684389
 11
5.8152593206
 21
11.3527684389
  0
LINE
  5
2EF
100
AcDbEntity
  8
0
100
AcDbLine
 62
7
  6
CONTINUOUS
 10
5.3264848519
 20
11.3527684389
 11
5.3152593206
 21
11.3527684389
  0
LINE
  5
2F0
100
AcDbEntity
  8
0
100
AcDbLine
 62
7
  6
CONTINUOUS
 10
4.8264848519
 20
11.3527684389
 11
4.8152593206
 21
11.3527684389
  0
LINE
  5
2F1
100
AcDbEntity
  8
0
100
AcDbLine
 62
7
  6
CONTINUOUS
 10
4.3264848519
 20
11.3527684389
 11
4.3152593206
 21
11.3527684389
  0
LINE
  5
2F2
100
AcDbEntity
  8
0
100
AcDbLine
 62
7
  6
CONTINUOUS
 10
4.694473888
 20
11.3500477918
 11
4.2198314778
 21
11.350049146
  0
LINE
  5
2F3
100
AcDbEntity
  8
0
100
AcDbLine
 62
7
  6
CONTINUOUS
 10
5.194473888
 20
11.3500477918
 11
4.7198314778
 21
11.350049146
  0
LINE
  5
2F4
100
AcDbEntity
  8
0
100
AcDbLine
 62
7
  6
CONTINUOUS
 10
5.694473888
 20
11.3500477918
 11
5.2198314778
 21
11.350049146
  0
LINE
  5
2F5
100
AcDbEntity
  8
0
100
AcDbLine
 62
7
  6
CONTINUOUS
 10
6.194473888
 20
11.3500477918
 11
5.7198314778
 21
11.350049146
  0
LINE
  5
2F6
100
AcDbEntity
  8
0
100
AcDbLine
 62
7
  6
CONTINUOUS
 10
6.694473888
 20
11.3500477918
 11
6.2198314778
 21
11.350049146
  0
LINE
  5
2F7
100
AcDbEntity
  8
0
100
AcDbLine
 62
7
  6
CONTINUOUS
 10
7.194473888
 20
11.3500477918
 11
6.7198314778
 21
11.350049146
  0
LINE
  5
2F8
100
AcDbEntity
  8
0
100
AcDbLine
 62
7
  6
CONTINUOUS
 10
7.694473888
 20
11.3500477918
 11
7.2198314778
 21
11.350049146
  0
LINE
  5
2F9
100
AcDbEntity
  8
0
100
AcDbLine
 62
7
  6
CONTINUOUS
 10
8.194473888
 20
11.3500477918
 11
7.7198314778
 21
11.350049146
  0
LINE
  5
2FA
100
AcDbEntity
  8
0
100
AcDbLine
 62
7
  6
CONTINUOUS
 10
5.0054390154
 20
12.3350477918
 11
5.0054390154
 21
12.8650477918
  0
LINE
  5
2FB
100
AcDbEntity
  8
0
100
AcDbLine
 62
7
  6
CONTINUOUS
 10
5.0142054196
 20
12.3433811252
 11
5.0142054196
 21
12.3517144585
  0
LINE
  5
2FC
100
AcDbEntity
  8
0
100
AcDbLine
 62
7
  6
CONTINUOUS
 10
5.0142054196
 20
12.8483811252
 11
5.0142054196
 21
12.8567144585
  0
LINE
  5
2FD
100
AcDbEntity
  8
0
100
AcDbLine
 62
7
  6
CONTINUOUS
 10
5.0875387529
 20
12.3433811252
 11
5.0875387529
 21
12.3517144585
  0
LINE
  5
2FE
100
AcDbEntity
  8
0
100
AcDbLine
 62
7
  6
CONTINUOUS
 10
5.0875387529
 20
12.8483811252
 11
5.0875387529
 21
12.8567144585
  0
LINE
  5
2FF
100
AcDbEntity
  8
0
100
AcDbLine
 62
7
  6
CONTINUOUS
 10
5.1943579268
 20
11.3534326295
 11
5.1592061507
 21
12.3600477918
  0
LINE
  5
300
100
AcDbEntity
  8
0
100
AcDbLine
 62
7
  6
CONTINUOUS
 10
5.1592061507
 20
12.8400477918
 11
5.1943574523
 21
13.8466493673
  0
LINE
  5
301
100
AcDbEntity
  8
0
100
AcDbLine
 62
7
  6
CONTINUOUS
 10
5.2875387529
 20
11.3500477709
 11
5.2875387529
 21
13.766758092
  0
LINE
  5
302
100
AcDbEntity
  8
0
100
AcDbLine
 62
7
  6
CONTINUOUS
 10
5.3042778248
 20
11.3584534511
 11
5.3042778248
 21
13.766758092
  0
LINE
  5
303
100
AcDbEntity
  8
0
100
AcDbLine
 62
7
  6
CONTINUOUS
 10
5.3070781175
 20
11.3961013597
 11
5.3070781175
 21
13.766758092
  0
LINE
  5
304
100
AcDbEntity
  8
0
100
AcDbLine
 62
7
  6
CONTINUOUS
 10
5.334666055
 20
13.766758092
 11
5.334666055
 21
11.3961013597
  0
LINE
  5
305
100
AcDbEntity
  8
0
100
AcDbLine
 62
7
  6
CONTINUOUS
 10
5.3374663477
 20
13.766758092
 11
5.3374663477
 21
11.3584534511
  0
LINE
  5
306
100
AcDbEntity
  8
0
100
AcDbLine
 62
7
  6
CONTINUOUS
 10
5.3542054196
 20
13.766758092
 11
5.3542054196
 21
11.3500477918
  0
LINE
  5
307
100
AcDbEntity
  8
0
100
AcDbLine
 62
7
  6
CONTINUOUS
 10
5.5054390154
 20
12.3350477918
 11
5.5054390154
 21
12.8650477918
  0
LINE
  5
308
100
AcDbEntity
  8
0
100
AcDbLine
 62
7
  6
CONTINUOUS
 10
5.5142054196
 20
12.3433811252
 11
5.5142054196
 21
12.3517144585
  0
LINE
  5
309
100
AcDbEntity
  8
0
100
AcDbLine
 62
7
  6
CONTINUOUS
 10
5.5142054196
 20
12.8483811252
 11
5.5142054196
 21
12.8567144585
  0
LINE
  5
30A
100
AcDbEntity
  8
0
100
AcDbLine
 62
7
  6
CONTINUOUS
 10
5.5875387529
 20
12.3433811252
 11
5.5875387529
 21
12.3517144585
  0
LINE
  5
30B
100
AcDbEntity
  8
0
100
AcDbLine
 62
7
  6
CONTINUOUS
 10
5.5875387529
 20
12.8483811252
 11
5.5875387529
 21
12.8567144585
  0
LINE
  5
30C
100
AcDbEntity
  8
0
100
AcDbLine
 62
7
  6
CONTINUOUS
 10
8.2072609929
 20
12.2267222174
 11
8.207103815
 21
12.2267144553
  0
LINE
  5
30D
100
AcDbEntity
  8
0
100
AcDbLine
 62
7
  6
CONTINUOUS
 10
5.6943579268
 20
11.3534326295
 11
5.6592061507
 21
12.3600477918
  0
LINE
  5
30E
100
AcDbEntity
  8
0
100
AcDbLine
 62
7
  6
CONTINUOUS
 10
5.6592061507
 20
12.8400477918
 11
5.6943574523
 21
13.8466493673
  0
LINE
  5
30F
100
AcDbEntity
  8
0
100
AcDbLine
 62
7
  6
CONTINUOUS
 10
8.2292054196
 20
12.2267144585
 11
8.2071093914
 21
12.2267144585
  0
LINE
  5
310
100
AcDbEntity
  8
0
100
AcDbLine
 62
7
  6
CONTINUOUS
 10
5.7875387529
 20
11.3500477709
 11
5.7875387529
 21
13.766758092
  0
LINE
  5
311
100
AcDbEntity
  8
0
100
AcDbLine
 62
7
  6
CONTINUOUS
 10
5.8042778248
 20
11.3584534511
 11
5.8042778248
 21
13.766758092
  0
LINE
  5
312
100
AcDbEntity
  8
0
100
AcDbLine
 62
7
  6
CONTINUOUS
 10
5.8070781175
 20
11.3961013597
 11
5.8070781175
 21
13.766758092
  0
LINE
  5
313
100
AcDbEntity
  8
0
100
AcDbLine
 62
7
  6
CONTINUOUS
 10
5.834666055
 20
13.766758092
 11
5.834666055
 21
11.3961013597
  0
LINE
  5
314
100
AcDbEntity
  8
0
100
AcDbLine
 62
7
  6
CONTINUOUS
 10
5.8374663477
 20
13.766758092
 11
5.8374663477
 21
11.3584534511
  0
LINE
  5
315
100
AcDbEntity
  8
0
100
AcDbLine
 62
7
  6
CONTINUOUS
 10
5.8542054196
 20
13.766758092
 11
5.8542054196
 21
11.3500477918
  0
LINE
  5
316
100
AcDbEntity
  8
0
100
AcDbLine
 62
7
  6
CONTINUOUS
 10
4.5054390154
 20
12.3433811252
 11
4.6597881636
 21
12.3433811252
  0
LINE
  5
317
100
AcDbEntity
  8
0
100
AcDbLine
 62
7
  6
CONTINUOUS
 10
5.0054390154
 20
12.3433811252
 11
5.1597881636
 21
12.3433811252
  0
LINE
  5
318
100
AcDbEntity
  8
0
100
AcDbLine
 62
7
  6
CONTINUOUS
 10
5.5054390154
 20
12.3433811252
 11
5.6597881636
 21
12.3433811252
  0
LINE
  5
319
100
AcDbEntity
  8
0
100
AcDbLine
 62
7
  6
CONTINUOUS
 10
6.0054390154
 20
12.3433811252
 11
6.1597881636
 21
12.3433811252
  0
LINE
  5
31A
100
AcDbEntity
  8
0
100
AcDbLine
 62
7
  6
CONTINUOUS
 10
6.5054390154
 20
12.3433811252
 11
6.6597881636
 21
12.3433811252
  0
LINE
  5
31B
100
AcDbEntity
  8
0
100
AcDbLine
 62
7
  6
CONTINUOUS
 10
7.0054390154
 20
12.3433811252
 11
7.1597881636
 21
12.3433811252
  0
LINE
  5
31C
100
AcDbEntity
  8
0
100
AcDbLine
 62
7
  6
CONTINUOUS
 10
7.5054390154
 20
12.3433811252
 11
7.6597881636
 21
12.3433811252
  0
LINE
  5
31D
100
AcDbEntity
  8
0
100
AcDbLine
 62
7
  6
CONTINUOUS
 10
8.0054390154
 20
12.3433811252
 11
8.2292054196
 21
12.3433811252
  0
LINE
  5
31E
100
AcDbEntity
  8
0
100
AcDbLine
 62
7
  6
CONTINUOUS
 10
3.9125387529
 20
12.3517144585
 11
4.1594971572
 21
12.3517144585
  0
LINE
  5
31F
100
AcDbEntity
  8
0
100
AcDbLine
 62
7
  6
CONTINUOUS
 10
4.5054390154
 20
12.3517144585
 11
4.6594971572
 21
12.3517144585
  0
LINE
  5
320
100
AcDbEntity
  8
0
100
AcDbLine
 62
7
  6
CONTINUOUS
 10
5.0054390154
 20
12.3517144585
 11
5.1594971572
 21
12.3517144585
  0
LINE
  5
321
100
AcDbEntity
  8
0
100
AcDbLine
 62
7
  6
CONTINUOUS
 10
5.5054390154
 20
12.3517144585
 11
5.6594971572
 21
12.3517144585
  0
LINE
  5
322
100
AcDbEntity
  8
0
100
AcDbLine
 62
7
  6
CONTINUOUS
 10
6.0054390154
 20
12.3517144585
 11
6.1594971572
 21
12.3517144585
  0
LINE
  5
323
100
AcDbEntity
  8
0
100
AcDbLine
 62
7
  6
CONTINUOUS
 10
6.5054390154
 20
12.3517144585
 11
6.6594971572
 21
12.3517144585
  0
LINE
  5
324
100
AcDbEntity
  8
0
100
AcDbLine
 62
7
  6
CONTINUOUS
 10
7.0054390154
 20
12.3517144585
 11
7.1594971572
 21
12.3517144585
  0
LINE
  5
325
100
AcDbEntity
  8
0
100
AcDbLine
 62
7
  6
CONTINUOUS
 10
7.5054390154
 20
12.3517144585
 11
7.6594971572
 21
12.3517144585
  0
LINE
  5
326
100
AcDbEntity
  8
0
100
AcDbLine
 62
7
  6
CONTINUOUS
 10
6.0054390154
 20
12.3350477918
 11
6.0054390154
 21
12.8650477918
  0
LINE
  5
327
100
AcDbEntity
  8
0
100
AcDbLine
 62
7
  6
CONTINUOUS
 10
6.0142054196
 20
12.3433811252
 11
6.0142054196
 21
12.3517144585
  0
LINE
  5
328
100
AcDbEntity
  8
0
100
AcDbLine
 62
7
  6
CONTINUOUS
 10
6.0142054196
 20
12.8483811252
 11
6.0142054196
 21
12.8567144585
  0
LINE
  5
329
100
AcDbEntity
  8
0
100
AcDbLine
 62
7
  6
CONTINUOUS
 10
6.0875387529
 20
12.3433811252
 11
6.0875387529
 21
12.3517144585
  0
LINE
  5
32A
100
AcDbEntity
  8
0
100
AcDbLine
 62
7
  6
CONTINUOUS
 10
6.0875387529
 20
12.8483811252
 11
6.0875387529
 21
12.8567144585
  0
LINE
  5
32B
100
AcDbEntity
  8
0
100
AcDbLine
 62
7
  6
CONTINUOUS
 10
6.1943579268
 20
11.3534326295
 11
6.1592061507
 21
12.3600477918
  0
LINE
  5
32C
100
AcDbEntity
  8
0
100
AcDbLine
 62
7
  6
CONTINUOUS
 10
6.1592061507
 20
12.8400477918
 11
6.1943574523
 21
13.8466493673
  0
LINE
  5
32D
100
AcDbEntity
  8
0
100
AcDbLine
 62
7
  6
CONTINUOUS
 10
6.2875387529
 20
11.3500477709
 11
6.2875387529
 21
13.766758092
  0
LINE
  5
32E
100
AcDbEntity
  8
0
100
AcDbLine
 62
7
  6
CONTINUOUS
 10
6.3042778248
 20
11.3584534511
 11
6.3042778248
 21
13.766758092
  0
LINE
  5
32F
100
AcDbEntity
  8
0
100
AcDbLine
 62
7
  6
CONTINUOUS
 10
6.3070781175
 20
11.3961013597
 11
6.3070781175
 21
13.766758092
  0
LINE
  5
330
100
AcDbEntity
  8
0
100
AcDbLine
 62
7
  6
CONTINUOUS
 10
6.334666055
 20
13.766758092
 11
6.334666055
 21
11.3961013597
  0
LINE
  5
331
100
AcDbEntity
  8
0
100
AcDbLine
 62
7
  6
CONTINUOUS
 10
6.3374663477
 20
13.766758092
 11
6.3374663477
 21
11.3584534511
  0
LINE
  5
332
100
AcDbEntity
  8
0
100
AcDbLine
 62
7
  6
CONTINUOUS
 10
6.3542054196
 20
13.766758092
 11
6.3542054196
 21
11.3500477918
  0
LINE
  5
333
100
AcDbEntity
  8
0
100
AcDbLine
 62
7
  6
CONTINUOUS
 10
3.9125387529
 20
12.8483811252
 11
4.1594971572
 21
12.8483811252
  0
LINE
  5
334
100
AcDbEntity
  8
0
100
AcDbLine
 62
7
  6
CONTINUOUS
 10
4.5054390154
 20
12.8483811252
 11
4.6594971572
 21
12.8483811252
  0
LINE
  5
335
100
AcDbEntity
  8
0
100
AcDbLine
 62
7
  6
CONTINUOUS
 10
5.0054390154
 20
12.8483811252
 11
5.1594971572
 21
12.8483811252
  0
LINE
  5
336
100
AcDbEntity
  8
0
100
AcDbLine
 62
7
  6
CONTINUOUS
 10
5.5054390154
 20
12.8483811252
 11
5.6594971572
 21
12.8483811252
  0
LINE
  5
337
100
AcDbEntity
  8
0
100
AcDbLine
 62
7
  6
CONTINUOUS
 10
6.0054390154
 20
12.8483811252
 11
6.1594971572
 21
12.8483811252
  0
LINE
  5
338
100
AcDbEntity
  8
0
100
AcDbLine
 62
7
  6
CONTINUOUS
 10
6.5054390154
 20
12.8483811252
 11
6.6594971572
 21
12.8483811252
  0
LINE
  5
339
100
AcDbEntity
  8
0
100
AcDbLine
 62
7
  6
CONTINUOUS
 10
7.0054390154
 20
12.8483811252
 11
7.1594971572
 21
12.8483811252
  0
LINE
  5
33A
100
AcDbEntity
  8
0
100
AcDbLine
 62
7
  6
CONTINUOUS
 10
7.5054390154
 20
12.8483811252
 11
7.6594971572
 21
12.8483811252
  0
LINE
  5
33B
100
AcDbEntity
  8
0
100
AcDbLine
 62
7
  6
CONTINUOUS
 10
4.5054390154
 20
12.8567144585
 11
4.6597881636
 21
12.8567144585
  0
LINE
  5
33C
100
AcDbEntity
  8
0
100
AcDbLine
 62
7
  6
CONTINUOUS
 10
5.0054390154
 20
12.8567144585
 11
5.1597881636
 21
12.8567144585
  0
LINE
  5
33D
100
AcDbEntity
  8
0
100
AcDbLine
 62
7
  6
CONTINUOUS
 10
5.5054390154
 20
12.8567144585
 11
5.6597881636
 21
12.8567144585
  0
LINE
  5
33E
100
AcDbEntity
  8
0
100
AcDbLine
 62
7
  6
CONTINUOUS
 10
6.0054390154
 20
12.8567144585
 11
6.1597881636
 21
12.8567144585
  0
LINE
  5
33F
100
AcDbEntity
  8
0
100
AcDbLine
 62
7
  6
CONTINUOUS
 10
6.5054390154
 20
12.8567144585
 11
6.6597881636
 21
12.8567144585
  0
LINE
  5
340
100
AcDbEntity
  8
0
100
AcDbLine
 62
7
  6
CONTINUOUS
 10
7.0054390154
 20
12.8567144585
 11
7.1597881636
 21
12.8567144585
  0
LINE
  5
341
100
AcDbEntity
  8
0
100
AcDbLine
 62
7
  6
CONTINUOUS
 10
7.5054390154
 20
12.8567144585
 11
7.6597881636
 21
12.8567144585
  0
LINE
  5
342
100
AcDbEntity
  8
0
100
AcDbLine
 62
7
  6
CONTINUOUS
 10
8.0054390154
 20
12.8567144585
 11
8.2292054196
 21
12.8567144585
  0
LINE
  5
343
100
AcDbEntity
  8
0
100
AcDbLine
 62
7
  6
CONTINUOUS
 10
6.5054390154
 20
12.3350477918
 11
6.5054390154
 21
12.8650477918
  0
LINE
  5
344
100
AcDbEntity
  8
0
100
AcDbLine
 62
7
  6
CONTINUOUS
 10
6.5142054196
 20
12.3433811252
 11
6.5142054196
 21
12.3517144585
  0
LINE
  5
345
100
AcDbEntity
  8
0
100
AcDbLine
 62
7
  6
CONTINUOUS
 10
6.5142054196
 20
12.8483811252
 11
6.5142054196
 21
12.8567144585
  0
LINE
  5
346
100
AcDbEntity
  8
0
100
AcDbLine
 62
7
  6
CONTINUOUS
 10
6.5875387529
 20
12.3433811252
 11
6.5875387529
 21
12.3517144585
  0
LINE
  5
347
100
AcDbEntity
  8
0
100
AcDbLine
 62
7
  6
CONTINUOUS
 10
6.5875387529
 20
12.8483811252
 11
6.5875387529
 21
12.8567144585
  0
LINE
  5
348
100
AcDbEntity
  8
0
100
AcDbLine
 62
7
  6
CONTINUOUS
 10
8.2071093914
 20
12.9733811252
 11
8.2292054196
 21
12.9733811252
  0
LINE
  5
349
100
AcDbEntity
  8
0
100
AcDbLine
 62
7
  6
CONTINUOUS
 10
6.6943579268
 20
11.3534326295
 11
6.6592061507
 21
12.3600477918
  0
LINE
  5
34A
100
AcDbEntity
  8
0
100
AcDbLine
 62
7
  6
CONTINUOUS
 10
6.6592061507
 20
12.8400477918
 11
6.6943574523
 21
13.8466493673
  0
LINE
  5
34B
100
AcDbEntity
  8
0
100
AcDbLine
 62
7
  6
CONTINUOUS
 10
6.7875387529
 20
11.3500477709
 11
6.7875387529
 21
13.766758092
  0
LINE
  5
34C
100
AcDbEntity
  8
0
100
AcDbLine
 62
7
  6
CONTINUOUS
 10
6.8042778248
 20
11.3584534511
 11
6.8042778248
 21
13.766758092
  0
LINE
  5
34D
100
AcDbEntity
  8
0
100
AcDbLine
 62
7
  6
CONTINUOUS
 10
6.8070781175
 20
11.3961013597
 11
6.8070781175
 21
13.766758092
  0
LINE
  5
34E
100
AcDbEntity
  8
0
100
AcDbLine
 62
7
  6
CONTINUOUS
 10
6.834666055
 20
13.766758092
 11
6.834666055
 21
11.3961013597
  0
LINE
  5
34F
100
AcDbEntity
  8
0
100
AcDbLine
 62
7
  6
CONTINUOUS
 10
6.8374663477
 20
13.766758092
 11
6.8374663477
 21
11.3584534511
  0
LINE
  5
350
100
AcDbEntity
  8
0
100
AcDbLine
 62
7
  6
CONTINUOUS
 10
6.8542054196
 20
13.766758092
 11
6.8542054196
 21
11.3500477918
  0
LINE
  5
351
100
AcDbEntity
  8
0
100
AcDbLine
 62
7
  6
CONTINUOUS
 10
7.0054390154
 20
12.3350477918
 11
7.0054390154
 21
12.8650477918
  0
LINE
  5
352
100
AcDbEntity
  8
0
100
AcDbLine
 62
7
  6
CONTINUOUS
 10
7.0142054196
 20
12.3433811252
 11
7.0142054196
 21
12.3517144585
  0
LINE
  5
353
100
AcDbEntity
  8
0
100
AcDbLine
 62
7
  6
CONTINUOUS
 10
7.0142054196
 20
12.8483811252
 11
7.0142054196
 21
12.8567144585
  0
LINE
  5
354
100
AcDbEntity
  8
0
100
AcDbLine
 62
7
  6
CONTINUOUS
 10
7.0875387529
 20
12.3433811252
 11
7.0875387529
 21
12.3517144585
  0
LINE
  5
355
100
AcDbEntity
  8
0
100
AcDbLine
 62
7
  6
CONTINUOUS
 10
7.0875387529
 20
12.8483811252
 11
7.0875387529
 21
12.8567144585
  0
LINE
  5
356
100
AcDbEntity
  8
0
100
AcDbLine
 62
7
  6
CONTINUOUS
 10
7.1943579268
 20
11.3534326295
 11
7.1592061507
 21
12.3600477918
  0
LINE
  5
357
100
AcDbEntity
  8
0
100
AcDbLine
 62
7
  6
CONTINUOUS
 10
7.1592061507
 20
12.8400477918
 11
7.1943574523
 21
13.8466493673
  0
LINE
  5
358
100
AcDbEntity
  8
0
100
AcDbLine
 62
7
  6
CONTINUOUS
 10
8.2069694959
 20
12.2265968972
 11
8.2072429457
 21
12.2267144585
  0
LINE
  5
359
100
AcDbEntity
  8
0
100
AcDbLine
 62
7
  6
CONTINUOUS
 10
4.2875387529
 20
13.766758092
 11
4.3542054196
 21
13.766758092
  0
LINE
  5
35A
100
AcDbEntity
  8
0
100
AcDbLine
 62
7
  6
CONTINUOUS
 10
4.7875387529
 20
13.766758092
 11
4.8542054196
 21
13.766758092
  0
LINE
  5
35B
100
AcDbEntity
  8
0
100
AcDbLine
 62
7
  6
CONTINUOUS
 10
5.2875387529
 20
13.766758092
 11
5.3542054196
 21
13.766758092
  0
LINE
  5
35C
100
AcDbEntity
  8
0
100
AcDbLine
 62
7
  6
CONTINUOUS
 10
5.7875387529
 20
13.766758092
 11
5.8542054196
 21
13.766758092
  0
LINE
  5
35D
100
AcDbEntity
  8
0
100
AcDbLine
 62
7
  6
CONTINUOUS
 10
6.2875387529
 20
13.766758092
 11
6.3542054196
 21
13.766758092
  0
LINE
  5
35E
100
AcDbEntity
  8
0
100
AcDbLine
 62
7
  6
CONTINUOUS
 10
6.7875387529
 20
13.766758092
 11
6.8542054196
 21
13.766758092
  0
LINE
  5
35F
100
AcDbEntity
  8
0
100
AcDbLine
 62
7
  6
CONTINUOUS
 10
7.2875387529
 20
13.766758092
 11
7.3542054196
 21
13.766758092
  0
LINE
  5
360
100
AcDbEntity
  8
0
100
AcDbLine
 62
7
  6
CONTINUOUS
 10
7.7875387529
 20
13.766758092
 11
7.8542054196
 21
13.766758092
  0
LINE
  5
361
100
AcDbEntity
  8
0
100
AcDbLine
 62
7
  6
CONTINUOUS
 10
8.2072780624
 20
12.9733685044
 11
8.2072432704
 21
12.9733811252
  0
LINE
  5
362
100
AcDbEntity
  8
0
100
AcDbLine
 62
7
  6
CONTINUOUS
 10
7.2875387529
 20
11.3500477709
 11
7.2875387529
 21
13.766758092
  0
LINE
  5
363
100
AcDbEntity
  8
0
100
AcDbLine
 62
7
  6
CONTINUOUS
 10
7.3042778248
 20
11.3584534511
 11
7.3042778248
 21
13.766758092
  0
LINE
  5
364
100
AcDbEntity
  8
0
100
AcDbLine
 62
7
  6
CONTINUOUS
 10
7.3070781175
 20
11.3961013597
 11
7.3070781175
 21
13.766758092
  0
LINE
  5
365
100
AcDbEntity
  8
0
100
AcDbLine
 62
7
  6
CONTINUOUS
 10
7.334666055
 20
13.766758092
 11
7.334666055
 21
11.3961013597
  0
LINE
  5
366
100
AcDbEntity
  8
0
100
AcDbLine
 62
7
  6
CONTINUOUS
 10
7.3374663477
 20
13.766758092
 11
7.3374663477
 21
11.3584534511
  0
LINE
  5
367
100
AcDbEntity
  8
0
100
AcDbLine
 62
7
  6
CONTINUOUS
 10
7.3542054196
 20
13.766758092
 11
7.3542054196
 21
11.3500477918
  0
LINE
  5
368
100
AcDbEntity
  8
0
100
AcDbLine
 62
7
  6
CONTINUOUS
 10
4.2203401497
 20
13.8500477918
 11
4.694473888
 21
13.8500477918
  0
LINE
  5
369
100
AcDbEntity
  8
0
100
AcDbLine
 62
7
  6
CONTINUOUS
 10
4.7203401497
 20
13.8500477918
 11
5.194473888
 21
13.8500477918
  0
LINE
  5
36A
100
AcDbEntity
  8
0
100
AcDbLine
 62
7
  6
CONTINUOUS
 10
5.2203401497
 20
13.8500477918
 11
5.694473888
 21
13.8500477918
  0
LINE
  5
36B
100
AcDbEntity
  8
0
100
AcDbLine
 62
7
  6
CONTINUOUS
 10
5.7203401497
 20
13.8500477918
 11
6.194473888
 21
13.8500477918
  0
LINE
  5
36C
100
AcDbEntity
  8
0
100
AcDbLine
 62
7
  6
CONTINUOUS
 10
6.2203401497
 20
13.8500477918
 11
6.694473888
 21
13.8500477918
  0
LINE
  5
36D
100
AcDbEntity
  8
0
100
AcDbLine
 62
7
  6
CONTINUOUS
 10
6.7203401497
 20
13.8500477918
 11
7.194473888
 21
13.8500477918
  0
LINE
  5
36E
100
AcDbEntity
  8
0
100
AcDbLine
 62
7
  6
CONTINUOUS
 10
7.2203401497
 20
13.8500477918
 11
7.694473888
 21
13.8500477918
  0
LINE
  5
36F
100
AcDbEntity
  8
0
100
AcDbLine
 62
7
  6
CONTINUOUS
 10
7.7203401497
 20
13.8500477918
 11
8.194473888
 21
13.8500477918
  0
LWPOLYLINE
  5
370
100
AcDbEntity
  8
0
100
AcDbPolyline
 62
7
  6
CONTINUOUS
 90
4
 70
0
 10
8.2072432704
 20
12.9733811252
 10
8.206726465
 20
12.9736381238
 10
8.2057925547
 20
12.9743817873
 10
8.2047522691
 20
12.975596974
  0
LINE
  5
371
100
AcDbEntity
  8
0
100
AcDbLine
 62
7
  6
CONTINUOUS
 10
7.5054390154
 20
12.3350477918
 11
7.5054390154
 21
12.8650477918
  0
LINE
  5
372
100
AcDbEntity
  8
0
100
AcDbLine
 62
7
  6
CONTINUOUS
 10
7.5142054196
 20
12.3433811252
 11
7.5142054196
 21
12.3517144585
  0
LINE
  5
373
100
AcDbEntity
  8
0
100
AcDbLine
 62
7
  6
CONTINUOUS
 10
7.5142054196
 20
12.8483811252
 11
7.5142054196
 21
12.8567144585
  0
LINE
  5
374
100
AcDbEntity
  8
0
100
AcDbLine
 62
7
  6
CONTINUOUS
 10
7.5875387529
 20
12.3433811252
 11
7.5875387529
 21
12.3517144585
  0
LINE
  5
375
100
AcDbEntity
  8
0
100
AcDbLine
 62
7
  6
CONTINUOUS
 10
7.5875387529
 20
12.8483811252
 11
7.5875387529
 21
12.8567144585
  0
LINE
  5
376
100
AcDbEntity
  8
0
100
AcDbLine
 62
7
  6
CONTINUOUS
 10
7.6943579268
 20
11.3534326295
 11
7.6592061507
 21
12.3600477918
  0
LINE
  5
377
100
AcDbEntity
  8
0
100
AcDbLine
 62
7
  6
CONTINUOUS
 10
7.6592061507
 20
12.8400477918
 11
7.6943574523
 21
13.8466493673
  0
LINE
  5
378
100
AcDbEntity
  8
0
100
AcDbLine
 62
7
  6
CONTINUOUS
 10
7.7875387529
 20
11.3500477709
 11
7.7875387529
 21
13.766758092
  0
LINE
  5
379
100
AcDbEntity
  8
0
100
AcDbLine
 62
7
  6
CONTINUOUS
 10
7.8042778248
 20
11.3584534511
 11
7.8042778248
 21
13.766758092
  0
LINE
  5
37A
100
AcDbEntity
  8
0
100
AcDbLine
 62
7
  6
CONTINUOUS
 10
7.8070781175
 20
11.3961013597
 11
7.8070781175
 21
13.766758092
  0
LINE
  5
37B
100
AcDbEntity
  8
0
100
AcDbLine
 62
7
  6
CONTINUOUS
 10
7.834666055
 20
13.766758092
 11
7.834666055
 21
11.3961013597
  0
LINE
  5
37C
100
AcDbEntity
  8
0
100
AcDbLine
 62
7
  6
CONTINUOUS
 10
7.8374663477
 20
13.766758092
 11
7.8374663477
 21
11.3584534511
  0
LINE
  5
37D
100
AcDbEntity
  8
0
100
AcDbLine
 62
7
  6
CONTINUOUS
 10
7.8542054196
 20
13.766758092
 11
7.8542054196
 21
11.3500477918
  0
LWPOLYLINE
  5
37E
100
AcDbEntity
  8
0
100
AcDbPolyline
 62
7
  6
CONTINUOUS
 90
4
 70
0
 10
8.204840488
 20
12.2246202832
 10
8.205859751
 20
12.2257776277
 10
8.2067618696
 20
12.2264793117
 10
8.2069694959
 20
12.2265968972
  0
LINE
  5
37F
100
AcDbEntity
  8
0
100
AcDbLine
 62
7
  6
CONTINUOUS
 10
8.0054390154
 20
12.3350477918
 11
8.0054390154
 21
12.8650477918
  0
LINE
  5
380
100
AcDbEntity
  8
0
100
AcDbLine
 62
7
  6
CONTINUOUS
 10
8.0142054196
 20
12.3433811252
 11
8.0142054196
 21
12.8567144585
  0
LINE
  5
381
100
AcDbEntity
  8
0
100
AcDbLine
 62
7
  6
CONTINUOUS
 10
8.0875387529
 20
12.3433811252
 11
8.0875387529
 21
12.8567144585
  0
LINE
  5
382
100
AcDbEntity
  8
0
100
AcDbLine
 62
7
  6
CONTINUOUS
 10
8.2028072214
 20
11.3583811252
 11
8.2028072214
 21
12.2183806458
  0
LINE
  5
383
100
AcDbEntity
  8
0
100
AcDbLine
 62
7
  6
CONTINUOUS
 10
8.2028072214
 20
12.9817144585
 11
8.2028072214
 21
13.8417144585
  0
LINE
  5
384
100
AcDbEntity
  8
0
100
AcDbLine
 62
7
  6
CONTINUOUS
 10
8.2375387529
 20
12.2350477918
 11
8.2375387529
 21
12.3350477918
  0
LINE
  5
385
100
AcDbEntity
  8
0
100
AcDbLine
 62
7
  6
CONTINUOUS
 10
8.2375387529
 20
12.8650477918
 11
8.2375387529
 21
12.9650477918
  0
LWPOLYLINE
  5
386
100
AcDbEntity
  8
0
100
AcDbPolyline
 62
7
  6
CONTINUOUS
 90
3
 70
0
 10
8.2028072202
 20
12.2183806458
 10
8.2028104199
 20
12.2186402935
 10
8.2031460978
 20
12.2210324993
  0
LWPOLYLINE
  5
387
100
AcDbEntity
  8
0
100
AcDbPolyline
 62
7
  6
CONTINUOUS
 90
3
 70
0
 10
8.2031460978
 20
12.2210324993
 10
8.2038844189
 20
12.2230347626
 10
8.204840488
 20
12.2246202832
  0
LWPOLYLINE
  5
388
100
AcDbEntity
  8
0
100
AcDbPolyline
 62
7
  6
CONTINUOUS
 90
4
 70
0
 10
8.2047522691
 20
12.975596974
 10
8.2037891554
 20
12.9772617299
 10
8.2030702288
 20
12.9793753794
 10
8.2028071839
 20
12.9817144794
  0
LINE
  5
389
100
AcDbEntity
  8
0
100
AcDbLine
 62
7
  6
CONTINUOUS
 10
14.3103552674
 20
5.2539580378
 11
14.3103552674
 21
5.3089592703
  0
LINE
  5
38A
100
AcDbEntity
  8
0
100
AcDbLine
 62
7
  6
CONTINUOUS
 10
14.3130759144
 20
5.9324804478
 11
14.3103552728
 21
5.3089592703
  0
LINE
  5
38B
100
AcDbEntity
  8
0
100
AcDbLine
 62
7
  6
CONTINUOUS
 10
15.0620219341
 20
5.0072913711
 11
15.0620219341
 21
4.9539580378
  0
LINE
  5
38C
100
AcDbEntity
  8
0
100
AcDbLine
 62
7
  6
CONTINUOUS
 10
15.0703552674
 20
4.9456247044
 11
15.4270219341
 21
4.9456247044
  0
LINE
  5
38D
100
AcDbEntity
  8
0
100
AcDbLine
 62
7
  6
CONTINUOUS
 10
15.6936886007
 20
4.9456247044
 11
16.0503552674
 21
4.9456247044
  0
LINE
  5
38E
100
AcDbEntity
  8
0
100
AcDbLine
 62
7
  6
CONTINUOUS
 10
15.443611117
 20
4.9878039611
 11
15.6770994092
 21
4.9878039611
  0
LINE
  5
38F
100
AcDbEntity
  8
0
100
AcDbLine
 62
7
  6
CONTINUOUS
 10
15.0703552674
 20
5.0156247044
 11
15.1786886007
 21
5.0156247044
  0
LINE
  5
390
100
AcDbEntity
  8
0
100
AcDbLine
 62
7
  6
CONTINUOUS
 10
15.9420219341
 20
5.0156247044
 11
16.0503552674
 21
5.0156247044
  0
LWPOLYLINE
  5
391
100
AcDbEntity
  8
0
100
AcDbPolyline
 62
7
  6
CONTINUOUS
 90
5
 70
0
 10
15.6771005203
 20
4.9878039486
 10
15.6776182077
 20
4.9877871397
 10
15.6798629409
 20
4.9873193298
 10
15.6822317929
 20
4.9859947235
 10
15.6841896453
 20
4.9837452411
  0
LINE
  5
392
100
AcDbEntity
  8
0
100
AcDbLine
 62
7
  6
CONTINUOUS
 10
15.1870219341
 20
4.9539580378
 11
15.1870219341
 21
5.2372913711
  0
LINE
  5
393
100
AcDbEntity
  8
0
100
AcDbLine
 62
7
  6
CONTINUOUS
 10
15.3036886007
 20
5.1256247044
 11
15.8170219341
 21
5.1256247044
  0
LINE
  5
394
100
AcDbEntity
  8
0
100
AcDbLine
 62
7
  6
CONTINUOUS
 10
15.8170219341
 20
5.1281311151
 11
15.3036886007
 21
5.1281311151
  0
LINE
  5
395
100
AcDbEntity
  8
0
100
AcDbLine
 62
7
  6
CONTINUOUS
 10
15.3036886007
 20
4.9539580378
 11
15.3036886007
 21
5.3006247044
  0
LINE
  5
396
100
AcDbEntity
  8
0
100
AcDbLine
 62
7
  6
CONTINUOUS
 10
15.3036886007
 20
5.2364516271
 11
15.8170219341
 21
5.2364516271
  0
LINE
  5
397
100
AcDbEntity
  8
0
100
AcDbLine
 62
7
  6
CONTINUOUS
 10
15.3036886007
 20
5.2389580378
 11
15.8170219341
 21
5.2389580378
  0
LINE
  5
398
100
AcDbEntity
  8
0
100
AcDbLine
 62
7
  6
CONTINUOUS
 10
14.3186886007
 20
5.2456247044
 11
15.1786886007
 21
5.2456247044
  0
LINE
  5
399
100
AcDbEntity
  8
0
100
AcDbLine
 62
7
  6
CONTINUOUS
 10
15.3120219341
 20
5.2456247044
 11
15.8086886007
 21
5.2456247044
  0
LINE
  5
39A
100
AcDbEntity
  8
0
100
AcDbLine
 62
7
  6
CONTINUOUS
 10
15.9420219341
 20
5.2456247044
 11
16.8020219341
 21
5.2456247044
  0
LINE
  5
39B
100
AcDbEntity
  8
0
100
AcDbLine
 62
7
  6
CONTINUOUS
 10
15.4353552674
 20
4.9539580378
 11
15.4353525279
 21
5.0749382266
  0
LINE
  5
39C
100
AcDbEntity
  8
0
100
AcDbLine
 62
7
  6
CONTINUOUS
 10
15.8086886007
 20
5.3039580378
 11
15.3120219341
 21
5.3039580378
  0
LINE
  5
39D
100
AcDbEntity
  8
0
100
AcDbLine
 62
7
  6
CONTINUOUS
 10
14.3186886007
 20
5.3089580378
 11
16.8020219341
 21
5.3089580378
  0
LINE
  5
39E
100
AcDbEntity
  8
0
100
AcDbLine
 62
7
  6
CONTINUOUS
 10
15.6841896453
 20
4.9837452411
 11
15.6852668549
 21
4.980708671
  0
LINE
  5
39F
100
AcDbEntity
  8
0
100
AcDbLine
 62
7
  6
CONTINUOUS
 10
15.6853579525
 20
5.074939533
 11
15.6853552674
 21
4.9539580378
  0
LINE
  5
3A0
100
AcDbEntity
  8
0
100
AcDbLine
 62
7
  6
CONTINUOUS
 10
15.4358197766
 20
4.9822396826
 11
15.4375201261
 21
4.9850956289
  0
LINE
  5
3A1
100
AcDbEntity
  8
0
100
AcDbLine
 62
7
  6
CONTINUOUS
 10
15.8170219341
 20
4.9539580378
 11
15.8170219341
 21
5.3006247044
  0
LWPOLYLINE
  5
3A2
100
AcDbEntity
  8
0
100
AcDbPolyline
 62
7
  6
CONTINUOUS
 90
4
 70
0
 10
15.4375201261
 20
4.9850956289
 10
15.4399610627
 20
4.9869407604
 10
15.442450535
 20
4.9877198613
 10
15.4436094475
 20
4.9878039654
  0
LINE
  5
3A3
100
AcDbEntity
  8
0
100
AcDbLine
 62
7
  6
CONTINUOUS
 10
15.9336886007
 20
4.9539580378
 11
15.9336886007
 21
5.2372913711
  0
LINE
  5
3A4
100
AcDbEntity
  8
0
100
AcDbLine
 62
7
  6
CONTINUOUS
 10
16.0586886007
 20
4.9539580378
 11
16.0586886007
 21
5.0072913711
  0
LINE
  5
3A5
100
AcDbEntity
  8
0
100
AcDbLine
 62
7
  6
CONTINUOUS
 10
16.7270655676
 20
5.9756247044
 11
14.3564088353
 21
5.9756247044
  0
LINE
  5
3A6
100
AcDbEntity
  8
0
100
AcDbLine
 62
7
  6
CONTINUOUS
 10
16.7270655676
 20
5.3089581957
 11
16.7270655676
 21
5.9756247044
  0
LINE
  5
3A7
100
AcDbEntity
  8
0
100
AcDbLine
 62
7
  6
CONTINUOUS
 10
16.8103552674
 20
5.3006247044
 11
16.8103552674
 21
5.2539580378
  0
LINE
  5
3A8
100
AcDbEntity
  8
0
100
AcDbLine
 62
7
  6
CONTINUOUS
 10
13.4579450764
 20
11.3882995017
 11
13.2758838841
 21
11.7676526366
  0
LWPOLYLINE
  5
3A9
100
AcDbEntity
  8
0
100
AcDbPolyline
 62
7
  6
CONTINUOUS
 90
4
 70
0
 10
13.4579450764
 20
11.3882995017
 10
13.4581027115
 20
11.3879380342
 10
13.4583101423
 20
11.3870583588
 10
13.4582886168
 20
11.3869601499
  0
LWPOLYLINE
  5
3AA
100
AcDbEntity
  8
0
100
AcDbPolyline
 62
7
  6
CONTINUOUS
 90
7
 70
0
 10
13.2734207114
 20
11.8228070252
 10
13.2717237697
 20
11.8160327509
 10
13.2703088604
 20
11.8053195996
 10
13.2701496774
 20
11.7941940025
 10
13.2712482925
 20
11.7833364834
 10
13.2736125432
 20
11.7733972788
 10
13.2758970373
 20
11.7676254729
  0
LINE
  5
3AB
100
AcDbEntity
  8
0
100
AcDbLine
 62
7
  6
CONTINUOUS
 10
13.2734173629
 20
11.8227962679
 11
13.8472735221
 21
13.6797954798
  0
LWPOLYLINE
  5
3AC
100
AcDbEntity
  8
0
100
AcDbPolyline
 62
7
  6
CONTINUOUS
 90
4
 70
0
 10
13.3802447443
 20
11.3703281686
 10
13.4027516837
 20
11.3613190532
 10
13.423582343
 20
11.3505394035
 10
13.4391221398
 20
11.3405681172
  0
LINE
  5
3AD
100
AcDbEntity
  8
0
100
AcDbLine
 62
7
  6
CONTINUOUS
 10
13.9184755734
 20
11.3882995017
 11
13.7364143811
 21
11.7676526366
  0
LWPOLYLINE
  5
3AE
100
AcDbEntity
  8
0
100
AcDbPolyline
 62
7
  6
CONTINUOUS
 90
4
 70
0
 10
13.9184755734
 20
11.3882995017
 10
13.9186332085
 20
11.3879380342
 10
13.9188406393
 20
11.3870583588
 10
13.9188191138
 20
11.3869601499
  0
LINE
  5
3AF
100
AcDbEntity
  8
0
100
AcDbLine
 62
7
  6
CONTINUOUS
 10
13.3971568554
 20
11.5149613153
 11
13.3614108633
 21
11.3815620359
  0
LINE
  5
3B0
100
AcDbEntity
  8
0
100
AcDbLine
 62
7
  6
CONTINUOUS
 10
13.3688300212
 20
11.3740008917
 11
13.3802447443
 21
11.3703281686
  0
LINE
  5
3B1
100
AcDbEntity
  8
0
100
AcDbLine
 62
7
  6
CONTINUOUS
 10
13.3688294941
 20
11.3739977975
 11
13.3608688473
 21
11.3766759373
  0
LWPOLYLINE
  5
3B2
100
AcDbEntity
  8
0
100
AcDbPolyline
 62
7
  6
CONTINUOUS
 90
4
 70
0
 10
13.8407752413
 20
11.3703281686
 10
13.8632821807
 20
11.3613190532
 10
13.88411284
 20
11.3505394035
 10
13.8996526368
 20
11.3405681172
  0
LWPOLYLINE
  5
3B3
100
AcDbEntity
  8
0
100
AcDbPolyline
 62
7
  6
CONTINUOUS
 90
7
 70
0
 10
13.7339512084
 20
11.8228070252
 10
13.7322542667
 20
11.8160327509
 10
13.7308393574
 20
11.8053195996
 10
13.7306801744
 20
11.7941940025
 10
13.7317787895
 20
11.7833364834
 10
13.7341430402
 20
11.7733972788
 10
13.7364275343
 20
11.7676254729
  0
LINE
  5
3B4
100
AcDbEntity
  8
0
100
AcDbLine
 62
7
  6
CONTINUOUS
 10
13.4473952036
 20
11.3815621341
 11
13.4527939855
 21
11.3990325987
  0
LINE
  5
3B5
100
AcDbEntity
  8
0
100
AcDbLine
 62
7
  6
CONTINUOUS
 10
14.0917862276
 20
13.2681086208
 11
13.5087992699
 21
11.3815621341
  0
LINE
  5
3B6
100
AcDbEntity
  8
0
100
AcDbLine
 62
7
  6
CONTINUOUS
 10
14.0943282914
 20
13.2629284395
 11
13.798869999
 21
12.3068250551
  0
LINE
  5
3B7
100
AcDbEntity
  8
0
100
AcDbLine
 62
7
  6
CONTINUOUS
 10
13.7423311013
 20
12.1238651151
 11
13.5093241143
 21
11.3698542286
  0
LINE
  5
3B8
100
AcDbEntity
  8
0
100
AcDbLine
 62
7
  6
CONTINUOUS
 10
13.8293605182
 20
11.3740008917
 11
13.8407752413
 21
11.3703281686
  0
LINE
  5
3B9
100
AcDbEntity
  8
0
100
AcDbLine
 62
7
  6
CONTINUOUS
 10
13.8293599911
 20
11.3739977975
 11
13.8213993443
 21
11.3766759373
  0
LWPOLYLINE
  5
3BA
100
AcDbEntity
  8
0
100
AcDbPolyline
 62
7
  6
CONTINUOUS
 90
4
 70
0
 10
14.3013057383
 20
11.3703281686
 10
14.3238126777
 20
11.3613190532
 10
14.344643337
 20
11.3505394035
 10
14.3601831338
 20
11.3405681172
  0
LINE
  5
3BB
100
AcDbEntity
  8
0
100
AcDbLine
 62
7
  6
CONTINUOUS
 10
13.7339478599
 20
11.8227962679
 11
14.3078040191
 21
13.6797954798
  0
LINE
  5
3BC
100
AcDbEntity
  8
0
100
AcDbLine
 62
7
  6
CONTINUOUS
 10
14.2898910152
 20
11.3740008917
 11
14.3013057383
 21
11.3703281686
  0
LINE
  5
3BD
100
AcDbEntity
  8
0
100
AcDbLine
 62
7
  6
CONTINUOUS
 10
14.2898904881
 20
11.3739977975
 11
14.2819298413
 21
11.3766759373
  0
LWPOLYLINE
  5
3BE
100
AcDbEntity
  8
0
100
AcDbPolyline
 62
7
  6
CONTINUOUS
 90
4
 70
0
 10
14.7618362353
 20
11.3703281686
 10
14.7843431747
 20
11.3613190532
 10
14.805173834
 20
11.3505394035
 10
14.8207136308
 20
11.3405681172
  0
LINE
  5
3BF
100
AcDbEntity
  8
0
100
AcDbLine
 62
7
  6
CONTINUOUS
 10
14.3790060704
 20
11.3882995017
 11
14.1969448781
 21
11.7676526366
  0
LWPOLYLINE
  5
3C0
100
AcDbEntity
  8
0
100
AcDbPolyline
 62
7
  6
CONTINUOUS
 90
4
 70
0
 10
14.3790060704
 20
11.3882995017
 10
14.3791637055
 20
11.3879380342
 10
14.3793711363
 20
11.3870583588
 10
14.3793496108
 20
11.3869601499
  0
LINE
  5
3C1
100
AcDbEntity
  8
0
100
AcDbLine
 62
7
  6
CONTINUOUS
 10
13.8576873524
 20
11.5149613153
 11
13.8219413603
 21
11.3815620359
  0
LINE
  5
3C2
100
AcDbEntity
  8
0
100
AcDbLine
 62
7
  6
CONTINUOUS
 10
13.8469464749
 20
11.3449130929
 11
13.8532564471
 21
11.3653321706
  0
LINE
  5
3C3
100
AcDbEntity
  8
0
100
AcDbLine
 62
7
  6
CONTINUOUS
 10
13.9079257006
 20
11.3815621341
 11
13.9133244825
 21
11.3990325987
  0
LINE
  5
3C4
100
AcDbEntity
  8
0
100
AcDbLine
 62
7
  6
CONTINUOUS
 10
13.4439286527
 20
11.3390401543
 11
13.6714332126
 21
11.3390401543
  0
LINE
  5
3C5
100
AcDbEntity
  8
0
100
AcDbLine
 62
7
  6
CONTINUOUS
 10
13.7788464596
 20
11.3390401543
 11
13.8389846345
 21
11.3390401543
  0
LINE
  5
3C6
100
AcDbEntity
  8
0
100
AcDbLine
 62
7
  6
CONTINUOUS
 10
13.9044591497
 20
11.3390401543
 11
14.1319637096
 21
11.3390401543
  0
LINE
  5
3C7
100
AcDbEntity
  8
0
100
AcDbLine
 62
7
  6
CONTINUOUS
 10
14.2393769566
 20
11.3390401543
 11
14.2995151315
 21
11.3390401543
  0
LINE
  5
3C8
100
AcDbEntity
  8
0
100
AcDbLine
 62
7
  6
CONTINUOUS
 10
14.3649896467
 20
11.3390401543
 11
14.5924942066
 21
11.3390401543
  0
LINE
  5
3C9
100
AcDbEntity
  8
0
100
AcDbLine
 62
7
  6
CONTINUOUS
 10
14.6999074536
 20
11.3390401543
 11
14.7600456285
 21
11.3390401543
  0
LINE
  5
3CA
100
AcDbEntity
  8
0
100
AcDbLine
 62
7
  6
CONTINUOUS
 10
14.8255201437
 20
11.3390401543
 11
15.0530247036
 21
11.3390401543
  0
LINE
  5
3CB
100
AcDbEntity
  8
0
100
AcDbLine
 62
7
  6
CONTINUOUS
 10
15.1604379506
 20
11.3390401543
 11
15.2205761255
 21
11.3390401543
  0
LINE
  5
3CC
100
AcDbEntity
  8
0
100
AcDbLine
 62
7
  6
CONTINUOUS
 10
15.2860506407
 20
11.3390401543
 11
15.5135552006
 21
11.3390401543
  0
LINE
  5
3CD
100
AcDbEntity
  8
0
100
AcDbLine
 62
7
  6
CONTINUOUS
 10
15.6209684476
 20
11.3390401543
 11
15.6811066225
 21
11.3390401543
  0
LINE
  5
3CE
100
AcDbEntity
  8
0
100
AcDbLine
 62
7
  6
CONTINUOUS
 10
15.7465811377
 20
11.3390401543
 11
15.9740856976
 21
11.3390401543
  0
LINE
  5
3CF
100
AcDbEntity
  8
0
100
AcDbLine
 62
7
  6
CONTINUOUS
 10
16.0814989446
 20
11.3390401543
 11
16.1416371195
 21
11.3390401543
  0
LINE
  5
3D0
100
AcDbEntity
  8
0
100
AcDbLine
 62
7
  6
CONTINUOUS
 10
16.2071116347
 20
11.3390401543
 11
16.4346161946
 21
11.3390401543
  0
LINE
  5
3D1
100
AcDbEntity
  8
0
100
AcDbLine
 62
7
  6
CONTINUOUS
 10
16.5420294416
 20
11.3390401543
 11
16.6021676165
 21
11.3390401543
  0
LINE
  5
3D2
100
AcDbEntity
  8
0
100
AcDbLine
 62
7
  6
CONTINUOUS
 10
16.6676421317
 20
11.3390401543
 11
16.8951466916
 21
11.3390401543
  0
LINE
  5
3D3
100
AcDbEntity
  8
0
100
AcDbLine
 62
7
  6
CONTINUOUS
 10
17.0025599386
 20
11.3390401543
 11
17.0626981135
 21
11.3390401543
  0
LINE
  5
3D4
100
AcDbEntity
  8
0
100
AcDbLine
 62
7
  6
CONTINUOUS
 10
14.7504215122
 20
11.3740008917
 11
14.7618362353
 21
11.3703281686
  0
LINE
  5
3D5
100
AcDbEntity
  8
0
100
AcDbLine
 62
7
  6
CONTINUOUS
 10
15.2109520092
 20
11.3740008917
 11
15.2223667323
 21
11.3703281686
  0
LINE
  5
3D6
100
AcDbEntity
  8
0
100
AcDbLine
 62
7
  6
CONTINUOUS
 10
14.7504209851
 20
11.3739977975
 11
14.7424603383
 21
11.3766759373
  0
LINE
  5
3D7
100
AcDbEntity
  8
0
100
AcDbLine
 62
7
  6
CONTINUOUS
 10
15.2109514821
 20
11.3739977975
 11
15.2029908353
 21
11.3766759373
  0
LWPOLYLINE
  5
3D8
100
AcDbEntity
  8
0
100
AcDbPolyline
 62
7
  6
CONTINUOUS
 90
4
 70
0
 10
15.2223667323
 20
11.3703281686
 10
15.2448736717
 20
11.3613190532
 10
15.265704331
 20
11.3505394035
 10
15.2812441279
 20
11.3405681172
  0
LWPOLYLINE
  5
3D9
100
AcDbEntity
  8
0
100
AcDbPolyline
 62
7
  6
CONTINUOUS
 90
7
 70
0
 10
14.1944817054
 20
11.8228070252
 10
14.1927847637
 20
11.8160327509
 10
14.1913698544
 20
11.8053195996
 10
14.1912106714
 20
11.7941940025
 10
14.1923092865
 20
11.7833364834
 10
14.1946735372
 20
11.7733972788
 10
14.1969580313
 20
11.7676254729
  0
LINE
  5
3DA
100
AcDbEntity
  8
0
100
AcDbLine
 62
7
  6
CONTINUOUS
 10
14.5523167246
 20
13.2681086208
 11
13.9693297669
 21
11.3815621341
  0
LINE
  5
3DB
100
AcDbEntity
  8
0
100
AcDbLine
 62
7
  6
CONTINUOUS
 10
14.5548587884
 20
13.2629284395
 11
14.259400496
 21
12.3068250551
  0
LINE
  5
3DC
100
AcDbEntity
  8
0
100
AcDbLine
 62
7
  6
CONTINUOUS
 10
14.2028615983
 20
12.1238651151
 11
13.9698546113
 21
11.3698542286
  0
LINE
  5
3DD
100
AcDbEntity
  8
0
100
AcDbLine
 62
7
  6
CONTINUOUS
 10
14.1944783569
 20
11.8227962679
 11
14.7683345161
 21
13.6797954798
  0
LINE
  5
3DE
100
AcDbEntity
  8
0
100
AcDbLine
 62
7
  6
CONTINUOUS
 10
13.4479193377
 20
11.3698542286
 11
13.5092572809
 21
11.3698542286
  0
LINE
  5
3DF
100
AcDbEntity
  8
0
100
AcDbLine
 62
7
  6
CONTINUOUS
 10
13.9084498347
 20
11.3698542286
 11
13.9697877779
 21
11.3698542286
  0
LINE
  5
3E0
100
AcDbEntity
  8
0
100
AcDbLine
 62
7
  6
CONTINUOUS
 10
14.3689803317
 20
11.3698542286
 11
14.4303182749
 21
11.3698542286
  0
LINE
  5
3E1
100
AcDbEntity
  8
0
100
AcDbLine
 62
7
  6
CONTINUOUS
 10
14.8295108287
 20
11.3698542286
 11
14.8908487719
 21
11.3698542286
  0
LINE
  5
3E2
100
AcDbEntity
  8
0
100
AcDbLine
 62
7
  6
CONTINUOUS
 10
15.2900413257
 20
11.3698542286
 11
15.3513792689
 21
11.3698542286
  0
LINE
  5
3E3
100
AcDbEntity
  8
0
100
AcDbLine
 62
7
  6
CONTINUOUS
 10
15.7505718227
 20
11.3698542286
 11
15.8119097659
 21
11.3698542286
  0
LINE
  5
3E4
100
AcDbEntity
  8
0
100
AcDbLine
 62
7
  6
CONTINUOUS
 10
16.2111023197
 20
11.3698542286
 11
16.2724402629
 21
11.3698542286
  0
LINE
  5
3E5
100
AcDbEntity
  8
0
100
AcDbLine
 62
7
  6
CONTINUOUS
 10
16.6716328167
 20
11.3698542286
 11
16.7329707599
 21
11.3698542286
  0
LINE
  5
3E6
100
AcDbEntity
  8
0
100
AcDbLine
 62
7
  6
CONTINUOUS
 10
13.4895700732
 20
11.375035082
 11
13.4625889454
 21
11.3750350859
  0
LINE
  5
3E7
100
AcDbEntity
  8
0
100
AcDbLine
 62
7
  6
CONTINUOUS
 10
13.9501005702
 20
11.375035082
 11
13.9231194424
 21
11.3750350859
  0
LINE
  5
3E8
100
AcDbEntity
  8
0
100
AcDbLine
 62
7
  6
CONTINUOUS
 10
14.4106310672
 20
11.375035082
 11
14.3836499394
 21
11.3750350859
  0
LINE
  5
3E9
100
AcDbEntity
  8
0
100
AcDbLine
 62
7
  6
CONTINUOUS
 10
14.8711615642
 20
11.375035082
 11
14.8441804364
 21
11.3750350859
  0
LINE
  5
3EA
100
AcDbEntity
  8
0
100
AcDbLine
 62
7
  6
CONTINUOUS
 10
15.7922225582
 20
11.375035082
 11
15.7652414304
 21
11.3750350859
  0
LINE
  5
3EB
100
AcDbEntity
  8
0
100
AcDbLine
 62
7
  6
CONTINUOUS
 10
15.3316920612
 20
11.375035082
 11
15.3047109334
 21
11.3750350859
  0
LINE
  5
3EC
100
AcDbEntity
  8
0
100
AcDbLine
 62
7
  6
CONTINUOUS
 10
16.2527530552
 20
11.375035082
 11
16.2257719274
 21
11.3750350859
  0
LINE
  5
3ED
100
AcDbEntity
  8
0
100
AcDbLine
 62
7
  6
CONTINUOUS
 10
16.7132835522
 20
11.375035082
 11
16.6863024244
 21
11.3750350859
  0
LINE
  5
3EE
100
AcDbEntity
  8
0
100
AcDbLine
 62
7
  6
CONTINUOUS
 10
15.6714825062
 20
11.3740008917
 11
15.6828972293
 21
11.3703281686
  0
LINE
  5
3EF
100
AcDbEntity
  8
0
100
AcDbLine
 62
7
  6
CONTINUOUS
 10
15.6714819791
 20
11.3739977975
 11
15.6635213323
 21
11.3766759373
  0
LWPOLYLINE
  5
3F0
100
AcDbEntity
  8
0
100
AcDbPolyline
 62
7
  6
CONTINUOUS
 90
4
 70
0
 10
15.6828972293
 20
11.3703281686
 10
15.7054041687
 20
11.3613190532
 10
15.726234828
 20
11.3505394035
 10
15.7417746249
 20
11.3405681172
  0
LINE
  5
3F1
100
AcDbEntity
  8
0
100
AcDbLine
 62
7
  6
CONTINUOUS
 10
14.8395365674
 20
11.3882995017
 11
14.6574753751
 21
11.7676526366
  0
LWPOLYLINE
  5
3F2
100
AcDbEntity
  8
0
100
AcDbPolyline
 62
7
  6
CONTINUOUS
 90
4
 70
0
 10
14.8395365674
 20
11.3882995017
 10
14.8396942025
 20
11.3879380342
 10
14.8399016333
 20
11.3870583588
 10
14.8398801078
 20
11.3869601499
  0
LINE
  5
3F3
100
AcDbEntity
  8
0
100
AcDbLine
 62
7
  6
CONTINUOUS
 10
14.3182178494
 20
11.5149613153
 11
14.2824718573
 21
11.3815620359
  0
LINE
  5
3F4
100
AcDbEntity
  8
0
100
AcDbLine
 62
7
  6
CONTINUOUS
 10
16.1320130032
 20
11.3740008917
 11
16.1434277263
 21
11.3703281686
  0
LINE
  5
3F5
100
AcDbEntity
  8
0
100
AcDbLine
 62
7
  6
CONTINUOUS
 10
16.1320124761
 20
11.3739977975
 11
16.1240518293
 21
11.3766759373
  0
LWPOLYLINE
  5
3F6
100
AcDbEntity
  8
0
100
AcDbPolyline
 62
7
  6
CONTINUOUS
 90
4
 70
0
 10
16.1434277263
 20
11.3703281686
 10
16.1659346657
 20
11.3613190532
 10
16.186765325
 20
11.3505394035
 10
16.2023051219
 20
11.3405681172
  0
LINE
  5
3F7
100
AcDbEntity
  8
0
100
AcDbLine
 62
7
  6
CONTINUOUS
 10
14.0713067217
 20
13.2784234841
 11
13.8729590088
 21
13.6773576873
  0
LINE
  5
3F8
100
AcDbEntity
  8
0
100
AcDbLine
 62
7
  6
CONTINUOUS
 10
14.0943282914
 20
13.2629284395
 11
14.0917862276
 21
13.2681086208
  0
LINE
  5
3F9
100
AcDbEntity
  8
0
100
AcDbLine
 62
7
  6
CONTINUOUS
 10
14.3074769719
 20
11.3449130929
 11
14.3137869441
 21
11.3653321706
  0
LINE
  5
3FA
100
AcDbEntity
  8
0
100
AcDbLine
 62
7
  6
CONTINUOUS
 10
14.3684561976
 20
11.3815621341
 11
14.3738549795
 21
11.3990325987
  0
LINE
  5
3FB
100
AcDbEntity
  8
0
100
AcDbLine
 62
7
  6
CONTINUOUS
 10
15.0128472216
 20
13.2681086208
 11
14.4298602639
 21
11.3815621341
  0
LINE
  5
3FC
100
AcDbEntity
  8
0
100
AcDbLine
 62
7
  6
CONTINUOUS
 10
15.0153892854
 20
13.2629284395
 11
14.719930993
 21
12.3068250551
  0
LINE
  5
3FD
100
AcDbEntity
  8
0
100
AcDbLine
 62
7
  6
CONTINUOUS
 10
14.6633920953
 20
12.1238651151
 11
14.4303851083
 21
11.3698542286
  0
LINE
  5
3FE
100
AcDbEntity
  8
0
100
AcDbLine
 62
7
  6
CONTINUOUS
 10
17.2996252286
 20
11.8392737546
 11
17.2441358858
 21
11.8392737546
  0
LINE
  5
3FF
100
AcDbEntity
  8
0
100
AcDbLine
 62
7
  6
CONTINUOUS
 10
16.5925435002
 20
11.3740008917
 11
16.6039582233
 21
11.3703281686
  0
LINE
  5
400
100
AcDbEntity
  8
0
100
AcDbLine
 62
7
  6
CONTINUOUS
 10
16.5925429731
 20
11.3739977975
 11
16.5845823263
 21
11.3766759373
  0
LWPOLYLINE
  5
401
100
AcDbEntity
  8
0
100
AcDbPolyline
 62
7
  6
CONTINUOUS
 90
7
 70
0
 10
14.6550122024
 20
11.8228070252
 10
14.6533152607
 20
11.8160327509
 10
14.6519003514
 20
11.8053195996
 10
14.6517411684
 20
11.7941940025
 10
14.6528397835
 20
11.7833364834
 10
14.6552040342
 20
11.7733972788
 10
14.6574885284
 20
11.7676254729
  0
LINE
  5
402
100
AcDbEntity
  8
0
100
AcDbLine
 62
7
  6
CONTINUOUS
 10
14.6550088539
 20
11.8227962679
 11
15.2288650131
 21
13.6797954798
  0
LINE
  5
403
100
AcDbEntity
  8
0
100
AcDbLine
 62
7
  6
CONTINUOUS
 10
17.2800506187
 20
12.0189632227
 11
17.280800255
 21
12.0190077971
  0
LWPOLYLINE
  5
404
100
AcDbEntity
  8
0
100
AcDbPolyline
 62
7
  6
CONTINUOUS
 90
4
 70
0
 10
16.6039582233
 20
11.3703281686
 10
16.6264651627
 20
11.3613190532
 10
16.647295822
 20
11.3505394035
 10
16.6628356189
 20
11.3405681172
  0
LINE
  5
405
100
AcDbEntity
  8
0
100
AcDbLine
 62
7
  6
CONTINUOUS
 10
14.5318372187
 20
13.2784234841
 11
14.3334895058
 21
13.6773576873
  0
LINE
  5
406
100
AcDbEntity
  8
0
100
AcDbLine
 62
7
  6
CONTINUOUS
 10
14.5548587884
 20
13.2629284395
 11
14.5523167246
 21
13.2681086208
  0
LINE
  5
407
100
AcDbEntity
  8
0
100
AcDbLine
 62
7
  6
CONTINUOUS
 10
15.3000670644
 20
11.3882995017
 11
15.1180058721
 21
11.7676526366
  0
LWPOLYLINE
  5
408
100
AcDbEntity
  8
0
100
AcDbPolyline
 62
7
  6
CONTINUOUS
 90
4
 70
0
 10
15.3000670644
 20
11.3882995017
 10
15.3002246995
 20
11.3879380342
 10
15.3004321303
 20
11.3870583588
 10
15.3004106048
 20
11.3869601499
  0
LINE
  5
409
100
AcDbEntity
  8
0
100
AcDbLine
 62
7
  6
CONTINUOUS
 10
14.7787483464
 20
11.5149613153
 11
14.7430023543
 21
11.3815620359
  0
LINE
  5
40A
100
AcDbEntity
  8
0
100
AcDbLine
 62
7
  6
CONTINUOUS
 10
14.7680074689
 20
11.3449130929
 11
14.7743174411
 21
11.3653321706
  0
LINE
  5
40B
100
AcDbEntity
  8
0
100
AcDbLine
 62
7
  6
CONTINUOUS
 10
17.1107682879
 20
12.1497645679
 11
17.1894573571
 21
12.1497645679
  0
LWPOLYLINE
  5
40C
100
AcDbEntity
  8
0
100
AcDbPolyline
 62
7
  6
CONTINUOUS
 90
7
 70
0
 10
15.1155426994
 20
11.8228070252
 10
15.1138457577
 20
11.8160327509
 10
15.1124308484
 20
11.8053195996
 10
15.1122716654
 20
11.7941940025
 10
15.1133702805
 20
11.7833364834
 10
15.1157345312
 20
11.7733972788
 10
15.1180190254
 20
11.7676254729
  0
LINE
  5
40D
100
AcDbEntity
  8
0
100
AcDbLine
 62
7
  6
CONTINUOUS
 10
14.8289866946
 20
11.3815621341
 11
14.8343854765
 21
11.3990325987
  0
LINE
  5
40E
100
AcDbEntity
  8
0
100
AcDbLine
 62
7
  6
CONTINUOUS
 10
15.4733777186
 20
13.2681086208
 11
14.8903907609
 21
11.3815621341
  0
LINE
  5
40F
100
AcDbEntity
  8
0
100
AcDbLine
 62
7
  6
CONTINUOUS
 10
15.4759197824
 20
13.2629284395
 11
15.18046149
 21
12.3068250551
  0
LINE
  5
410
100
AcDbEntity
  8
0
100
AcDbLine
 62
7
  6
CONTINUOUS
 10
15.1239225923
 20
12.1238651151
 11
14.8909156053
 21
11.3698542286
  0
LINE
  5
411
100
AcDbEntity
  8
0
100
AcDbLine
 62
7
  6
CONTINUOUS
 10
17.4521270123
 20
12.3327697077
 11
17.3312676206
 21
12.3327697077
  0
LINE
  5
412
100
AcDbEntity
  8
0
100
AcDbLine
 62
7
  6
CONTINUOUS
 10
15.7605975614
 20
11.3882995017
 11
15.5785363691
 21
11.7676526366
  0
LWPOLYLINE
  5
413
100
AcDbEntity
  8
0
100
AcDbPolyline
 62
7
  6
CONTINUOUS
 90
4
 70
0
 10
15.7605975614
 20
11.3882995017
 10
15.7607551965
 20
11.3879380342
 10
15.7609626274
 20
11.3870583588
 10
15.7609411018
 20
11.3869601499
  0
LINE
  5
414
100
AcDbEntity
  8
0
100
AcDbLine
 62
7
  6
CONTINUOUS
 10
15.1155393509
 20
11.8227962679
 11
15.6893955101
 21
13.6797954798
  0
LINE
  5
415
100
AcDbEntity
  8
0
100
AcDbLine
 62
7
  6
CONTINUOUS
 10
14.9923677157
 20
13.2784234841
 11
14.7940200028
 21
13.6773576873
  0
LINE
  5
416
100
AcDbEntity
  8
0
100
AcDbLine
 62
7
  6
CONTINUOUS
 10
15.0153892854
 20
13.2629284395
 11
15.0128472216
 21
13.2681086208
  0
LINE
  5
417
100
AcDbEntity
  8
0
100
AcDbLine
 62
7
  6
CONTINUOUS
 10
15.2392788434
 20
11.5149613153
 11
15.2035328513
 21
11.3815620359
  0
LINE
  5
418
100
AcDbEntity
  8
0
100
AcDbLine
 62
7
  6
CONTINUOUS
 10
15.2285379659
 20
11.3449130929
 11
15.2348479381
 21
11.3653321706
  0
LINE
  5
419
100
AcDbEntity
  8
0
100
AcDbLine
 62
7
  6
CONTINUOUS
 10
15.2895171916
 20
11.3815621341
 11
15.2949159735
 21
11.3990325987
  0
LWPOLYLINE
  5
41A
100
AcDbEntity
  8
0
100
AcDbPolyline
 62
7
  6
CONTINUOUS
 90
7
 70
0
 10
15.5760731964
 20
11.8228070252
 10
15.5743762547
 20
11.8160327509
 10
15.5729613454
 20
11.8053195996
 10
15.5728021624
 20
11.7941940025
 10
15.5739007775
 20
11.7833364834
 10
15.5762650282
 20
11.7733972788
 10
15.5785495224
 20
11.7676254729
  0
LINE
  5
41B
100
AcDbEntity
  8
0
100
AcDbLine
 62
7
  6
CONTINUOUS
 10
15.9339082156
 20
13.2681086208
 11
15.3509212579
 21
11.3815621341
  0
LINE
  5
41C
100
AcDbEntity
  8
0
100
AcDbLine
 62
7
  6
CONTINUOUS
 10
15.9364502794
 20
13.2629284395
 11
15.640991987
 21
12.3068250551
  0
LINE
  5
41D
100
AcDbEntity
  8
0
100
AcDbLine
 62
7
  6
CONTINUOUS
 10
15.5844530893
 20
12.1238651151
 11
15.3514461023
 21
11.3698542286
  0
LINE
  5
41E
100
AcDbEntity
  8
0
100
AcDbLine
 62
7
  6
CONTINUOUS
 10
15.5760698479
 20
11.8227962679
 11
16.1499260071
 21
13.6797954798
  0
LINE
  5
41F
100
AcDbEntity
  8
0
100
AcDbLine
 62
7
  6
CONTINUOUS
 10
15.4528982127
 20
13.2784234841
 11
15.2545504998
 21
13.6773576873
  0
LINE
  5
420
100
AcDbEntity
  8
0
100
AcDbLine
 62
7
  6
CONTINUOUS
 10
15.4759197824
 20
13.2629284395
 11
15.4733777186
 21
13.2681086208
  0
LINE
  5
421
100
AcDbEntity
  8
0
100
AcDbLine
 62
7
  6
CONTINUOUS
 10
16.2211280584
 20
11.3882995017
 11
16.0390668661
 21
11.7676526366
  0
LWPOLYLINE
  5
422
100
AcDbEntity
  8
0
100
AcDbPolyline
 62
7
  6
CONTINUOUS
 90
4
 70
0
 10
16.2211280584
 20
11.3882995017
 10
16.2212856935
 20
11.3879380342
 10
16.2214931244
 20
11.3870583588
 10
16.2214715988
 20
11.3869601499
  0
LINE
  5
423
100
AcDbEntity
  8
0
100
AcDbLine
 62
7
  6
CONTINUOUS
 10
15.6998093404
 20
11.5149613153
 11
15.6640633483
 21
11.3815620359
  0
LINE
  5
424
100
AcDbEntity
  8
0
100
AcDbLine
 62
7
  6
CONTINUOUS
 10
15.6890684629
 20
11.3449130929
 11
15.6953784351
 21
11.3653321706
  0
LINE
  5
425
100
AcDbEntity
  8
0
100
AcDbLine
 62
7
  6
CONTINUOUS
 10
15.7500476886
 20
11.3815621341
 11
15.7554464705
 21
11.3990325987
  0
LINE
  5
426
100
AcDbEntity
  8
0
100
AcDbLine
 62
7
  6
CONTINUOUS
 10
16.3944387126
 20
13.2681086208
 11
15.8114517549
 21
11.3815621341
  0
LINE
  5
427
100
AcDbEntity
  8
0
100
AcDbLine
 62
7
  6
CONTINUOUS
 10
16.3969807764
 20
13.2629284395
 11
16.101522484
 21
12.3068250551
  0
LINE
  5
428
100
AcDbEntity
  8
0
100
AcDbLine
 62
7
  6
CONTINUOUS
 10
16.0449835863
 20
12.1238651151
 11
15.8119765993
 21
11.3698542286
  0
LINE
  5
429
100
AcDbEntity
  8
0
100
AcDbLine
 62
7
  6
CONTINUOUS
 10
16.6816585554
 20
11.3882995017
 11
16.4995973631
 21
11.7676526366
  0
LWPOLYLINE
  5
42A
100
AcDbEntity
  8
0
100
AcDbPolyline
 62
7
  6
CONTINUOUS
 90
4
 70
0
 10
16.6816585554
 20
11.3882995017
 10
16.6818161905
 20
11.3879380342
 10
16.6820236214
 20
11.3870583588
 10
16.6820020958
 20
11.3869601499
  0
LWPOLYLINE
  5
42B
100
AcDbEntity
  8
0
100
AcDbPolyline
 62
7
  6
CONTINUOUS
 90
7
 70
0
 10
16.0366036934
 20
11.8228070252
 10
16.0349067517
 20
11.8160327509
 10
16.0334918424
 20
11.8053195996
 10
16.0333326594
 20
11.7941940025
 10
16.0344312745
 20
11.7833364834
 10
16.0367955252
 20
11.7733972788
 10
16.0390800194
 20
11.7676254729
  0
LINE
  5
42C
100
AcDbEntity
  8
0
100
AcDbLine
 62
7
  6
CONTINUOUS
 10
16.0366003449
 20
11.8227962679
 11
16.6104565041
 21
13.6797954798
  0
LINE
  5
42D
100
AcDbEntity
  8
0
100
AcDbLine
 62
7
  6
CONTINUOUS
 10
17.5541706177
 20
13.3299771118
 11
17.2693880437
 21
13.3299771118
  0
LINE
  5
42E
100
AcDbEntity
  8
0
100
AcDbLine
 62
7
  6
CONTINUOUS
 10
16.9628849493
 20
13.3299771118
 11
16.8088575467
 21
13.3299771118
  0
LINE
  5
42F
100
AcDbEntity
  8
0
100
AcDbLine
 62
7
  6
CONTINUOUS
 10
16.5023544523
 20
13.3299771118
 11
16.3483270497
 21
13.3299771118
  0
LINE
  5
430
100
AcDbEntity
  8
0
100
AcDbLine
 62
7
  6
CONTINUOUS
 10
16.0418239553
 20
13.3299771118
 11
15.8877965527
 21
13.3299771118
  0
LINE
  5
431
100
AcDbEntity
  8
0
100
AcDbLine
 62
7
  6
CONTINUOUS
 10
15.5812934583
 20
13.3299771118
 11
15.4272660557
 21
13.3299771118
  0
LINE
  5
432
100
AcDbEntity
  8
0
100
AcDbLine
 62
7
  6
CONTINUOUS
 10
15.1207629613
 20
13.3299771118
 11
14.9667355587
 21
13.3299771118
  0
LINE
  5
433
100
AcDbEntity
  8
0
100
AcDbLine
 62
7
  6
CONTINUOUS
 10
14.6602324643
 20
13.3299771118
 11
14.5062050617
 21
13.3299771118
  0
LINE
  5
434
100
AcDbEntity
  8
0
100
AcDbLine
 62
7
  6
CONTINUOUS
 10
14.1997019673
 20
13.3299771118
 11
14.0456745647
 21
13.3299771118
  0
LINE
  5
435
100
AcDbEntity
  8
0
100
AcDbLine
 62
7
  6
CONTINUOUS
 10
15.9134287097
 20
13.2784234841
 11
15.7150809968
 21
13.6773576873
  0
LINE
  5
436
100
AcDbEntity
  8
0
100
AcDbLine
 62
7
  6
CONTINUOUS
 10
15.9364502794
 20
13.2629284395
 11
15.9339082156
 21
13.2681086208
  0
LINE
  5
437
100
AcDbEntity
  8
0
100
AcDbLine
 62
7
  6
CONTINUOUS
 10
16.1603398374
 20
11.5149613153
 11
16.1245938453
 21
11.3815620359
  0
LINE
  5
438
100
AcDbEntity
  8
0
100
AcDbLine
 62
7
  6
CONTINUOUS
 10
16.1495989599
 20
11.3449130929
 11
16.1559089321
 21
11.3653321706
  0
LWPOLYLINE
  5
439
100
AcDbEntity
  8
0
100
AcDbPolyline
 62
7
  6
CONTINUOUS
 90
7
 70
0
 10
16.4971341904
 20
11.8228070252
 10
16.4954372487
 20
11.8160327509
 10
16.4940223395
 20
11.8053195996
 10
16.4938631564
 20
11.7941940025
 10
16.4949617715
 20
11.7833364834
 10
16.4973260222
 20
11.7733972788
 10
16.4996105164
 20
11.7676254729
  0
LINE
  5
43A
100
AcDbEntity
  8
0
100
AcDbLine
 62
7
  6
CONTINUOUS
 10
16.2105781856
 20
11.3815621341
 11
16.2159769675
 21
11.3990325987
  0
LINE
  5
43B
100
AcDbEntity
  8
0
100
AcDbLine
 62
7
  6
CONTINUOUS
 10
16.8549692096
 20
13.2681086208
 11
16.2719822519
 21
11.3815621341
  0
LINE
  5
43C
100
AcDbEntity
  8
0
100
AcDbLine
 62
7
  6
CONTINUOUS
 10
16.8575112734
 20
13.2629284395
 11
16.5620529811
 21
12.3068250551
  0
LINE
  5
43D
100
AcDbEntity
  8
0
100
AcDbLine
 62
7
  6
CONTINUOUS
 10
16.5055140833
 20
12.1238651151
 11
16.2725070963
 21
11.3698542286
  0
LINE
  5
43E
100
AcDbEntity
  8
0
100
AcDbLine
 62
7
  6
CONTINUOUS
 10
16.4971308419
 20
11.8227962679
 11
17.0709870011
 21
13.6797954798
  0
LINE
  5
43F
100
AcDbEntity
  8
0
100
AcDbLine
 62
7
  6
CONTINUOUS
 10
13.8526933469
 20
13.6825151681
 11
13.8627526496
 21
13.6825151681
  0
LINE
  5
440
100
AcDbEntity
  8
0
100
AcDbLine
 62
7
  6
CONTINUOUS
 10
14.3132238439
 20
13.6825151681
 11
14.3232831466
 21
13.6825151681
  0
LINE
  5
441
100
AcDbEntity
  8
0
100
AcDbLine
 62
7
  6
CONTINUOUS
 10
14.7737543409
 20
13.6825151681
 11
14.7838136436
 21
13.6825151681
  0
LINE
  5
442
100
AcDbEntity
  8
0
100
AcDbLine
 62
7
  6
CONTINUOUS
 10
15.2342848379
 20
13.6825151681
 11
15.2443441406
 21
13.6825151681
  0
LINE
  5
443
100
AcDbEntity
  8
0
100
AcDbLine
 62
7
  6
CONTINUOUS
 10
15.6948153349
 20
13.6825151681
 11
15.7048746376
 21
13.6825151681
  0
LINE
  5
444
100
AcDbEntity
  8
0
100
AcDbLine
 62
7
  6
CONTINUOUS
 10
16.1553458319
 20
13.6825151681
 11
16.1654051346
 21
13.6825151681
  0
LINE
  5
445
100
AcDbEntity
  8
0
100
AcDbLine
 62
7
  6
CONTINUOUS
 10
16.6158763289
 20
13.6825151681
 11
16.6259356316
 21
13.6825151681
  0
LINE
  5
446
100
AcDbEntity
  8
0
100
AcDbLine
 62
7
  6
CONTINUOUS
 10
17.0764068259
 20
13.6825151681
 11
17.0864661286
 21
13.6825151681
  0
LINE
  5
447
100
AcDbEntity
  8
0
100
AcDbLine
 62
7
  6
CONTINUOUS
 10
16.3739592067
 20
13.2784234841
 11
16.1756114938
 21
13.6773576873
  0
LINE
  5
448
100
AcDbEntity
  8
0
100
AcDbLine
 62
7
  6
CONTINUOUS
 10
16.3969807764
 20
13.2629284395
 11
16.3944387126
 21
13.2681086208
  0
LWPOLYLINE
  5
449
100
AcDbEntity
  8
0
100
AcDbPolyline
 62
7
  6
CONTINUOUS
 90
9
 70
0
 10
17.473079355
 20
12.6024130407
 10
17.4713676867
 20
12.603719635
 10
17.4692041385
 20
12.6057388985
 10
17.4672908101
 20
12.6079372791
 10
17.4656818485
 20
12.6102365763
 10
17.4644607467
 20
12.6125291133
 10
17.4637411825
 20
12.6145909299
 10
17.4635539409
 20
12.616015375
 10
17.4635601066
 20
12.6161715153
  0
LINE
  5
44A
100
AcDbEntity
  8
0
100
AcDbLine
 62
7
  6
CONTINUOUS
 10
16.6208703344
 20
11.5149613153
 11
16.5851243423
 21
11.3815620359
  0
LINE
  5
44B
100
AcDbEntity
  8
0
100
AcDbLine
 62
7
  6
CONTINUOUS
 10
16.6101294569
 20
11.3449130929
 11
16.6164394291
 21
11.3653321706
  0
LINE
  5
44C
100
AcDbEntity
  8
0
100
AcDbLine
 62
7
  6
CONTINUOUS
 10
16.6711086826
 20
11.3815621341
 11
16.6765074645
 21
11.3990325987
  0
LINE
  5
44D
100
AcDbEntity
  8
0
100
AcDbLine
 62
7
  6
CONTINUOUS
 10
17.4817067619
 20
12.3561344907
 11
17.457647114
 21
12.3348602114
  0
LINE
  5
44E
100
AcDbEntity
  8
0
100
AcDbLine
 62
7
  6
CONTINUOUS
 10
17.3665493499
 20
12.0591130449
 11
17.3772258152
 21
12.037356696
  0
LINE
  5
44F
100
AcDbEntity
  8
0
100
AcDbLine
 62
7
  6
CONTINUOUS
 10
17.3154997066
 20
13.2681086208
 11
16.7325127489
 21
11.3815621341
  0
LINE
  5
450
100
AcDbEntity
  8
0
100
AcDbLine
 62
7
  6
CONTINUOUS
 10
17.3180417704
 20
13.2629284395
 11
17.0225834781
 21
12.3068250551
  0
LINE
  5
451
100
AcDbEntity
  8
0
100
AcDbLine
 62
7
  6
CONTINUOUS
 10
16.9660445803
 20
12.1238651151
 11
16.7330375933
 21
11.3698542286
  0
LINE
  5
452
100
AcDbEntity
  8
0
100
AcDbLine
 62
7
  6
CONTINUOUS
 10
17.1082262723
 20
12.1466113177
 11
17.2365214238
 21
12.5617745798
  0
LINE
  5
453
100
AcDbEntity
  8
0
100
AcDbLine
 62
7
  6
CONTINUOUS
 10
17.2340121944
 20
12.5456110814
 11
17.1137859204
 21
12.1565587163
  0
LINE
  5
454
100
AcDbEntity
  8
0
100
AcDbLine
 62
7
  6
CONTINUOUS
 10
16.8344897037
 20
13.2784234841
 11
16.6361419908
 21
13.6773576873
  0
LINE
  5
455
100
AcDbEntity
  8
0
100
AcDbLine
 62
7
  6
CONTINUOUS
 10
16.8575112734
 20
13.2629284395
 11
16.8549692096
 21
13.2681086208
  0
LINE
  5
456
100
AcDbEntity
  8
0
100
AcDbLine
 62
7
  6
CONTINUOUS
 10
17.2370462199
 20
12.5500667724
 11
17.2385790373
 21
12.5469432191
  0
LINE
  5
457
100
AcDbEntity
  8
0
100
AcDbLine
 62
7
  6
CONTINUOUS
 10
17.3322405611
 20
12.5101761479
 11
17.3652828523
 21
12.4428430378
  0
LINE
  5
458
100
AcDbEntity
  8
0
100
AcDbLine
 62
7
  6
CONTINUOUS
 10
17.1731281535
 20
12.1497645679
 11
17.2792701761
 21
12.4932402789
  0
LINE
  5
459
100
AcDbEntity
  8
0
100
AcDbLine
 62
7
  6
CONTINUOUS
 10
17.2201652362
 20
12.1475002637
 11
17.3322405611
 21
12.5101761479
  0
LINE
  5
45A
100
AcDbEntity
  8
0
100
AcDbLine
 62
7
  6
CONTINUOUS
 10
17.3652828523
 20
12.4428430378
 11
17.2699507312
 21
12.1343481811
  0
LINE
  5
45B
100
AcDbEntity
  8
0
100
AcDbLine
 62
7
  6
CONTINUOUS
 10
17.213198337
 20
11.8061674698
 11
17.2337643901
 21
11.8340728919
  0
LINE
  5
45C
100
AcDbEntity
  8
0
100
AcDbLine
 62
7
  6
CONTINUOUS
 10
17.3292049782
 20
11.8626385377
 11
17.3051453302
 21
11.8413642583
  0
LINE
  5
45D
100
AcDbEntity
  8
0
100
AcDbLine
 62
7
  6
CONTINUOUS
 10
17.4635601066
 20
12.6161715153
 11
17.4636140069
 21
12.6165130227
  0
LINE
  5
45E
100
AcDbEntity
  8
0
100
AcDbLine
 62
7
  6
CONTINUOUS
 10
17.0706599539
 20
11.3449130929
 11
17.2788369031
 21
12.0185739474
  0
LINE
  5
45F
100
AcDbEntity
  8
0
100
AcDbLine
 62
7
  6
CONTINUOUS
 10
17.4636142856
 20
12.6165137762
 11
17.6717913237
 21
13.2901749185
  0
LINE
  5
460
100
AcDbEntity
  8
0
100
AcDbLine
 62
7
  6
CONTINUOUS
 10
17.5361640496
 20
12.473544854
 11
17.5119574173
 21
12.395212163
  0
LINE
  5
461
100
AcDbEntity
  8
0
100
AcDbLine
 62
7
  6
CONTINUOUS
 10
17.3836622659
 20
11.9800489009
 11
17.3594556335
 21
11.90171621
  0
LINE
  5
462
100
AcDbEntity
  8
0
100
AcDbLine
 62
7
  6
CONTINUOUS
 10
17.2950202007
 20
13.2784234841
 11
17.0966724878
 21
13.6773576873
  0
LINE
  5
463
100
AcDbEntity
  8
0
100
AcDbLine
 62
7
  6
CONTINUOUS
 10
17.5190511337
 20
12.552608998
 11
17.529727599
 21
12.5308526491
  0
LINE
  5
464
100
AcDbEntity
  8
0
100
AcDbLine
 62
7
  6
CONTINUOUS
 10
17.3180417704
 20
13.2629284395
 11
17.3154997066
 21
13.2681086208
  0
ARC
  5
465
100
AcDbEntity
  8
0
100
AcDbCircle
 62
7
  6
CONTINUOUS
 10
4.1891338895
 20
5.0623785268
 40
0.3112507306
100
AcDbArc
 50
73.0572730142
 51
77.9987775476
  0
ARC
  5
466
100
AcDbEntity
  8
0
100
AcDbCircle
 62
7
  6
CONTINUOUS
 10
4.6891338895
 20
5.0623785268
 40
0.3112507306
100
AcDbArc
 50
73.0572730142
 51
77.9987775476
  0
ARC
  5
467
100
AcDbEntity
  8
0
100
AcDbCircle
 62
7
  6
CONTINUOUS
 10
4.1667653903
 20
4.9884532301
 40
0.05
100
AcDbArc
 50
41.8103148958
 51
90.0
  0
ARC
  5
468
100
AcDbEntity
  8
0
100
AcDbCircle
 62
7
  6
CONTINUOUS
 10
4.2413009896
 20
5.0551198968
 40
0.05
100
AcDbArc
 50
221.8103148958
 51
270.0
  0
ARC
  5
469
100
AcDbEntity
  8
0
100
AcDbCircle
 62
7
  6
CONTINUOUS
 10
4.6667653903
 20
4.9884532301
 40
0.05
100
AcDbArc
 50
41.8103148958
 51
42.6795606504
  0
ARC
  5
46A
100
AcDbEntity
  8
0
100
AcDbCircle
 62
7
  6
CONTINUOUS
 10
4.7413009896
 20
5.0551198968
 40
0.05
100
AcDbArc
 50
221.8103148958
 51
270.0
  0
ARC
  5
46B
100
AcDbEntity
  8
0
100
AcDbCircle
 62
7
  6
CONTINUOUS
 10
4.3387006119
 20
5.0134532301
 40
0.0083333333
100
AcDbArc
 50
180.0
 51
270.0
  0
ARC
  5
46C
100
AcDbEntity
  8
0
100
AcDbCircle
 62
7
  6
CONTINUOUS
 10
4.7301460223
 20
5.0353737503
 40
0.0083333333
100
AcDbArc
 50
127.1640093615
 51
132.4184873
  0
ARC
  5
46D
100
AcDbEntity
  8
0
100
AcDbCircle
 62
7
  6
CONTINUOUS
 10
4.6814473666
 20
5.0134532301
 40
0.0083333333
100
AcDbArc
 50
270.0
 51
312.4184873
  0
ARC
  5
46E
100
AcDbEntity
  8
0
100
AcDbCircle
 62
7
  6
CONTINUOUS
 10
4.8387006119
 20
5.0134532301
 40
0.0083333333
100
AcDbArc
 50
180.0
 51
270.0
  0
ARC
  5
46F
100
AcDbEntity
  8
0
100
AcDbCircle
 62
7
  6
CONTINUOUS
 10
4.143663567
 20
5.221778647
 40
0.1833333333
100
AcDbArc
 50
191.2630865095
 51
270.5324557568
  0
ARC
  5
470
100
AcDbEntity
  8
0
100
AcDbCircle
 62
7
  6
CONTINUOUS
 10
4.1103672786
 20
5.2217865634
 40
0.1466666667
100
AcDbArc
 50
90.0
 51
180.0
  0
CIRCLE
  5
471
100
AcDbEntity
  8
0
100
AcDbCircle
 62
7
  6
CONTINUOUS
 10
4.1303672786
 20
5.2417865634
 40
0.0566666667
  0
ARC
  5
472
100
AcDbEntity
  8
0
100
AcDbCircle
 62
7
  6
CONTINUOUS
 10
3.9720339452
 20
5.1875986391
 40
0.0083333333
100
AcDbArc
 50
180.0
 51
191.2630865095
  0
ARC
  5
473
100
AcDbEntity
  8
0
100
AcDbCircle
 62
7
  6
CONTINUOUS
 10
4.413628048
 20
5.3851198968
 40
0.0166666667
100
AcDbArc
 50
180.25
 51
270.249456955
  0
ARC
  5
474
100
AcDbEntity
  8
0
100
AcDbCircle
 62
7
  6
CONTINUOUS
 10
4.3471065091
 20
5.3851198968
 40
0.0166666667
100
AcDbArc
 50
269.750543045
 51
359.75
  0
ARC
  5
475
100
AcDbEntity
  8
0
100
AcDbCircle
 62
7
  6
CONTINUOUS
 10
4.3220339452
 20
5.2967865634
 40
0.0083333333
100
AcDbArc
 50
0.0
 51
90.0
  0
ARC
  5
476
100
AcDbEntity
  8
0
100
AcDbCircle
 62
7
  6
CONTINUOUS
 10
4.3250549706
 20
5.3134453216
 40
0.0083254249
100
AcDbArc
 50
211.9511564896
 51
270.0005562073
  0
ARC
  5
477
100
AcDbEntity
  8
0
100
AcDbCircle
 62
7
  6
CONTINUOUS
 10
4.6153672786
 20
5.1867865634
 40
0.1816666667
100
AcDbArc
 50
307.1640093615
 51
360.0
  0
ARC
  5
478
100
AcDbEntity
  8
0
100
AcDbCircle
 62
7
  6
CONTINUOUS
 10
4.6503672786
 20
5.2217865634
 40
0.1466666667
100
AcDbArc
 50
0.0
 51
90.0
  0
ARC
  5
479
100
AcDbEntity
  8
0
100
AcDbCircle
 62
7
  6
CONTINUOUS
 10
4.6303672786
 20
5.2717865634
 40
0.0633333333
100
AcDbArc
 50
35.5487440029
 51
144.4512559971
  0
ARC
  5
47A
100
AcDbEntity
  8
0
100
AcDbCircle
 62
7
  6
CONTINUOUS
 10
4.6303672786
 20
5.2417865634
 40
0.0566666667
100
AcDbArc
 50
72.8953648234
 51
287.1046351766
  0
ARC
  5
47B
100
AcDbEntity
  8
0
100
AcDbCircle
 62
7
  6
CONTINUOUS
 10
4.6303672786
 20
5.2417865634
 40
0.0525
100
AcDbArc
 50
76.225853002
 51
283.774146998
  0
ARC
  5
47C
100
AcDbEntity
  8
0
100
AcDbCircle
 62
7
  6
CONTINUOUS
 10
4.913628048
 20
5.3851198968
 40
0.0166666667
100
AcDbArc
 50
180.25
 51
270.249456955
  0
ARC
  5
47D
100
AcDbEntity
  8
0
100
AcDbCircle
 62
7
  6
CONTINUOUS
 10
4.8471065091
 20
5.3851198968
 40
0.0166666667
100
AcDbArc
 50
269.750543045
 51
359.75
  0
ARC
  5
47E
100
AcDbEntity
  8
0
100
AcDbCircle
 62
7
  6
CONTINUOUS
 10
4.7539690803
 20
5.3134532301
 40
0.0083333333
100
AcDbArc
 50
270.0
 51
41.5023374652
  0
ARC
  5
47F
100
AcDbEntity
  8
0
100
AcDbCircle
 62
7
  6
CONTINUOUS
 10
4.5720577596
 20
5.3134532301
 40
0.0083333333
100
AcDbArc
 50
270.0
 51
324.4512559971
  0
ARC
  5
480
100
AcDbEntity
  8
0
100
AcDbCircle
 62
7
  6
CONTINUOUS
 10
4.6886767975
 20
5.3134532301
 40
0.0083333333
100
AcDbArc
 50
215.5487440029
 51
270.0
  0
ARC
  5
481
100
AcDbEntity
  8
0
100
AcDbCircle
 62
7
  6
CONTINUOUS
 10
4.8220339452
 20
5.2967865634
 40
0.0083333333
100
AcDbArc
 50
0.0
 51
90.0
  0
ARC
  5
482
100
AcDbEntity
  8
0
100
AcDbCircle
 62
7
  6
CONTINUOUS
 10
4.8250549706
 20
5.3134453216
 40
0.0083254249
100
AcDbArc
 50
211.9511564896
 51
270.0005562073
  0
ARC
  5
483
100
AcDbEntity
  8
0
100
AcDbCircle
 62
7
  6
CONTINUOUS
 10
5.1667653903
 20
4.9884532301
 40
0.05
100
AcDbArc
 50
41.8103148958
 51
42.6795606504
  0
ARC
  5
484
100
AcDbEntity
  8
0
100
AcDbCircle
 62
7
  6
CONTINUOUS
 10
5.1814473666
 20
5.0134532301
 40
0.0083333333
100
AcDbArc
 50
270.0
 51
312.4184873
  0
ARC
  5
485
100
AcDbEntity
  8
0
100
AcDbCircle
 62
7
  6
CONTINUOUS
 10
5.3387006119
 20
5.0134532301
 40
0.0083333333
100
AcDbArc
 50
180.0
 51
270.0
  0
ARC
  5
486
100
AcDbEntity
  8
0
100
AcDbCircle
 62
7
  6
CONTINUOUS
 10
5.1891338895
 20
5.0623785268
 40
0.3112507306
100
AcDbArc
 50
73.0572730142
 51
77.9987775476
  0
ARC
  5
487
100
AcDbEntity
  8
0
100
AcDbCircle
 62
7
  6
CONTINUOUS
 10
5.2413009896
 20
5.0551198968
 40
0.05
100
AcDbArc
 50
221.8103148958
 51
270.0
  0
ARC
  5
488
100
AcDbEntity
  8
0
100
AcDbCircle
 62
7
  6
CONTINUOUS
 10
5.2301460223
 20
5.0353737503
 40
0.0083333333
100
AcDbArc
 50
127.1640093615
 51
132.4184873
  0
ARC
  5
489
100
AcDbEntity
  8
0
100
AcDbCircle
 62
7
  6
CONTINUOUS
 10
5.6667653903
 20
4.9884532301
 40
0.05
100
AcDbArc
 50
41.8103148958
 51
42.6795606504
  0
ARC
  5
48A
100
AcDbEntity
  8
0
100
AcDbCircle
 62
7
  6
CONTINUOUS
 10
5.6814473666
 20
5.0134532301
 40
0.0083333333
100
AcDbArc
 50
270.0
 51
312.4184873
  0
ARC
  5
48B
100
AcDbEntity
  8
0
100
AcDbCircle
 62
7
  6
CONTINUOUS
 10
5.8387006119
 20
5.0134532301
 40
0.0083333333
100
AcDbArc
 50
180.0
 51
270.0
  0
ARC
  5
48C
100
AcDbEntity
  8
0
100
AcDbCircle
 62
7
  6
CONTINUOUS
 10
5.6891338895
 20
5.0623785268
 40
0.3112507306
100
AcDbArc
 50
73.0572730142
 51
77.9987775476
  0
ARC
  5
48D
100
AcDbEntity
  8
0
100
AcDbCircle
 62
7
  6
CONTINUOUS
 10
5.7413009896
 20
5.0551198968
 40
0.05
100
AcDbArc
 50
221.8103148958
 51
270.0
  0
ARC
  5
48E
100
AcDbEntity
  8
0
100
AcDbCircle
 62
7
  6
CONTINUOUS
 10
5.7301460223
 20
5.0353737503
 40
0.0083333333
100
AcDbArc
 50
127.1640093615
 51
132.4184873
  0
ARC
  5
48F
100
AcDbEntity
  8
0
100
AcDbCircle
 62
7
  6
CONTINUOUS
 10
5.1153672786
 20
5.1867865634
 40
0.1816666667
100
AcDbArc
 50
307.1640093615
 51
360.0
  0
ARC
  5
490
100
AcDbEntity
  8
0
100
AcDbCircle
 62
7
  6
CONTINUOUS
 10
5.1503672786
 20
5.2217865634
 40
0.1466666667
100
AcDbArc
 50
0.0
 51
90.0
  0
ARC
  5
491
100
AcDbEntity
  8
0
100
AcDbCircle
 62
7
  6
CONTINUOUS
 10
5.1303672786
 20
5.2717865634
 40
0.0633333333
100
AcDbArc
 50
35.5487440029
 51
144.4512559971
  0
ARC
  5
492
100
AcDbEntity
  8
0
100
AcDbCircle
 62
7
  6
CONTINUOUS
 10
5.1303672786
 20
5.2417865634
 40
0.0566666667
100
AcDbArc
 50
72.8953648234
 51
287.1046351766
  0
ARC
  5
493
100
AcDbEntity
  8
0
100
AcDbCircle
 62
7
  6
CONTINUOUS
 10
5.1303672786
 20
5.2417865634
 40
0.0525
100
AcDbArc
 50
76.225853002
 51
283.774146998
  0
ARC
  5
494
100
AcDbEntity
  8
0
100
AcDbCircle
 62
7
  6
CONTINUOUS
 10
5.413628048
 20
5.3851198968
 40
0.0166666667
100
AcDbArc
 50
180.25
 51
270.249456955
  0
ARC
  5
495
100
AcDbEntity
  8
0
100
AcDbCircle
 62
7
  6
CONTINUOUS
 10
5.3471065091
 20
5.3851198968
 40
0.0166666667
100
AcDbArc
 50
269.750543045
 51
359.75
  0
ARC
  5
496
100
AcDbEntity
  8
0
100
AcDbCircle
 62
7
  6
CONTINUOUS
 10
5.2539690803
 20
5.3134532301
 40
0.0083333333
100
AcDbArc
 50
270.0
 51
41.5023374652
  0
ARC
  5
497
100
AcDbEntity
  8
0
100
AcDbCircle
 62
7
  6
CONTINUOUS
 10
5.0720577596
 20
5.3134532301
 40
0.0083333333
100
AcDbArc
 50
270.0
 51
324.4512559971
  0
ARC
  5
498
100
AcDbEntity
  8
0
100
AcDbCircle
 62
7
  6
CONTINUOUS
 10
5.1886767975
 20
5.3134532301
 40
0.0083333333
100
AcDbArc
 50
215.5487440029
 51
270.0
  0
ARC
  5
499
100
AcDbEntity
  8
0
100
AcDbCircle
 62
7
  6
CONTINUOUS
 10
5.3220339452
 20
5.2967865634
 40
0.0083333333
100
AcDbArc
 50
0.0
 51
90.0
  0
ARC
  5
49A
100
AcDbEntity
  8
0
100
AcDbCircle
 62
7
  6
CONTINUOUS
 10
5.3250549706
 20
5.3134453216
 40
0.0083254249
100
AcDbArc
 50
211.9511564896
 51
270.0005562073
  0
ARC
  5
49B
100
AcDbEntity
  8
0
100
AcDbCircle
 62
7
  6
CONTINUOUS
 10
5.6153672786
 20
5.1867865634
 40
0.1816666667
100
AcDbArc
 50
307.1640093615
 51
360.0
  0
ARC
  5
49C
100
AcDbEntity
  8
0
100
AcDbCircle
 62
7
  6
CONTINUOUS
 10
5.6503672786
 20
5.2217865634
 40
0.1466666667
100
AcDbArc
 50
0.0
 51
90.0
  0
ARC
  5
49D
100
AcDbEntity
  8
0
100
AcDbCircle
 62
7
  6
CONTINUOUS
 10
5.6303672786
 20
5.2717865634
 40
0.0633333333
100
AcDbArc
 50
35.5487440029
 51
144.4512559971
  0
ARC
  5
49E
100
AcDbEntity
  8
0
100
AcDbCircle
 62
7
  6
CONTINUOUS
 10
5.6303672786
 20
5.2417865634
 40
0.0566666667
100
AcDbArc
 50
72.8953648234
 51
287.1046351766
  0
ARC
  5
49F
100
AcDbEntity
  8
0
100
AcDbCircle
 62
7
  6
CONTINUOUS
 10
5.6303672786
 20
5.2417865634
 40
0.0525
100
AcDbArc
 50
76.225853002
 51
283.774146998
  0
ARC
  5
4A0
100
AcDbEntity
  8
0
100
AcDbCircle
 62
7
  6
CONTINUOUS
 10
5.913628048
 20
5.3851198968
 40
0.0166666667
100
AcDbArc
 50
180.25
 51
270.249456955
  0
ARC
  5
4A1
100
AcDbEntity
  8
0
100
AcDbCircle
 62
7
  6
CONTINUOUS
 10
5.8471065091
 20
5.3851198968
 40
0.0166666667
100
AcDbArc
 50
269.750543045
 51
359.75
  0
ARC
  5
4A2
100
AcDbEntity
  8
0
100
AcDbCircle
 62
7
  6
CONTINUOUS
 10
5.7539690803
 20
5.3134532301
 40
0.0083333333
100
AcDbArc
 50
270.0
 51
41.5023374652
  0
ARC
  5
4A3
100
AcDbEntity
  8
0
100
AcDbCircle
 62
7
  6
CONTINUOUS
 10
5.5720577596
 20
5.3134532301
 40
0.0083333333
100
AcDbArc
 50
270.0
 51
324.4512559971
  0
ARC
  5
4A4
100
AcDbEntity
  8
0
100
AcDbCircle
 62
7
  6
CONTINUOUS
 10
5.6886767975
 20
5.3134532301
 40
0.0083333333
100
AcDbArc
 50
215.5487440029
 51
270.0
  0
ARC
  5
4A5
100
AcDbEntity
  8
0
100
AcDbCircle
 62
7
  6
CONTINUOUS
 10
5.8220339452
 20
5.2967865634
 40
0.0083333333
100
AcDbArc
 50
0.0
 51
90.0
  0
ARC
  5
4A6
100
AcDbEntity
  8
0
100
AcDbCircle
 62
7
  6
CONTINUOUS
 10
6.0720577596
 20
5.3134532301
 40
0.0083333333
100
AcDbArc
 50
270.0
 51
324.4512559971
  0
ARC
  5
4A7
100
AcDbEntity
  8
0
100
AcDbCircle
 62
7
  6
CONTINUOUS
 10
5.8250549706
 20
5.3134453216
 40
0.0083254249
100
AcDbArc
 50
211.9511564896
 51
270.0005562073
  0
ARC
  5
4A8
100
AcDbEntity
  8
0
100
AcDbCircle
 62
7
  6
CONTINUOUS
 10
5.8858279933
 20
6.0267865634
 40
0.0083333333
100
AcDbArc
 50
0.2499999998
 51
90.0
  0
ARC
  5
4A9
100
AcDbEntity
  8
0
100
AcDbCircle
 62
7
  6
CONTINUOUS
 10
5.8749065638
 20
6.0267865634
 40
0.0083333333
100
AcDbArc
 50
90.0
 51
179.75
  0
ARC
  5
4AA
100
AcDbEntity
  8
0
100
AcDbCircle
 62
7
  6
CONTINUOUS
 10
5.3858279933
 20
6.0267865634
 40
0.0083333333
100
AcDbArc
 50
0.2499999998
 51
90.0
  0
ARC
  5
4AB
100
AcDbEntity
  8
0
100
AcDbCircle
 62
7
  6
CONTINUOUS
 10
5.3749065638
 20
6.0267865634
 40
0.0083333333
100
AcDbArc
 50
90.0
 51
179.75
  0
ARC
  5
4AC
100
AcDbEntity
  8
0
100
AcDbCircle
 62
7
  6
CONTINUOUS
 10
4.8858279933
 20
6.0267865634
 40
0.0083333333
100
AcDbArc
 50
0.2499999998
 51
90.0
  0
ARC
  5
4AD
100
AcDbEntity
  8
0
100
AcDbCircle
 62
7
  6
CONTINUOUS
 10
4.8749065638
 20
6.0267865634
 40
0.0083333333
100
AcDbArc
 50
90.0
 51
179.75
  0
ARC
  5
4AE
100
AcDbEntity
  8
0
100
AcDbCircle
 62
7
  6
CONTINUOUS
 10
4.3858279933
 20
6.0267865634
 40
0.0083333333
100
AcDbArc
 50
0.2499999998
 51
90.0
  0
ARC
  5
4AF
100
AcDbEntity
  8
0
100
AcDbCircle
 62
7
  6
CONTINUOUS
 10
4.3749065638
 20
6.0267865634
 40
0.0083333333
100
AcDbArc
 50
90.0
 51
179.75
  0
ARC
  5
4B0
100
AcDbEntity
  8
0
100
AcDbCircle
 62
7
  6
CONTINUOUS
 10
6.1667653903
 20
4.9884532301
 40
0.05
100
AcDbArc
 50
41.8103148958
 51
42.6795606504
  0
ARC
  5
4B1
100
AcDbEntity
  8
0
100
AcDbCircle
 62
7
  6
CONTINUOUS
 10
6.6667653903
 20
4.9884532301
 40
0.05
100
AcDbArc
 50
41.8103148958
 51
42.6795606504
  0
ARC
  5
4B2
100
AcDbEntity
  8
0
100
AcDbCircle
 62
7
  6
CONTINUOUS
 10
6.1814473666
 20
5.0134532301
 40
0.0083333333
100
AcDbArc
 50
270.0
 51
312.4184873
  0
ARC
  5
4B3
100
AcDbEntity
  8
0
100
AcDbCircle
 62
7
  6
CONTINUOUS
 10
6.3387006119
 20
5.0134532301
 40
0.0083333333
100
AcDbArc
 50
180.0
 51
270.0
  0
ARC
  5
4B4
100
AcDbEntity
  8
0
100
AcDbCircle
 62
7
  6
CONTINUOUS
 10
6.1891338895
 20
5.0623785268
 40
0.3112507306
100
AcDbArc
 50
73.0572730142
 51
77.9987775476
  0
ARC
  5
4B5
100
AcDbEntity
  8
0
100
AcDbCircle
 62
7
  6
CONTINUOUS
 10
6.2413009896
 20
5.0551198968
 40
0.05
100
AcDbArc
 50
221.8103148958
 51
270.0
  0
ARC
  5
4B6
100
AcDbEntity
  8
0
100
AcDbCircle
 62
7
  6
CONTINUOUS
 10
6.2301460223
 20
5.0353737503
 40
0.0083333333
100
AcDbArc
 50
127.1640093615
 51
132.4184873
  0
ARC
  5
4B7
100
AcDbEntity
  8
0
100
AcDbCircle
 62
7
  6
CONTINUOUS
 10
7.1667653903
 20
4.9884532301
 40
0.05
100
AcDbArc
 50
41.8103148958
 51
42.6795606504
  0
ARC
  5
4B8
100
AcDbEntity
  8
0
100
AcDbCircle
 62
7
  6
CONTINUOUS
 10
6.6814473666
 20
5.0134532301
 40
0.0083333333
100
AcDbArc
 50
270.0
 51
312.4184873
  0
ARC
  5
4B9
100
AcDbEntity
  8
0
100
AcDbCircle
 62
7
  6
CONTINUOUS
 10
6.8387006119
 20
5.0134532301
 40
0.0083333333
100
AcDbArc
 50
180.0
 51
270.0
  0
ARC
  5
4BA
100
AcDbEntity
  8
0
100
AcDbCircle
 62
7
  6
CONTINUOUS
 10
7.1814473666
 20
5.0134532301
 40
0.0083333333
100
AcDbArc
 50
270.0
 51
312.4184873
  0
ARC
  5
4BB
100
AcDbEntity
  8
0
100
AcDbCircle
 62
7
  6
CONTINUOUS
 10
6.6891338895
 20
5.0623785268
 40
0.3112507306
100
AcDbArc
 50
73.0572730142
 51
77.9987775476
  0
ARC
  5
4BC
100
AcDbEntity
  8
0
100
AcDbCircle
 62
7
  6
CONTINUOUS
 10
6.7413009896
 20
5.0551198968
 40
0.05
100
AcDbArc
 50
221.8103148958
 51
270.0
  0
ARC
  5
4BD
100
AcDbEntity
  8
0
100
AcDbCircle
 62
7
  6
CONTINUOUS
 10
6.7301460223
 20
5.0353737503
 40
0.0083333333
100
AcDbArc
 50
127.1640093615
 51
132.4184873
  0
ARC
  5
4BE
100
AcDbEntity
  8
0
100
AcDbCircle
 62
7
  6
CONTINUOUS
 10
6.1153672786
 20
5.1867865634
 40
0.1816666667
100
AcDbArc
 50
307.1640093615
 51
360.0
  0
ARC
  5
4BF
100
AcDbEntity
  8
0
100
AcDbCircle
 62
7
  6
CONTINUOUS
 10
6.6153672786
 20
5.1867865634
 40
0.1816666667
100
AcDbArc
 50
307.1640093615
 51
360.0
  0
ARC
  5
4C0
100
AcDbEntity
  8
0
100
AcDbCircle
 62
7
  6
CONTINUOUS
 10
6.1503672786
 20
5.2217865634
 40
0.1466666667
100
AcDbArc
 50
0.0
 51
90.0
  0
ARC
  5
4C1
100
AcDbEntity
  8
0
100
AcDbCircle
 62
7
  6
CONTINUOUS
 10
6.1303672786
 20
5.2717865634
 40
0.0633333333
100
AcDbArc
 50
35.5487440029
 51
144.4512559971
  0
ARC
  5
4C2
100
AcDbEntity
  8
0
100
AcDbCircle
 62
7
  6
CONTINUOUS
 10
6.6303672786
 20
5.2717865634
 40
0.0633333333
100
AcDbArc
 50
35.5487440029
 51
144.4512559971
  0
ARC
  5
4C3
100
AcDbEntity
  8
0
100
AcDbCircle
 62
7
  6
CONTINUOUS
 10
6.1303672786
 20
5.2417865634
 40
0.0566666667
100
AcDbArc
 50
72.8953648234
 51
287.1046351766
  0
ARC
  5
4C4
100
AcDbEntity
  8
0
100
AcDbCircle
 62
7
  6
CONTINUOUS
 10
6.6303672786
 20
5.2417865634
 40
0.0566666667
100
AcDbArc
 50
72.8953648234
 51
287.1046351766
  0
ARC
  5
4C5
100
AcDbEntity
  8
0
100
AcDbCircle
 62
7
  6
CONTINUOUS
 10
6.6303672786
 20
5.2417865634
 40
0.0525
100
AcDbArc
 50
76.225853002
 51
283.774146998
  0
ARC
  5
4C6
100
AcDbEntity
  8
0
100
AcDbCircle
 62
7
  6
CONTINUOUS
 10
6.1303672786
 20
5.2417865634
 40
0.0525
100
AcDbArc
 50
76.225853002
 51
283.774146998
  0
ARC
  5
4C7
100
AcDbEntity
  8
0
100
AcDbCircle
 62
7
  6
CONTINUOUS
 10
6.413628048
 20
5.3851198968
 40
0.0166666667
100
AcDbArc
 50
180.25
 51
270.249456955
  0
ARC
  5
4C8
100
AcDbEntity
  8
0
100
AcDbCircle
 62
7
  6
CONTINUOUS
 10
6.3471065091
 20
5.3851198968
 40
0.0166666667
100
AcDbArc
 50
269.750543045
 51
359.75
  0
ARC
  5
4C9
100
AcDbEntity
  8
0
100
AcDbCircle
 62
7
  6
CONTINUOUS
 10
6.2539690803
 20
5.3134532301
 40
0.0083333333
100
AcDbArc
 50
270.0
 51
41.5023374652
  0
ARC
  5
4CA
100
AcDbEntity
  8
0
100
AcDbCircle
 62
7
  6
CONTINUOUS
 10
6.1886767975
 20
5.3134532301
 40
0.0083333333
100
AcDbArc
 50
215.5487440029
 51
270.0
  0
ARC
  5
4CB
100
AcDbEntity
  8
0
100
AcDbCircle
 62
7
  6
CONTINUOUS
 10
6.3220339452
 20
5.2967865634
 40
0.0083333333
100
AcDbArc
 50
0.0
 51
90.0
  0
ARC
  5
4CC
100
AcDbEntity
  8
0
100
AcDbCircle
 62
7
  6
CONTINUOUS
 10
6.5720577596
 20
5.3134532301
 40
0.0083333333
100
AcDbArc
 50
270.0
 51
324.4512559971
  0
ARC
  5
4CD
100
AcDbEntity
  8
0
100
AcDbCircle
 62
7
  6
CONTINUOUS
 10
6.3250549706
 20
5.3134453216
 40
0.0083254249
100
AcDbArc
 50
211.9511564896
 51
270.0005562073
  0
ARC
  5
4CE
100
AcDbEntity
  8
0
100
AcDbCircle
 62
7
  6
CONTINUOUS
 10
6.6503672786
 20
5.2217865634
 40
0.1466666667
100
AcDbArc
 50
0.0
 51
90.0
  0
ARC
  5
4CF
100
AcDbEntity
  8
0
100
AcDbCircle
 62
7
  6
CONTINUOUS
 10
7.1153672786
 20
5.1867865634
 40
0.1816666667
100
AcDbArc
 50
307.1640093615
 51
360.0
  0
ARC
  5
4D0
100
AcDbEntity
  8
0
100
AcDbCircle
 62
7
  6
CONTINUOUS
 10
7.1503672786
 20
5.2217865634
 40
0.1466666667
100
AcDbArc
 50
0.0
 51
90.0
  0
ARC
  5
4D1
100
AcDbEntity
  8
0
100
AcDbCircle
 62
7
  6
CONTINUOUS
 10
7.1303672786
 20
5.2717865634
 40
0.0633333333
100
AcDbArc
 50
35.5487440029
 51
144.4512559971
  0
ARC
  5
4D2
100
AcDbEntity
  8
0
100
AcDbCircle
 62
7
  6
CONTINUOUS
 10
7.1303672786
 20
5.2417865634
 40
0.0566666667
100
AcDbArc
 50
72.8953648234
 51
287.1046351766
  0
ARC
  5
4D3
100
AcDbEntity
  8
0
100
AcDbCircle
 62
7
  6
CONTINUOUS
 10
7.1303672786
 20
5.2417865634
 40
0.0525
100
AcDbArc
 50
76.225853002
 51
283.774146998
  0
ARC
  5
4D4
100
AcDbEntity
  8
0
100
AcDbCircle
 62
7
  6
CONTINUOUS
 10
6.913628048
 20
5.3851198968
 40
0.0166666667
100
AcDbArc
 50
180.25
 51
270.249456955
  0
ARC
  5
4D5
100
AcDbEntity
  8
0
100
AcDbCircle
 62
7
  6
CONTINUOUS
 10
6.8471065091
 20
5.3851198968
 40
0.0166666667
100
AcDbArc
 50
269.750543045
 51
359.75
  0
ARC
  5
4D6
100
AcDbEntity
  8
0
100
AcDbCircle
 62
7
  6
CONTINUOUS
 10
6.7539690803
 20
5.3134532301
 40
0.0083333333
100
AcDbArc
 50
270.0
 51
41.5023374652
  0
ARC
  5
4D7
100
AcDbEntity
  8
0
100
AcDbCircle
 62
7
  6
CONTINUOUS
 10
6.6886767975
 20
5.3134532301
 40
0.0083333333
100
AcDbArc
 50
215.5487440029
 51
270.0
  0
ARC
  5
4D8
100
AcDbEntity
  8
0
100
AcDbCircle
 62
7
  6
CONTINUOUS
 10
6.8220339452
 20
5.2967865634
 40
0.0083333333
100
AcDbArc
 50
0.0
 51
90.0
  0
ARC
  5
4D9
100
AcDbEntity
  8
0
100
AcDbCircle
 62
7
  6
CONTINUOUS
 10
7.0720577596
 20
5.3134532301
 40
0.0083333333
100
AcDbArc
 50
270.0
 51
324.4512559971
  0
ARC
  5
4DA
100
AcDbEntity
  8
0
100
AcDbCircle
 62
7
  6
CONTINUOUS
 10
6.8250549706
 20
5.3134453216
 40
0.0083254249
100
AcDbArc
 50
211.9511564896
 51
270.0005562073
  0
ARC
  5
4DB
100
AcDbEntity
  8
0
100
AcDbCircle
 62
7
  6
CONTINUOUS
 10
7.6667653903
 20
4.9884532301
 40
0.05
100
AcDbArc
 50
41.8103148958
 51
42.6795606504
  0
ARC
  5
4DC
100
AcDbEntity
  8
0
100
AcDbCircle
 62
7
  6
CONTINUOUS
 10
7.3387006119
 20
5.0134532301
 40
0.0083333333
100
AcDbArc
 50
180.0
 51
270.0
  0
ARC
  5
4DD
100
AcDbEntity
  8
0
100
AcDbCircle
 62
7
  6
CONTINUOUS
 10
7.6814473666
 20
5.0134532301
 40
0.0083333333
100
AcDbArc
 50
270.0
 51
312.4184873
  0
ARC
  5
4DE
100
AcDbEntity
  8
0
100
AcDbCircle
 62
7
  6
CONTINUOUS
 10
7.1891338895
 20
5.0623785268
 40
0.3112507306
100
AcDbArc
 50
73.0572730142
 51
77.9987775476
  0
ARC
  5
4DF
100
AcDbEntity
  8
0
100
AcDbCircle
 62
7
  6
CONTINUOUS
 10
7.6891338895
 20
5.0623785268
 40
0.3112507306
100
AcDbArc
 50
73.0572730142
 51
77.9987775476
  0
ARC
  5
4E0
100
AcDbEntity
  8
0
100
AcDbCircle
 62
7
  6
CONTINUOUS
 10
7.2413009896
 20
5.0551198968
 40
0.05
100
AcDbArc
 50
221.8103148958
 51
270.0
  0
ARC
  5
4E1
100
AcDbEntity
  8
0
100
AcDbCircle
 62
7
  6
CONTINUOUS
 10
7.2301460223
 20
5.0353737503
 40
0.0083333333
100
AcDbArc
 50
127.1640093615
 51
132.4184873
  0
ARC
  5
4E2
100
AcDbEntity
  8
0
100
AcDbCircle
 62
7
  6
CONTINUOUS
 10
7.8387006119
 20
5.0134532301
 40
0.0083333333
100
AcDbArc
 50
180.0
 51
270.0
  0
ARC
  5
4E3
100
AcDbEntity
  8
0
100
AcDbCircle
 62
7
  6
CONTINUOUS
 10
8.1814473666
 20
5.0134532301
 40
0.0083333333
100
AcDbArc
 50
270.0
 51
312.4184873
  0
ARC
  5
4E4
100
AcDbEntity
  8
0
100
AcDbCircle
 62
7
  6
CONTINUOUS
 10
7.7413009896
 20
5.0551198968
 40
0.05
100
AcDbArc
 50
221.8103148958
 51
270.0
  0
ARC
  5
4E5
100
AcDbEntity
  8
0
100
AcDbCircle
 62
7
  6
CONTINUOUS
 10
7.7301460223
 20
5.0353737503
 40
0.0083333333
100
AcDbArc
 50
127.1640093615
 51
132.4184873
  0
ARC
  5
4E6
100
AcDbEntity
  8
0
100
AcDbCircle
 62
7
  6
CONTINUOUS
 10
8.2301460223
 20
5.0353737503
 40
0.0083333333
100
AcDbArc
 50
127.1640093615
 51
132.4184873
  0
ARC
  5
4E7
100
AcDbEntity
  8
0
100
AcDbCircle
 62
7
  6
CONTINUOUS
 10
7.6153672786
 20
5.1867865634
 40
0.1816666667
100
AcDbArc
 50
307.1640093615
 51
360.0
  0
ARC
  5
4E8
100
AcDbEntity
  8
0
100
AcDbCircle
 62
7
  6
CONTINUOUS
 10
7.6503672786
 20
5.2217865634
 40
0.1466666667
100
AcDbArc
 50
0.0
 51
90.0
  0
ARC
  5
4E9
100
AcDbEntity
  8
0
100
AcDbCircle
 62
7
  6
CONTINUOUS
 10
7.6303672786
 20
5.2717865634
 40
0.0633333333
100
AcDbArc
 50
35.5487440029
 51
144.4512559971
  0
ARC
  5
4EA
100
AcDbEntity
  8
0
100
AcDbCircle
 62
7
  6
CONTINUOUS
 10
7.6303672786
 20
5.2417865634
 40
0.0566666667
100
AcDbArc
 50
72.8953648234
 51
287.1046351766
  0
ARC
  5
4EB
100
AcDbEntity
  8
0
100
AcDbCircle
 62
7
  6
CONTINUOUS
 10
7.6303672786
 20
5.2417865634
 40
0.0525
100
AcDbArc
 50
76.225853002
 51
283.774146998
  0
ARC
  5
4EC
100
AcDbEntity
  8
0
100
AcDbCircle
 62
7
  6
CONTINUOUS
 10
7.413628048
 20
5.3851198968
 40
0.0166666667
100
AcDbArc
 50
180.25
 51
270.249456955
  0
ARC
  5
4ED
100
AcDbEntity
  8
0
100
AcDbCircle
 62
7
  6
CONTINUOUS
 10
7.3471065091
 20
5.3851198968
 40
0.0166666667
100
AcDbArc
 50
269.750543045
 51
359.75
  0
ARC
  5
4EE
100
AcDbEntity
  8
0
100
AcDbCircle
 62
7
  6
CONTINUOUS
 10
7.2539690803
 20
5.3134532301
 40
0.0083333333
100
AcDbArc
 50
270.0
 51
41.5023374652
  0
ARC
  5
4EF
100
AcDbEntity
  8
0
100
AcDbCircle
 62
7
  6
CONTINUOUS
 10
7.1886767975
 20
5.3134532301
 40
0.0083333333
100
AcDbArc
 50
215.5487440029
 51
270.0
  0
ARC
  5
4F0
100
AcDbEntity
  8
0
100
AcDbCircle
 62
7
  6
CONTINUOUS
 10
7.3220339452
 20
5.2967865634
 40
0.0083333333
100
AcDbArc
 50
0.0
 51
90.0
  0
ARC
  5
4F1
100
AcDbEntity
  8
0
100
AcDbCircle
 62
7
  6
CONTINUOUS
 10
7.5720577596
 20
5.3134532301
 40
0.0083333333
100
AcDbArc
 50
270.0
 51
324.4512559971
  0
ARC
  5
4F2
100
AcDbEntity
  8
0
100
AcDbCircle
 62
7
  6
CONTINUOUS
 10
7.6886767975
 20
5.3134532301
 40
0.0083333333
100
AcDbArc
 50
215.5487440029
 51
270.0
  0
ARC
  5
4F3
100
AcDbEntity
  8
0
100
AcDbCircle
 62
7
  6
CONTINUOUS
 10
7.3250549706
 20
5.3134453216
 40
0.0083254249
100
AcDbArc
 50
211.9511564896
 51
270.0005562073
  0
ARC
  5
4F4
100
AcDbEntity
  8
0
100
AcDbCircle
 62
7
  6
CONTINUOUS
 10
8.1153672786
 20
5.1867865634
 40
0.1816666667
100
AcDbArc
 50
307.1640093615
 51
360.0
  0
ARC
  5
4F5
100
AcDbEntity
  8
0
100
AcDbCircle
 62
7
  6
CONTINUOUS
 10
8.1303672786
 20
5.2717865634
 40
0.0633333333
100
AcDbArc
 50
35.5487440029
 51
144.4512559971
  0
ARC
  5
4F6
100
AcDbEntity
  8
0
100
AcDbCircle
 62
7
  6
CONTINUOUS
 10
8.1303672786
 20
5.2417865634
 40
0.0566666667
100
AcDbArc
 50
72.8953648234
 51
287.1046351766
  0
ARC
  5
4F7
100
AcDbEntity
  8
0
100
AcDbCircle
 62
7
  6
CONTINUOUS
 10
8.1303672786
 20
5.2417865634
 40
0.0525
100
AcDbArc
 50
76.225853002
 51
283.774146998
  0
ARC
  5
4F8
100
AcDbEntity
  8
0
100
AcDbCircle
 62
7
  6
CONTINUOUS
 10
8.1503672786
 20
5.2217865634
 40
0.1466666667
100
AcDbArc
 50
0.0
 51
90.0
  0
ARC
  5
4F9
100
AcDbEntity
  8
0
100
AcDbCircle
 62
7
  6
CONTINUOUS
 10
7.913628048
 20
5.3851198968
 40
0.0166666667
100
AcDbArc
 50
180.25
 51
270.249456955
  0
ARC
  5
4FA
100
AcDbEntity
  8
0
100
AcDbCircle
 62
7
  6
CONTINUOUS
 10
7.8471065091
 20
5.3851198968
 40
0.0166666667
100
AcDbArc
 50
269.750543045
 51
359.75
  0
ARC
  5
4FB
100
AcDbEntity
  8
0
100
AcDbCircle
 62
7
  6
CONTINUOUS
 10
7.7539690803
 20
5.3134532301
 40
0.0083333333
100
AcDbArc
 50
270.0
 51
41.5023374652
  0
ARC
  5
4FC
100
AcDbEntity
  8
0
100
AcDbCircle
 62
7
  6
CONTINUOUS
 10
8.2539690803
 20
5.3134532301
 40
0.0083333333
100
AcDbArc
 50
270.0
 51
41.5023374652
  0
ARC
  5
4FD
100
AcDbEntity
  8
0
100
AcDbCircle
 62
7
  6
CONTINUOUS
 10
7.8220339452
 20
5.2967865634
 40
0.0083333333
100
AcDbArc
 50
0.0
 51
90.0
  0
ARC
  5
4FE
100
AcDbEntity
  8
0
100
AcDbCircle
 62
7
  6
CONTINUOUS
 10
8.0720577596
 20
5.3134532301
 40
0.0083333333
100
AcDbArc
 50
270.0
 51
324.4512559971
  0
ARC
  5
4FF
100
AcDbEntity
  8
0
100
AcDbCircle
 62
7
  6
CONTINUOUS
 10
8.1886767975
 20
5.3134532301
 40
0.0083333333
100
AcDbArc
 50
215.5487440029
 51
270.0
  0
ARC
  5
500
100
AcDbEntity
  8
0
100
AcDbCircle
 62
7
  6
CONTINUOUS
 10
7.8250549706
 20
5.3134453216
 40
0.0083254249
100
AcDbArc
 50
211.9511564896
 51
270.0005562073
  0
ARC
  5
501
100
AcDbEntity
  8
0
100
AcDbCircle
 62
7
  6
CONTINUOUS
 10
6.8858279933
 20
6.0267865634
 40
0.0083333333
100
AcDbArc
 50
0.2499999998
 51
90.0
  0
ARC
  5
502
100
AcDbEntity
  8
0
100
AcDbCircle
 62
7
  6
CONTINUOUS
 10
6.8749065638
 20
6.0267865634
 40
0.0083333333
100
AcDbArc
 50
90.0
 51
179.75
  0
ARC
  5
503
100
AcDbEntity
  8
0
100
AcDbCircle
 62
7
  6
CONTINUOUS
 10
7.3858279933
 20
6.0267865634
 40
0.0083333333
100
AcDbArc
 50
0.2499999998
 51
90.0
  0
ARC
  5
504
100
AcDbEntity
  8
0
100
AcDbCircle
 62
7
  6
CONTINUOUS
 10
7.3749065638
 20
6.0267865634
 40
0.0083333333
100
AcDbArc
 50
90.0
 51
179.75
  0
ARC
  5
505
100
AcDbEntity
  8
0
100
AcDbCircle
 62
7
  6
CONTINUOUS
 10
7.8858279933
 20
6.0267865634
 40
0.0083333333
100
AcDbArc
 50
0.2499999998
 51
90.0
  0
ARC
  5
506
100
AcDbEntity
  8
0
100
AcDbCircle
 62
7
  6
CONTINUOUS
 10
7.8749065638
 20
6.0267865634
 40
0.0083333333
100
AcDbArc
 50
90.0
 51
179.75
  0
ARC
  5
507
100
AcDbEntity
  8
0
100
AcDbCircle
 62
7
  6
CONTINUOUS
 10
6.3858279933
 20
6.0267865634
 40
0.0083333333
100
AcDbArc
 50
0.2499999998
 51
90.0
  0
ARC
  5
508
100
AcDbEntity
  8
0
100
AcDbCircle
 62
7
  6
CONTINUOUS
 10
6.3749065638
 20
6.0267865634
 40
0.0083333333
100
AcDbArc
 50
90.0
 51
179.75
  0
ARC
  5
509
100
AcDbEntity
  8
0
100
AcDbCircle
 62
7
  6
CONTINUOUS
 10
4.694473888
 20
13.8417144585
 40
0.0083333333
100
AcDbArc
 50
48.924909495
 51
90.0
  0
ARC
  5
50A
100
AcDbEntity
  8
0
100
AcDbCircle
 62
7
  6
CONTINUOUS
 10
3.9125387529
 20
12.3600477918
 40
0.0083333333
100
AcDbArc
 50
180.0
 51
270.0
  0
ARC
  5
50B
100
AcDbEntity
  8
0
100
AcDbCircle
 62
7
  6
CONTINUOUS
 10
4.694473888
 20
11.3583811252
 40
0.0083333333
100
AcDbArc
 50
270.0
 51
311.1287279519
  0
ARC
  5
50C
100
AcDbEntity
  8
0
100
AcDbCircle
 62
7
  6
CONTINUOUS
 10
3.9125387529
 20
12.8400477918
 40
0.0083333333
100
AcDbArc
 50
90.0
 51
180.0
  0
ARC
  5
50D
100
AcDbEntity
  8
0
100
AcDbCircle
 62
7
  6
CONTINUOUS
 10
5.194473888
 20
13.8417144585
 40
0.0083333333
100
AcDbArc
 50
48.924909495
 51
90.0
  0
ARC
  5
50E
100
AcDbEntity
  8
0
100
AcDbCircle
 62
7
  6
CONTINUOUS
 10
5.194473888
 20
11.3583811252
 40
0.0083333333
100
AcDbArc
 50
270.0
 51
311.1287279519
  0
ARC
  5
50F
100
AcDbEntity
  8
0
100
AcDbCircle
 62
7
  6
CONTINUOUS
 10
5.694473888
 20
13.8417144585
 40
0.0083333333
100
AcDbArc
 50
48.924909495
 51
90.0
  0
ARC
  5
510
100
AcDbEntity
  8
0
100
AcDbCircle
 62
7
  6
CONTINUOUS
 10
5.694473888
 20
11.3583811252
 40
0.0083333333
100
AcDbArc
 50
270.0
 51
311.1287279519
  0
ARC
  5
511
100
AcDbEntity
  8
0
100
AcDbCircle
 62
7
  6
CONTINUOUS
 10
6.194473888
 20
13.8417144585
 40
0.0083333333
100
AcDbArc
 50
48.924909495
 51
90.0
  0
ARC
  5
512
100
AcDbEntity
  8
0
100
AcDbCircle
 62
7
  6
CONTINUOUS
 10
6.194473888
 20
11.3583811252
 40
0.0083333333
100
AcDbArc
 50
270.0
 51
311.1287279519
  0
ARC
  5
513
100
AcDbEntity
  8
0
100
AcDbCircle
 62
7
  6
CONTINUOUS
 10
6.694473888
 20
13.8417144585
 40
0.0083333333
100
AcDbArc
 50
48.924909495
 51
90.0
  0
ARC
  5
514
100
AcDbEntity
  8
0
100
AcDbCircle
 62
7
  6
CONTINUOUS
 10
6.694473888
 20
11.3583811252
 40
0.0083333333
100
AcDbArc
 50
270.0
 51
311.1287279519
  0
ARC
  5
515
100
AcDbEntity
  8
0
100
AcDbCircle
 62
7
  6
CONTINUOUS
 10
7.194473888
 20
13.8417144585
 40
0.0083333333
100
AcDbArc
 50
48.924909495
 51
90.0
  0
ARC
  5
516
100
AcDbEntity
  8
0
100
AcDbCircle
 62
7
  6
CONTINUOUS
 10
7.194473888
 20
11.3583811252
 40
0.0083333333
100
AcDbArc
 50
270.0
 51
311.1287279519
  0
ARC
  5
517
100
AcDbEntity
  8
0
100
AcDbCircle
 62
7
  6
CONTINUOUS
 10
7.694473888
 20
13.8417144585
 40
0.0083333333
100
AcDbArc
 50
48.924909495
 51
90.0
  0
ARC
  5
518
100
AcDbEntity
  8
0
100
AcDbCircle
 62
7
  6
CONTINUOUS
 10
7.694473888
 20
11.3583811252
 40
0.0083333333
100
AcDbArc
 50
270.0
 51
311.1287279519
  0
ARC
  5
519
100
AcDbEntity
  8
0
100
AcDbCircle
 62
7
  6
CONTINUOUS
 10
8.194473888
 20
13.8417144585
 40
0.0083333333
100
AcDbArc
 50
0.0
 51
90.0
  0
ARC
  5
51A
100
AcDbEntity
  8
0
100
AcDbCircle
 62
7
  6
CONTINUOUS
 10
8.194473888
 20
11.3583811252
 40
0.0083333333
100
AcDbArc
 50
270.0
 51
360.0
  0
ARC
  5
51B
100
AcDbEntity
  8
0
100
AcDbCircle
 62
7
  6
CONTINUOUS
 10
8.2292054196
 20
12.2350477918
 40
0.0083333333
100
AcDbArc
 50
270.0
 51
360.0
  0
ARC
  5
51C
100
AcDbEntity
  8
0
100
AcDbCircle
 62
7
  6
CONTINUOUS
 10
8.2292054196
 20
12.3350477918
 40
0.0083333333
100
AcDbArc
 50
0.0
 51
90.0
  0
ARC
  5
51D
100
AcDbEntity
  8
0
100
AcDbCircle
 62
7
  6
CONTINUOUS
 10
8.2292054196
 20
12.8650477918
 40
0.0083333333
100
AcDbArc
 50
270.0
 51
360.0
  0
ARC
  5
51E
100
AcDbEntity
  8
0
100
AcDbCircle
 62
7
  6
CONTINUOUS
 10
8.2292054196
 20
12.9650477918
 40
0.0083333333
100
AcDbArc
 50
0.0
 51
90.0
  0
ARC
  5
51F
100
AcDbEntity
  8
0
100
AcDbCircle
 62
7
  6
CONTINUOUS
 10
15.3120626614
 20
5.2956018013
 40
0.0083740609
100
AcDbArc
 50
141.4648169718
 51
180.0139427565
  0
ARC
  5
520
100
AcDbEntity
  8
0
100
AcDbCircle
 62
7
  6
CONTINUOUS
 10
14.3186886007
 20
5.2539580378
 40
0.0083333333
100
AcDbArc
 50
180.0
 51
270.0
  0
ARC
  5
521
100
AcDbEntity
  8
0
100
AcDbCircle
 62
7
  6
CONTINUOUS
 10
14.3186886007
 20
5.3006247044
 40
0.0083333333
100
AcDbArc
 50
90.0
 51
180.0
  0
ARC
  5
522
100
AcDbEntity
  8
0
100
AcDbCircle
 62
7
  6
CONTINUOUS
 10
15.0703552674
 20
4.9539580378
 40
0.0083333333
100
AcDbArc
 50
180.0
 51
270.0
  0
ARC
  5
523
100
AcDbEntity
  8
0
100
AcDbCircle
 62
7
  6
CONTINUOUS
 10
15.0703552674
 20
5.0072913711
 40
0.0083333333
100
AcDbArc
 50
90.0
 51
180.0
  0
ARC
  5
524
100
AcDbEntity
  8
0
100
AcDbCircle
 62
7
  6
CONTINUOUS
 10
15.4270219341
 20
4.9539580378
 40
0.0083333333
100
AcDbArc
 50
270.0
 51
360.0
  0
ARC
  5
525
100
AcDbEntity
  8
0
100
AcDbCircle
 62
7
  6
CONTINUOUS
 10
15.1786886007
 20
5.0239580378
 40
0.0083333333
100
AcDbArc
 50
270.0
 51
360.0
  0
ARC
  5
526
100
AcDbEntity
  8
0
100
AcDbCircle
 62
7
  6
CONTINUOUS
 10
15.2953552674
 20
4.9539580378
 40
0.0083333333
100
AcDbArc
 50
270.0
 51
360.0
  0
ARC
  5
527
100
AcDbEntity
  8
0
100
AcDbCircle
 62
7
  6
CONTINUOUS
 10
15.1953552674
 20
4.9539580378
 40
0.0083333333
100
AcDbArc
 50
180.0
 51
270.0
  0
ARC
  5
528
100
AcDbEntity
  8
0
100
AcDbCircle
 62
7
  6
CONTINUOUS
 10
15.1786886007
 20
5.2372913711
 40
0.0083333333
100
AcDbArc
 50
0.0
 51
90.0
  0
ARC
  5
529
100
AcDbEntity
  8
0
100
AcDbCircle
 62
7
  6
CONTINUOUS
 10
15.2953552674
 20
5.3006247044
 40
0.0083333333
100
AcDbArc
 50
0.0
 51
90.0
  0
ARC
  5
52A
100
AcDbEntity
  8
0
100
AcDbCircle
 62
7
  6
CONTINUOUS
 10
15.3120219341
 20
5.2372913711
 40
0.0083333333
100
AcDbArc
 50
90.0
 51
159.3415713374
  0
ARC
  5
52B
100
AcDbEntity
  8
0
100
AcDbCircle
 62
7
  6
CONTINUOUS
 10
15.3120244057
 20
5.2956338975
 40
0.0083241407
100
AcDbArc
 50
90.0170126482
 51
141.4735818205
  0
ARC
  5
52C
100
AcDbEntity
  8
0
100
AcDbCircle
 62
7
  6
CONTINUOUS
 10
14.3564088353
 20
5.9322913711
 40
0.0433333333
100
AcDbArc
 50
90.0
 51
179.75
  0
ARC
  5
52D
100
AcDbEntity
  8
0
100
AcDbCircle
 62
7
  6
CONTINUOUS
 10
15.6936886007
 20
4.9539580378
 40
0.0083333333
100
AcDbArc
 50
180.0
 51
270.0
  0
ARC
  5
52E
100
AcDbEntity
  8
0
100
AcDbCircle
 62
7
  6
CONTINUOUS
 10
15.8253552674
 20
4.9539580378
 40
0.0083333333
100
AcDbArc
 50
180.0
 51
270.0
  0
ARC
  5
52F
100
AcDbEntity
  8
0
100
AcDbCircle
 62
7
  6
CONTINUOUS
 10
16.0503552674
 20
5.0072913711
 40
0.0083333333
100
AcDbArc
 50
0.0
 51
90.0
  0
ARC
  5
530
100
AcDbEntity
  8
0
100
AcDbCircle
 62
7
  6
CONTINUOUS
 10
16.0503552674
 20
4.9539580378
 40
0.0083333333
100
AcDbArc
 50
270.0
 51
360.0
  0
ARC
  5
531
100
AcDbEntity
  8
0
100
AcDbCircle
 62
7
  6
CONTINUOUS
 10
15.9253552674
 20
4.9539580378
 40
0.0083333333
100
AcDbArc
 50
270.0
 51
360.0
  0
ARC
  5
532
100
AcDbEntity
  8
0
100
AcDbCircle
 62
7
  6
CONTINUOUS
 10
15.9420219341
 20
5.0239580378
 40
0.0083333333
100
AcDbArc
 50
180.0
 51
270.0
  0
ARC
  5
533
100
AcDbEntity
  8
0
100
AcDbCircle
 62
7
  6
CONTINUOUS
 10
15.8086285883
 20
5.2955961718
 40
0.0083940009
100
AcDbArc
 50
0.0222672092
 51
25.6515216271
  0
ARC
  5
534
100
AcDbEntity
  8
0
100
AcDbCircle
 62
7
  6
CONTINUOUS
 10
15.8253552674
 20
5.3006247044
 40
0.0083333333
100
AcDbArc
 50
90.0
 51
180.0
  0
ARC
  5
535
100
AcDbEntity
  8
0
100
AcDbCircle
 62
7
  6
CONTINUOUS
 10
15.8086886007
 20
5.2372913711
 40
0.0083333333
100
AcDbArc
 50
20.6584286626
 51
90.0
  0
ARC
  5
536
100
AcDbEntity
  8
0
100
AcDbCircle
 62
7
  6
CONTINUOUS
 10
15.9420219341
 20
5.2372913711
 40
0.0083333333
100
AcDbArc
 50
90.0
 51
180.0
  0
ARC
  5
537
100
AcDbEntity
  8
0
100
AcDbCircle
 62
7
  6
CONTINUOUS
 10
15.8086832371
 20
5.2956273014
 40
0.0083310008
100
AcDbArc
 50
25.6212329117
 51
89.9631109749
  0
ARC
  5
538
100
AcDbEntity
  8
0
100
AcDbCircle
 62
7
  6
CONTINUOUS
 10
16.8020219341
 20
5.3006247044
 40
0.0083333333
100
AcDbArc
 50
0.0
 51
90.0
  0
ARC
  5
539
100
AcDbEntity
  8
0
100
AcDbCircle
 62
7
  6
CONTINUOUS
 10
16.8020219341
 20
5.2539580378
 40
0.0083333333
100
AcDbArc
 50
270.0
 51
360.0
  0
ARC
  5
53A
100
AcDbEntity
  8
0
100
AcDbCircle
 62
7
  6
CONTINUOUS
 10
13.8389780287
 20
11.3474192893
 40
0.0083791376
100
AcDbArc
 50
270.0451701967
 51
286.3688691222
  0
ARC
  5
53B
100
AcDbEntity
  8
0
100
AcDbCircle
 62
7
  6
CONTINUOUS
 10
14.2995085257
 20
11.3474192893
 40
0.0083791376
100
AcDbArc
 50
270.0451701967
 51
286.3688691222
  0
ARC
  5
53C
100
AcDbEntity
  8
0
100
AcDbCircle
 62
7
  6
CONTINUOUS
 10
14.7600390227
 20
11.3474192893
 40
0.0083791376
100
AcDbArc
 50
270.0451701967
 51
286.3688691222
  0
ARC
  5
53D
100
AcDbEntity
  8
0
100
AcDbCircle
 62
7
  6
CONTINUOUS
 10
15.2205695197
 20
11.3474192893
 40
0.0083791376
100
AcDbArc
 50
270.0451701967
 51
286.3688691222
  0
ARC
  5
53E
100
AcDbEntity
  8
0
100
AcDbCircle
 62
7
  6
CONTINUOUS
 10
13.6714258993
 20
11.3474184644
 40
0.0083783132
100
AcDbArc
 50
270.050012625
 51
288.4211507886
  0
ARC
  5
53F
100
AcDbEntity
  8
0
100
AcDbCircle
 62
7
  6
CONTINUOUS
 10
14.1319563963
 20
11.3474184644
 40
0.0083783132
100
AcDbArc
 50
270.050012625
 51
288.4211507887
  0
ARC
  5
540
100
AcDbEntity
  8
0
100
AcDbCircle
 62
7
  6
CONTINUOUS
 10
14.5924868933
 20
11.3474184644
 40
0.0083783132
100
AcDbArc
 50
270.050012625
 51
288.4211507886
  0
ARC
  5
541
100
AcDbEntity
  8
0
100
AcDbCircle
 62
7
  6
CONTINUOUS
 10
15.0530173903
 20
11.3474184644
 40
0.0083783132
100
AcDbArc
 50
270.050012625
 51
288.4211507887
  0
ARC
  5
542
100
AcDbEntity
  8
0
100
AcDbCircle
 62
7
  6
CONTINUOUS
 10
15.5135478873
 20
11.3474184644
 40
0.0083783132
100
AcDbArc
 50
270.050012625
 51
288.4211507887
  0
ARC
  5
543
100
AcDbEntity
  8
0
100
AcDbCircle
 62
7
  6
CONTINUOUS
 10
13.83894586
 20
11.3473931098
 40
0.0083761759
100
AcDbArc
 50
323.5382712027
 51
342.7776989131
  0
ARC
  5
544
100
AcDbEntity
  8
0
100
AcDbCircle
 62
7
  6
CONTINUOUS
 10
14.299476357
 20
11.3473931098
 40
0.0083761759
100
AcDbArc
 50
323.5382712026
 51
342.7776989134
  0
ARC
  5
545
100
AcDbEntity
  8
0
100
AcDbCircle
 62
7
  6
CONTINUOUS
 10
14.760006854
 20
11.3473931098
 40
0.0083761759
100
AcDbArc
 50
323.5382712025
 51
342.7776989134
  0
ARC
  5
546
100
AcDbEntity
  8
0
100
AcDbCircle
 62
7
  6
CONTINUOUS
 10
15.220537351
 20
11.3473931098
 40
0.0083761759
100
AcDbArc
 50
323.5382712023
 51
342.7776989136
  0
ARC
  5
547
100
AcDbEntity
  8
0
100
AcDbCircle
 62
7
  6
CONTINUOUS
 10
13.443931436
 20
11.3474008568
 40
0.008360703
100
AcDbArc
 50
258.4054901528
 51
269.9809258415
  0
ARC
  5
548
100
AcDbEntity
  8
0
100
AcDbCircle
 62
7
  6
CONTINUOUS
 10
13.904461933
 20
11.3474008568
 40
0.008360703
100
AcDbArc
 50
258.4054901528
 51
269.9809258415
  0
ARC
  5
549
100
AcDbEntity
  8
0
100
AcDbCircle
 62
7
  6
CONTINUOUS
 10
14.36499243
 20
11.3474008568
 40
0.008360703
100
AcDbArc
 50
258.4054901528
 51
269.9809258415
  0
ARC
  5
54A
100
AcDbEntity
  8
0
100
AcDbCircle
 62
7
  6
CONTINUOUS
 10
14.825522927
 20
11.3474008568
 40
0.008360703
100
AcDbArc
 50
258.4054901528
 51
269.9809258415
  0
ARC
  5
54B
100
AcDbEntity
  8
0
100
AcDbCircle
 62
7
  6
CONTINUOUS
 10
15.286053424
 20
11.3474008568
 40
0.008360703
100
AcDbArc
 50
258.4054901528
 51
269.9809258415
  0
ARC
  5
54C
100
AcDbEntity
  8
0
100
AcDbCircle
 62
7
  6
CONTINUOUS
 10
13.778848747
 20
11.3473974922
 40
0.0083573382
100
AcDbArc
 50
259.1287721723
 51
269.9843177202
  0
ARC
  5
54D
100
AcDbEntity
  8
0
100
AcDbCircle
 62
7
  6
CONTINUOUS
 10
14.2393792441
 20
11.3473974922
 40
0.0083573382
100
AcDbArc
 50
259.1287721723
 51
269.9843177202
  0
ARC
  5
54E
100
AcDbEntity
  8
0
100
AcDbCircle
 62
7
  6
CONTINUOUS
 10
14.6999097411
 20
11.3473974922
 40
0.0083573382
100
AcDbArc
 50
259.1287721723
 51
269.9843177202
  0
ARC
  5
54F
100
AcDbEntity
  8
0
100
AcDbCircle
 62
7
  6
CONTINUOUS
 10
15.1604402381
 20
11.3473974922
 40
0.0083573382
100
AcDbArc
 50
259.1287721723
 51
269.9843177202
  0
ARC
  5
550
100
AcDbEntity
  8
0
100
AcDbCircle
 62
7
  6
CONTINUOUS
 10
13.6714327745
 20
11.3473740203
 40
0.0083339774
100
AcDbArc
 50
288.4728598689
 51
330.3980297384
  0
ARC
  5
551
100
AcDbEntity
  8
0
100
AcDbCircle
 62
7
  6
CONTINUOUS
 10
14.1319632715
 20
11.3473740203
 40
0.0083339774
100
AcDbArc
 50
288.472859869
 51
330.3980297383
  0
ARC
  5
552
100
AcDbEntity
  8
0
100
AcDbCircle
 62
7
  6
CONTINUOUS
 10
14.5924937685
 20
11.3473740203
 40
0.0083339774
100
AcDbArc
 50
288.4728598689
 51
330.3980297384
  0
ARC
  5
553
100
AcDbEntity
  8
0
100
AcDbCircle
 62
7
  6
CONTINUOUS
 10
15.0530242655
 20
11.3473740203
 40
0.0083339774
100
AcDbArc
 50
288.472859869
 51
330.3980297383
  0
ARC
  5
554
100
AcDbEntity
  8
0
100
AcDbCircle
 62
7
  6
CONTINUOUS
 10
15.5135547625
 20
11.3473740203
 40
0.0083339774
100
AcDbArc
 50
288.4728598689
 51
330.3980297384
  0
ARC
  5
555
100
AcDbEntity
  8
0
100
AcDbCircle
 62
7
  6
CONTINUOUS
 10
13.4439287492
 20
11.3473737104
 40
0.0083335709
100
AcDbArc
 50
234.7798025223
 51
258.3860746486
  0
ARC
  5
556
100
AcDbEntity
  8
0
100
AcDbCircle
 62
7
  6
CONTINUOUS
 10
13.9044592462
 20
11.3473737104
 40
0.0083335709
100
AcDbArc
 50
234.7798025223
 51
258.3860746486
  0
ARC
  5
557
100
AcDbEntity
  8
0
100
AcDbCircle
 62
7
  6
CONTINUOUS
 10
14.3649897432
 20
11.3473737104
 40
0.0083335709
100
AcDbArc
 50
234.7798025222
 51
258.3860746488
  0
ARC
  5
558
100
AcDbEntity
  8
0
100
AcDbCircle
 62
7
  6
CONTINUOUS
 10
14.8255202402
 20
11.3473737104
 40
0.0083335709
100
AcDbArc
 50
234.7798025222
 51
258.3860746488
  0
ARC
  5
559
100
AcDbEntity
  8
0
100
AcDbCircle
 62
7
  6
CONTINUOUS
 10
15.2860507372
 20
11.3473737104
 40
0.0083335709
100
AcDbArc
 50
234.7798025223
 51
258.3860746486
  0
ARC
  5
55A
100
AcDbEntity
  8
0
100
AcDbCircle
 62
7
  6
CONTINUOUS
 10
13.8389846727
 20
11.347373433
 40
0.0083332701
100
AcDbArc
 50
286.4138934376
 51
323.4884874336
  0
ARC
  5
55B
100
AcDbEntity
  8
0
100
AcDbCircle
 62
7
  6
CONTINUOUS
 10
14.2995151697
 20
11.347373433
 40
0.0083332701
100
AcDbArc
 50
286.4138934376
 51
323.4884874336
  0
ARC
  5
55C
100
AcDbEntity
  8
0
100
AcDbCircle
 62
7
  6
CONTINUOUS
 10
14.7600456668
 20
11.347373433
 40
0.0083332701
100
AcDbArc
 50
286.4138934375
 51
323.4884874337
  0
ARC
  5
55D
100
AcDbEntity
  8
0
100
AcDbCircle
 62
7
  6
CONTINUOUS
 10
15.2205761638
 20
11.347373433
 40
0.0083332701
100
AcDbArc
 50
286.4138934375
 51
323.4884874337
  0
ARC
  5
55E
100
AcDbEntity
  8
0
100
AcDbCircle
 62
7
  6
CONTINUOUS
 10
13.7788455675
 20
11.3473712642
 40
0.0083309814
100
AcDbArc
 50
237.1606214594
 51
259.1162266796
  0
ARC
  5
55F
100
AcDbEntity
  8
0
100
AcDbCircle
 62
7
  6
CONTINUOUS
 10
14.2393760645
 20
11.3473712642
 40
0.0083309814
100
AcDbArc
 50
237.1606214594
 51
259.1162266796
  0
ARC
  5
560
100
AcDbEntity
  8
0
100
AcDbCircle
 62
7
  6
CONTINUOUS
 10
14.6999065615
 20
11.3473712642
 40
0.0083309814
100
AcDbArc
 50
237.1606214594
 51
259.1162266796
  0
ARC
  5
561
100
AcDbEntity
  8
0
100
AcDbCircle
 62
7
  6
CONTINUOUS
 10
15.1604370585
 20
11.3473712642
 40
0.0083309814
100
AcDbArc
 50
237.1606214594
 51
259.1162266796
  0
ARC
  5
562
100
AcDbEntity
  8
0
100
AcDbCircle
 62
7
  6
CONTINUOUS
 10
17.2908598479
 20
12.1011735428
 40
0.232489837
100
AcDbArc
 50
105.9117307753
 51
125.9629333106
  0
ARC
  5
563
100
AcDbEntity
  8
0
100
AcDbCircle
 62
7
  6
CONTINUOUS
 10
17.2821538427
 20
11.9906801833
 40
0.1059121183
100
AcDbArc
 50
24.1864181549
 51
26.1491805027
  0
ARC
  5
564
100
AcDbEntity
  8
0
100
AcDbCircle
 62
7
  6
CONTINUOUS
 10
17.1341217948
 20
12.151378979
 40
0.0210375165
100
AcDbArc
 50
180.035646848
 51
184.4144808779
  0
ARC
  5
565
100
AcDbEntity
  8
0
100
AcDbCircle
 62
7
  6
CONTINUOUS
 10
15.6811000167
 20
11.3474192893
 40
0.0083791376
100
AcDbArc
 50
270.0451701967
 51
286.3688691222
  0
ARC
  5
566
100
AcDbEntity
  8
0
100
AcDbCircle
 62
7
  6
CONTINUOUS
 10
16.1416305137
 20
11.3474192893
 40
0.0083791376
100
AcDbArc
 50
270.0451701967
 51
286.3688691222
  0
ARC
  5
567
100
AcDbEntity
  8
0
100
AcDbCircle
 62
7
  6
CONTINUOUS
 10
16.6021610107
 20
11.3474192893
 40
0.0083791376
100
AcDbArc
 50
270.0451701967
 51
286.3688691222
  0
ARC
  5
568
100
AcDbEntity
  8
0
100
AcDbCircle
 62
7
  6
CONTINUOUS
 10
17.0626915077
 20
11.3474192893
 40
0.0083791376
100
AcDbArc
 50
270.0451701968
 51
286.3688691221
  0
ARC
  5
569
100
AcDbEntity
  8
0
100
AcDbCircle
 62
7
  6
CONTINUOUS
 10
15.9740783843
 20
11.3474184644
 40
0.0083783132
100
AcDbArc
 50
270.050012625
 51
288.4211507887
  0
ARC
  5
56A
100
AcDbEntity
  8
0
100
AcDbCircle
 62
7
  6
CONTINUOUS
 10
16.4346088813
 20
11.3474184644
 40
0.0083783132
100
AcDbArc
 50
270.050012625
 51
288.4211507887
  0
ARC
  5
56B
100
AcDbEntity
  8
0
100
AcDbCircle
 62
7
  6
CONTINUOUS
 10
16.8951393783
 20
11.3474184644
 40
0.0083783132
100
AcDbArc
 50
270.0500126251
 51
288.4211507884
  0
ARC
  5
56C
100
AcDbEntity
  8
0
100
AcDbCircle
 62
7
  6
CONTINUOUS
 10
17.2996004958
 20
11.8476436534
 40
0.0083771112
100
AcDbArc
 50
296.70354594
 51
311.4451631098
  0
ARC
  5
56D
100
AcDbEntity
  8
0
100
AcDbCircle
 62
7
  6
CONTINUOUS
 10
15.681067848
 20
11.3473931098
 40
0.0083761759
100
AcDbArc
 50
323.5382712027
 51
342.7776989131
  0
ARC
  5
56E
100
AcDbEntity
  8
0
100
AcDbCircle
 62
7
  6
CONTINUOUS
 10
16.141598345
 20
11.3473931098
 40
0.0083761759
100
AcDbArc
 50
323.5382712026
 51
342.7776989134
  0
ARC
  5
56F
100
AcDbEntity
  8
0
100
AcDbCircle
 62
7
  6
CONTINUOUS
 10
16.602128842
 20
11.3473931098
 40
0.0083761759
100
AcDbArc
 50
323.5382712027
 51
342.7776989131
  0
ARC
  5
570
100
AcDbEntity
  8
0
100
AcDbCircle
 62
7
  6
CONTINUOUS
 10
17.062659339
 20
11.3473931098
 40
0.0083761759
100
AcDbArc
 50
323.5382712025
 51
342.7776989134
  0
ARC
  5
571
100
AcDbEntity
  8
0
100
AcDbCircle
 62
7
  6
CONTINUOUS
 10
15.746583921
 20
11.3474008568
 40
0.008360703
100
AcDbArc
 50
258.4054901528
 51
269.9809258415
  0
ARC
  5
572
100
AcDbEntity
  8
0
100
AcDbCircle
 62
7
  6
CONTINUOUS
 10
16.207114418
 20
11.3474008568
 40
0.008360703
100
AcDbArc
 50
258.4054901528
 51
269.9809258415
  0
ARC
  5
573
100
AcDbEntity
  8
0
100
AcDbCircle
 62
7
  6
CONTINUOUS
 10
16.667644915
 20
11.3474008568
 40
0.008360703
100
AcDbArc
 50
258.4054901528
 51
269.9809258415
  0
ARC
  5
574
100
AcDbEntity
  8
0
100
AcDbCircle
 62
7
  6
CONTINUOUS
 10
15.6209707351
 20
11.3473974922
 40
0.0083573382
100
AcDbArc
 50
259.1287721723
 51
269.9843177202
  0
ARC
  5
575
100
AcDbEntity
  8
0
100
AcDbCircle
 62
7
  6
CONTINUOUS
 10
16.0815012321
 20
11.3473974922
 40
0.0083573382
100
AcDbArc
 50
259.1287721723
 51
269.9843177202
  0
ARC
  5
576
100
AcDbEntity
  8
0
100
AcDbCircle
 62
7
  6
CONTINUOUS
 10
16.5420317291
 20
11.3473974922
 40
0.0083573382
100
AcDbArc
 50
259.1287721723
 51
269.9843177202
  0
ARC
  5
577
100
AcDbEntity
  8
0
100
AcDbCircle
 62
7
  6
CONTINUOUS
 10
17.0025622261
 20
11.3473974922
 40
0.0083573382
100
AcDbArc
 50
259.1287721723
 51
269.9843177202
  0
ARC
  5
578
100
AcDbEntity
  8
0
100
AcDbCircle
 62
7
  6
CONTINUOUS
 10
17.2996203344
 20
11.8476207506
 40
0.0083477394
100
AcDbArc
 50
270.0250684321
 51
296.652544162
  0
ARC
  5
579
100
AcDbEntity
  8
0
100
AcDbCircle
 62
7
  6
CONTINUOUS
 10
15.9740852595
 20
11.3473740203
 40
0.0083339774
100
AcDbArc
 50
288.472859869
 51
330.3980297383
  0
ARC
  5
57A
100
AcDbEntity
  8
0
100
AcDbCircle
 62
7
  6
CONTINUOUS
 10
16.4346157565
 20
11.3473740203
 40
0.0083339774
100
AcDbArc
 50
288.472859869
 51
330.3980297383
  0
ARC
  5
57B
100
AcDbEntity
  8
0
100
AcDbCircle
 62
7
  6
CONTINUOUS
 10
16.8951462535
 20
11.3473740203
 40
0.0083339774
100
AcDbArc
 50
288.472859869
 51
330.3980297382
  0
ARC
  5
57C
100
AcDbEntity
  8
0
100
AcDbCircle
 62
7
  6
CONTINUOUS
 10
15.7465812342
 20
11.3473737104
 40
0.0083335709
100
AcDbArc
 50
234.7798025222
 51
258.3860746488
  0
ARC
  5
57D
100
AcDbEntity
  8
0
100
AcDbCircle
 62
7
  6
CONTINUOUS
 10
16.2071117312
 20
11.3473737104
 40
0.0083335709
100
AcDbArc
 50
234.7798025222
 51
258.3860746488
  0
ARC
  5
57E
100
AcDbEntity
  8
0
100
AcDbCircle
 62
7
  6
CONTINUOUS
 10
16.6676422282
 20
11.3473737104
 40
0.0083335709
100
AcDbArc
 50
234.7798025224
 51
258.3860746485
  0
ARC
  5
57F
100
AcDbEntity
  8
0
100
AcDbCircle
 62
7
  6
CONTINUOUS
 10
15.6811066608
 20
11.347373433
 40
0.0083332701
100
AcDbArc
 50
286.4138934375
 51
323.4884874337
  0
ARC
  5
580
100
AcDbEntity
  8
0
100
AcDbCircle
 62
7
  6
CONTINUOUS
 10
16.1416371578
 20
11.347373433
 40
0.0083332701
100
AcDbArc
 50
286.4138934375
 51
323.4884874337
  0
ARC
  5
581
100
AcDbEntity
  8
0
100
AcDbCircle
 62
7
  6
CONTINUOUS
 10
16.6021676548
 20
11.347373433
 40
0.0083332701
100
AcDbArc
 50
286.4138934376
 51
323.4884874336
  0
ARC
  5
582
100
AcDbEntity
  8
0
100
AcDbCircle
 62
7
  6
CONTINUOUS
 10
17.0626981518
 20
11.347373433
 40
0.0083332701
100
AcDbArc
 50
286.4138934375
 51
323.4884874336
  0
ARC
  5
583
100
AcDbEntity
  8
0
100
AcDbCircle
 62
7
  6
CONTINUOUS
 10
15.6209675555
 20
11.3473712642
 40
0.0083309814
100
AcDbArc
 50
237.1606214594
 51
259.1162266796
  0
ARC
  5
584
100
AcDbEntity
  8
0
100
AcDbCircle
 62
7
  6
CONTINUOUS
 10
16.0814980525
 20
11.3473712642
 40
0.0083309814
100
AcDbArc
 50
237.1606214595
 51
259.1162266795
  0
ARC
  5
585
100
AcDbEntity
  8
0
100
AcDbCircle
 62
7
  6
CONTINUOUS
 10
16.5420285495
 20
11.3473712642
 40
0.0083309814
100
AcDbArc
 50
237.1606214594
 51
259.1162266796
  0
ARC
  5
586
100
AcDbEntity
  8
0
100
AcDbCircle
 62
7
  6
CONTINUOUS
 10
17.0025590465
 20
11.3473712642
 40
0.0083309814
100
AcDbArc
 50
237.1606214593
 51
259.1162266795
  0
ARC
  5
587
100
AcDbEntity
  8
0
100
AcDbCircle
 62
7
  6
CONTINUOUS
 10
17.3635566265
 20
12.4439513644
 40
0.1926274418
100
AcDbArc
 50
54.5010901415
 51
55.349610435
  0
ARC
  5
588
100
AcDbEntity
  8
0
100
AcDbCircle
 62
7
  6
CONTINUOUS
 10
17.4346556264
 20
12.4841761363
 40
0.1059121184
100
AcDbArc
 50
24.1864181551
 51
26.1491805025
  0
ARC
  5
589
100
AcDbEntity
  8
0
100
AcDbCircle
 62
7
  6
CONTINUOUS
 10
17.6637986028
 20
13.2925948058
 40
0.0083837403
100
AcDbArc
 50
44.6598835934
 51
60.9190372413
  0
ARC
  5
58A
100
AcDbEntity
  8
0
100
AcDbCircle
 62
7
  6
CONTINUOUS
 10
17.4521022795
 20
12.3411396064
 40
0.0083771112
100
AcDbArc
 50
296.70354594
 51
311.4451631098
  0
ARC
  5
58B
100
AcDbEntity
  8
0
100
AcDbCircle
 62
7
  6
CONTINUOUS
 10
17.6638280038
 20
13.2926351121
 40
0.0083345296
100
AcDbArc
 50
342.8319525324
 51
44.6048626471
  0
ARC
  5
58C
100
AcDbEntity
  8
0
100
AcDbCircle
 62
7
  6
CONTINUOUS
 10
17.4521271356
 20
12.3411025207
 40
0.008332813
100
AcDbArc
 50
269.9991521691
 51
296.6654556611
  0
LINE
  5
58D
100
AcDbEntity
  8
0
100
AcDbLine
 62
7
  6
CONTINUOUS
 10
4.2536850553
 20
5.3651198968
 11
4.2538531191
 21
5.3668251062
  0
SPLINE
  5
58E
100
AcDbEntity
  8
0
100
AcDbSpline
 62
7
  6
CONTINUOUS
 70
0
 71
3
 72
21
 73
17
 74
0
 42
0.0000001
 43
0.0000001
 44
0.0000000001
 40
0.0
 40
0.0
 40
0.0
 40
0.0
 40
0.1861907194
 40
0.367045079
 40
0.5367677612
 40
0.6891244426
 40
0.7566944325
 40
0.8174214894
 40
0.870525175
 40
0.9151664957
 40
0.9505111602
 40
0.9764345494
 40
0.9859692615
 40
0.993138605
 40
0.9977848716
 40
1.0
 40
1.0
 40
1.0
 40
1.0
 10
4.2189923495
 20
5.3560675533
 30
0.0
 10
4.2189923495
 20
5.3566304852
 30
0.0
 10
4.2189955761
 20
5.3577402176
 30
0.0
 10
4.2190100033
 20
5.3593630368
 30
0.0
 10
4.2190339008
 20
5.3608834377
 30
0.0
 10
4.2190621764
 20
5.3620611958
 30
0.0
 10
4.2190902126
 20
5.3629092661
 30
0.0
 10
4.2191123627
 20
5.3634572872
 30
0.0
 10
4.2191362014
 20
5.3639357912
 30
0.0
 10
4.2191614199
 20
5.3643375128
 30
0.0
 10
4.2191876468
 20
5.3646563804
 30
0.0
 10
4.2192123088
 20
5.3648697205
 30
0.0
 10
4.2192327312
 20
5.3649961278
 30
0.0
 10
4.2192474828
 20
5.3650606528
 30
0.0
 10
4.2192586166
 20
5.3650983088
 30
0.0
 10
4.2192724961
 20
5.3651198924
 30
0.0
 10
4.2192791933
 20
5.3651198968
 30
0.0
  0
LINE
  5
58F
100
AcDbEntity
  8
0
100
AcDbLine
 62
7
  6
CONTINUOUS
 10
4.2538531191
 20
5.3668251062
 11
4.2536803138
 21
5.3684532301
  0
LINE
  5
590
100
AcDbEntity
  8
0
100
AcDbLine
 62
7
  6
CONTINUOUS
 10
4.7536850553
 20
5.3651198968
 11
4.7538531191
 21
5.3668251062
  0
SPLINE
  5
591
100
AcDbEntity
  8
0
100
AcDbSpline
 62
7
  6
CONTINUOUS
 70
0
 71
3
 72
21
 73
17
 74
0
 42
0.0000001
 43
0.0000001
 44
0.0000000001
 40
0.0
 40
0.0
 40
0.0
 40
0.0
 40
0.1861907194
 40
0.367045079
 40
0.5367677612
 40
0.6891244426
 40
0.7566944325
 40
0.8174214894
 40
0.870525175
 40
0.9151664957
 40
0.9505111602
 40
0.9764345494
 40
0.9859692615
 40
0.993138605
 40
0.9977848716
 40
1.0
 40
1.0
 40
1.0
 40
1.0
 10
4.7189923495
 20
5.3560675533
 30
0.0
 10
4.7189923495
 20
5.3566304852
 30
0.0
 10
4.7189955761
 20
5.3577402176
 30
0.0
 10
4.7190100033
 20
5.3593630368
 30
0.0
 10
4.7190339008
 20
5.3608834377
 30
0.0
 10
4.7190621764
 20
5.3620611958
 30
0.0
 10
4.7190902126
 20
5.3629092661
 30
0.0
 10
4.7191123627
 20
5.3634572872
 30
0.0
 10
4.7191362014
 20
5.3639357912
 30
0.0
 10
4.7191614199
 20
5.3643375128
 30
0.0
 10
4.7191876468
 20
5.3646563804
 30
0.0
 10
4.7192123088
 20
5.3648697205
 30
0.0
 10
4.7192327312
 20
5.3649961278
 30
0.0
 10
4.7192474828
 20
5.3650606528
 30
0.0
 10
4.7192586166
 20
5.3650983088
 30
0.0
 10
4.7192724961
 20
5.3651198924
 30
0.0
 10
4.7192791933
 20
5.3651198968
 30
0.0
  0
LINE
  5
592
100
AcDbEntity
  8
0
100
AcDbLine
 62
7
  6
CONTINUOUS
 10
4.7538531191
 20
5.3668251062
 11
4.7536803138
 21
5.3684532301
  0
LINE
  5
593
100
AcDbEntity
  8
0
100
AcDbLine
 62
7
  6
CONTINUOUS
 10
5.2536850553
 20
5.3651198968
 11
5.2538531191
 21
5.3668251062
  0
SPLINE
  5
594
100
AcDbEntity
  8
0
100
AcDbSpline
 62
7
  6
CONTINUOUS
 70
0
 71
3
 72
21
 73
17
 74
0
 42
0.0000001
 43
0.0000001
 44
0.0000000001
 40
0.0
 40
0.0
 40
0.0
 40
0.0
 40
0.1861907194
 40
0.367045079
 40
0.5367677612
 40
0.6891244426
 40
0.7566944325
 40
0.8174214894
 40
0.870525175
 40
0.9151664957
 40
0.9505111602
 40
0.9764345494
 40
0.9859692615
 40
0.993138605
 40
0.9977848716
 40
1.0
 40
1.0
 40
1.0
 40
1.0
 10
5.2189923495
 20
5.3560675533
 30
0.0
 10
5.2189923495
 20
5.3566304852
 30
0.0
 10
5.2189955761
 20
5.3577402176
 30
0.0
 10
5.2190100033
 20
5.3593630368
 30
0.0
 10
5.2190339008
 20
5.3608834377
 30
0.0
 10
5.2190621764
 20
5.3620611958
 30
0.0
 10
5.2190902126
 20
5.3629092661
 30
0.0
 10
5.2191123627
 20
5.3634572872
 30
0.0
 10
5.2191362014
 20
5.3639357912
 30
0.0
 10
5.2191614199
 20
5.3643375128
 30
0.0
 10
5.2191876468
 20
5.3646563804
 30
0.0
 10
5.2192123088
 20
5.3648697205
 30
0.0
 10
5.2192327312
 20
5.3649961278
 30
0.0
 10
5.2192474828
 20
5.3650606528
 30
0.0
 10
5.2192586166
 20
5.3650983088
 30
0.0
 10
5.2192724961
 20
5.3651198924
 30
0.0
 10
5.2192791933
 20
5.3651198968
 30
0.0
  0
LINE
  5
595
100
AcDbEntity
  8
0
100
AcDbLine
 62
7
  6
CONTINUOUS
 10
5.2538531191
 20
5.3668251062
 11
5.2536803138
 21
5.3684532301
  0
LINE
  5
596
100
AcDbEntity
  8
0
100
AcDbLine
 62
7
  6
CONTINUOUS
 10
5.7536850553
 20
5.3651198968
 11
5.7538531191
 21
5.3668251062
  0
SPLINE
  5
597
100
AcDbEntity
  8
0
100
AcDbSpline
 62
7
  6
CONTINUOUS
 70
0
 71
3
 72
21
 73
17
 74
0
 42
0.0000001
 43
0.0000001
 44
0.0000000001
 40
0.0
 40
0.0
 40
0.0
 40
0.0
 40
0.1861907194
 40
0.367045079
 40
0.5367677612
 40
0.6891244426
 40
0.7566944325
 40
0.8174214894
 40
0.870525175
 40
0.9151664957
 40
0.9505111602
 40
0.9764345494
 40
0.9859692615
 40
0.993138605
 40
0.9977848716
 40
1.0
 40
1.0
 40
1.0
 40
1.0
 10
5.7189923495
 20
5.3560675533
 30
0.0
 10
5.7189923495
 20
5.3566304852
 30
0.0
 10
5.7189955761
 20
5.3577402176
 30
0.0
 10
5.7190100033
 20
5.3593630368
 30
0.0
 10
5.7190339008
 20
5.3608834377
 30
0.0
 10
5.7190621764
 20
5.3620611958
 30
0.0
 10
5.7190902126
 20
5.3629092661
 30
0.0
 10
5.7191123627
 20
5.3634572872
 30
0.0
 10
5.7191362014
 20
5.3639357912
 30
0.0
 10
5.7191614199
 20
5.3643375128
 30
0.0
 10
5.7191876468
 20
5.3646563804
 30
0.0
 10
5.7192123088
 20
5.3648697205
 30
0.0
 10
5.7192327312
 20
5.3649961278
 30
0.0
 10
5.7192474828
 20
5.3650606528
 30
0.0
 10
5.7192586166
 20
5.3650983088
 30
0.0
 10
5.7192724961
 20
5.3651198924
 30
0.0
 10
5.7192791933
 20
5.3651198968
 30
0.0
  0
LINE
  5
598
100
AcDbEntity
  8
0
100
AcDbLine
 62
7
  6
CONTINUOUS
 10
5.7538531191
 20
5.3668251062
 11
5.7536803138
 21
5.3684532301
  0
LINE
  5
599
100
AcDbEntity
  8
0
100
AcDbLine
 62
7
  6
CONTINUOUS
 10
6.2536850553
 20
5.3651198968
 11
6.2538531191
 21
5.3668251062
  0
SPLINE
  5
59A
100
AcDbEntity
  8
0
100
AcDbSpline
 62
7
  6
CONTINUOUS
 70
0
 71
3
 72
21
 73
17
 74
0
 42
0.0000001
 43
0.0000001
 44
0.0000000001
 40
0.0
 40
0.0
 40
0.0
 40
0.0
 40
0.1861907194
 40
0.367045079
 40
0.5367677612
 40
0.6891244426
 40
0.7566944325
 40
0.8174214894
 40
0.870525175
 40
0.9151664957
 40
0.9505111602
 40
0.9764345494
 40
0.9859692615
 40
0.993138605
 40
0.9977848716
 40
1.0
 40
1.0
 40
1.0
 40
1.0
 10
6.2189923495
 20
5.3560675533
 30
0.0
 10
6.2189923495
 20
5.3566304852
 30
0.0
 10
6.2189955761
 20
5.3577402176
 30
0.0
 10
6.2190100033
 20
5.3593630368
 30
0.0
 10
6.2190339008
 20
5.3608834377
 30
0.0
 10
6.2190621764
 20
5.3620611958
 30
0.0
 10
6.2190902126
 20
5.3629092661
 30
0.0
 10
6.2191123627
 20
5.3634572872
 30
0.0
 10
6.2191362014
 20
5.3639357912
 30
0.0
 10
6.2191614199
 20
5.3643375128
 30
0.0
 10
6.2191876468
 20
5.3646563804
 30
0.0
 10
6.2192123088
 20
5.3648697205
 30
0.0
 10
6.2192327312
 20
5.3649961278
 30
0.0
 10
6.2192474828
 20
5.3650606528
 30
0.0
 10
6.2192586166
 20
5.3650983088
 30
0.0
 10
6.2192724961
 20
5.3651198924
 30
0.0
 10
6.2192791933
 20
5.3651198968
 30
0.0
  0
LINE
  5
59B
100
AcDbEntity
  8
0
100
AcDbLine
 62
7
  6
CONTINUOUS
 10
6.2538531191
 20
5.3668251062
 11
6.2536803138
 21
5.3684532301
  0
LINE
  5
59C
100
AcDbEntity
  8
0
100
AcDbLine
 62
7
  6
CONTINUOUS
 10
6.7536850553
 20
5.3651198968
 11
6.7538531191
 21
5.3668251062
  0
SPLINE
  5
59D
100
AcDbEntity
  8
0
100
AcDbSpline
 62
7
  6
CONTINUOUS
 70
0
 71
3
 72
21
 73
17
 74
0
 42
0.0000001
 43
0.0000001
 44
0.0000000001
 40
0.0
 40
0.0
 40
0.0
 40
0.0
 40
0.1861907194
 40
0.367045079
 40
0.5367677612
 40
0.6891244426
 40
0.7566944325
 40
0.8174214894
 40
0.870525175
 40
0.9151664957
 40
0.9505111602
 40
0.9764345494
 40
0.9859692615
 40
0.993138605
 40
0.9977848716
 40
1.0
 40
1.0
 40
1.0
 40
1.0
 10
6.7189923495
 20
5.3560675533
 30
0.0
 10
6.7189923495
 20
5.3566304852
 30
0.0
 10
6.7189955761
 20
5.3577402176
 30
0.0
 10
6.7190100033
 20
5.3593630368
 30
0.0
 10
6.7190339008
 20
5.3608834377
 30
0.0
 10
6.7190621764
 20
5.3620611958
 30
0.0
 10
6.7190902126
 20
5.3629092661
 30
0.0
 10
6.7191123627
 20
5.3634572872
 30
0.0
 10
6.7191362014
 20
5.3639357912
 30
0.0
 10
6.7191614199
 20
5.3643375128
 30
0.0
 10
6.7191876468
 20
5.3646563804
 30
0.0
 10
6.7192123088
 20
5.3648697205
 30
0.0
 10
6.7192327312
 20
5.3649961278
 30
0.0
 10
6.7192474828
 20
5.3650606528
 30
0.0
 10
6.7192586166
 20
5.3650983088
 30
0.0
 10
6.7192724961
 20
5.3651198924
 30
0.0
 10
6.7192791933
 20
5.3651198968
 30
0.0
  0
LINE
  5
59E
100
AcDbEntity
  8
0
100
AcDbLine
 62
7
  6
CONTINUOUS
 10
6.7538531191
 20
5.3668251062
 11
6.7536803138
 21
5.3684532301
  0
LINE
  5
59F
100
AcDbEntity
  8
0
100
AcDbLine
 62
7
  6
CONTINUOUS
 10
7.2536850553
 20
5.3651198968
 11
7.2538531191
 21
5.3668251062
  0
SPLINE
  5
5A0
100
AcDbEntity
  8
0
100
AcDbSpline
 62
7
  6
CONTINUOUS
 70
0
 71
3
 72
21
 73
17
 74
0
 42
0.0000001
 43
0.0000001
 44
0.0000000001
 40
0.0
 40
0.0
 40
0.0
 40
0.0
 40
0.1861907194
 40
0.367045079
 40
0.5367677612
 40
0.6891244426
 40
0.7566944325
 40
0.8174214894
 40
0.870525175
 40
0.9151664957
 40
0.9505111602
 40
0.9764345494
 40
0.9859692615
 40
0.993138605
 40
0.9977848716
 40
1.0
 40
1.0
 40
1.0
 40
1.0
 10
7.2189923495
 20
5.3560675533
 30
0.0
 10
7.2189923495
 20
5.3566304852
 30
0.0
 10
7.2189955761
 20
5.3577402176
 30
0.0
 10
7.2190100033
 20
5.3593630368
 30
0.0
 10
7.2190339008
 20
5.3608834377
 30
0.0
 10
7.2190621764
 20
5.3620611958
 30
0.0
 10
7.2190902126
 20
5.3629092661
 30
0.0
 10
7.2191123627
 20
5.3634572872
 30
0.0
 10
7.2191362014
 20
5.3639357912
 30
0.0
 10
7.2191614199
 20
5.3643375128
 30
0.0
 10
7.2191876468
 20
5.3646563804
 30
0.0
 10
7.2192123088
 20
5.3648697205
 30
0.0
 10
7.2192327312
 20
5.3649961278
 30
0.0
 10
7.2192474828
 20
5.3650606528
 30
0.0
 10
7.2192586166
 20
5.3650983088
 30
0.0
 10
7.2192724961
 20
5.3651198924
 30
0.0
 10
7.2192791933
 20
5.3651198968
 30
0.0
  0
LINE
  5
5A1
100
AcDbEntity
  8
0
100
AcDbLine
 62
7
  6
CONTINUOUS
 10
7.2538531191
 20
5.3668251062
 11
7.2536803138
 21
5.3684532301
  0
LINE
  5
5A2
100
AcDbEntity
  8
0
100
AcDbLine
 62
7
  6
CONTINUOUS
 10
7.7536850553
 20
5.3651198968
 11
7.7538531191
 21
5.3668251062
  0
SPLINE
  5
5A3
100
AcDbEntity
  8
0
100
AcDbSpline
 62
7
  6
CONTINUOUS
 70
0
 71
3
 72
21
 73
17
 74
0
 42
0.0000001
 43
0.0000001
 44
0.0000000001
 40
0.0
 40
0.0
 40
0.0
 40
0.0
 40
0.1861907194
 40
0.367045079
 40
0.5367677612
 40
0.6891244426
 40
0.7566944325
 40
0.8174214894
 40
0.870525175
 40
0.9151664957
 40
0.9505111602
 40
0.9764345494
 40
0.9859692615
 40
0.993138605
 40
0.9977848716
 40
1.0
 40
1.0
 40
1.0
 40
1.0
 10
7.7189923495
 20
5.3560675533
 30
0.0
 10
7.7189923495
 20
5.3566304852
 30
0.0
 10
7.7189955761
 20
5.3577402176
 30
0.0
 10
7.7190100033
 20
5.3593630368
 30
0.0
 10
7.7190339008
 20
5.3608834377
 30
0.0
 10
7.7190621764
 20
5.3620611958
 30
0.0
 10
7.7190902126
 20
5.3629092661
 30
0.0
 10
7.7191123627
 20
5.3634572872
 30
0.0
 10
7.7191362014
 20
5.3639357912
 30
0.0
 10
7.7191614199
 20
5.3643375128
 30
0.0
 10
7.7191876468
 20
5.3646563804
 30
0.0
 10
7.7192123088
 20
5.3648697205
 30
0.0
 10
7.7192327312
 20
5.3649961278
 30
0.0
 10
7.7192474828
 20
5.3650606528
 30
0.0
 10
7.7192586166
 20
5.3650983088
 30
0.0
 10
7.7192724961
 20
5.3651198924
 30
0.0
 10
7.7192791933
 20
5.3651198968
 30
0.0
  0
LINE
  5
5A4
100
AcDbEntity
  8
0
100
AcDbLine
 62
7
  6
CONTINUOUS
 10
7.7538531191
 20
5.3668251062
 11
7.7536803138
 21
5.3684532301
  0
SPLINE
  5
5A5
100
AcDbEntity
  8
0
100
AcDbSpline
 62
7
  6
CONTINUOUS
 70
0
 71
3
 72
11
 73
7
 74
0
 42
0.0000001
 43
0.0000001
 44
0.0000000001
 40
0.0
 40
0.0
 40
0.0
 40
0.0
 40
0.2477680403
 40
0.4970952918
 40
0.7478793303
 40
1.0
 40
1.0
 40
1.0
 40
1.0
 10
4.2198328752
 20
11.350048973
 30
0.0
 10
4.2177050018
 20
11.350059847
 30
0.0
 10
4.21343578
 20
11.3502312017
 30
0.0
 10
4.2070410792
 20
11.3508685721
 30
0.0
 10
4.2006564808
 20
11.3518739055
 30
0.0
 10
4.1964387647
 20
11.3528359882
 30
0.0
 10
4.1943578585
 20
11.3534345524
 30
0.0
  0
SPLINE
  5
5A6
100
AcDbEntity
  8
0
100
AcDbSpline
 62
7
  6
CONTINUOUS
 70
0
 71
3
 72
11
 73
7
 74
0
 42
0.0000001
 43
0.0000001
 44
0.0000000001
 40
0.0
 40
0.0
 40
0.0
 40
0.0
 40
0.2521627637
 40
0.5029466575
 40
0.7522587773
 40
1.0
 40
1.0
 40
1.0
 40
1.0
 10
4.1943578527
 20
13.8466608747
 30
0.0
 10
4.19648011
 20
13.8472717553
 30
0.0
 10
4.2007828085
 20
13.8482482466
 30
0.0
 10
4.2072954141
 20
13.8492632099
 30
0.0
 10
4.2138182059
 20
13.8498940185
 30
0.0
 10
4.2181723323
 20
13.8500477918
 30
0.0
 10
4.220342036
 20
13.8500477918
 30
0.0
  0
SPLINE
  5
5A7
100
AcDbEntity
  8
0
100
AcDbSpline
 62
7
  6
CONTINUOUS
 70
0
 71
3
 72
11
 73
7
 74
0
 42
0.0000001
 43
0.0000001
 44
0.0000000001
 40
0.0
 40
0.0
 40
0.0
 40
0.0
 40
0.2477680403
 40
0.4970952918
 40
0.7478793303
 40
1.0
 40
1.0
 40
1.0
 40
1.0
 10
4.7198328752
 20
11.350048973
 30
0.0
 10
4.7177050018
 20
11.350059847
 30
0.0
 10
4.71343578
 20
11.3502312017
 30
0.0
 10
4.7070410792
 20
11.3508685721
 30
0.0
 10
4.7006564808
 20
11.3518739055
 30
0.0
 10
4.6964387647
 20
11.3528359882
 30
0.0
 10
4.6943578585
 20
11.3534345524
 30
0.0
  0
SPLINE
  5
5A8
100
AcDbEntity
  8
0
100
AcDbSpline
 62
7
  6
CONTINUOUS
 70
0
 71
3
 72
11
 73
7
 74
0
 42
0.0000001
 43
0.0000001
 44
0.0000000001
 40
0.0
 40
0.0
 40
0.0
 40
0.0
 40
0.2521627637
 40
0.5029466575
 40
0.7522587773
 40
1.0
 40
1.0
 40
1.0
 40
1.0
 10
4.6943578527
 20
13.8466608747
 30
0.0
 10
4.69648011
 20
13.8472717553
 30
0.0
 10
4.7007828085
 20
13.8482482466
 30
0.0
 10
4.7072954141
 20
13.8492632099
 30
0.0
 10
4.7138182059
 20
13.8498940185
 30
0.0
 10
4.7181723323
 20
13.8500477918
 30
0.0
 10
4.720342036
 20
13.8500477918
 30
0.0
  0
SPLINE
  5
5A9
100
AcDbEntity
  8
0
100
AcDbSpline
 62
7
  6
CONTINUOUS
 70
0
 71
3
 72
11
 73
7
 74
0
 42
0.0000001
 43
0.0000001
 44
0.0000000001
 40
0.0
 40
0.0
 40
0.0
 40
0.0
 40
0.2477680403
 40
0.4970952918
 40
0.7478793303
 40
1.0
 40
1.0
 40
1.0
 40
1.0
 10
5.2198328752
 20
11.350048973
 30
0.0
 10
5.2177050018
 20
11.350059847
 30
0.0
 10
5.21343578
 20
11.3502312017
 30
0.0
 10
5.2070410792
 20
11.3508685721
 30
0.0
 10
5.2006564808
 20
11.3518739055
 30
0.0
 10
5.1964387647
 20
11.3528359882
 30
0.0
 10
5.1943578585
 20
11.3534345524
 30
0.0
  0
SPLINE
  5
5AA
100
AcDbEntity
  8
0
100
AcDbSpline
 62
7
  6
CONTINUOUS
 70
0
 71
3
 72
11
 73
7
 74
0
 42
0.0000001
 43
0.0000001
 44
0.0000000001
 40
0.0
 40
0.0
 40
0.0
 40
0.0
 40
0.2521627637
 40
0.5029466575
 40
0.7522587773
 40
1.0
 40
1.0
 40
1.0
 40
1.0
 10
5.1943578527
 20
13.8466608747
 30
0.0
 10
5.19648011
 20
13.8472717553
 30
0.0
 10
5.2007828085
 20
13.8482482466
 30
0.0
 10
5.2072954141
 20
13.8492632099
 30
0.0
 10
5.2138182059
 20
13.8498940185
 30
0.0
 10
5.2181723323
 20
13.8500477918
 30
0.0
 10
5.220342036
 20
13.8500477918
 30
0.0
  0
SPLINE
  5
5AB
100
AcDbEntity
  8
0
100
AcDbSpline
 62
7
  6
CONTINUOUS
 70
0
 71
3
 72
11
 73
7
 74
0
 42
0.0000001
 43
0.0000001
 44
0.0000000001
 40
0.0
 40
0.0
 40
0.0
 40
0.0
 40
0.2477680403
 40
0.4970952918
 40
0.7478793303
 40
1.0
 40
1.0
 40
1.0
 40
1.0
 10
5.7198328752
 20
11.350048973
 30
0.0
 10
5.7177050018
 20
11.350059847
 30
0.0
 10
5.71343578
 20
11.3502312017
 30
0.0
 10
5.7070410792
 20
11.3508685721
 30
0.0
 10
5.7006564808
 20
11.3518739055
 30
0.0
 10
5.6964387647
 20
11.3528359882
 30
0.0
 10
5.6943578585
 20
11.3534345524
 30
0.0
  0
SPLINE
  5
5AC
100
AcDbEntity
  8
0
100
AcDbSpline
 62
7
  6
CONTINUOUS
 70
0
 71
3
 72
11
 73
7
 74
0
 42
0.0000001
 43
0.0000001
 44
0.0000000001
 40
0.0
 40
0.0
 40
0.0
 40
0.0
 40
0.2521627637
 40
0.5029466575
 40
0.7522587773
 40
1.0
 40
1.0
 40
1.0
 40
1.0
 10
5.6943578527
 20
13.8466608747
 30
0.0
 10
5.69648011
 20
13.8472717553
 30
0.0
 10
5.7007828085
 20
13.8482482466
 30
0.0
 10
5.7072954141
 20
13.8492632099
 30
0.0
 10
5.7138182059
 20
13.8498940185
 30
0.0
 10
5.7181723323
 20
13.8500477918
 30
0.0
 10
5.720342036
 20
13.8500477918
 30
0.0
  0
SPLINE
  5
5AD
100
AcDbEntity
  8
0
100
AcDbSpline
 62
7
  6
CONTINUOUS
 70
0
 71
3
 72
11
 73
7
 74
0
 42
0.0000001
 43
0.0000001
 44
0.0000000001
 40
0.0
 40
0.0
 40
0.0
 40
0.0
 40
0.2477680403
 40
0.4970952918
 40
0.7478793303
 40
1.0
 40
1.0
 40
1.0
 40
1.0
 10
6.2198328752
 20
11.350048973
 30
0.0
 10
6.2177050018
 20
11.350059847
 30
0.0
 10
6.21343578
 20
11.3502312017
 30
0.0
 10
6.2070410792
 20
11.3508685721
 30
0.0
 10
6.2006564808
 20
11.3518739055
 30
0.0
 10
6.1964387647
 20
11.3528359882
 30
0.0
 10
6.1943578585
 20
11.3534345524
 30
0.0
  0
SPLINE
  5
5AE
100
AcDbEntity
  8
0
100
AcDbSpline
 62
7
  6
CONTINUOUS
 70
0
 71
3
 72
11
 73
7
 74
0
 42
0.0000001
 43
0.0000001
 44
0.0000000001
 40
0.0
 40
0.0
 40
0.0
 40
0.0
 40
0.2521627637
 40
0.5029466575
 40
0.7522587773
 40
1.0
 40
1.0
 40
1.0
 40
1.0
 10
6.1943578527
 20
13.8466608747
 30
0.0
 10
6.19648011
 20
13.8472717553
 30
0.0
 10
6.2007828085
 20
13.8482482466
 30
0.0
 10
6.2072954141
 20
13.8492632099
 30
0.0
 10
6.2138182059
 20
13.8498940185
 30
0.0
 10
6.2181723323
 20
13.8500477918
 30
0.0
 10
6.220342036
 20
13.8500477918
 30
0.0
  0
SPLINE
  5
5AF
100
AcDbEntity
  8
0
100
AcDbSpline
 62
7
  6
CONTINUOUS
 70
0
 71
3
 72
11
 73
7
 74
0
 42
0.0000001
 43
0.0000001
 44
0.0000000001
 40
0.0
 40
0.0
 40
0.0
 40
0.0
 40
0.2477680403
 40
0.4970952918
 40
0.7478793303
 40
1.0
 40
1.0
 40
1.0
 40
1.0
 10
6.7198328752
 20
11.350048973
 30
0.0
 10
6.7177050018
 20
11.350059847
 30
0.0
 10
6.71343578
 20
11.3502312017
 30
0.0
 10
6.7070410792
 20
11.3508685721
 30
0.0
 10
6.7006564808
 20
11.3518739055
 30
0.0
 10
6.6964387647
 20
11.3528359882
 30
0.0
 10
6.6943578585
 20
11.3534345524
 30
0.0
  0
SPLINE
  5
5B0
100
AcDbEntity
  8
0
100
AcDbSpline
 62
7
  6
CONTINUOUS
 70
0
 71
3
 72
11
 73
7
 74
0
 42
0.0000001
 43
0.0000001
 44
0.0000000001
 40
0.0
 40
0.0
 40
0.0
 40
0.0
 40
0.2521627637
 40
0.5029466575
 40
0.7522587773
 40
1.0
 40
1.0
 40
1.0
 40
1.0
 10
6.6943578527
 20
13.8466608747
 30
0.0
 10
6.69648011
 20
13.8472717553
 30
0.0
 10
6.7007828085
 20
13.8482482466
 30
0.0
 10
6.7072954141
 20
13.8492632099
 30
0.0
 10
6.7138182059
 20
13.8498940185
 30
0.0
 10
6.7181723323
 20
13.8500477918
 30
0.0
 10
6.720342036
 20
13.8500477918
 30
0.0
  0
SPLINE
  5
5B1
100
AcDbEntity
  8
0
100
AcDbSpline
 62
7
  6
CONTINUOUS
 70
0
 71
3
 72
11
 73
7
 74
0
 42
0.0000001
 43
0.0000001
 44
0.0000000001
 40
0.0
 40
0.0
 40
0.0
 40
0.0
 40
0.2477680403
 40
0.4970952918
 40
0.7478793303
 40
1.0
 40
1.0
 40
1.0
 40
1.0
 10
7.2198328752
 20
11.350048973
 30
0.0
 10
7.2177050018
 20
11.350059847
 30
0.0
 10
7.21343578
 20
11.3502312017
 30
0.0
 10
7.2070410792
 20
11.3508685721
 30
0.0
 10
7.2006564808
 20
11.3518739055
 30
0.0
 10
7.1964387647
 20
11.3528359882
 30
0.0
 10
7.1943578585
 20
11.3534345524
 30
0.0
  0
SPLINE
  5
5B2
100
AcDbEntity
  8
0
100
AcDbSpline
 62
7
  6
CONTINUOUS
 70
0
 71
3
 72
11
 73
7
 74
0
 42
0.0000001
 43
0.0000001
 44
0.0000000001
 40
0.0
 40
0.0
 40
0.0
 40
0.0
 40
0.2521627637
 40
0.5029466575
 40
0.7522587773
 40
1.0
 40
1.0
 40
1.0
 40
1.0
 10
7.1943578527
 20
13.8466608747
 30
0.0
 10
7.19648011
 20
13.8472717553
 30
0.0
 10
7.2007828085
 20
13.8482482466
 30
0.0
 10
7.2072954141
 20
13.8492632099
 30
0.0
 10
7.2138182059
 20
13.8498940185
 30
0.0
 10
7.2181723323
 20
13.8500477918
 30
0.0
 10
7.220342036
 20
13.8500477918
 30
0.0
  0
SPLINE
  5
5B3
100
AcDbEntity
  8
0
100
AcDbSpline
 62
7
  6
CONTINUOUS
 70
0
 71
3
 72
11
 73
7
 74
0
 42
0.0000001
 43
0.0000001
 44
0.0000000001
 40
0.0
 40
0.0
 40
0.0
 40
0.0
 40
0.2477680403
 40
0.4970952918
 40
0.7478793303
 40
1.0
 40
1.0
 40
1.0
 40
1.0
 10
7.7198328752
 20
11.350048973
 30
0.0
 10
7.7177050018
 20
11.350059847
 30
0.0
 10
7.71343578
 20
11.3502312017
 30
0.0
 10
7.7070410792
 20
11.3508685721
 30
0.0
 10
7.7006564808
 20
11.3518739055
 30
0.0
 10
7.6964387647
 20
11.3528359882
 30
0.0
 10
7.6943578585
 20
11.3534345524
 30
0.0
  0
SPLINE
  5
5B4
100
AcDbEntity
  8
0
100
AcDbSpline
 62
7
  6
CONTINUOUS
 70
0
 71
3
 72
11
 73
7
 74
0
 42
0.0000001
 43
0.0000001
 44
0.0000000001
 40
0.0
 40
0.0
 40
0.0
 40
0.0
 40
0.2521627637
 40
0.5029466575
 40
0.7522587773
 40
1.0
 40
1.0
 40
1.0
 40
1.0
 10
7.6943578527
 20
13.8466608747
 30
0.0
 10
7.69648011
 20
13.8472717553
 30
0.0
 10
7.7007828085
 20
13.8482482466
 30
0.0
 10
7.7072954141
 20
13.8492632099
 30
0.0
 10
7.7138182059
 20
13.8498940185
 30
0.0
 10
7.7181723323
 20
13.8500477918
 30
0.0
 10
7.720342036
 20
13.8500477918
 30
0.0
  0
SPLINE
  5
5B5
100
AcDbEntity
  8
0
100
AcDbSpline
 62
7
  6
CONTINUOUS
 70
0
 71
3
 72
13
 73
9
 74
0
 42
0.0000001
 43
0.0000001
 44
0.0000000001
 40
0.0
 40
0.0
 40
0.0
 40
0.0
 40
0.1024714904
 40
0.2192400239
 40
0.4807315023
 40
0.7524982037
 40
0.8815517905
 40
1.0
 40
1.0
 40
1.0
 40
1.0
 10
13.4479200429
 20
11.3698542122
 30
0.0
 10
13.4477405152
 20
11.3702200512
 30
0.0
 10
13.4474225504
 20
11.3710354051
 30
0.0
 10
13.4469334155
 20
11.3728863351
 30
0.0
 10
13.4466349241
 20
11.3754672559
 30
0.0
 10
13.4467115672
 20
11.3781103263
 30
0.0
 10
13.4470215127
 20
11.3801540545
 30
0.0
 10
13.4472561268
 20
11.3811120812
 30
0.0
 10
13.4473952036
 20
11.3815621341
 30
0.0
  0
SPLINE
  5
5B6
100
AcDbEntity
  8
0
100
AcDbSpline
 62
7
  6
CONTINUOUS
 70
0
 71
3
 72
14
 73
10
 74
0
 42
0.0000001
 43
0.0000001
 44
0.0000000001
 40
0.0
 40
0.0
 40
0.0
 40
0.0
 40
0.1004148487
 40
0.2123440486
 40
0.334400172
 40
0.4644592037
 40
0.7357225891
 40
0.8706147943
 40
1.0
 40
1.0
 40
1.0
 40
1.0
 10
14.0713067217
 20
13.2784234841
 30
0.0
 10
14.0716629408
 20
13.2777070253
 30
0.0
 10
14.0726036864
 20
13.2762830234
 30
0.0
 10
14.0744583546
 20
13.2743551659
 30
0.0
 10
14.0767692132
 20
13.2725849001
 30
0.0
 10
14.0803876704
 20
13.2704954856
 30
0.0
 10
14.084444786
 20
13.2690192865
 30
0.0
 10
14.0886469562
 20
13.268243187
 30
0.0
 10
14.0907552615
 20
13.268105587
 30
0.0
 10
14.0917862276
 20
13.2681086208
 30
0.0
  0
SPLINE
  5
5B7
100
AcDbEntity
  8
0
100
AcDbSpline
 62
7
  6
CONTINUOUS
 70
0
 71
3
 72
11
 73
7
 74
0
 42
0.0000001
 43
0.0000001
 44
0.0000000001
 40
0.0
 40
0.0
 40
0.0
 40
0.0
 40
0.2021992833
 40
0.4299532744
 40
0.6964927603
 40
1.0
 40
1.0
 40
1.0
 40
1.0
 10
13.8472735319
 20
13.6797954708
 30
0.0
 10
13.8474019561
 20
13.6802102257
 30
0.0
 10
13.8479024953
 20
13.6810306633
 30
0.0
 10
13.8491617044
 20
13.6818929553
 30
0.0
 10
13.8508129287
 20
13.682410722
 30
0.0
 10
13.8520416259
 20
13.6825151681
 30
0.0
 10
13.8526933469
 20
13.6825151681
 30
0.0
  0
SPLINE
  5
5B8
100
AcDbEntity
  8
0
100
AcDbSpline
 62
7
  6
CONTINUOUS
 70
0
 71
3
 72
12
 73
8
 74
0
 42
0.0000001
 43
0.0000001
 44
0.0000000001
 40
0.0
 40
0.0
 40
0.0
 40
0.0
 40
0.1004011699
 40
0.212470627
 40
0.4641939378
 40
0.7357400876
 40
1.0
 40
1.0
 40
1.0
 40
1.0
 10
13.8729590088
 20
13.6773576873
 30
0.0
 10
13.8727816
 20
13.6777145072
 30
0.0
 10
13.8723124424
 20
13.6784240336
 30
0.0
 10
13.8710317706
 20
13.6797581074
 30
0.0
 10
13.8688874716
 20
13.6811482584
 30
0.0
 10
13.865933271
 20
13.682227918
 30
0.0
 10
13.8638014912
 20
13.6825151681
 30
0.0
 10
13.8627526496
 20
13.6825151681
 30
0.0
  0
SPLINE
  5
5B9
100
AcDbEntity
  8
0
100
AcDbSpline
 62
7
  6
CONTINUOUS
 70
0
 71
3
 72
13
 73
9
 74
0
 42
0.0000001
 43
0.0000001
 44
0.0000000001
 40
0.0
 40
0.0
 40
0.0
 40
0.0
 40
0.118448321
 40
0.2475020143
 40
0.5192689624
 40
0.7807606927
 40
0.8975287612
 40
1.0
 40
1.0
 40
1.0
 40
1.0
 10
13.5087992699
 20
11.3815621341
 30
0.0
 10
13.5086601931
 20
11.3811120813
 30
0.0
 10
13.508425579
 20
11.3801540549
 30
0.0
 10
13.5081156335
 20
11.3781103272
 30
0.0
 10
13.5080389917
 20
11.3754672579
 30
0.0
 10
13.5083374775
 20
11.3728863389
 30
0.0
 10
13.5088266195
 20
11.3710354146
 30
0.0
 10
13.5091445872
 20
11.3702200662
 30
0.0
 10
13.5093241143
 20
11.3698542286
 30
0.0
  0
SPLINE
  5
5BA
100
AcDbEntity
  8
0
100
AcDbSpline
 62
7
  6
CONTINUOUS
 70
0
 71
3
 72
20
 73
16
 74
0
 42
0.0000001
 43
0.0000001
 44
0.0000000001
 40
0.0
 40
0.0
 40
0.0
 40
0.0
 40
0.1451698864
 40
0.2963358255
 40
0.4470916761
 40
0.5203565172
 40
0.5911463035
 40
0.6587280023
 40
0.7224174609
 40
0.7815990331
 40
0.8357484047
 40
0.8845144051
 40
0.927811483
 40
0.9659461627
 40
1.0
 40
1.0
 40
1.0
 40
1.0
 10
13.7743277946
 20
11.3403716228
 30
0.0
 10
13.7701300785
 20
11.3430806257
 30
0.0
 10
13.7611123553
 20
11.3479352232
 30
0.0
 10
13.7466594625
 20
11.3533306404
 30
0.0
 10
13.7340304933
 20
11.3562242544
 30
0.0
 10
13.723950475
 20
11.3574394907
 30
0.0
 10
13.7166677836
 20
11.35778013
 30
0.0
 10
13.7097099179
 20
11.3575549457
 30
0.0
 10
13.7031920247
 20
11.3567837554
 30
0.0
 10
13.6972288031
 20
11.3554881187
 30
0.0
 10
13.6919236266
 20
11.3537226622
 30
0.0
 10
13.6873731243
 20
11.3515411729
 30
0.0
 10
13.6836297288
 20
11.3490461603
 30
0.0
 10
13.6807219613
 20
11.3463073923
 30
0.0
 10
13.6792578621
 20
11.3442762692
 30
0.0
 10
13.678678984
 20
11.3432572708
 30
0.0
  0
SPLINE
  5
5BB
100
AcDbEntity
  8
0
100
AcDbSpline
 62
7
  6
CONTINUOUS
 70
0
 71
3
 72
9
 73
5
 74
0
 42
0.0000001
 43
0.0000001
 44
0.0000000001
 40
0.0
 40
0.0
 40
0.0
 40
0.0
 40
0.5257521309
 40
1.0
 40
1.0
 40
1.0
 40
1.0
 10
13.3608688092
 20
11.3766736881
 30
0.0
 10
13.3608583106
 20
11.3775374661
 30
0.0
 10
13.3609309124
 20
11.3791827034
 30
0.0
 10
13.3612091777
 20
11.3808093723
 30
0.0
 10
13.3614108633
 20
11.3815620359
 30
0.0
  0
SPLINE
  5
5BC
100
AcDbEntity
  8
0
100
AcDbSpline
 62
7
  6
CONTINUOUS
 70
0
 71
3
 72
9
 73
5
 74
0
 42
0.0000001
 43
0.0000001
 44
0.0000000001
 40
0.0
 40
0.0
 40
0.0
 40
0.0
 40
0.5041495157
 40
1.0
 40
1.0
 40
1.0
 40
1.0
 10
13.3860277641
 20
11.3698542286
 30
0.0
 10
13.3831044005
 20
11.3703997663
 30
0.0
 10
13.377336609
 20
11.3716495083
 30
0.0
 10
13.3716343118
 20
11.3731695064
 30
0.0
 10
13.3688301594
 20
11.374001151
 30
0.0
  0
SPLINE
  5
5BD
100
AcDbEntity
  8
0
100
AcDbSpline
 62
7
  6
CONTINUOUS
 70
0
 71
3
 72
13
 73
9
 74
0
 42
0.0000001
 43
0.0000001
 44
0.0000000001
 40
0.0
 40
0.0
 40
0.0
 40
0.0
 40
0.1024714904
 40
0.2192400239
 40
0.4807315023
 40
0.7524982037
 40
0.8815517905
 40
1.0
 40
1.0
 40
1.0
 40
1.0
 10
13.9084505399
 20
11.3698542122
 30
0.0
 10
13.9082710122
 20
11.3702200512
 30
0.0
 10
13.9079530474
 20
11.3710354051
 30
0.0
 10
13.9074639125
 20
11.3728863351
 30
0.0
 10
13.9071654211
 20
11.3754672559
 30
0.0
 10
13.9072420642
 20
11.3781103263
 30
0.0
 10
13.9075520097
 20
11.3801540545
 30
0.0
 10
13.9077866238
 20
11.3811120812
 30
0.0
 10
13.9079257006
 20
11.3815621341
 30
0.0
  0
SPLINE
  5
5BE
100
AcDbEntity
  8
0
100
AcDbSpline
 62
7
  6
CONTINUOUS
 70
0
 71
3
 72
14
 73
10
 74
0
 42
0.0000001
 43
0.0000001
 44
0.0000000001
 40
0.0
 40
0.0
 40
0.0
 40
0.0
 40
0.1004148487
 40
0.2123440486
 40
0.334400172
 40
0.4644592037
 40
0.7357225891
 40
0.8706147943
 40
1.0
 40
1.0
 40
1.0
 40
1.0
 10
14.5318372187
 20
13.2784234841
 30
0.0
 10
14.5321934378
 20
13.2777070253
 30
0.0
 10
14.5331341834
 20
13.2762830234
 30
0.0
 10
14.5349888516
 20
13.2743551659
 30
0.0
 10
14.5372997102
 20
13.2725849001
 30
0.0
 10
14.5409181674
 20
13.2704954856
 30
0.0
 10
14.544975283
 20
13.2690192865
 30
0.0
 10
14.5491774532
 20
13.268243187
 30
0.0
 10
14.5512857585
 20
13.268105587
 30
0.0
 10
14.5523167246
 20
13.2681086208
 30
0.0
  0
SPLINE
  5
5BF
100
AcDbEntity
  8
0
100
AcDbSpline
 62
7
  6
CONTINUOUS
 70
0
 71
3
 72
11
 73
7
 74
0
 42
0.0000001
 43
0.0000001
 44
0.0000000001
 40
0.0
 40
0.0
 40
0.0
 40
0.0
 40
0.2021992833
 40
0.4299532744
 40
0.6964927603
 40
1.0
 40
1.0
 40
1.0
 40
1.0
 10
14.3078040289
 20
13.6797954708
 30
0.0
 10
14.3079324531
 20
13.6802102257
 30
0.0
 10
14.3084329923
 20
13.6810306633
 30
0.0
 10
14.3096922014
 20
13.6818929553
 30
0.0
 10
14.3113434257
 20
13.682410722
 30
0.0
 10
14.312572123
 20
13.6825151681
 30
0.0
 10
14.3132238439
 20
13.6825151681
 30
0.0
  0
SPLINE
  5
5C0
100
AcDbEntity
  8
0
100
AcDbSpline
 62
7
  6
CONTINUOUS
 70
0
 71
3
 72
12
 73
8
 74
0
 42
0.0000001
 43
0.0000001
 44
0.0000000001
 40
0.0
 40
0.0
 40
0.0
 40
0.0
 40
0.1004011699
 40
0.212470627
 40
0.4641939378
 40
0.7357400876
 40
1.0
 40
1.0
 40
1.0
 40
1.0
 10
14.3334895058
 20
13.6773576873
 30
0.0
 10
14.333312097
 20
13.6777145072
 30
0.0
 10
14.3328429394
 20
13.6784240336
 30
0.0
 10
14.3315622676
 20
13.6797581074
 30
0.0
 10
14.3294179686
 20
13.6811482584
 30
0.0
 10
14.326463768
 20
13.682227918
 30
0.0
 10
14.3243319882
 20
13.6825151681
 30
0.0
 10
14.3232831466
 20
13.6825151681
 30
0.0
  0
SPLINE
  5
5C1
100
AcDbEntity
  8
0
100
AcDbSpline
 62
7
  6
CONTINUOUS
 70
0
 71
3
 72
13
 73
9
 74
0
 42
0.0000001
 43
0.0000001
 44
0.0000000001
 40
0.0
 40
0.0
 40
0.0
 40
0.0
 40
0.118448321
 40
0.2475020143
 40
0.5192689624
 40
0.7807606927
 40
0.8975287612
 40
1.0
 40
1.0
 40
1.0
 40
1.0
 10
13.9693297669
 20
11.3815621341
 30
0.0
 10
13.9691906901
 20
11.3811120813
 30
0.0
 10
13.968956076
 20
11.3801540549
 30
0.0
 10
13.9686461305
 20
11.3781103272
 30
0.0
 10
13.9685694887
 20
11.3754672579
 30
0.0
 10
13.9688679745
 20
11.3728863389
 30
0.0
 10
13.9693571165
 20
11.3710354146
 30
0.0
 10
13.9696750842
 20
11.3702200662
 30
0.0
 10
13.9698546113
 20
11.3698542286
 30
0.0
  0
SPLINE
  5
5C2
100
AcDbEntity
  8
0
100
AcDbSpline
 62
7
  6
CONTINUOUS
 70
0
 71
3
 72
20
 73
16
 74
0
 42
0.0000001
 43
0.0000001
 44
0.0000000001
 40
0.0
 40
0.0
 40
0.0
 40
0.0
 40
0.1451698864
 40
0.2963358255
 40
0.4470916761
 40
0.5203565172
 40
0.5911463035
 40
0.6587280023
 40
0.7224174609
 40
0.7815990331
 40
0.8357484047
 40
0.8845144051
 40
0.927811483
 40
0.9659461627
 40
1.0
 40
1.0
 40
1.0
 40
1.0
 10
14.2348582917
 20
11.3403716228
 30
0.0
 10
14.2306605755
 20
11.3430806257
 30
0.0
 10
14.2216428523
 20
11.3479352232
 30
0.0
 10
14.2071899595
 20
11.3533306404
 30
0.0
 10
14.1945609903
 20
11.3562242544
 30
0.0
 10
14.184480972
 20
11.3574394907
 30
0.0
 10
14.1771982806
 20
11.35778013
 30
0.0
 10
14.1702404149
 20
11.3575549457
 30
0.0
 10
14.1637225217
 20
11.3567837554
 30
0.0
 10
14.1577593001
 20
11.3554881187
 30
0.0
 10
14.1524541236
 20
11.3537226622
 30
0.0
 10
14.1479036213
 20
11.3515411729
 30
0.0
 10
14.1441602258
 20
11.3490461603
 30
0.0
 10
14.1412524583
 20
11.3463073923
 30
0.0
 10
14.1397883591
 20
11.3442762692
 30
0.0
 10
14.139209481
 20
11.3432572708
 30
0.0
  0
SPLINE
  5
5C3
100
AcDbEntity
  8
0
100
AcDbSpline
 62
7
  6
CONTINUOUS
 70
0
 71
3
 72
9
 73
5
 74
0
 42
0.0000001
 43
0.0000001
 44
0.0000000001
 40
0.0
 40
0.0
 40
0.0
 40
0.0
 40
0.5257521309
 40
1.0
 40
1.0
 40
1.0
 40
1.0
 10
13.8213993062
 20
11.3766736881
 30
0.0
 10
13.8213888076
 20
11.3775374661
 30
0.0
 10
13.8214614094
 20
11.3791827034
 30
0.0
 10
13.8217396747
 20
11.3808093723
 30
0.0
 10
13.8219413603
 20
11.3815620359
 30
0.0
  0
SPLINE
  5
5C4
100
AcDbEntity
  8
0
100
AcDbSpline
 62
7
  6
CONTINUOUS
 70
0
 71
3
 72
9
 73
5
 74
0
 42
0.0000001
 43
0.0000001
 44
0.0000000001
 40
0.0
 40
0.0
 40
0.0
 40
0.0
 40
0.5041495157
 40
1.0
 40
1.0
 40
1.0
 40
1.0
 10
13.8465582611
 20
11.3698542286
 30
0.0
 10
13.8436348975
 20
11.3703997663
 30
0.0
 10
13.837867106
 20
11.3716495083
 30
0.0
 10
13.8321648088
 20
11.3731695064
 30
0.0
 10
13.8293606564
 20
11.374001151
 30
0.0
  0
SPLINE
  5
5C5
100
AcDbEntity
  8
0
100
AcDbSpline
 62
7
  6
CONTINUOUS
 70
0
 71
3
 72
13
 73
9
 74
0
 42
0.0000001
 43
0.0000001
 44
0.0000000001
 40
0.0
 40
0.0
 40
0.0
 40
0.0
 40
0.1024714904
 40
0.2192400239
 40
0.4807315023
 40
0.7524982037
 40
0.8815517905
 40
1.0
 40
1.0
 40
1.0
 40
1.0
 10
14.3689810369
 20
11.3698542122
 30
0.0
 10
14.3688015092
 20
11.3702200512
 30
0.0
 10
14.3684835444
 20
11.3710354051
 30
0.0
 10
14.3679944095
 20
11.3728863351
 30
0.0
 10
14.3676959181
 20
11.3754672559
 30
0.0
 10
14.3677725612
 20
11.3781103263
 30
0.0
 10
14.3680825067
 20
11.3801540545
 30
0.0
 10
14.3683171208
 20
11.3811120812
 30
0.0
 10
14.3684561976
 20
11.3815621341
 30
0.0
  0
SPLINE
  5
5C6
100
AcDbEntity
  8
0
100
AcDbSpline
 62
7
  6
CONTINUOUS
 70
0
 71
3
 72
14
 73
10
 74
0
 42
0.0000001
 43
0.0000001
 44
0.0000000001
 40
0.0
 40
0.0
 40
0.0
 40
0.0
 40
0.1004148487
 40
0.2123440486
 40
0.334400172
 40
0.4644592037
 40
0.7357225891
 40
0.8706147943
 40
1.0
 40
1.0
 40
1.0
 40
1.0
 10
14.9923677157
 20
13.2784234841
 30
0.0
 10
14.9927239348
 20
13.2777070253
 30
0.0
 10
14.9936646804
 20
13.2762830234
 30
0.0
 10
14.9955193486
 20
13.2743551659
 30
0.0
 10
14.9978302072
 20
13.2725849001
 30
0.0
 10
15.0014486644
 20
13.2704954856
 30
0.0
 10
15.00550578
 20
13.2690192865
 30
0.0
 10
15.0097079502
 20
13.268243187
 30
0.0
 10
15.0118162555
 20
13.268105587
 30
0.0
 10
15.0128472216
 20
13.2681086208
 30
0.0
  0
SPLINE
  5
5C7
100
AcDbEntity
  8
0
100
AcDbSpline
 62
7
  6
CONTINUOUS
 70
0
 71
3
 72
11
 73
7
 74
0
 42
0.0000001
 43
0.0000001
 44
0.0000000001
 40
0.0
 40
0.0
 40
0.0
 40
0.0
 40
0.2021992833
 40
0.4299532744
 40
0.6964927603
 40
1.0
 40
1.0
 40
1.0
 40
1.0
 10
14.7683345259
 20
13.6797954708
 30
0.0
 10
14.7684629501
 20
13.6802102257
 30
0.0
 10
14.7689634893
 20
13.6810306633
 30
0.0
 10
14.7702226984
 20
13.6818929553
 30
0.0
 10
14.7718739227
 20
13.682410722
 30
0.0
 10
14.77310262
 20
13.6825151681
 30
0.0
 10
14.7737543409
 20
13.6825151681
 30
0.0
  0
SPLINE
  5
5C8
100
AcDbEntity
  8
0
100
AcDbSpline
 62
7
  6
CONTINUOUS
 70
0
 71
3
 72
12
 73
8
 74
0
 42
0.0000001
 43
0.0000001
 44
0.0000000001
 40
0.0
 40
0.0
 40
0.0
 40
0.0
 40
0.1004011699
 40
0.212470627
 40
0.4641939378
 40
0.7357400876
 40
1.0
 40
1.0
 40
1.0
 40
1.0
 10
14.7940200028
 20
13.6773576873
 30
0.0
 10
14.793842594
 20
13.6777145072
 30
0.0
 10
14.7933734364
 20
13.6784240336
 30
0.0
 10
14.7920927646
 20
13.6797581074
 30
0.0
 10
14.7899484656
 20
13.6811482584
 30
0.0
 10
14.786994265
 20
13.682227918
 30
0.0
 10
14.7848624852
 20
13.6825151681
 30
0.0
 10
14.7838136436
 20
13.6825151681
 30
0.0
  0
SPLINE
  5
5C9
100
AcDbEntity
  8
0
100
AcDbSpline
 62
7
  6
CONTINUOUS
 70
0
 71
3
 72
13
 73
9
 74
0
 42
0.0000001
 43
0.0000001
 44
0.0000000001
 40
0.0
 40
0.0
 40
0.0
 40
0.0
 40
0.118448321
 40
0.2475020143
 40
0.5192689624
 40
0.7807606927
 40
0.8975287612
 40
1.0
 40
1.0
 40
1.0
 40
1.0
 10
14.4298602639
 20
11.3815621341
 30
0.0
 10
14.4297211871
 20
11.3811120813
 30
0.0
 10
14.429486573
 20
11.3801540549
 30
0.0
 10
14.4291766275
 20
11.3781103272
 30
0.0
 10
14.4290999857
 20
11.3754672579
 30
0.0
 10
14.4293984715
 20
11.3728863389
 30
0.0
 10
14.4298876135
 20
11.3710354146
 30
0.0
 10
14.4302055812
 20
11.3702200662
 30
0.0
 10
14.4303851083
 20
11.3698542286
 30
0.0
  0
SPLINE
  5
5CA
100
AcDbEntity
  8
0
100
AcDbSpline
 62
7
  6
CONTINUOUS
 70
0
 71
3
 72
20
 73
16
 74
0
 42
0.0000001
 43
0.0000001
 44
0.0000000001
 40
0.0
 40
0.0
 40
0.0
 40
0.0
 40
0.1451698864
 40
0.2963358255
 40
0.4470916761
 40
0.5203565172
 40
0.5911463035
 40
0.6587280023
 40
0.7224174609
 40
0.7815990331
 40
0.8357484047
 40
0.8845144051
 40
0.927811483
 40
0.9659461627
 40
1.0
 40
1.0
 40
1.0
 40
1.0
 10
14.6953887887
 20
11.3403716228
 30
0.0
 10
14.6911910725
 20
11.3430806257
 30
0.0
 10
14.6821733493
 20
11.3479352232
 30
0.0
 10
14.6677204565
 20
11.3533306404
 30
0.0
 10
14.6550914873
 20
11.3562242544
 30
0.0
 10
14.645011469
 20
11.3574394907
 30
0.0
 10
14.6377287776
 20
11.35778013
 30
0.0
 10
14.6307709119
 20
11.3575549457
 30
0.0
 10
14.6242530187
 20
11.3567837554
 30
0.0
 10
14.6182897971
 20
11.3554881187
 30
0.0
 10
14.6129846206
 20
11.3537226622
 30
0.0
 10
14.6084341183
 20
11.3515411729
 30
0.0
 10
14.6046907228
 20
11.3490461603
 30
0.0
 10
14.6017829553
 20
11.3463073923
 30
0.0
 10
14.6003188561
 20
11.3442762692
 30
0.0
 10
14.599739978
 20
11.3432572708
 30
0.0
  0
SPLINE
  5
5CB
100
AcDbEntity
  8
0
100
AcDbSpline
 62
7
  6
CONTINUOUS
 70
0
 71
3
 72
9
 73
5
 74
0
 42
0.0000001
 43
0.0000001
 44
0.0000000001
 40
0.0
 40
0.0
 40
0.0
 40
0.0
 40
0.5257521309
 40
1.0
 40
1.0
 40
1.0
 40
1.0
 10
14.2819298033
 20
11.3766736881
 30
0.0
 10
14.2819193046
 20
11.3775374661
 30
0.0
 10
14.2819919064
 20
11.3791827034
 30
0.0
 10
14.2822701717
 20
11.3808093723
 30
0.0
 10
14.2824718573
 20
11.3815620359
 30
0.0
  0
SPLINE
  5
5CC
100
AcDbEntity
  8
0
100
AcDbSpline
 62
7
  6
CONTINUOUS
 70
0
 71
3
 72
9
 73
5
 74
0
 42
0.0000001
 43
0.0000001
 44
0.0000000001
 40
0.0
 40
0.0
 40
0.0
 40
0.0
 40
0.5041495157
 40
1.0
 40
1.0
 40
1.0
 40
1.0
 10
14.3070887581
 20
11.3698542286
 30
0.0
 10
14.3041653945
 20
11.3703997663
 30
0.0
 10
14.298397603
 20
11.3716495083
 30
0.0
 10
14.2926953058
 20
11.3731695064
 30
0.0
 10
14.2898911534
 20
11.374001151
 30
0.0
  0
SPLINE
  5
5CD
100
AcDbEntity
  8
0
100
AcDbSpline
 62
7
  6
CONTINUOUS
 70
0
 71
3
 72
13
 73
9
 74
0
 42
0.0000001
 43
0.0000001
 44
0.0000000001
 40
0.0
 40
0.0
 40
0.0
 40
0.0
 40
0.1024714904
 40
0.2192400239
 40
0.4807315023
 40
0.7524982037
 40
0.8815517905
 40
1.0
 40
1.0
 40
1.0
 40
1.0
 10
14.8295115339
 20
11.3698542122
 30
0.0
 10
14.8293320062
 20
11.3702200512
 30
0.0
 10
14.8290140414
 20
11.3710354051
 30
0.0
 10
14.8285249065
 20
11.3728863351
 30
0.0
 10
14.8282264151
 20
11.3754672559
 30
0.0
 10
14.8283030583
 20
11.3781103263
 30
0.0
 10
14.8286130037
 20
11.3801540545
 30
0.0
 10
14.8288476178
 20
11.3811120812
 30
0.0
 10
14.8289866946
 20
11.3815621341
 30
0.0
  0
SPLINE
  5
5CE
100
AcDbEntity
  8
0
100
AcDbSpline
 62
7
  6
CONTINUOUS
 70
0
 71
3
 72
14
 73
10
 74
0
 42
0.0000001
 43
0.0000001
 44
0.0000000001
 40
0.0
 40
0.0
 40
0.0
 40
0.0
 40
0.1004148487
 40
0.2123440486
 40
0.334400172
 40
0.4644592037
 40
0.7357225891
 40
0.8706147943
 40
1.0
 40
1.0
 40
1.0
 40
1.0
 10
15.4528982127
 20
13.2784234841
 30
0.0
 10
15.4532544318
 20
13.2777070253
 30
0.0
 10
15.4541951774
 20
13.2762830234
 30
0.0
 10
15.4560498456
 20
13.2743551659
 30
0.0
 10
15.4583607042
 20
13.2725849001
 30
0.0
 10
15.4619791614
 20
13.2704954856
 30
0.0
 10
15.466036277
 20
13.2690192865
 30
0.0
 10
15.4702384472
 20
13.268243187
 30
0.0
 10
15.4723467525
 20
13.268105587
 30
0.0
 10
15.4733777186
 20
13.2681086208
 30
0.0
  0
SPLINE
  5
5CF
100
AcDbEntity
  8
0
100
AcDbSpline
 62
7
  6
CONTINUOUS
 70
0
 71
3
 72
11
 73
7
 74
0
 42
0.0000001
 43
0.0000001
 44
0.0000000001
 40
0.0
 40
0.0
 40
0.0
 40
0.0
 40
0.2021992833
 40
0.4299532744
 40
0.6964927603
 40
1.0
 40
1.0
 40
1.0
 40
1.0
 10
15.2288650229
 20
13.6797954708
 30
0.0
 10
15.2289934471
 20
13.6802102257
 30
0.0
 10
15.2294939863
 20
13.6810306633
 30
0.0
 10
15.2307531954
 20
13.6818929553
 30
0.0
 10
15.2324044197
 20
13.682410722
 30
0.0
 10
15.233633117
 20
13.6825151681
 30
0.0
 10
15.2342848379
 20
13.6825151681
 30
0.0
  0
SPLINE
  5
5D0
100
AcDbEntity
  8
0
100
AcDbSpline
 62
7
  6
CONTINUOUS
 70
0
 71
3
 72
12
 73
8
 74
0
 42
0.0000001
 43
0.0000001
 44
0.0000000001
 40
0.0
 40
0.0
 40
0.0
 40
0.0
 40
0.1004011699
 40
0.212470627
 40
0.4641939378
 40
0.7357400876
 40
1.0
 40
1.0
 40
1.0
 40
1.0
 10
15.2545504998
 20
13.6773576873
 30
0.0
 10
15.254373091
 20
13.6777145072
 30
0.0
 10
15.2539039334
 20
13.6784240336
 30
0.0
 10
15.2526232616
 20
13.6797581074
 30
0.0
 10
15.2504789626
 20
13.6811482584
 30
0.0
 10
15.247524762
 20
13.682227918
 30
0.0
 10
15.2453929822
 20
13.6825151681
 30
0.0
 10
15.2443441406
 20
13.6825151681
 30
0.0
  0
SPLINE
  5
5D1
100
AcDbEntity
  8
0
100
AcDbSpline
 62
7
  6
CONTINUOUS
 70
0
 71
3
 72
13
 73
9
 74
0
 42
0.0000001
 43
0.0000001
 44
0.0000000001
 40
0.0
 40
0.0
 40
0.0
 40
0.0
 40
0.118448321
 40
0.2475020143
 40
0.5192689624
 40
0.7807606927
 40
0.8975287612
 40
1.0
 40
1.0
 40
1.0
 40
1.0
 10
14.8903907609
 20
11.3815621341
 30
0.0
 10
14.8902516841
 20
11.3811120813
 30
0.0
 10
14.89001707
 20
11.3801540549
 30
0.0
 10
14.8897071245
 20
11.3781103272
 30
0.0
 10
14.8896304827
 20
11.3754672579
 30
0.0
 10
14.8899289685
 20
11.3728863389
 30
0.0
 10
14.8904181105
 20
11.3710354146
 30
0.0
 10
14.8907360782
 20
11.3702200662
 30
0.0
 10
14.8909156053
 20
11.3698542286
 30
0.0
  0
SPLINE
  5
5D2
100
AcDbEntity
  8
0
100
AcDbSpline
 62
7
  6
CONTINUOUS
 70
0
 71
3
 72
20
 73
16
 74
0
 42
0.0000001
 43
0.0000001
 44
0.0000000001
 40
0.0
 40
0.0
 40
0.0
 40
0.0
 40
0.1451698864
 40
0.2963358255
 40
0.4470916761
 40
0.5203565172
 40
0.5911463035
 40
0.6587280023
 40
0.7224174609
 40
0.7815990331
 40
0.8357484047
 40
0.8845144051
 40
0.927811483
 40
0.9659461627
 40
1.0
 40
1.0
 40
1.0
 40
1.0
 10
15.1559192857
 20
11.3403716228
 30
0.0
 10
15.1517215695
 20
11.3430806257
 30
0.0
 10
15.1427038463
 20
11.3479352232
 30
0.0
 10
15.1282509535
 20
11.3533306404
 30
0.0
 10
15.1156219843
 20
11.3562242544
 30
0.0
 10
15.105541966
 20
11.3574394907
 30
0.0
 10
15.0982592746
 20
11.35778013
 30
0.0
 10
15.0913014089
 20
11.3575549457
 30
0.0
 10
15.0847835157
 20
11.3567837554
 30
0.0
 10
15.0788202941
 20
11.3554881187
 30
0.0
 10
15.0735151176
 20
11.3537226622
 30
0.0
 10
15.0689646153
 20
11.3515411729
 30
0.0
 10
15.0652212198
 20
11.3490461603
 30
0.0
 10
15.0623134523
 20
11.3463073923
 30
0.0
 10
15.0608493531
 20
11.3442762692
 30
0.0
 10
15.060270475
 20
11.3432572708
 30
0.0
  0
SPLINE
  5
5D3
100
AcDbEntity
  8
0
100
AcDbSpline
 62
7
  6
CONTINUOUS
 70
0
 71
3
 72
9
 73
5
 74
0
 42
0.0000001
 43
0.0000001
 44
0.0000000001
 40
0.0
 40
0.0
 40
0.0
 40
0.0
 40
0.5257521309
 40
1.0
 40
1.0
 40
1.0
 40
1.0
 10
14.7424603003
 20
11.3766736881
 30
0.0
 10
14.7424498016
 20
11.3775374661
 30
0.0
 10
14.7425224034
 20
11.3791827034
 30
0.0
 10
14.7428006687
 20
11.3808093723
 30
0.0
 10
14.7430023543
 20
11.3815620359
 30
0.0
  0
SPLINE
  5
5D4
100
AcDbEntity
  8
0
100
AcDbSpline
 62
7
  6
CONTINUOUS
 70
0
 71
3
 72
9
 73
5
 74
0
 42
0.0000001
 43
0.0000001
 44
0.0000000001
 40
0.0
 40
0.0
 40
0.0
 40
0.0
 40
0.5041495157
 40
1.0
 40
1.0
 40
1.0
 40
1.0
 10
14.7676192551
 20
11.3698542286
 30
0.0
 10
14.7646958915
 20
11.3703997663
 30
0.0
 10
14.7589281
 20
11.3716495083
 30
0.0
 10
14.7532258028
 20
11.3731695064
 30
0.0
 10
14.7504216504
 20
11.374001151
 30
0.0
  0
SPLINE
  5
5D5
100
AcDbEntity
  8
0
100
AcDbSpline
 62
7
  6
CONTINUOUS
 70
0
 71
3
 72
13
 73
9
 74
0
 42
0.0000001
 43
0.0000001
 44
0.0000000001
 40
0.0
 40
0.0
 40
0.0
 40
0.0
 40
0.1024714904
 40
0.2192400239
 40
0.4807315023
 40
0.7524982037
 40
0.8815517905
 40
1.0
 40
1.0
 40
1.0
 40
1.0
 10
15.2900420309
 20
11.3698542122
 30
0.0
 10
15.2898625032
 20
11.3702200512
 30
0.0
 10
15.2895445384
 20
11.3710354051
 30
0.0
 10
15.2890554035
 20
11.3728863351
 30
0.0
 10
15.2887569121
 20
11.3754672559
 30
0.0
 10
15.2888335553
 20
11.3781103263
 30
0.0
 10
15.2891435007
 20
11.3801540545
 30
0.0
 10
15.2893781148
 20
11.3811120812
 30
0.0
 10
15.2895171916
 20
11.3815621341
 30
0.0
  0
SPLINE
  5
5D6
100
AcDbEntity
  8
0
100
AcDbSpline
 62
7
  6
CONTINUOUS
 70
0
 71
3
 72
14
 73
10
 74
0
 42
0.0000001
 43
0.0000001
 44
0.0000000001
 40
0.0
 40
0.0
 40
0.0
 40
0.0
 40
0.1004148487
 40
0.2123440486
 40
0.334400172
 40
0.4644592037
 40
0.7357225891
 40
0.8706147943
 40
1.0
 40
1.0
 40
1.0
 40
1.0
 10
15.9134287097
 20
13.2784234841
 30
0.0
 10
15.9137849288
 20
13.2777070253
 30
0.0
 10
15.9147256744
 20
13.2762830234
 30
0.0
 10
15.9165803426
 20
13.2743551659
 30
0.0
 10
15.9188912012
 20
13.2725849001
 30
0.0
 10
15.9225096584
 20
13.2704954856
 30
0.0
 10
15.926566774
 20
13.2690192865
 30
0.0
 10
15.9307689442
 20
13.268243187
 30
0.0
 10
15.9328772495
 20
13.268105587
 30
0.0
 10
15.9339082156
 20
13.2681086208
 30
0.0
  0
SPLINE
  5
5D7
100
AcDbEntity
  8
0
100
AcDbSpline
 62
7
  6
CONTINUOUS
 70
0
 71
3
 72
11
 73
7
 74
0
 42
0.0000001
 43
0.0000001
 44
0.0000000001
 40
0.0
 40
0.0
 40
0.0
 40
0.0
 40
0.2021992833
 40
0.4299532744
 40
0.6964927603
 40
1.0
 40
1.0
 40
1.0
 40
1.0
 10
15.6893955199
 20
13.6797954708
 30
0.0
 10
15.6895239441
 20
13.6802102257
 30
0.0
 10
15.6900244833
 20
13.6810306633
 30
0.0
 10
15.6912836924
 20
13.6818929553
 30
0.0
 10
15.6929349167
 20
13.682410722
 30
0.0
 10
15.694163614
 20
13.6825151681
 30
0.0
 10
15.6948153349
 20
13.6825151681
 30
0.0
  0
SPLINE
  5
5D8
100
AcDbEntity
  8
0
100
AcDbSpline
 62
7
  6
CONTINUOUS
 70
0
 71
3
 72
12
 73
8
 74
0
 42
0.0000001
 43
0.0000001
 44
0.0000000001
 40
0.0
 40
0.0
 40
0.0
 40
0.0
 40
0.1004011699
 40
0.212470627
 40
0.4641939378
 40
0.7357400876
 40
1.0
 40
1.0
 40
1.0
 40
1.0
 10
15.7150809968
 20
13.6773576873
 30
0.0
 10
15.714903588
 20
13.6777145072
 30
0.0
 10
15.7144344304
 20
13.6784240336
 30
0.0
 10
15.7131537586
 20
13.6797581074
 30
0.0
 10
15.7110094596
 20
13.6811482584
 30
0.0
 10
15.708055259
 20
13.682227918
 30
0.0
 10
15.7059234792
 20
13.6825151681
 30
0.0
 10
15.7048746376
 20
13.6825151681
 30
0.0
  0
SPLINE
  5
5D9
100
AcDbEntity
  8
0
100
AcDbSpline
 62
7
  6
CONTINUOUS
 70
0
 71
3
 72
13
 73
9
 74
0
 42
0.0000001
 43
0.0000001
 44
0.0000000001
 40
0.0
 40
0.0
 40
0.0
 40
0.0
 40
0.118448321
 40
0.2475020143
 40
0.5192689624
 40
0.7807606927
 40
0.8975287612
 40
1.0
 40
1.0
 40
1.0
 40
1.0
 10
15.3509212579
 20
11.3815621341
 30
0.0
 10
15.3507821811
 20
11.3811120813
 30
0.0
 10
15.350547567
 20
11.3801540549
 30
0.0
 10
15.3502376215
 20
11.3781103272
 30
0.0
 10
15.3501609797
 20
11.3754672579
 30
0.0
 10
15.3504594655
 20
11.3728863389
 30
0.0
 10
15.3509486075
 20
11.3710354146
 30
0.0
 10
15.3512665752
 20
11.3702200662
 30
0.0
 10
15.3514461023
 20
11.3698542286
 30
0.0
  0
SPLINE
  5
5DA
100
AcDbEntity
  8
0
100
AcDbSpline
 62
7
  6
CONTINUOUS
 70
0
 71
3
 72
20
 73
16
 74
0
 42
0.0000001
 43
0.0000001
 44
0.0000000001
 40
0.0
 40
0.0
 40
0.0
 40
0.0
 40
0.1451698864
 40
0.2963358255
 40
0.4470916761
 40
0.5203565172
 40
0.5911463035
 40
0.6587280023
 40
0.7224174609
 40
0.7815990331
 40
0.8357484047
 40
0.8845144051
 40
0.927811483
 40
0.9659461627
 40
1.0
 40
1.0
 40
1.0
 40
1.0
 10
15.6164497827
 20
11.3403716228
 30
0.0
 10
15.6122520665
 20
11.3430806257
 30
0.0
 10
15.6032343433
 20
11.3479352232
 30
0.0
 10
15.5887814505
 20
11.3533306404
 30
0.0
 10
15.5761524813
 20
11.3562242544
 30
0.0
 10
15.566072463
 20
11.3574394907
 30
0.0
 10
15.5587897716
 20
11.35778013
 30
0.0
 10
15.5518319059
 20
11.3575549457
 30
0.0
 10
15.5453140127
 20
11.3567837554
 30
0.0
 10
15.5393507911
 20
11.3554881187
 30
0.0
 10
15.5340456146
 20
11.3537226622
 30
0.0
 10
15.5294951123
 20
11.3515411729
 30
0.0
 10
15.5257517168
 20
11.3490461603
 30
0.0
 10
15.5228439493
 20
11.3463073923
 30
0.0
 10
15.5213798501
 20
11.3442762692
 30
0.0
 10
15.520800972
 20
11.3432572708
 30
0.0
  0
SPLINE
  5
5DB
100
AcDbEntity
  8
0
100
AcDbSpline
 62
7
  6
CONTINUOUS
 70
0
 71
3
 72
9
 73
5
 74
0
 42
0.0000001
 43
0.0000001
 44
0.0000000001
 40
0.0
 40
0.0
 40
0.0
 40
0.0
 40
0.5257521309
 40
1.0
 40
1.0
 40
1.0
 40
1.0
 10
15.2029907973
 20
11.3766736881
 30
0.0
 10
15.2029802986
 20
11.3775374661
 30
0.0
 10
15.2030529004
 20
11.3791827034
 30
0.0
 10
15.2033311657
 20
11.3808093723
 30
0.0
 10
15.2035328513
 20
11.3815620359
 30
0.0
  0
SPLINE
  5
5DC
100
AcDbEntity
  8
0
100
AcDbSpline
 62
7
  6
CONTINUOUS
 70
0
 71
3
 72
9
 73
5
 74
0
 42
0.0000001
 43
0.0000001
 44
0.0000000001
 40
0.0
 40
0.0
 40
0.0
 40
0.0
 40
0.5041495157
 40
1.0
 40
1.0
 40
1.0
 40
1.0
 10
15.2281497521
 20
11.3698542286
 30
0.0
 10
15.2252263885
 20
11.3703997663
 30
0.0
 10
15.219458597
 20
11.3716495083
 30
0.0
 10
15.2137562998
 20
11.3731695064
 30
0.0
 10
15.2109521474
 20
11.374001151
 30
0.0
  0
SPLINE
  5
5DD
100
AcDbEntity
  8
0
100
AcDbSpline
 62
7
  6
CONTINUOUS
 70
0
 71
3
 72
13
 73
9
 74
0
 42
0.0000001
 43
0.0000001
 44
0.0000000001
 40
0.0
 40
0.0
 40
0.0
 40
0.0
 40
0.1024714904
 40
0.2192400239
 40
0.4807315023
 40
0.7524982037
 40
0.8815517905
 40
1.0
 40
1.0
 40
1.0
 40
1.0
 10
15.7505725279
 20
11.3698542122
 30
0.0
 10
15.7503930003
 20
11.3702200512
 30
0.0
 10
15.7500750354
 20
11.3710354051
 30
0.0
 10
15.7495859005
 20
11.3728863351
 30
0.0
 10
15.7492874091
 20
11.3754672559
 30
0.0
 10
15.7493640523
 20
11.3781103263
 30
0.0
 10
15.7496739977
 20
11.3801540545
 30
0.0
 10
15.7499086118
 20
11.3811120812
 30
0.0
 10
15.7500476886
 20
11.3815621341
 30
0.0
  0
SPLINE
  5
5DE
100
AcDbEntity
  8
0
100
AcDbSpline
 62
7
  6
CONTINUOUS
 70
0
 71
3
 72
14
 73
10
 74
0
 42
0.0000001
 43
0.0000001
 44
0.0000000001
 40
0.0
 40
0.0
 40
0.0
 40
0.0
 40
0.1004148487
 40
0.2123440486
 40
0.334400172
 40
0.4644592037
 40
0.7357225891
 40
0.8706147943
 40
1.0
 40
1.0
 40
1.0
 40
1.0
 10
16.3739592067
 20
13.2784234841
 30
0.0
 10
16.3743154258
 20
13.2777070253
 30
0.0
 10
16.3752561714
 20
13.2762830234
 30
0.0
 10
16.3771108396
 20
13.2743551659
 30
0.0
 10
16.3794216982
 20
13.2725849001
 30
0.0
 10
16.3830401554
 20
13.2704954856
 30
0.0
 10
16.387097271
 20
13.2690192865
 30
0.0
 10
16.3912994412
 20
13.268243187
 30
0.0
 10
16.3934077465
 20
13.268105587
 30
0.0
 10
16.3944387126
 20
13.2681086208
 30
0.0
  0
SPLINE
  5
5DF
100
AcDbEntity
  8
0
100
AcDbSpline
 62
7
  6
CONTINUOUS
 70
0
 71
3
 72
11
 73
7
 74
0
 42
0.0000001
 43
0.0000001
 44
0.0000000001
 40
0.0
 40
0.0
 40
0.0
 40
0.0
 40
0.2021992833
 40
0.4299532744
 40
0.6964927603
 40
1.0
 40
1.0
 40
1.0
 40
1.0
 10
16.1499260169
 20
13.6797954708
 30
0.0
 10
16.1500544411
 20
13.6802102257
 30
0.0
 10
16.1505549803
 20
13.6810306633
 30
0.0
 10
16.1518141894
 20
13.6818929553
 30
0.0
 10
16.1534654137
 20
13.682410722
 30
0.0
 10
16.154694111
 20
13.6825151681
 30
0.0
 10
16.1553458319
 20
13.6825151681
 30
0.0
  0
SPLINE
  5
5E0
100
AcDbEntity
  8
0
100
AcDbSpline
 62
7
  6
CONTINUOUS
 70
0
 71
3
 72
12
 73
8
 74
0
 42
0.0000001
 43
0.0000001
 44
0.0000000001
 40
0.0
 40
0.0
 40
0.0
 40
0.0
 40
0.1004011699
 40
0.212470627
 40
0.4641939378
 40
0.7357400876
 40
1.0
 40
1.0
 40
1.0
 40
1.0
 10
16.1756114938
 20
13.6773576873
 30
0.0
 10
16.175434085
 20
13.6777145072
 30
0.0
 10
16.1749649274
 20
13.6784240336
 30
0.0
 10
16.1736842556
 20
13.6797581074
 30
0.0
 10
16.1715399566
 20
13.6811482584
 30
0.0
 10
16.168585756
 20
13.682227918
 30
0.0
 10
16.1664539762
 20
13.6825151681
 30
0.0
 10
16.1654051346
 20
13.6825151681
 30
0.0
  0
SPLINE
  5
5E1
100
AcDbEntity
  8
0
100
AcDbSpline
 62
7
  6
CONTINUOUS
 70
0
 71
3
 72
13
 73
9
 74
0
 42
0.0000001
 43
0.0000001
 44
0.0000000001
 40
0.0
 40
0.0
 40
0.0
 40
0.0
 40
0.118448321
 40
0.2475020143
 40
0.5192689624
 40
0.7807606927
 40
0.8975287612
 40
1.0
 40
1.0
 40
1.0
 40
1.0
 10
15.8114517549
 20
11.3815621341
 30
0.0
 10
15.8113126781
 20
11.3811120813
 30
0.0
 10
15.811078064
 20
11.3801540549
 30
0.0
 10
15.8107681185
 20
11.3781103272
 30
0.0
 10
15.8106914767
 20
11.3754672579
 30
0.0
 10
15.8109899625
 20
11.3728863389
 30
0.0
 10
15.8114791045
 20
11.3710354146
 30
0.0
 10
15.8117970722
 20
11.3702200662
 30
0.0
 10
15.8119765993
 20
11.3698542286
 30
0.0
  0
SPLINE
  5
5E2
100
AcDbEntity
  8
0
100
AcDbSpline
 62
7
  6
CONTINUOUS
 70
0
 71
3
 72
13
 73
9
 74
0
 42
0.0000001
 43
0.0000001
 44
0.0000000001
 40
0.0
 40
0.0
 40
0.0
 40
0.0
 40
0.1024714904
 40
0.2192400239
 40
0.4807315023
 40
0.7524982037
 40
0.8815517905
 40
1.0
 40
1.0
 40
1.0
 40
1.0
 10
16.2111030249
 20
11.3698542122
 30
0.0
 10
16.2109234973
 20
11.3702200512
 30
0.0
 10
16.2106055324
 20
11.3710354051
 30
0.0
 10
16.2101163975
 20
11.3728863351
 30
0.0
 10
16.2098179061
 20
11.3754672559
 30
0.0
 10
16.2098945493
 20
11.3781103263
 30
0.0
 10
16.2102044947
 20
11.3801540545
 30
0.0
 10
16.2104391088
 20
11.3811120812
 30
0.0
 10
16.2105781856
 20
11.3815621341
 30
0.0
  0
SPLINE
  5
5E3
100
AcDbEntity
  8
0
100
AcDbSpline
 62
7
  6
CONTINUOUS
 70
0
 71
3
 72
14
 73
10
 74
0
 42
0.0000001
 43
0.0000001
 44
0.0000000001
 40
0.0
 40
0.0
 40
0.0
 40
0.0
 40
0.1004148487
 40
0.2123440486
 40
0.334400172
 40
0.4644592037
 40
0.7357225891
 40
0.8706147943
 40
1.0
 40
1.0
 40
1.0
 40
1.0
 10
16.8344897037
 20
13.2784234841
 30
0.0
 10
16.8348459228
 20
13.2777070253
 30
0.0
 10
16.8357866684
 20
13.2762830234
 30
0.0
 10
16.8376413366
 20
13.2743551659
 30
0.0
 10
16.8399521952
 20
13.2725849001
 30
0.0
 10
16.8435706524
 20
13.2704954856
 30
0.0
 10
16.847627768
 20
13.2690192865
 30
0.0
 10
16.8518299382
 20
13.268243187
 30
0.0
 10
16.8539382435
 20
13.268105587
 30
0.0
 10
16.8549692096
 20
13.2681086208
 30
0.0
  0
SPLINE
  5
5E4
100
AcDbEntity
  8
0
100
AcDbSpline
 62
7
  6
CONTINUOUS
 70
0
 71
3
 72
11
 73
7
 74
0
 42
0.0000001
 43
0.0000001
 44
0.0000000001
 40
0.0
 40
0.0
 40
0.0
 40
0.0
 40
0.2021992833
 40
0.4299532744
 40
0.6964927603
 40
1.0
 40
1.0
 40
1.0
 40
1.0
 10
16.6104565139
 20
13.6797954708
 30
0.0
 10
16.6105849381
 20
13.6802102257
 30
0.0
 10
16.6110854773
 20
13.6810306633
 30
0.0
 10
16.6123446864
 20
13.6818929553
 30
0.0
 10
16.6139959107
 20
13.682410722
 30
0.0
 10
16.615224608
 20
13.6825151681
 30
0.0
 10
16.6158763289
 20
13.6825151681
 30
0.0
  0
SPLINE
  5
5E5
100
AcDbEntity
  8
0
100
AcDbSpline
 62
7
  6
CONTINUOUS
 70
0
 71
3
 72
12
 73
8
 74
0
 42
0.0000001
 43
0.0000001
 44
0.0000000001
 40
0.0
 40
0.0
 40
0.0
 40
0.0
 40
0.1004011699
 40
0.212470627
 40
0.4641939378
 40
0.7357400876
 40
1.0
 40
1.0
 40
1.0
 40
1.0
 10
16.6361419908
 20
13.6773576873
 30
0.0
 10
16.635964582
 20
13.6777145072
 30
0.0
 10
16.6354954244
 20
13.6784240336
 30
0.0
 10
16.6342147526
 20
13.6797581074
 30
0.0
 10
16.6320704536
 20
13.6811482584
 30
0.0
 10
16.629116253
 20
13.682227918
 30
0.0
 10
16.6269844732
 20
13.6825151681
 30
0.0
 10
16.6259356316
 20
13.6825151681
 30
0.0
  0
SPLINE
  5
5E6
100
AcDbEntity
  8
0
100
AcDbSpline
 62
7
  6
CONTINUOUS
 70
0
 71
3
 72
13
 73
9
 74
0
 42
0.0000001
 43
0.0000001
 44
0.0000000001
 40
0.0
 40
0.0
 40
0.0
 40
0.0
 40
0.118448321
 40
0.2475020143
 40
0.5192689624
 40
0.7807606927
 40
0.8975287612
 40
1.0
 40
1.0
 40
1.0
 40
1.0
 10
16.2719822519
 20
11.3815621341
 30
0.0
 10
16.2718431751
 20
11.3811120813
 30
0.0
 10
16.271608561
 20
11.3801540549
 30
0.0
 10
16.2712986155
 20
11.3781103272
 30
0.0
 10
16.2712219737
 20
11.3754672579
 30
0.0
 10
16.2715204595
 20
11.3728863389
 30
0.0
 10
16.2720096015
 20
11.3710354146
 30
0.0
 10
16.2723275692
 20
11.3702200662
 30
0.0
 10
16.2725070963
 20
11.3698542286
 30
0.0
  0
SPLINE
  5
5E7
100
AcDbEntity
  8
0
100
AcDbSpline
 62
7
  6
CONTINUOUS
 70
0
 71
3
 72
20
 73
16
 74
0
 42
0.0000001
 43
0.0000001
 44
0.0000000001
 40
0.0
 40
0.0
 40
0.0
 40
0.0
 40
0.1451698864
 40
0.2963358255
 40
0.4470916761
 40
0.5203565172
 40
0.5911463035
 40
0.6587280023
 40
0.7224174609
 40
0.7815990331
 40
0.8357484047
 40
0.8845144051
 40
0.927811483
 40
0.9659461627
 40
1.0
 40
1.0
 40
1.0
 40
1.0
 10
16.0769802797
 20
11.3403716228
 30
0.0
 10
16.0727825635
 20
11.3430806257
 30
0.0
 10
16.0637648403
 20
11.3479352232
 30
0.0
 10
16.0493119475
 20
11.3533306404
 30
0.0
 10
16.0366829783
 20
11.3562242544
 30
0.0
 10
16.02660296
 20
11.3574394907
 30
0.0
 10
16.0193202686
 20
11.35778013
 30
0.0
 10
16.0123624029
 20
11.3575549457
 30
0.0
 10
16.0058445097
 20
11.3567837554
 30
0.0
 10
15.9998812881
 20
11.3554881187
 30
0.0
 10
15.9945761116
 20
11.3537226622
 30
0.0
 10
15.9900256093
 20
11.3515411729
 30
0.0
 10
15.9862822138
 20
11.3490461603
 30
0.0
 10
15.9833744463
 20
11.3463073923
 30
0.0
 10
15.9819103471
 20
11.3442762692
 30
0.0
 10
15.981331469
 20
11.3432572708
 30
0.0
  0
SPLINE
  5
5E8
100
AcDbEntity
  8
0
100
AcDbSpline
 62
7
  6
CONTINUOUS
 70
0
 71
3
 72
9
 73
5
 74
0
 42
0.0000001
 43
0.0000001
 44
0.0000000001
 40
0.0
 40
0.0
 40
0.0
 40
0.0
 40
0.5257521309
 40
1.0
 40
1.0
 40
1.0
 40
1.0
 10
15.6635212943
 20
11.3766736881
 30
0.0
 10
15.6635107956
 20
11.3775374661
 30
0.0
 10
15.6635833974
 20
11.3791827034
 30
0.0
 10
15.6638616627
 20
11.3808093723
 30
0.0
 10
15.6640633483
 20
11.3815620359
 30
0.0
  0
SPLINE
  5
5E9
100
AcDbEntity
  8
0
100
AcDbSpline
 62
7
  6
CONTINUOUS
 70
0
 71
3
 72
9
 73
5
 74
0
 42
0.0000001
 43
0.0000001
 44
0.0000000001
 40
0.0
 40
0.0
 40
0.0
 40
0.0
 40
0.5041495157
 40
1.0
 40
1.0
 40
1.0
 40
1.0
 10
15.6886802491
 20
11.3698542286
 30
0.0
 10
15.6857568855
 20
11.3703997663
 30
0.0
 10
15.679989094
 20
11.3716495083
 30
0.0
 10
15.6742867968
 20
11.3731695064
 30
0.0
 10
15.6714826444
 20
11.374001151
 30
0.0
  0
SPLINE
  5
5EA
100
AcDbEntity
  8
0
100
AcDbSpline
 62
7
  6
CONTINUOUS
 70
0
 71
3
 72
13
 73
9
 74
0
 42
0.0000001
 43
0.0000001
 44
0.0000000001
 40
0.0
 40
0.0
 40
0.0
 40
0.0
 40
0.1024714904
 40
0.2192400239
 40
0.4807315023
 40
0.7524982037
 40
0.8815517905
 40
1.0
 40
1.0
 40
1.0
 40
1.0
 10
16.6716335219
 20
11.3698542122
 30
0.0
 10
16.6714539943
 20
11.3702200512
 30
0.0
 10
16.6711360294
 20
11.3710354051
 30
0.0
 10
16.6706468945
 20
11.3728863351
 30
0.0
 10
16.6703484031
 20
11.3754672559
 30
0.0
 10
16.6704250463
 20
11.3781103263
 30
0.0
 10
16.6707349917
 20
11.3801540545
 30
0.0
 10
16.6709696058
 20
11.3811120812
 30
0.0
 10
16.6711086826
 20
11.3815621341
 30
0.0
  0
SPLINE
  5
5EB
100
AcDbEntity
  8
0
100
AcDbSpline
 62
7
  6
CONTINUOUS
 70
0
 71
3
 72
14
 73
10
 74
0
 42
0.0000001
 43
0.0000001
 44
0.0000000001
 40
0.0
 40
0.0
 40
0.0
 40
0.0
 40
0.1004148487
 40
0.2123440486
 40
0.334400172
 40
0.4644592037
 40
0.7357225891
 40
0.8706147943
 40
1.0
 40
1.0
 40
1.0
 40
1.0
 10
17.2950202007
 20
13.2784234841
 30
0.0
 10
17.2953764198
 20
13.2777070253
 30
0.0
 10
17.2963171654
 20
13.2762830234
 30
0.0
 10
17.2981718336
 20
13.2743551659
 30
0.0
 10
17.3004826922
 20
13.2725849001
 30
0.0
 10
17.3041011494
 20
13.2704954856
 30
0.0
 10
17.308158265
 20
13.2690192865
 30
0.0
 10
17.3123604352
 20
13.268243187
 30
0.0
 10
17.3144687405
 20
13.268105587
 30
0.0
 10
17.3154997066
 20
13.2681086208
 30
0.0
  0
SPLINE
  5
5EC
100
AcDbEntity
  8
0
100
AcDbSpline
 62
7
  6
CONTINUOUS
 70
0
 71
3
 72
11
 73
7
 74
0
 42
0.0000001
 43
0.0000001
 44
0.0000000001
 40
0.0
 40
0.0
 40
0.0
 40
0.0
 40
0.2021992833
 40
0.4299532744
 40
0.6964927603
 40
1.0
 40
1.0
 40
1.0
 40
1.0
 10
17.0709870109
 20
13.6797954708
 30
0.0
 10
17.0711154351
 20
13.6802102257
 30
0.0
 10
17.0716159743
 20
13.6810306633
 30
0.0
 10
17.0728751834
 20
13.6818929553
 30
0.0
 10
17.0745264077
 20
13.682410722
 30
0.0
 10
17.075755105
 20
13.6825151681
 30
0.0
 10
17.0764068259
 20
13.6825151681
 30
0.0
  0
SPLINE
  5
5ED
100
AcDbEntity
  8
0
100
AcDbSpline
 62
7
  6
CONTINUOUS
 70
0
 71
3
 72
12
 73
8
 74
0
 42
0.0000001
 43
0.0000001
 44
0.0000000001
 40
0.0
 40
0.0
 40
0.0
 40
0.0
 40
0.1004011699
 40
0.212470627
 40
0.4641939378
 40
0.7357400876
 40
1.0
 40
1.0
 40
1.0
 40
1.0
 10
17.0966724878
 20
13.6773576873
 30
0.0
 10
17.096495079
 20
13.6777145072
 30
0.0
 10
17.0960259214
 20
13.6784240336
 30
0.0
 10
17.0947452496
 20
13.6797581074
 30
0.0
 10
17.0926009506
 20
13.6811482584
 30
0.0
 10
17.08964675
 20
13.682227918
 30
0.0
 10
17.0875149702
 20
13.6825151681
 30
0.0
 10
17.0864661286
 20
13.6825151681
 30
0.0
  0
SPLINE
  5
5EE
100
AcDbEntity
  8
0
100
AcDbSpline
 62
7
  6
CONTINUOUS
 70
0
 71
3
 72
13
 73
9
 74
0
 42
0.0000001
 43
0.0000001
 44
0.0000000001
 40
0.0
 40
0.0
 40
0.0
 40
0.0
 40
0.118448321
 40
0.2475020143
 40
0.5192689624
 40
0.7807606927
 40
0.8975287612
 40
1.0
 40
1.0
 40
1.0
 40
1.0
 10
16.7325127489
 20
11.3815621341
 30
0.0
 10
16.7323736721
 20
11.3811120813
 30
0.0
 10
16.732139058
 20
11.3801540549
 30
0.0
 10
16.7318291125
 20
11.3781103272
 30
0.0
 10
16.7317524707
 20
11.3754672579
 30
0.0
 10
16.7320509565
 20
11.3728863389
 30
0.0
 10
16.7325400985
 20
11.3710354146
 30
0.0
 10
16.7328580662
 20
11.3702200662
 30
0.0
 10
16.7330375933
 20
11.3698542286
 30
0.0
  0
SPLINE
  5
5EF
100
AcDbEntity
  8
0
100
AcDbSpline
 62
7
  6
CONTINUOUS
 70
0
 71
3
 72
20
 73
16
 74
0
 42
0.0000001
 43
0.0000001
 44
0.0000000001
 40
0.0
 40
0.0
 40
0.0
 40
0.0
 40
0.1451698864
 40
0.2963358255
 40
0.4470916761
 40
0.5203565172
 40
0.5911463035
 40
0.6587280023
 40
0.7224174609
 40
0.7815990331
 40
0.8357484047
 40
0.8845144051
 40
0.927811483
 40
0.9659461627
 40
1.0
 40
1.0
 40
1.0
 40
1.0
 10
16.5375107767
 20
11.3403716228
 30
0.0
 10
16.5333130605
 20
11.3430806257
 30
0.0
 10
16.5242953373
 20
11.3479352232
 30
0.0
 10
16.5098424445
 20
11.3533306404
 30
0.0
 10
16.4972134753
 20
11.3562242544
 30
0.0
 10
16.487133457
 20
11.3574394907
 30
0.0
 10
16.4798507656
 20
11.35778013
 30
0.0
 10
16.4728928999
 20
11.3575549457
 30
0.0
 10
16.4663750067
 20
11.3567837554
 30
0.0
 10
16.4604117851
 20
11.3554881187
 30
0.0
 10
16.4551066086
 20
11.3537226622
 30
0.0
 10
16.4505561063
 20
11.3515411729
 30
0.0
 10
16.4468127108
 20
11.3490461603
 30
0.0
 10
16.4439049433
 20
11.3463073923
 30
0.0
 10
16.4424408441
 20
11.3442762692
 30
0.0
 10
16.441861966
 20
11.3432572708
 30
0.0
  0
SPLINE
  5
5F0
100
AcDbEntity
  8
0
100
AcDbSpline
 62
7
  6
CONTINUOUS
 70
0
 71
3
 72
9
 73
5
 74
0
 42
0.0000001
 43
0.0000001
 44
0.0000000001
 40
0.0
 40
0.0
 40
0.0
 40
0.0
 40
0.5257521309
 40
1.0
 40
1.0
 40
1.0
 40
1.0
 10
16.1240517913
 20
11.3766736881
 30
0.0
 10
16.1240412926
 20
11.3775374661
 30
0.0
 10
16.1241138944
 20
11.3791827034
 30
0.0
 10
16.1243921597
 20
11.3808093723
 30
0.0
 10
16.1245938453
 20
11.3815620359
 30
0.0
  0
SPLINE
  5
5F1
100
AcDbEntity
  8
0
100
AcDbSpline
 62
7
  6
CONTINUOUS
 70
0
 71
3
 72
9
 73
5
 74
0
 42
0.0000001
 43
0.0000001
 44
0.0000000001
 40
0.0
 40
0.0
 40
0.0
 40
0.0
 40
0.5041495157
 40
1.0
 40
1.0
 40
1.0
 40
1.0
 10
16.1492107461
 20
11.3698542286
 30
0.0
 10
16.1462873825
 20
11.3703997663
 30
0.0
 10
16.140519591
 20
11.3716495083
 30
0.0
 10
16.1348172938
 20
11.3731695064
 30
0.0
 10
16.1320131414
 20
11.374001151
 30
0.0
  0
SPLINE
  5
5F2
100
AcDbEntity
  8
0
100
AcDbSpline
 62
7
  6
CONTINUOUS
 70
0
 71
3
 72
20
 73
16
 74
0
 42
0.0000001
 43
0.0000001
 44
0.0000000001
 40
0.0
 40
0.0
 40
0.0
 40
0.0
 40
0.1451698864
 40
0.2963358255
 40
0.4470916761
 40
0.5203565172
 40
0.5911463035
 40
0.6587280023
 40
0.7224174609
 40
0.7815990331
 40
0.8357484047
 40
0.8845144051
 40
0.927811483
 40
0.9659461627
 40
1.0
 40
1.0
 40
1.0
 40
1.0
 10
16.9980412737
 20
11.3403716228
 30
0.0
 10
16.9938435576
 20
11.3430806257
 30
0.0
 10
16.9848258343
 20
11.3479352232
 30
0.0
 10
16.9703729415
 20
11.3533306404
 30
0.0
 10
16.9577439723
 20
11.3562242544
 30
0.0
 10
16.947663954
 20
11.3574394907
 30
0.0
 10
16.9403812626
 20
11.35778013
 30
0.0
 10
16.9334233969
 20
11.3575549457
 30
0.0
 10
16.9269055037
 20
11.3567837554
 30
0.0
 10
16.9209422821
 20
11.3554881187
 30
0.0
 10
16.9156371056
 20
11.3537226622
 30
0.0
 10
16.9110866033
 20
11.3515411729
 30
0.0
 10
16.9073432078
 20
11.3490461603
 30
0.0
 10
16.9044354403
 20
11.3463073923
 30
0.0
 10
16.9029713411
 20
11.3442762692
 30
0.0
 10
16.902392463
 20
11.3432572708
 30
0.0
  0
SPLINE
  5
5F3
100
AcDbEntity
  8
0
100
AcDbSpline
 62
7
  6
CONTINUOUS
 70
0
 71
3
 72
9
 73
5
 74
0
 42
0.0000001
 43
0.0000001
 44
0.0000000001
 40
0.0
 40
0.0
 40
0.0
 40
0.0
 40
0.5257521309
 40
1.0
 40
1.0
 40
1.0
 40
1.0
 10
16.5845822883
 20
11.3766736881
 30
0.0
 10
16.5845717896
 20
11.3775374661
 30
0.0
 10
16.5846443914
 20
11.3791827034
 30
0.0
 10
16.5849226567
 20
11.3808093723
 30
0.0
 10
16.5851243423
 20
11.3815620359
 30
0.0
  0
SPLINE
  5
5F4
100
AcDbEntity
  8
0
100
AcDbSpline
 62
7
  6
CONTINUOUS
 70
0
 71
3
 72
11
 73
7
 74
0
 42
0.0000001
 43
0.0000001
 44
0.0000000001
 40
0.0
 40
0.0
 40
0.0
 40
0.0
 40
0.2409507058
 40
0.4855439049
 40
0.7375598123
 40
1.0
 40
1.0
 40
1.0
 40
1.0
 10
17.3594556335
 20
11.90171621
 30
0.0
 10
17.3582612911
 20
11.8978513165
 30
0.0
 10
17.3551157173
 20
11.8902709352
 30
0.0
 10
17.34832823
 20
11.8798394838
 30
0.0
 10
17.3396220444
 20
11.8704573367
 30
0.0
 10
17.3328066
 20
11.8650932958
 30
0.0
 10
17.3291683959
 20
11.8626080698
 30
0.0
  0
SPLINE
  5
5F5
100
AcDbEntity
  8
0
100
AcDbSpline
 62
7
  6
CONTINUOUS
 70
0
 71
3
 72
11
 73
7
 74
0
 42
0.0000001
 43
0.0000001
 44
0.0000000001
 40
0.0
 40
0.0
 40
0.0
 40
0.0
 40
0.2393722067
 40
0.4830113215
 40
0.7354351767
 40
1.0
 40
1.0
 40
1.0
 40
1.0
 10
17.3836622659
 20
11.9800489009
 30
0.0
 10
17.3849671422
 20
11.9842714822
 30
0.0
 10
17.3867292228
 20
11.993087528
 30
0.0
 10
17.3866949269
 20
12.0067465589
 30
0.0
 10
17.3840754275
 20
12.0206154688
 30
0.0
 10
17.3807697384
 20
12.0296170271
 30
0.0
 10
17.3787687053
 20
12.034073099
 30
0.0
  0
SPLINE
  5
5F6
100
AcDbEntity
  8
0
100
AcDbSpline
 62
7
  6
CONTINUOUS
 70
0
 71
3
 72
15
 73
11
 74
0
 42
0.0000001
 43
0.0000001
 44
0.0000000001
 40
0.0
 40
0.0
 40
0.0
 40
0.0
 40
0.1031606528
 40
0.2160182321
 40
0.3379658039
 40
0.4672763118
 40
0.6013040244
 40
0.7369164024
 40
0.8708726228
 40
1.0
 40
1.0
 40
1.0
 40
1.0
 10
17.3665493499
 20
12.0591130449
 30
0.0
 10
17.3634038264
 20
12.0655229479
 30
0.0
 10
17.3551879311
 20
12.078169046
 30
0.0
 10
17.3390019376
 20
12.0951894871
 30
0.0
 10
17.3190107449
 20
12.1106736442
 30
0.0
 10
17.2959266506
 20
12.1241576818
 30
0.0
 10
17.2705524027
 20
12.1352008203
 30
0.0
 10
17.2437946724
 20
12.1434266682
 30
0.0
 10
17.2166187147
 20
12.1485331008
 30
0.0
 10
17.1983947154
 20
12.1497645679
 30
0.0
 10
17.1894573571
 20
12.1497645679
 30
0.0
  0
SPLINE
  5
5F7
100
AcDbEntity
  8
0
100
AcDbSpline
 62
7
  6
CONTINUOUS
 70
0
 71
3
 72
11
 73
7
 74
0
 42
0.0000001
 43
0.0000001
 44
0.0000000001
 40
0.0
 40
0.0
 40
0.0
 40
0.0
 40
0.2409507058
 40
0.4855439049
 40
0.7375598123
 40
1.0
 40
1.0
 40
1.0
 40
1.0
 10
17.5119574173
 20
12.395212163
 30
0.0
 10
17.5107630749
 20
12.3913472695
 30
0.0
 10
17.5076175011
 20
12.3837668883
 30
0.0
 10
17.5008300137
 20
12.3733354369
 30
0.0
 10
17.4921238282
 20
12.3639532897
 30
0.0
 10
17.4853083837
 20
12.3585892489
 30
0.0
 10
17.4816701796
 20
12.3561040228
 30
0.0
  0
SPLINE
  5
5F8
100
AcDbEntity
  8
0
100
AcDbSpline
 62
7
  6
CONTINUOUS
 70
0
 71
3
 72
11
 73
7
 74
0
 42
0.0000001
 43
0.0000001
 44
0.0000000001
 40
0.0
 40
0.0
 40
0.0
 40
0.0
 40
0.2393722067
 40
0.4830113215
 40
0.7354351767
 40
1.0
 40
1.0
 40
1.0
 40
1.0
 10
17.5361640496
 20
12.473544854
 30
0.0
 10
17.5374689259
 20
12.4777674353
 30
0.0
 10
17.5392310065
 20
12.4865834811
 30
0.0
 10
17.5391967106
 20
12.5002425119
 30
0.0
 10
17.5365772112
 20
12.5141114219
 30
0.0
 10
17.5332715222
 20
12.5231129802
 30
0.0
 10
17.531270489
 20
12.5275690521
 30
0.0
  0
SPLINE
  5
5F9
100
AcDbEntity
  8
0
100
AcDbSpline
 62
7
  6
CONTINUOUS
 70
0
 71
3
 72
16
 73
12
 74
0
 42
0.0000001
 43
0.0000001
 44
0.0000000001
 40
0.0
 40
0.0
 40
0.0
 40
0.0
 40
0.0464160236
 40
0.0935248846
 40
0.1920655069
 40
0.2998469989
 40
0.4189905535
 40
0.5498926711
 40
0.691684466
 40
0.8426730937
 40
1.0
 40
1.0
 40
1.0
 40
1.0
 10
17.2792706578
 20
12.4932401299
 30
0.0
 10
17.2795451373
 20
12.4941291521
 30
0.0
 10
17.2802355758
 20
12.4958812926
 30
0.0
 10
17.2821675757
 20
12.4992251687
 30
0.0
 10
17.2856410358
 20
12.5030236485
 30
0.0
 10
17.2911229864
 20
12.506653435
 30
0.0
 10
17.2978018295
 20
12.5093728648
 30
0.0
 10
17.3054868638
 20
12.511127966
 30
0.0
 10
17.3139695412
 20
12.5118781848
 30
0.0
 10
17.3230059546
 20
12.5116035139
 30
0.0
 10
17.329141437
 20
12.5107602495
 30
0.0
 10
17.3322405611
 20
12.5101761479
 30
0.0
  0
SPLINE
  5
5FA
100
AcDbEntity
  8
0
100
AcDbSpline
 62
7
  6
CONTINUOUS
 70
0
 71
3
 72
11
 73
7
 74
0
 42
0.0000001
 43
0.0000001
 44
0.0000000001
 40
0.0
 40
0.0
 40
0.0
 40
0.0
 40
0.2274615423
 40
0.470128219
 40
0.7279596982
 40
1.0
 40
1.0
 40
1.0
 40
1.0
 10
17.5190511337
 20
12.552608998
 30
0.0
 10
17.5168598926
 20
12.5570742777
 30
0.0
 10
17.5115476276
 20
12.5659305304
 30
0.0
 10
17.501523329
 20
12.5783486106
 30
0.0
 10
17.4893846407
 20
12.5901481599
 30
0.0
 10
17.4802559455
 20
12.5973199975
 30
0.0
 10
17.4754129675
 20
12.6007744823
 30
0.0
  0
SPLINE
  5
5FB
100
AcDbEntity
  8
0
100
AcDbSpline
 62
7
  6
CONTINUOUS
 70
0
 71
3
 72
12
 73
8
 74
0
 42
0.0000001
 43
0.0000001
 44
0.0000000001
 40
0.0
 40
0.0
 40
0.0
 40
0.0
 40
0.2499759978
 40
0.5046282941
 40
0.756864027
 40
0.8800483726
 40
1.0
 40
1.0
 40
1.0
 40
1.0
 10
17.6678734781
 20
13.2999216395
 30
0.0
 10
17.6592215629
 20
13.3047235518
 30
0.0
 10
17.6410937181
 20
13.3132638579
 30
0.0
 10
17.6125825538
 20
13.3226768806
 30
0.0
 10
17.5880627994
 20
13.3276166842
 30
0.0
 10
17.5685463033
 20
13.3296284483
 30
0.0
 10
17.558918831
 20
13.3299771118
 30
0.0
 10
17.5541706177
 20
13.3299771118
 30
0.0
  0
LINE
  5
5FC
100
AcDbEntity
  8
0
100
AcDbLine
 62
7
  6
CONTINUOUS
 10
17.2441358858
 20
11.8392737546
 11
17.2413575669
 21
11.8389191271
  0
LINE
  5
5FD
100
AcDbEntity
  8
0
100
AcDbLine
 62
7
  6
CONTINUOUS
 10
17.2413575669
 20
11.8389191271
 11
17.2383515193
 21
11.8378042459
  0
SPLINE
  5
5FE
100
AcDbEntity
  8
0
100
AcDbSpline
 62
7
  6
CONTINUOUS
 70
0
 71
3
 72
9
 73
5
 74
0
 42
0.0000001
 43
0.0000001
 44
0.0000000001
 40
0.0
 40
0.0
 40
0.0
 40
0.0
 40
0.2589728002
 40
1.0
 40
1.0
 40
1.0
 40
1.0
 10
17.2383515193
 20
11.8378042459
 30
0.0
 10
17.2380292577
 20
11.8376423327
 30
0.0
 10
17.2368089576
 20
11.8369710758
 30
0.0
 10
17.2356811369
 20
11.8361258549
 30
0.0
 10
17.2349402885
 20
11.8354074534
 30
0.0
  0
LINE
  5
5FF
100
AcDbEntity
  8
0
100
AcDbLine
 62
7
  6
CONTINUOUS
 10
17.2349402885
 20
11.8354074534
 11
17.2337643901
 21
11.8340728919
  0
SPLINE
  5
600
100
AcDbEntity
  8
0
100
AcDbSpline
 62
7
  6
CONTINUOUS
 70
0
 71
3
 72
12
 73
8
 74
0
 42
0.0000001
 43
0.0000001
 44
0.0000000001
 40
0.0
 40
0.0
 40
0.0
 40
0.0
 40
0.3305828991
 40
0.6046840411
 40
0.72037133
 40
0.8231237657
 40
1.0
 40
1.0
 40
1.0
 40
1.0
 10
17.2340121944
 20
12.5456110814
 30
0.0
 10
17.2341490853
 20
12.5460540608
 30
0.0
 10
17.2344464416
 20
12.5468509962
 30
0.0
 10
17.2349553645
 20
12.5477338257
 30
0.0
 10
17.2354179636
 20
12.5482511686
 30
0.0
 10
17.2358506748
 20
12.5485990568
 30
0.0
 10
17.23623829
 20
12.5487441995
 30
0.0
 10
17.2364860218
 20
12.5487571892
 30
0.0
  0
SPLINE
  5
601
100
AcDbEntity
  8
0
100
AcDbSpline
 62
7
  6
CONTINUOUS
 70
0
 71
3
 72
9
 73
5
 74
0
 42
0.0000001
 43
0.0000001
 44
0.0000000001
 40
0.0
 40
0.0
 40
0.0
 40
0.0
 40
0.5244116836
 40
1.0
 40
1.0
 40
1.0
 40
1.0
 10
17.1130842824
 20
12.1513658904
 30
0.0
 10
17.1130833942
 20
12.152284296
 30
0.0
 10
17.1131922111
 20
12.1540371525
 30
0.0
 10
17.1135400085
 20
12.1557629451
 30
0.0
 10
17.1137859204
 20
12.1565587163
 30
0.0
  0
SPLINE
  5
602
100
AcDbEntity
  8
0
100
AcDbSpline
 62
7
  6
CONTINUOUS
 70
0
 71
3
 72
12
 73
8
 74
0
 42
0.0000001
 43
0.0000001
 44
0.0000000001
 40
0.0
 40
0.0
 40
0.0
 40
0.0
 40
0.102509622
 40
0.219324477
 40
0.4808614571
 40
0.7526725362
 40
1.0
 40
1.0
 40
1.0
 40
1.0
 10
17.2370462199
 20
12.5500667724
 30
0.0
 10
17.2368666754
 20
12.5504326458
 30
0.0
 10
17.2365487394
 20
12.5512481334
 30
0.0
 10
17.2360596938
 20
12.5530989337
 30
0.0
 10
17.2357607028
 20
12.5556807037
 30
0.0
 10
17.2358534564
 20
12.5587909938
 30
0.0
 10
17.236231103
 20
12.5608351015
 30
0.0
 10
17.2365214238
 20
12.5617745798
 30
0.0
  0
SPLINE
  5
603
100
AcDbEntity
  8
0
100
AcDbSpline
 62
7
  6
CONTINUOUS
 70
0
 71
3
 72
13
 73
9
 74
0
 42
0.0000001
 43
0.0000001
 44
0.0000000001
 40
0.0
 40
0.0
 40
0.0
 40
0.0
 40
0.3313112862
 40
0.6057681108
 40
0.7207567584
 40
0.8225781482
 40
0.914154074
 40
1.0
 40
1.0
 40
1.0
 40
1.0
 10
17.1082262723
 20
12.1466113177
 30
0.0
 10
17.1083659717
 20
12.1470633849
 30
0.0
 10
17.1086710863
 20
12.1478755196
 30
0.0
 10
17.1091940715
 20
12.1487736291
 30
0.0
 10
17.1096709464
 20
12.1492921154
 30
0.0
 10
17.1100240058
 20
12.1495602792
 30
0.0
 10
17.1103909637
 20
12.1497264135
 30
0.0
 10
17.1106456858
 20
12.1497642561
 30
0.0
 10
17.1107682861
 20
12.1497642039
 30
0.0
  0
SPLINE
  5
604
100
AcDbEntity
  8
0
100
AcDbSpline
 62
7
  6
CONTINUOUS
 70
0
 71
3
 72
11
 73
7
 74
0
 42
0.0000001
 43
0.0000001
 44
0.0000000001
 40
0.0
 40
0.0
 40
0.0
 40
0.0
 40
0.195406567
 40
0.4166659067
 40
0.682655281
 40
1.0
 40
1.0
 40
1.0
 40
1.0
 10
17.2364860218
 20
12.5487571892
 30
0.0
 10
17.236675617
 20
12.5487671306
 30
0.0
 10
17.2370886826
 20
12.5486904027
 30
0.0
 10
17.2376495532
 20
12.5483140667
 30
0.0
 10
17.2381608715
 20
12.5477145903
 30
0.0
 10
17.2384432048
 20
12.5472200166
 30
0.0
 10
17.2385790373
 20
12.5469432191
 30
0.0
  0
SPLINE
  5
605
100
AcDbEntity
  8
0
100
AcDbSpline
 62
7
  6
CONTINUOUS
 70
0
 71
3
 72
9
 73
5
 74
0
 42
0.0000001
 43
0.0000001
 44
0.0000000001
 40
0.0
 40
0.0
 40
0.0
 40
0.0
 40
0.5041495157
 40
1.0
 40
1.0
 40
1.0
 40
1.0
 10
16.6097412431
 20
11.3698542286
 30
0.0
 10
16.6068178795
 20
11.3703997663
 30
0.0
 10
16.601050088
 20
11.3716495083
 30
0.0
 10
16.5953477908
 20
11.3731695064
 30
0.0
 10
16.5925436384
 20
11.374001151
 30
0.0
  0
ELLIPSE
  5
606
100
AcDbEntity
  8
0
100
AcDbEllipse
 62
7
  6
CONTINUOUS
 10
4.218701343
 20
5.3601198968
 30
0.0
 11
0.0
 21
0.0083333333
 31
0.0
 40
0.0349207695
 41
-1.5707963268
 42
0.0
  0
ELLIPSE
  5
607
100
AcDbEntity
  8
0
100
AcDbEllipse
 62
7
  6
CONTINUOUS
 10
4.718701343
 20
5.3601198968
 30
0.0
 11
0.0
 21
0.0083333333
 31
0.0
 40
0.0349207695
 41
-1.5707963268
 42
-0.0
  0
ELLIPSE
  5
608
100
AcDbEntity
  8
0
100
AcDbEllipse
 62
7
  6
CONTINUOUS
 10
5.218701343
 20
5.3601198968
 30
0.0
 11
0.0
 21
0.0083333333
 31
0.0
 40
0.0349207695
 41
-1.5707963268
 42
-0.0
  0
ELLIPSE
  5
609
100
AcDbEntity
  8
0
100
AcDbEllipse
 62
7
  6
CONTINUOUS
 10
5.718701343
 20
5.3601198968
 30
0.0
 11
0.0
 21
0.0083333333
 31
0.0
 40
0.0349207695
 41
-1.5707963268
 42
-0.0
  0
ELLIPSE
  5
60A
100
AcDbEntity
  8
0
100
AcDbEllipse
 62
7
  6
CONTINUOUS
 10
6.218701343
 20
5.3601198968
 30
0.0
 11
0.0
 21
0.0083333333
 31
0.0
 40
0.0349207695
 41
-1.5707963268
 42
-0.0
  0
ELLIPSE
  5
60B
100
AcDbEntity
  8
0
100
AcDbEllipse
 62
7
  6
CONTINUOUS
 10
6.718701343
 20
5.3601198968
 30
0.0
 11
0.0
 21
0.0083333333
 31
0.0
 40
0.0349207695
 41
-1.5707963268
 42
-0.0
  0
ELLIPSE
  5
60C
100
AcDbEntity
  8
0
100
AcDbEllipse
 62
7
  6
CONTINUOUS
 10
7.218701343
 20
5.3601198968
 30
0.0
 11
0.0
 21
0.0083333333
 31
0.0
 40
0.0349207695
 41
-1.5707963268
 42
-0.0
  0
ELLIPSE
  5
60D
100
AcDbEntity
  8
0
100
AcDbEllipse
 62
7
  6
CONTINUOUS
 10
7.718701343
 20
5.3601198968
 30
0.0
 11
0.0
 21
0.0083333333
 31
0.0
 40
0.0349207695
 41
-1.5707963268
 42
-0.0
  0
ENDSEC
  0
SECTION
  2
OBJECTS
  0
DICTIONARY
  5
C
100
AcDbDictionary
280
0
281
1
  3
ACAD_GROUP
350
D
  3
ACAD_MLINESTYLE
350
17
  3
ACAD_LAYOUT
350
1A
  3
ACAD_PLOTSETTINGS
350
19
  3
ACAD_PLOTSTYLENAME
350
E
  0
DICTIONARY
  5
D
102
{ACAD_REACTORS
330
C
102
}
100
AcDbDictionary
280
0
281
1
  0
ACDBDICTIONARYWDFLT
  5
E
102
{ACAD_REACTORS
330
C
102
}
100
AcDbDictionary
281
1
  3
Normal
350
F
100
AcDbDictionaryWithDefault
340
F
  0
DICTIONARY
  5
17
102
{ACAD_REACTORS
330
C
102
}
100
AcDbDictionary
280
0
281
1
  3
Standard
350
18
  0
DICTIONARY
  5
19
102
{ACAD_REACTORS
330
C
102
}
100
AcDbDictionary
281
1
  0
DICTIONARY
  5
1A
102
{ACAD_REACTORS
330
C
102
}
100
AcDbDictionary
281
1
  3
Model
350
60E
  3
Layout1
350
60F
  0
ACDBPLACEHOLDER
  5
F
102
{ACAD_REACTORS
330
E
102
}
  0
MLINESTYLE
  5
18
102
{ACAD_REACTORS
330
17
102
}
100
AcDbMlineStyle
  2
STANDARD
 70
0
  3

 62
256
 51
90.0
 52
90.0
 71
2
 49
0.5
 62
256
  6
BYLAYER
 49
-0.5
 62
256
  6
BYLAYER
  0
LAYOUT
  5
60E
102
{ACAD_REACTORS
330
1A
102
}
100
AcDbPlotSettings
  1

  2
none_device
  4
ANSI_C_(22.00_x_17.00_Inches)
  6

 40
0.0
 41
0.0
 42
0.0
 43
0.0
 44
558.8
 45
431.8
 46
0.0
 47
0.0
 48
0.0
 49
0.0
140
0.0
141
0.0
142
1.0
143
1.0
 70
1024
 72
0
 73
0
 74
0
  7

 75
0
147
1.0
148
0.0
149
0.0
100
AcDbLayout
  1
Model
 70
0
 71
0
 10
0.0
 20
0.0
 11
22.0
 21
17.0
 12
0.0
 22
0.0
 32
0.0
 14
0.0
 24
0.0
 34
0.0
 15
0.0
 25
0.0
 35
0.0
146
0.0
 13
0.0
 23
0.0
 33
0.0
 16
1.0
 26
0.0
 36
0.0
 17
0.0
 27
1.0
 37
0.0
 76
0
330
218
345
0
346
0
  0
LAYOUT
  5
60F
102
{ACAD_REACTORS
330
1A
102
}
100
AcDbPlotSettings
  1

  2
none_device
  4
ANSI_C_(22.00_x_17.00_Inches)
  6

 40
0.0
 41
0.0
 42
0.0
 43
0.0
 44
558.8
 45
431.8
 46
0.0
 47
0.0
 48
0.0
 49
0.0
140
0.0
141
0.0
142
1.0
143
1.0
 70
0
 72
0
 73
0
 74
0
  7

 75
0
147
1.0
148
0.0
149
0.0
100
AcDbLayout
  1
Layout1
 70
0
 71
1
 10
0.0
 20
0.0
 11
22.0
 21
17.0
 12
0.0
 22
0.0
 32
0.0
 14
0.0
 24
0.0
 34
0.0
 15
0.0
 25
0.0
 35
0.0
146
0.0
 13
0.0
 23
0.0
 33
0.0
 16
1.0
 26
0.0
 36
0.0
 17
0.0
 27
1.0
 37
0.0
 76
0
330
219
345
0
346
0
  0
ENDSEC
  0
EOF