999
DXF file: _cgs_temp_output.dxf
999
Pro/ENGINEER 2016360 by Parametric Technology Corporation
  0
SECTION
  2
HEADER
  9
$ACADVER
  1
AC1021
  9
$DWGCODEPAGE
  3
ANSI_1252
  9
$EXTMAX
 10
22.0
 20
17.0
 30
0.0
  9
$EXTMIN
 10
0.0
 20
0.0
 30
0.0
  9
$LIMMIN
 10
0.0
 20
0.0
  9
$LIMMAX
 10
22.0
 20
17.0
  9
$VIEWCTR
 10
11.0
 20
8.5
  9
$VIEWSIZE
 40
17.0
  9
$CLAYER
  8
0
  9
$LTSCALE
 40
1.21
  9
$CELTYPE
  6
BYLAYER
  9
$DIMSCALE
 40
1.0
  9
$DIMASZ
 40
0.1875
  9
$DIMEXO
 40
0.0625
  9
$DIMDLI
 40
0.836
  9
$DIMEXE
 40
0.125
  9
$DIMCEN
 40
0.198
  9
$DIMLFAC
 40
1.0
  9
$DIMBLK
  1
_CLOSED
  9
$DIMALT
 70
0
  9
$DIMALTF
 40
25.4
  9
$DIMTXT
 40
0.15625
  9
$DIMTOL
 70
0
  9
$DIMLIM
 70
0
  9
$DIMTFAC
 40
1.0
  9
$DIMGAP
 40
0.09
  9
$DIMDSEP
 70
46
  9
$AUNITS
 70
0
  9
$PDMODE
 70
3
  9
$PDSIZE
 40
0.3125
  9
$HANDSEED
  5
33C
  9
$TILEMODE
 70
1
  9
$MEASUREMENT
 70
0
  9
$INSUNITS
 70
1
  0
ENDSEC
  0
SECTION
  2
CLASSES
  0
CLASS
  1
ACDBDICTIONARYWDFLT
  2
AcDbDictionaryWithDefault
  3
AutoCAD 2000
 90
0
 91
1
280
0
281
0
  0
CLASS
  1
ACDBPLACEHOLDER
  2
AcDbPlaceHolder
  3
AutoCAD 2000
 90
0
 91
1
280
0
281
0
  0
CLASS
  1
LAYOUT
  2
AcDbLayout
  3
AutoCAD 2000
 90
0
 91
0
280
0
281
0
  0
ENDSEC
  0
SECTION
  2
TABLES
  0
TABLE
  2
VPORT
  5
8
100
AcDbSymbolTable
 70
2
  0
VPORT
  5
1F4
100
AcDbSymbolTableRecord
100
AcDbViewportTableRecord
  2
*ACTIVE
 70
0
 10
0.0
 20
0.0
 11
1.0
 21
1.0
 12
11.0
 22
8.5
 13
0.0
 23
0.0
 14
1.0
 24
1.0
 15
0.0
 25
0.0
 16
0.0
 26
0.0
 36
1.0
 17
0.0
 27
0.0
 37
0.0
 40
17.0
 41
1.2941176471
 42
50.0
 43
0.0
 44
0.0
 50
0.0
 51
0.0
 71
0
 72
100
 73
1
 74
1
 75
0
 76
0
 77
0
 78
0
  0
ENDTAB
  0
TABLE
  2
LTYPE
  5
5
100
AcDbSymbolTable
 70
6
  0
LTYPE
  5
14
100
AcDbSymbolTableRecord
100
AcDbLinetypeTableRecord
  2
BYBLOCK
 70
0
  3

 72
65
 73
0
 40
0.0
  0
LTYPE
  5
15
100
AcDbSymbolTableRecord
100
AcDbLinetypeTableRecord
  2
BYLAYER
 70
0
  3

 72
65
 73
0
 40
0.0
  0
LTYPE
  5
16
100
AcDbSymbolTableRecord
100
AcDbLinetypeTableRecord
  2
CONTINUOUS
 70
64
  3
Solid line
 72
65
 73
0
 40
0.0
  0
LTYPE
  5
1F5
100
AcDbSymbolTableRecord
100
AcDbLinetypeTableRecord
  2
CENTER
 70
64
  3
____ _ ____ _ ____ _ ____ _ ____ _ ____ _ ____
 72
65
 73
4
 40
0.6
 49
0.375
 74
0
 49
-0.075
 74
0
 49
0.075
 74
0
 49
-0.075
 74
0
  0
LTYPE
  5
1F6
100
AcDbSymbolTableRecord
100
AcDbLinetypeTableRecord
  2
HIDDEN
 70
64
  3
- - - - - - - - - - - - - - - - - - - -
 72
65
 73
2
 40
0.2
 49
0.1
 74
0
 49
-0.1
 74
0
  0
LTYPE
  5
1F7
100
AcDbSymbolTableRecord
100
AcDbLinetypeTableRecord
  2
PHANTOM
 70
64
  3
_____ _ _ _____ _ _ _____ _ _ _____
 72
65
 73
6
 40
0.8
 49
0.45
 74
0
 49
-0.05
 74
0
 49
0.1
 74
0
 49
-0.05
 74
0
 49
0.1
 74
0
 49
-0.05
 74
0
  0
LTYPE
  5
1F8
100
AcDbSymbolTableRecord
100
AcDbLinetypeTableRecord
  2
DOT
 70
64
  3
. . . . . . . . . . . . . . . . . . . .
 72
65
 73
2
 40
0.2
 49
0.1
 74
0
 49
-0.1
 74
0
  0
LTYPE
  5
1F9
100
AcDbSymbolTableRecord
100
AcDbLinetypeTableRecord
  2
DASHED
 70
64
  3
- - - - - - - - - - - - - - - - - - - -
 72
65
 73
2
 40
0.2
 49
0.1
 74
0
 49
-0.1
 74
0
  0
ENDTAB
  0
TABLE
  2
LAYER
  5
2
100
AcDbSymbolTable
 70
36
  0
LAYER
  5
10
100
AcDbSymbolTableRecord
100
AcDbLayerTableRecord
  2
0
 70
0
 62
7
  6
CONTINUOUS
370
-3
390
F
  0
LAYER
  5
1FA
100
AcDbSymbolTableRecord
100
AcDbLayerTableRecord
  2
DEFAULT_1
 70
0
 62
7
  6
CENTER
370
-3
390
F
  0
LAYER
  5
1FB
100
AcDbSymbolTableRecord
100
AcDbLayerTableRecord
  2
DEFAULT_2
 70
0
 62
8
  6
HIDDEN
370
-3
390
F
  0
LAYER
  5
1FC
100
AcDbSymbolTableRecord
100
AcDbLayerTableRecord
  2
DEFAULT_3
 70
0
 62
7
  6
PHANTOM
370
-3
390
F
  0
LAYER
  5
1FD
100
AcDbSymbolTableRecord
100
AcDbLayerTableRecord
  2
01_ALL_DTM_PLN
 70
0
 62
7
  6
CONTINUOUS
370
-3
390
F
  0
LAYER
  5
1FE
100
AcDbSymbolTableRecord
100
AcDbLayerTableRecord
  2
01__ASM_ALL_DTM_PLN
 70
0
 62
7
  6
CONTINUOUS
370
-3
390
F
  0
LAYER
  5
1FF
100
AcDbSymbolTableRecord
100
AcDbLayerTableRecord
  2
01__ASM_DEF_DTM_PLN
 70
0
 62
7
  6
CONTINUOUS
370
-3
390
F
  0
LAYER
  5
200
100
AcDbSymbolTableRecord
100
AcDbLayerTableRecord
  2
01___PRT_ALL_DTM_PLN
 70
0
 62
7
  6
CONTINUOUS
370
-3
390
F
  0
LAYER
  5
201
100
AcDbSymbolTableRecord
100
AcDbLayerTableRecord
  2
01___PRT_DEF_DTM_PLN
 70
0
 62
7
  6
CONTINUOUS
370
-3
390
F
  0
LAYER
  5
202
100
AcDbSymbolTableRecord
100
AcDbLayerTableRecord
  2
02_ALL_AXES
 70
0
 62
7
  6
CONTINUOUS
370
-3
390
F
  0
LAYER
  5
203
100
AcDbSymbolTableRecord
100
AcDbLayerTableRecord
  2
02__ASM_ALL_AXES
 70
0
 62
7
  6
CONTINUOUS
370
-3
390
F
  0
LAYER
  5
204
100
AcDbSymbolTableRecord
100
AcDbLayerTableRecord
  2
02___PRT_ALL_AXES
 70
0
 62
7
  6
CONTINUOUS
370
-3
390
F
  0
LAYER
  5
205
100
AcDbSymbolTableRecord
100
AcDbLayerTableRecord
  2
03_ALL_CURVES
 70
0
 62
7
  6
CONTINUOUS
370
-3
390
F
  0
LAYER
  5
206
100
AcDbSymbolTableRecord
100
AcDbLayerTableRecord
  2
03__ASM_ALL_CURVES
 70
0
 62
7
  6
CONTINUOUS
370
-3
390
F
  0
LAYER
  5
207
100
AcDbSymbolTableRecord
100
AcDbLayerTableRecord
  2
03___PRT_ALL_CURVES
 70
0
 62
7
  6
CONTINUOUS
370
-3
390
F
  0
LAYER
  5
208
100
AcDbSymbolTableRecord
100
AcDbLayerTableRecord
  2
04_ALL_DTM_PNT
 70
0
 62
7
  6
CONTINUOUS
370
-3
390
F
  0
LAYER
  5
209
100
AcDbSymbolTableRecord
100
AcDbLayerTableRecord
  2
04__ASM_ALL_DTM_PNT
 70
0
 62
7
  6
CONTINUOUS
370
-3
390
F
  0
LAYER
  5
20A
100
AcDbSymbolTableRecord
100
AcDbLayerTableRecord
  2
04___PRT_ALL_DTM_PNT
 70
0
 62
7
  6
CONTINUOUS
370
-3
390
F
  0
LAYER
  5
20B
100
AcDbSymbolTableRecord
100
AcDbLayerTableRecord
  2
05_ALL_DTM_CSYS
 70
0
 62
7
  6
CONTINUOUS
370
-3
390
F
  0
LAYER
  5
20C
100
AcDbSymbolTableRecord
100
AcDbLayerTableRecord
  2
05__ASM_ALL_DTM_CSYS
 70
0
 62
7
  6
CONTINUOUS
370
-3
390
F
  0
LAYER
  5
20D
100
AcDbSymbolTableRecord
100
AcDbLayerTableRecord
  2
05__ASM_DEF_DTM_CSYS
 70
0
 62
7
  6
CONTINUOUS
370
-3
390
F
  0
LAYER
  5
20E
100
AcDbSymbolTableRecord
100
AcDbLayerTableRecord
  2
05___PRT_ALL_DTM_CSYS
 70
0
 62
7
  6
CONTINUOUS
370
-3
390
F
  0
LAYER
  5
20F
100
AcDbSymbolTableRecord
100
AcDbLayerTableRecord
  2
05___PRT_DEF_DTM_CSYS
 70
0
 62
7
  6
CONTINUOUS
370
-3
390
F
  0
LAYER
  5
210
100
AcDbSymbolTableRecord
100
AcDbLayerTableRecord
  2
06_ALL_SURFS
 70
0
 62
7
  6
CONTINUOUS
370
-3
390
F
  0
LAYER
  5
211
100
AcDbSymbolTableRecord
100
AcDbLayerTableRecord
  2
06__ASM_ALL_SURFS
 70
0
 62
7
  6
CONTINUOUS
370
-3
390
F
  0
LAYER
  5
212
100
AcDbSymbolTableRecord
100
AcDbLayerTableRecord
  2
06___PRT_ALL_SURFS
 70
0
 62
7
  6
CONTINUOUS
370
-3
390
F
  0
LAYER
  5
213
100
AcDbSymbolTableRecord
100
AcDbLayerTableRecord
  2
07__ASM_ALL_SKELETONS
 70
0
 62
7
  6
CONTINUOUS
370
-3
390
F
  0
LAYER
  5
214
100
AcDbSymbolTableRecord
100
AcDbLayerTableRecord
  2
SHELL
 70
0
 62
7
  6
CONTINUOUS
370
-3
390
F
  0
ENDTAB
  0
TABLE
  2
STYLE
  5
3
100
AcDbSymbolTable
 70
1
  0
STYLE
  5
11
100
AcDbSymbolTableRecord
100
AcDbTextStyleTableRecord
  2
STANDARD
 70
0
 40
0.0
 41
0.8
 50
0.0
 71
0
 42
0.2
  3
txt
  4

  0
STYLE
  5
215
100
AcDbSymbolTableRecord
100
AcDbTextStyleTableRecord
  2
TEXTSTYLE_1
 70
0
 40
0.0
 41
0.8
 50
0.0
 71
0
 42
0.2
  3
gdt
  4

  0
ENDTAB
  0
TABLE
  2
VIEW
  5
6
100
AcDbSymbolTable
 70
0
  0
ENDTAB
  0
TABLE
  2
UCS
  5
7
100
AcDbSymbolTable
 70
0
  0
ENDTAB
  0
TABLE
  2
APPID
  5
9
100
AcDbSymbolTable
 70
1
  0
APPID
  5
216
100
AcDbSymbolTableRecord
100
AcDbRegAppTableRecord
  2
ACAD
 70
0
  0
ENDTAB
  0
TABLE
  2
BLOCK_RECORD
  5
1
100
AcDbSymbolTable
 70
0
  0
BLOCK_RECORD
  5
217
100
AcDbSymbolTableRecord
100
AcDbBlockTableRecord
  2
*Model_Space
  0
BLOCK_RECORD
  5
218
100
AcDbSymbolTableRecord
100
AcDbBlockTableRecord
  2
*Paper_Space
  0
ENDTAB
  0
TABLE
  2
DIMSTYLE
  5
A
100
AcDbSymbolTable
 70
1
100
AcDbDimStyleTable
 71
0
  0
DIMSTYLE
105
219
100
AcDbSymbolTableRecord
100
AcDbDimStyleTableRecord
  2
STANDARD
 70
0
  3

  4

 40
1.0
 41
0.1875
 42
0.0625
 43
0.38
 44
0.125
 45
0.0
 46
0.0
 47
0.0001
 48
0.0001
140
0.15625
141
0.09
142
0.0
143
25.4
144
1.0
145
0.0
146
1.0
147
0.09
 71
0.0
 72
0.0
 73
1
 74
1
 75
0
 76
0
 77
0
 78
4
 79
1
170
0
171
3
172
0
173
0
174
0
175
0
176
0
177
0
178
0
270
2
179
4
271
4
272
4
273
2
274
2
275
0
280
0
281
0
282
0
283
1
284
4
285
0
286
0
287
3
288
0
340
11
278
46
  0
ENDTAB
  0
ENDSEC
  0
SECTION
  2
BLOCKS
  0
BLOCK
  5
20
100
AcDbEntity
  8
0
100
AcDbBlockBegin
  2
*Model_Space
 70
0
 10
0.0
 20
0.0
 30
0.0
  3
*Model_Space
  1

  0
ENDBLK
  5
21
100
AcDbEntity
  8
0
100
AcDbBlockEnd
  0
BLOCK
  5
1C
100
AcDbEntity
  8
0
100
AcDbBlockBegin
  2
*Paper_Space
 70
0
 10
0.0
 20
0.0
 30
0.0
  3
*Paper_Space
  1

  0
ENDBLK
  5
1D
100
AcDbEntity
  8
0
100
AcDbBlockEnd
  0
ENDSEC
  0
SECTION
  2
ENTITIES
  0
MTEXT
  5
21A
100
AcDbEntity
  8
0
100
AcDbMText
 62
7
  6
CONTINUOUS
  7
STANDARD
 71
1
 72
1
 10
15.9560215477
 20
0.9479130325
 30
0.0
 11
1.0
 21
0.0
 31
0.0
 44
0.9
  1
SCALE: 1:1.000
 40
0.3
 41
3.36
  0
LINE
  5
21B
100
AcDbEntity
  8
0
100
AcDbLine
 62
7
  6
CONTINUOUS
 10
0.0
 20
0.0
 11
0.0
 21
17.0
  0
LINE
  5
21C
100
AcDbEntity
  8
0
100
AcDbLine
 62
7
  6
CONTINUOUS
 10
0.0
 20
0.0
 11
22.0
 21
0.0
  0
LINE
  5
21D
100
AcDbEntity
  8
0
100
AcDbLine
 62
7
  6
CONTINUOUS
 10
0.0
 20
17.0
 11
22.0
 21
17.0
  0
LINE
  5
21E
100
AcDbEntity
  8
0
100
AcDbLine
 62
7
  6
CONTINUOUS
 10
22.0
 20
0.0
 11
22.0
 21
17.0
  0
LINE
  5
21F
100
AcDbEntity
  8
0
100
AcDbLine
 62
7
  6
CONTINUOUS
 10
5.5803672762
 20
4.3601198968
 11
6.6803672762
 21
4.3601198968
  0
LINE
  5
220
100
AcDbEntity
  8
0
100
AcDbLine
 62
7
  6
CONTINUOUS
 10
6.5843197638
 20
4.5201198968
 11
5.6764147885
 21
4.5201198968
  0
LINE
  5
221
100
AcDbEntity
  8
0
100
AcDbLine
 62
7
  6
CONTINUOUS
 10
4.9603672762
 20
4.6001198968
 11
5.5558774802
 21
4.6001198968
  0
LINE
  5
222
100
AcDbEntity
  8
0
100
AcDbLine
 62
7
  6
CONTINUOUS
 10
6.7048570721
 20
4.6001198968
 11
7.3003672762
 21
4.6001198968
  0
LINE
  5
223
100
AcDbEntity
  8
0
100
AcDbLine
 62
7
  6
CONTINUOUS
 10
5.5710081365
 20
4.4518394659
 11
5.4803672762
 21
5.3401198968
  0
LINE
  5
224
100
AcDbEntity
  8
0
100
AcDbLine
 62
7
  6
CONTINUOUS
 10
5.4803672762
 20
5.3401198968
 11
5.4803672762
 21
5.5001198968
  0
LINE
  5
225
100
AcDbEntity
  8
0
100
AcDbLine
 62
7
  6
CONTINUOUS
 10
5.5803672762
 20
4.3601198968
 11
5.5665057352
 21
4.4401198968
  0
LINE
  5
226
100
AcDbEntity
  8
0
100
AcDbLine
 62
7
  6
CONTINUOUS
 10
5.5303672762
 20
6.5801198968
 11
5.5303672762
 21
5.5001198968
  0
LINE
  5
227
100
AcDbEntity
  8
0
100
AcDbLine
 62
7
  6
CONTINUOUS
 10
5.7403672762
 20
6.0851198968
 11
5.7403672762
 21
6.4351198968
  0
LINE
  5
228
100
AcDbEntity
  8
0
100
AcDbLine
 62
7
  6
CONTINUOUS
 10
5.6264472442
 20
5.5001198968
 11
5.9553672762
 21
5.8801198968
  0
LINE
  5
229
100
AcDbEntity
  8
0
100
AcDbLine
 62
7
  6
CONTINUOUS
 10
7.3003672762
 20
5.2601198968
 11
6.7722040109
 21
5.2601198968
  0
LINE
  5
22A
100
AcDbEntity
  8
0
100
AcDbLine
 62
7
  6
CONTINUOUS
 10
5.4885305415
 20
5.2601198968
 11
4.9603672762
 21
5.2601198968
  0
LINE
  5
22B
100
AcDbEntity
  8
0
100
AcDbLine
 62
7
  6
CONTINUOUS
 10
5.9553672762
 20
5.8801198968
 11
5.9553672762
 21
6.0101198968
  0
LINE
  5
22C
100
AcDbEntity
  8
0
100
AcDbLine
 62
7
  6
CONTINUOUS
 10
5.4803672762
 20
5.3401198968
 11
6.7803672762
 21
5.3401198968
  0
LINE
  5
22D
100
AcDbEntity
  8
0
100
AcDbLine
 62
7
  6
CONTINUOUS
 10
5.4803672762
 20
5.5001198968
 11
5.6264472442
 21
5.5001198968
  0
LINE
  5
22E
100
AcDbEntity
  8
0
100
AcDbLine
 62
7
  6
CONTINUOUS
 10
6.6342873081
 20
5.5001198968
 11
6.7803672762
 21
5.5001198968
  0
LINE
  5
22F
100
AcDbEntity
  8
0
100
AcDbLine
 62
7
  6
CONTINUOUS
 10
6.3053672762
 20
6.0101198968
 11
6.3053672762
 21
5.8801198968
  0
LINE
  5
230
100
AcDbEntity
  8
0
100
AcDbLine
 62
7
  6
CONTINUOUS
 10
6.5203672762
 20
6.4351198968
 11
6.5203672762
 21
6.0851198968
  0
LINE
  5
231
100
AcDbEntity
  8
0
100
AcDbLine
 62
7
  6
CONTINUOUS
 10
6.3053672762
 20
5.8801198968
 11
6.6342873081
 21
5.5001198968
  0
LINE
  5
232
100
AcDbEntity
  8
0
100
AcDbLine
 62
7
  6
CONTINUOUS
 10
6.4453672762
 20
6.0101198968
 11
5.8153672762
 21
6.0101198968
  0
LINE
  5
233
100
AcDbEntity
  8
0
100
AcDbLine
 62
7
  6
CONTINUOUS
 10
6.7303672762
 20
5.5001198968
 11
6.7303672762
 21
6.5801198968
  0
LINE
  5
234
100
AcDbEntity
  8
0
100
AcDbLine
 62
7
  6
CONTINUOUS
 10
6.7803672762
 20
5.3401198968
 11
6.7803672762
 21
5.5001198968
  0
LINE
  5
235
100
AcDbEntity
  8
0
100
AcDbLine
 62
7
  6
CONTINUOUS
 10
6.7803672762
 20
5.3401198968
 11
6.6898800685
 21
4.453345262
  0
LINE
  5
236
100
AcDbEntity
  8
0
100
AcDbLine
 62
7
  6
CONTINUOUS
 10
6.6803672762
 20
4.3601198968
 11
6.6945518924
 21
4.4419844818
  0
LINE
  5
237
100
AcDbEntity
  8
0
100
AcDbLine
 62
7
  6
CONTINUOUS
 10
5.8153672762
 20
6.5101198968
 11
6.4453672762
 21
6.5101198968
  0
LINE
  5
238
100
AcDbEntity
  8
0
100
AcDbLine
 62
7
  6
CONTINUOUS
 10
6.6303672762
 20
6.6801198968
 11
5.6303672762
 21
6.6801198968
  0
LINE
  5
239
100
AcDbEntity
  8
0
100
AcDbLine
 62
7
  6
CONTINUOUS
 10
5.5669520519
 20
10.7250477814
 11
6.5747921158
 21
10.7250477814
  0
LINE
  5
23A
100
AcDbEntity
  8
0
100
AcDbLine
 62
7
  6
CONTINUOUS
 10
5.5669520519
 20
10.9050477814
 11
5.8958720839
 21
10.9050477814
  0
LINE
  5
23B
100
AcDbEntity
  8
0
100
AcDbLine
 62
7
  6
CONTINUOUS
 10
6.2458720839
 20
10.9050477814
 11
6.5747921158
 21
10.9050477814
  0
LINE
  5
23C
100
AcDbEntity
  8
0
100
AcDbLine
 62
7
  6
CONTINUOUS
 10
6.6708720839
 20
10.9250477814
 11
5.4708720839
 21
10.9250477814
  0
LINE
  5
23D
100
AcDbEntity
  8
0
100
AcDbLine
 62
7
  6
CONTINUOUS
 10
4.5708720839
 20
12.9450477814
 11
4.5708720839
 21
12.8500477814
  0
LINE
  5
23E
100
AcDbEntity
  8
0
100
AcDbLine
 62
7
  6
CONTINUOUS
 10
4.5708720839
 20
12.2550477814
 11
4.5708720839
 21
12.3500477814
  0
LINE
  5
23F
100
AcDbEntity
  8
0
100
AcDbLine
 62
7
  6
CONTINUOUS
 10
4.7458720839
 20
12.8500477814
 11
4.7458720839
 21
12.3500477814
  0
LINE
  5
240
100
AcDbEntity
  8
0
100
AcDbLine
 62
7
  6
CONTINUOUS
 10
5.1458720839
 20
12.8500477814
 11
5.1458720839
 21
12.3500477814
  0
LINE
  5
241
100
AcDbEntity
  8
0
100
AcDbLine
 62
7
  6
CONTINUOUS
 10
5.467031956
 20
10.8210509775
 11
5.4208720839
 21
11.9750477814
  0
LINE
  5
242
100
AcDbEntity
  8
0
100
AcDbLine
 62
7
  6
CONTINUOUS
 10
5.4208720839
 20
13.2250477814
 11
5.4208720839
 21
11.9750477814
  0
LINE
  5
243
100
AcDbEntity
  8
0
100
AcDbLine
 62
7
  6
CONTINUOUS
 10
5.4208720839
 20
13.2250477814
 11
5.467031956
 21
14.3790445852
  0
LINE
  5
244
100
AcDbEntity
  8
0
100
AcDbLine
 62
7
  6
CONTINUOUS
 10
5.4708720839
 20
14.2750477814
 11
5.4708720839
 21
10.9250477814
  0
LINE
  5
245
100
AcDbEntity
  8
0
100
AcDbLine
 62
7
  6
CONTINUOUS
 10
5.5669520519
 20
14.4750477814
 11
5.5669520519
 21
14.2950477814
  0
LINE
  5
246
100
AcDbEntity
  8
0
100
AcDbLine
 62
7
  6
CONTINUOUS
 10
5.5669520519
 20
10.9050477814
 11
5.5669520519
 21
10.7250477814
  0
LINE
  5
247
100
AcDbEntity
  8
0
100
AcDbLine
 62
7
  6
CONTINUOUS
 10
7.5708720839
 20
12.2550477814
 11
6.7208720839
 21
12.2550477814
  0
LINE
  5
248
100
AcDbEntity
  8
0
100
AcDbLine
 62
7
  6
CONTINUOUS
 10
5.4208720839
 20
12.2550477814
 11
4.5708720839
 21
12.2550477814
  0
LINE
  5
249
100
AcDbEntity
  8
0
100
AcDbLine
 62
7
  6
CONTINUOUS
 10
5.8958720839
 20
10.7263870939
 11
5.8958720839
 21
10.9250477814
  0
LINE
  5
24A
100
AcDbEntity
  8
0
100
AcDbLine
 62
7
  6
CONTINUOUS
 10
5.8958720839
 20
14.2750477814
 11
5.8958720839
 21
14.4737084688
  0
LINE
  5
24B
100
AcDbEntity
  8
0
100
AcDbLine
 62
7
  6
CONTINUOUS
 10
4.5708720839
 20
12.3500477814
 11
5.4208720839
 21
12.3500477814
  0
LINE
  5
24C
100
AcDbEntity
  8
0
100
AcDbLine
 62
7
  6
CONTINUOUS
 10
6.7208720839
 20
12.3500477814
 11
7.5708720839
 21
12.3500477814
  0
LINE
  5
24D
100
AcDbEntity
  8
0
100
AcDbLine
 62
7
  6
CONTINUOUS
 10
6.2458720839
 20
14.4737084688
 11
6.2458720839
 21
14.2750477814
  0
LINE
  5
24E
100
AcDbEntity
  8
0
100
AcDbLine
 62
7
  6
CONTINUOUS
 10
6.2458720839
 20
10.7263870939
 11
6.2458720839
 21
10.9250477814
  0
LINE
  5
24F
100
AcDbEntity
  8
0
100
AcDbLine
 62
7
  6
CONTINUOUS
 10
7.5708720839
 20
12.8500477814
 11
6.7208720839
 21
12.8500477814
  0
LINE
  5
250
100
AcDbEntity
  8
0
100
AcDbLine
 62
7
  6
CONTINUOUS
 10
5.4208720839
 20
12.8500477814
 11
4.5708720839
 21
12.8500477814
  0
LINE
  5
251
100
AcDbEntity
  8
0
100
AcDbLine
 62
7
  6
CONTINUOUS
 10
4.5708720839
 20
12.9450477814
 11
5.4208720839
 21
12.9450477814
  0
LINE
  5
252
100
AcDbEntity
  8
0
100
AcDbLine
 62
7
  6
CONTINUOUS
 10
6.7208720839
 20
12.9450477814
 11
7.5708720839
 21
12.9450477814
  0
LINE
  5
253
100
AcDbEntity
  8
0
100
AcDbLine
 62
7
  6
CONTINUOUS
 10
6.5747921158
 20
14.4750477814
 11
6.5747921158
 21
14.2950477814
  0
LINE
  5
254
100
AcDbEntity
  8
0
100
AcDbLine
 62
7
  6
CONTINUOUS
 10
6.5747921158
 20
10.9050477814
 11
6.5747921158
 21
10.7250477814
  0
LINE
  5
255
100
AcDbEntity
  8
0
100
AcDbLine
 62
7
  6
CONTINUOUS
 10
6.6708720839
 20
10.9250477814
 11
6.6708720839
 21
14.2750477814
  0
LINE
  5
256
100
AcDbEntity
  8
0
100
AcDbLine
 62
7
  6
CONTINUOUS
 10
6.7208720839
 20
13.2250477814
 11
6.7208720839
 21
11.9750477814
  0
LINE
  5
257
100
AcDbEntity
  8
0
100
AcDbLine
 62
7
  6
CONTINUOUS
 10
6.6747122117
 20
14.3790445852
 11
6.7208720839
 21
13.2250477814
  0
LINE
  5
258
100
AcDbEntity
  8
0
100
AcDbLine
 62
7
  6
CONTINUOUS
 10
6.7208720839
 20
11.9750477814
 11
6.6747122117
 21
10.8210509775
  0
LINE
  5
259
100
AcDbEntity
  8
0
100
AcDbLine
 62
7
  6
CONTINUOUS
 10
6.9958720839
 20
12.8500477814
 11
6.9958720839
 21
12.3500477814
  0
LINE
  5
25A
100
AcDbEntity
  8
0
100
AcDbLine
 62
7
  6
CONTINUOUS
 10
7.3958720839
 20
12.8500477814
 11
7.3958720839
 21
12.3500477814
  0
LINE
  5
25B
100
AcDbEntity
  8
0
100
AcDbLine
 62
7
  6
CONTINUOUS
 10
7.5708720839
 20
12.9450477814
 11
7.5708720839
 21
12.8500477814
  0
LINE
  5
25C
100
AcDbEntity
  8
0
100
AcDbLine
 62
7
  6
CONTINUOUS
 10
7.5708720839
 20
12.2550477814
 11
7.5708720839
 21
12.3500477814
  0
LINE
  5
25D
100
AcDbEntity
  8
0
100
AcDbLine
 62
7
  6
CONTINUOUS
 10
5.4708720839
 20
14.2750477814
 11
6.6708720839
 21
14.2750477814
  0
LINE
  5
25E
100
AcDbEntity
  8
0
100
AcDbLine
 62
7
  6
CONTINUOUS
 10
5.5669520519
 20
14.2950477814
 11
5.8958720839
 21
14.2950477814
  0
LINE
  5
25F
100
AcDbEntity
  8
0
100
AcDbLine
 62
7
  6
CONTINUOUS
 10
6.2458720839
 20
14.2950477814
 11
6.5747921158
 21
14.2950477814
  0
LINE
  5
260
100
AcDbEntity
  8
0
100
AcDbLine
 62
7
  6
CONTINUOUS
 10
5.5669520519
 20
14.4750477814
 11
6.5747921158
 21
14.4750477814
  0
LINE
  5
261
100
AcDbEntity
  8
0
100
AcDbLine
 62
7
  6
CONTINUOUS
 10
13.6853552569
 20
5.2806247044
 11
13.6853552569
 21
5.8006247044
  0
LINE
  5
262
100
AcDbEntity
  8
0
100
AcDbLine
 62
7
  6
CONTINUOUS
 10
13.8653552569
 20
5.8206247044
 11
13.8653552569
 21
5.4406247044
  0
LINE
  5
263
100
AcDbEntity
  8
0
100
AcDbLine
 62
7
  6
CONTINUOUS
 10
13.8853552569
 20
5.4406247044
 11
13.8853552569
 21
6.6206247044
  0
LINE
  5
264
100
AcDbEntity
  8
0
100
AcDbLine
 62
7
  6
CONTINUOUS
 10
14.4963552569
 20
4.3006247044
 11
15.0853552569
 21
4.3006247044
  0
LINE
  5
265
100
AcDbEntity
  8
0
100
AcDbLine
 62
7
  6
CONTINUOUS
 10
16.0353552569
 20
4.3006247044
 11
16.6243552569
 21
4.3006247044
  0
LINE
  5
266
100
AcDbEntity
  8
0
100
AcDbLine
 62
7
  6
CONTINUOUS
 10
14.4453552569
 20
4.3516247044
 11
14.4453552569
 21
4.4606247044
  0
LINE
  5
267
100
AcDbEntity
  8
0
100
AcDbLine
 62
7
  6
CONTINUOUS
 10
14.9353552569
 20
4.3824892895
 11
14.4453552569
 21
4.3824892895
  0
LINE
  5
268
100
AcDbEntity
  8
0
100
AcDbLine
 62
7
  6
CONTINUOUS
 10
16.1853552569
 20
4.3824892895
 11
16.6753552569
 21
4.3824892895
  0
LINE
  5
269
100
AcDbEntity
  8
0
100
AcDbLine
 62
7
  6
CONTINUOUS
 10
14.9353552569
 20
4.4606247044
 11
14.4453552569
 21
4.4606247044
  0
LINE
  5
26A
100
AcDbEntity
  8
0
100
AcDbLine
 62
7
  6
CONTINUOUS
 10
16.1853552569
 20
4.4606247044
 11
16.6753552569
 21
4.4606247044
  0
LINE
  5
26B
100
AcDbEntity
  8
0
100
AcDbLine
 62
7
  6
CONTINUOUS
 10
15.2153552569
 20
4.5406247044
 11
15.3103552569
 21
4.5406247044
  0
LINE
  5
26C
100
AcDbEntity
  8
0
100
AcDbLine
 62
7
  6
CONTINUOUS
 10
15.8103552569
 20
4.5406247044
 11
15.9053552569
 21
4.5406247044
  0
LINE
  5
26D
100
AcDbEntity
  8
0
100
AcDbLine
 62
7
  6
CONTINUOUS
 10
15.1203552569
 20
4.6206247044
 11
15.2053552569
 21
4.6206247044
  0
LINE
  5
26E
100
AcDbEntity
  8
0
100
AcDbLine
 62
7
  6
CONTINUOUS
 10
15.9153552569
 20
4.6206247044
 11
16.0003552569
 21
4.6206247044
  0
LINE
  5
26F
100
AcDbEntity
  8
0
100
AcDbLine
 62
7
  6
CONTINUOUS
 10
15.8103552569
 20
4.6706247044
 11
15.3103552569
 21
4.6706247044
  0
LINE
  5
270
100
AcDbEntity
  8
0
100
AcDbLine
 62
7
  6
CONTINUOUS
 10
14.9353552569
 20
4.3006247044
 11
14.9353552569
 21
5.4406247044
  0
LINE
  5
271
100
AcDbEntity
  8
0
100
AcDbLine
 62
7
  6
CONTINUOUS
 10
15.0853552569
 20
4.7706247044
 11
15.1203552569
 21
4.7706247044
  0
LINE
  5
272
100
AcDbEntity
  8
0
100
AcDbLine
 62
7
  6
CONTINUOUS
 10
15.2053552569
 20
4.7706247044
 11
15.2153552569
 21
4.7706247044
  0
LINE
  5
273
100
AcDbEntity
  8
0
100
AcDbLine
 62
7
  6
CONTINUOUS
 10
15.9053552569
 20
4.7706247044
 11
15.9153552569
 21
4.7706247044
  0
LINE
  5
274
100
AcDbEntity
  8
0
100
AcDbLine
 62
7
  6
CONTINUOUS
 10
16.0003552569
 20
4.7706247044
 11
16.0353552569
 21
4.7706247044
  0
LINE
  5
275
100
AcDbEntity
  8
0
100
AcDbLine
 62
7
  6
CONTINUOUS
 10
15.0853552569
 20
5.2806247044
 11
15.0853552569
 21
4.3006247044
  0
LINE
  5
276
100
AcDbEntity
  8
0
100
AcDbLine
 62
7
  6
CONTINUOUS
 10
15.1203552569
 20
4.6206273849
 11
15.1203552569
 21
5.1206220206
  0
LINE
  5
277
100
AcDbEntity
  8
0
100
AcDbLine
 62
7
  6
CONTINUOUS
 10
15.0853552569
 20
4.9706247044
 11
15.1203552569
 21
4.9706247044
  0
LINE
  5
278
100
AcDbEntity
  8
0
100
AcDbLine
 62
7
  6
CONTINUOUS
 10
15.2053552569
 20
4.9706247044
 11
15.2153552569
 21
4.9706247044
  0
LINE
  5
279
100
AcDbEntity
  8
0
100
AcDbLine
 62
7
  6
CONTINUOUS
 10
15.9053552569
 20
4.9706247044
 11
15.9153552569
 21
4.9706247044
  0
LINE
  5
27A
100
AcDbEntity
  8
0
100
AcDbLine
 62
7
  6
CONTINUOUS
 10
16.0003552569
 20
4.9706247044
 11
16.0353552569
 21
4.9706247044
  0
LINE
  5
27B
100
AcDbEntity
  8
0
100
AcDbLine
 62
7
  6
CONTINUOUS
 10
15.2053552569
 20
5.120622024
 11
15.2053552569
 21
4.6206273883
  0
LINE
  5
27C
100
AcDbEntity
  8
0
100
AcDbLine
 62
7
  6
CONTINUOUS
 10
15.2153552569
 20
4.5406247044
 11
15.2153552569
 21
5.2006247044
  0
LINE
  5
27D
100
AcDbEntity
  8
0
100
AcDbLine
 62
7
  6
CONTINUOUS
 10
15.8103552569
 20
5.0706247044
 11
15.3103552569
 21
5.0706247044
  0
LINE
  5
27E
100
AcDbEntity
  8
0
100
AcDbLine
 62
7
  6
CONTINUOUS
 10
15.1203552569
 20
5.1206247044
 11
15.2053552569
 21
5.1206247044
  0
LINE
  5
27F
100
AcDbEntity
  8
0
100
AcDbLine
 62
7
  6
CONTINUOUS
 10
15.9153552569
 20
5.1206247044
 11
16.0003552569
 21
5.1206247044
  0
LINE
  5
280
100
AcDbEntity
  8
0
100
AcDbLine
 62
7
  6
CONTINUOUS
 10
15.3103552569
 20
5.2006247044
 11
15.3103552569
 21
4.5406247044
  0
LINE
  5
281
100
AcDbEntity
  8
0
100
AcDbLine
 62
7
  6
CONTINUOUS
 10
15.9053552569
 20
5.2006247044
 11
15.8103552569
 21
5.2006247044
  0
LINE
  5
282
100
AcDbEntity
  8
0
100
AcDbLine
 62
7
  6
CONTINUOUS
 10
15.3103552569
 20
5.2006247044
 11
15.2153552569
 21
5.2006247044
  0
LINE
  5
283
100
AcDbEntity
  8
0
100
AcDbLine
 62
7
  6
CONTINUOUS
 10
13.6853552569
 20
5.2806247044
 11
17.4353552569
 21
5.2806247044
  0
LINE
  5
284
100
AcDbEntity
  8
0
100
AcDbLine
 62
7
  6
CONTINUOUS
 10
13.6853552569
 20
5.4406247044
 11
17.4353552569
 21
5.4406247044
  0
LINE
  5
285
100
AcDbEntity
  8
0
100
AcDbLine
 62
7
  6
CONTINUOUS
 10
15.8103552569
 20
4.5406247044
 11
15.8103552569
 21
5.2006247044
  0
LINE
  5
286
100
AcDbEntity
  8
0
100
AcDbLine
 62
7
  6
CONTINUOUS
 10
15.9053552569
 20
5.2006247044
 11
15.9053552569
 21
4.5406247044
  0
LINE
  5
287
100
AcDbEntity
  8
0
100
AcDbLine
 62
7
  6
CONTINUOUS
 10
15.9153552569
 20
4.6206273849
 11
15.9153552569
 21
5.1206220206
  0
LINE
  5
288
100
AcDbEntity
  8
0
100
AcDbLine
 62
7
  6
CONTINUOUS
 10
16.0003552569
 20
5.120622024
 11
16.0003552569
 21
4.6206273883
  0
LINE
  5
289
100
AcDbEntity
  8
0
100
AcDbLine
 62
7
  6
CONTINUOUS
 10
13.6866945695
 20
5.8206247044
 11
13.8853552569
 21
5.8206247044
  0
LINE
  5
28A
100
AcDbEntity
  8
0
100
AcDbLine
 62
7
  6
CONTINUOUS
 10
17.2353552569
 20
5.8206247044
 11
17.4340159444
 21
5.8206247044
  0
LINE
  5
28B
100
AcDbEntity
  8
0
100
AcDbLine
 62
7
  6
CONTINUOUS
 10
16.0353552569
 20
5.2806247044
 11
16.0353552569
 21
4.3006247044
  0
LINE
  5
28C
100
AcDbEntity
  8
0
100
AcDbLine
 62
7
  6
CONTINUOUS
 10
17.2853552569
 20
5.9506247044
 11
17.2353552569
 21
5.9506247044
  0
LINE
  5
28D
100
AcDbEntity
  8
0
100
AcDbLine
 62
7
  6
CONTINUOUS
 10
13.8353552569
 20
5.9506247044
 11
13.8853552569
 21
5.9506247044
  0
LINE
  5
28E
100
AcDbEntity
  8
0
100
AcDbLine
 62
7
  6
CONTINUOUS
 10
16.1853552569
 20
4.3006247044
 11
16.1853552569
 21
5.4406247044
  0
LINE
  5
28F
100
AcDbEntity
  8
0
100
AcDbLine
 62
7
  6
CONTINUOUS
 10
16.6753552569
 20
4.3516247044
 11
16.6753552569
 21
4.4606247044
  0
LINE
  5
290
100
AcDbEntity
  8
0
100
AcDbLine
 62
7
  6
CONTINUOUS
 10
17.2353552569
 20
6.6206247044
 11
13.8853552569
 21
6.6206247044
  0
LINE
  5
291
100
AcDbEntity
  8
0
100
AcDbLine
 62
7
  6
CONTINUOUS
 10
17.2353552569
 20
6.6206247044
 11
17.2353552569
 21
5.4406247044
  0
LINE
  5
292
100
AcDbEntity
  8
0
100
AcDbLine
 62
7
  6
CONTINUOUS
 10
17.2553552569
 20
5.8206247044
 11
17.2553552569
 21
5.4406247044
  0
LINE
  5
293
100
AcDbEntity
  8
0
100
AcDbLine
 62
7
  6
CONTINUOUS
 10
17.4353552569
 20
5.8006247044
 11
17.4353552569
 21
5.2806247044
  0
LINE
  5
294
100
AcDbEntity
  8
0
100
AcDbLine
 62
7
  6
CONTINUOUS
 10
14.4280298612
 20
10.7039210496
 11
15.3563120323
 21
10.7039210496
  0
LINE
  5
295
100
AcDbEntity
  8
0
100
AcDbLine
 62
7
  6
CONTINUOUS
 10
15.3941225775
 20
10.7107235128
 11
15.8815339565
 21
10.7107235128
  0
LINE
  5
296
100
AcDbEntity
  8
0
100
AcDbLine
 62
7
  6
CONTINUOUS
 10
15.7443936127
 20
10.7895293269
 11
15.4752889405
 21
10.7895293269
  0
LINE
  5
297
100
AcDbEntity
  8
0
100
AcDbLine
 62
7
  6
CONTINUOUS
 10
14.3136566296
 20
10.8376570646
 11
14.3624633282
 21
10.7381994696
  0
LINE
  5
298
100
AcDbEntity
  8
0
100
AcDbLine
 62
7
  6
CONTINUOUS
 10
14.0096957004
 20
11.6313827922
 11
14.3391409164
 21
10.9600440264
  0
LINE
  5
299
100
AcDbEntity
  8
0
100
AcDbLine
 62
7
  6
CONTINUOUS
 10
14.3391409164
 20
10.9600440264
 11
14.4352003306
 21
10.9600440264
  0
LINE
  5
29A
100
AcDbEntity
  8
0
100
AcDbLine
 62
7
  6
CONTINUOUS
 10
15.3232960015
 20
10.9600440264
 11
15.4444141092
 21
10.9600440264
  0
LINE
  5
29B
100
AcDbEntity
  8
0
100
AcDbLine
 62
7
  6
CONTINUOUS
 10
14.9106798717
 20
11.0271582331
 11
15.3075053337
 21
10.8033786445
  0
LINE
  5
29C
100
AcDbEntity
  8
0
100
AcDbLine
 62
7
  6
CONTINUOUS
 10
14.9322059509
 20
11.1805892762
 11
15.3510772719
 21
10.9443774882
  0
LINE
  5
29D
100
AcDbEntity
  8
0
100
AcDbLine
 62
7
  6
CONTINUOUS
 10
14.3541142331
 20
11.3236858579
 11
14.2473495798
 21
11.5412493468
  0
LINE
  5
29E
100
AcDbEntity
  8
0
100
AcDbLine
 62
7
  6
CONTINUOUS
 10
15.8630061112
 20
11.1733595126
 11
15.6119542344
 21
11.1733595126
  0
LINE
  5
29F
100
AcDbEntity
  8
0
100
AcDbLine
 62
7
  6
CONTINUOUS
 10
15.0263403739
 20
11.2770651102
 11
14.8973918348
 21
11.2770651102
  0
LINE
  5
2A0
100
AcDbEntity
  8
0
100
AcDbLine
 62
7
  6
CONTINUOUS
 10
14.5750204869
 20
11.2770651102
 11
14.4460719477
 21
11.2770651102
  0
LINE
  5
2A1
100
AcDbEntity
  8
0
100
AcDbLine
 62
7
  6
CONTINUOUS
 10
14.1616951085
 20
12.2854783345
 11
14.1386988077
 21
12.2110622781
  0
LINE
  5
2A2
100
AcDbEntity
  8
0
100
AcDbLine
 62
7
  6
CONTINUOUS
 10
13.9946693453
 20
11.7449827669
 11
14.017665646
 21
11.8193988233
  0
LINE
  5
2A3
100
AcDbEntity
  8
0
100
AcDbLine
 62
7
  6
CONTINUOUS
 10
14.0062597154
 20
11.6609075293
 11
14.8171818988
 21
14.2850526766
  0
LINE
  5
2A4
100
AcDbEntity
  8
0
100
AcDbLine
 62
7
  6
CONTINUOUS
 10
15.7237985768
 20
11.4238363032
 11
15.7399564133
 21
11.4276362722
  0
LINE
  5
2A5
100
AcDbEntity
  8
0
100
AcDbLine
 62
7
  6
CONTINUOUS
 10
14.9337017833
 20
11.3945641467
 11
14.6113304354
 21
11.3945641467
  0
LINE
  5
2A6
100
AcDbEntity
  8
0
100
AcDbLine
 62
7
  6
CONTINUOUS
 10
15.9513596011
 20
11.4424198448
 11
16.5659047659
 21
11.4424198448
  0
LINE
  5
2A7
100
AcDbEntity
  8
0
100
AcDbLine
 62
7
  6
CONTINUOUS
 10
14.2935510144
 20
11.5878700944
 11
14.8738194406
 21
11.5878700944
  0
LINE
  5
2A8
100
AcDbEntity
  8
0
100
AcDbLine
 62
7
  6
CONTINUOUS
 10
14.8973918348
 20
11.2770651102
 11
14.9370472774
 21
11.1962558144
  0
LINE
  5
2A9
100
AcDbEntity
  8
0
100
AcDbLine
 62
7
  6
CONTINUOUS
 10
14.9923586072
 20
11.693543789
 11
14.0712976132
 21
11.693543789
  0
LINE
  5
2AA
100
AcDbEntity
  8
0
100
AcDbLine
 62
7
  6
CONTINUOUS
 10
14.9657771551
 20
11.5412493468
 11
15.0725418085
 21
11.3236858579
  0
LINE
  5
2AB
100
AcDbEntity
  8
0
100
AcDbLine
 62
7
  6
CONTINUOUS
 10
14.3104298005
 20
10.8785805315
 11
14.3343370924
 21
10.9698331905
  0
LINE
  5
2AC
100
AcDbEntity
  8
0
100
AcDbLine
 62
7
  6
CONTINUOUS
 10
16.3645771339
 20
11.8526824238
 11
15.845854707
 21
11.8526824238
  0
LINE
  5
2AD
100
AcDbEntity
  8
0
100
AcDbLine
 62
7
  6
CONTINUOUS
 10
15.4444141092
 20
10.9600440264
 11
15.1149688932
 21
11.6313827922
  0
LINE
  5
2AE
100
AcDbEntity
  8
0
100
AcDbLine
 62
7
  6
CONTINUOUS
 10
14.4227951008
 20
10.9443774882
 11
14.3792231626
 21
10.8033786445
  0
LINE
  5
2AF
100
AcDbEntity
  8
0
100
AcDbLine
 62
7
  6
CONTINUOUS
 10
14.5629171707
 20
11.2378987648
 11
14.6710664913
 21
11.5878700944
  0
LINE
  5
2B0
100
AcDbEntity
  8
0
100
AcDbLine
 62
7
  6
CONTINUOUS
 10
15.8688510077
 20
11.9270984803
 11
16.3875734346
 21
11.9270984803
  0
LINE
  5
2B1
100
AcDbEntity
  8
0
100
AcDbLine
 62
7
  6
CONTINUOUS
 10
14.6759578392
 20
11.3945641467
 11
14.7356938951
 21
11.5878700944
  0
LINE
  5
2B2
100
AcDbEntity
  8
0
100
AcDbLine
 62
7
  6
CONTINUOUS
 10
14.8852885186
 20
11.2378987648
 11
14.9739096905
 21
11.5246769821
  0
LINE
  5
2B3
100
AcDbEntity
  8
0
100
AcDbLine
 62
7
  6
CONTINUOUS
 10
16.5086065963
 20
12.3187619351
 11
15.9898841694
 21
12.3187619351
  0
LINE
  5
2B4
100
AcDbEntity
  8
0
100
AcDbLine
 62
7
  6
CONTINUOUS
 10
14.8889582152
 20
11.040639552
 11
14.9370472774
 21
11.1962558144
  0
LINE
  5
2B5
100
AcDbEntity
  8
0
100
AcDbLine
 62
7
  6
CONTINUOUS
 10
16.531602897
 20
12.3931779915
 11
16.0128804701
 21
12.3931779915
  0
LINE
  5
2B6
100
AcDbEntity
  8
0
100
AcDbLine
 62
7
  6
CONTINUOUS
 10
15.7934434971
 20
11.6830796866
 11
15.7446367985
 21
11.7825372815
  0
LINE
  5
2B7
100
AcDbEntity
  8
0
100
AcDbLine
 62
7
  6
CONTINUOUS
 10
15.8742479629
 20
10.7217738404
 11
15.8697586995
 21
10.7409595741
  0
LINE
  5
2B8
100
AcDbEntity
  8
0
100
AcDbLine
 62
7
  6
CONTINUOUS
 10
14.4227951008
 20
10.9443774882
 11
14.5523490958
 21
11.1079909518
  0
LINE
  5
2B9
100
AcDbEntity
  8
0
100
AcDbLine
 62
7
  6
CONTINUOUS
 10
16.2842015139
 20
12.5363483354
 11
16.1387699948
 21
12.5363483354
  0
LINE
  5
2BA
100
AcDbEntity
  8
0
100
AcDbLine
 62
7
  6
CONTINUOUS
 10
15.7934434971
 20
11.6830796866
 11
15.9806026496
 21
11.131851734
  0
LINE
  5
2BB
100
AcDbEntity
  8
0
100
AcDbLine
 62
7
  6
CONTINUOUS
 10
15.8297534456
 20
11.8005787231
 11
16.0365883755
 21
11.1914009541
  0
LINE
  5
2BC
100
AcDbEntity
  8
0
100
AcDbLine
 62
7
  6
CONTINUOUS
 10
14.3792231626
 20
10.8033786445
 11
14.5564184805
 21
11.0271582331
  0
LINE
  5
2BD
100
AcDbEntity
  8
0
100
AcDbLine
 62
7
  6
CONTINUOUS
 10
16.000278427
 20
11.0739019177
 11
15.9883711979
 21
11.1247897598
  0
LINE
  5
2BE
100
AcDbEntity
  8
0
100
AcDbLine
 62
7
  6
CONTINUOUS
 10
16.2152540464
 20
13.7408545556
 11
16.2010353545
 21
13.6948428515
  0
LINE
  5
2BF
100
AcDbEntity
  8
0
100
AcDbLine
 62
7
  6
CONTINUOUS
 10
15.3510772719
 20
10.9443774882
 11
15.3075053337
 21
10.8033786445
  0
LINE
  5
2C0
100
AcDbEntity
  8
0
100
AcDbLine
 62
7
  6
CONTINUOUS
 10
15.4444141092
 20
10.9600440264
 11
16.2553362926
 21
13.5841891737
  0
LINE
  5
2C1
100
AcDbEntity
  8
0
100
AcDbLine
 62
7
  6
CONTINUOUS
 10
16.0472197027
 20
12.7616959186
 11
15.7446367985
 21
11.7825372815
  0
LINE
  5
2C2
100
AcDbEntity
  8
0
100
AcDbLine
 62
7
  6
CONTINUOUS
 10
16.2840474085
 20
13.6656526686
 11
16.0472197027
 21
12.7616959186
  0
LINE
  5
2C3
100
AcDbEntity
  8
0
100
AcDbLine
 62
7
  6
CONTINUOUS
 10
16.3328541072
 20
13.5661950737
 11
16.0960264014
 21
12.6622383236
  0
LINE
  5
2C4
100
AcDbEntity
  8
0
100
AcDbLine
 62
7
  6
CONTINUOUS
 10
15.7934434971
 20
11.6830796866
 11
16.0960264014
 21
12.6622383236
  0
LINE
  5
2C5
100
AcDbEntity
  8
0
100
AcDbLine
 62
7
  6
CONTINUOUS
 10
15.7446367985
 20
11.7825372815
 11
15.4227769772
 21
10.8785805315
  0
LINE
  5
2C6
100
AcDbEntity
  8
0
100
AcDbLine
 62
7
  6
CONTINUOUS
 10
15.7934434971
 20
11.6830796866
 11
15.4715836759
 21
10.7791229365
  0
LINE
  5
2C7
100
AcDbEntity
  8
0
100
AcDbLine
 62
7
  6
CONTINUOUS
 10
16.0960264014
 20
12.6622383236
 11
16.0472197027
 21
12.7616959186
  0
LINE
  5
2C8
100
AcDbEntity
  8
0
100
AcDbLine
 62
7
  6
CONTINUOUS
 10
16.0597164529
 20
12.5447392872
 11
16.1111762591
 21
12.3931779915
  0
LINE
  5
2C9
100
AcDbEntity
  8
0
100
AcDbLine
 62
7
  6
CONTINUOUS
 10
16.0960264014
 20
12.6622383236
 11
16.1873808102
 21
12.3931779915
  0
LINE
  5
2CA
100
AcDbEntity
  8
0
100
AcDbLine
 62
7
  6
CONTINUOUS
 10
16.0681110909
 20
12.0545811712
 11
16.0287159598
 21
11.9270984803
  0
LINE
  5
2CB
100
AcDbEntity
  8
0
100
AcDbLine
 62
7
  6
CONTINUOUS
 10
15.94885637
 20
11.499323235
 11
15.9694320075
 21
11.5659060224
  0
LINE
  5
2CC
100
AcDbEntity
  8
0
100
AcDbLine
 62
7
  6
CONTINUOUS
 10
15.9883711979
 20
11.1247897598
 11
15.8697586995
 21
10.7409595741
  0
LINE
  5
2CD
100
AcDbEntity
  8
0
100
AcDbLine
 62
7
  6
CONTINUOUS
 10
16.380332807
 20
12.3931779915
 11
16.4095666007
 21
12.4877785826
  0
LINE
  5
2CE
100
AcDbEntity
  8
0
100
AcDbLine
 62
7
  6
CONTINUOUS
 10
15.8940113111
 20
10.7300214044
 11
16.0365883755
 21
11.1914009541
  0
LINE
  5
2CF
100
AcDbEntity
  8
0
100
AcDbLine
 62
7
  6
CONTINUOUS
 10
16.4079655686
 20
12.3931779915
 11
16.4091284473
 21
12.3969410681
  0
LINE
  5
2D0
100
AcDbEntity
  8
0
100
AcDbLine
 62
7
  6
CONTINUOUS
 10
16.4140558641
 20
12.4685928488
 11
16.4095666007
 21
12.4877785826
  0
LINE
  5
2D1
100
AcDbEntity
  8
0
100
AcDbLine
 62
7
  6
CONTINUOUS
 10
16.3767384987
 20
12.1726801198
 11
16.3008480322
 21
11.9270984803
  0
LINE
  5
2D2
100
AcDbEntity
  8
0
100
AcDbLine
 62
7
  6
CONTINUOUS
 10
15.9258910766
 20
14.2555279394
 11
16.2553362926
 21
13.5841891737
  0
LINE
  5
2D3
100
AcDbEntity
  8
0
100
AcDbLine
 62
7
  6
CONTINUOUS
 10
16.2808205794
 20
13.7065761355
 11
16.3296272781
 21
13.6071185406
  0
LINE
  5
2D4
100
AcDbEntity
  8
0
100
AcDbLine
 62
7
  6
CONTINUOUS
 10
16.7589068364
 20
12.0545811712
 11
16.6900496767
 21
11.8317593209
  0
LINE
  5
2D5
100
AcDbEntity
  8
0
100
AcDbLine
 62
7
  6
CONTINUOUS
 10
16.9475555916
 20
12.0906150694
 11
16.9245592909
 21
12.016199013
  0
LINE
  5
2D6
100
AcDbEntity
  8
0
100
AcDbLine
 62
7
  6
CONTINUOUS
 10
16.7805298285
 20
11.5501195017
 11
16.8035261292
 21
11.6245355581
  0
LINE
  5
2D7
100
AcDbEntity
  8
0
100
AcDbLine
 62
7
  6
CONTINUOUS
 10
16.1643765635
 20
13.7695456132
 11
16.2152540464
 21
13.7408545556
  0
LINE
  5
2D8
100
AcDbEntity
  8
0
100
AcDbLine
 62
7
  6
CONTINUOUS
 10
14.8822197966
 20
14.3176889362
 11
15.8032807906
 21
14.3176889362
  0
ARC
  5
2D9
100
AcDbEntity
  8
0
100
AcDbCircle
 62
7
  6
CONTINUOUS
 10
4.9603672762
 20
4.9301198968
 40
0.33
100
AcDbArc
 50
90.0
 51
270.0
  0
ARC
  5
2DA
100
AcDbEntity
  8
0
100
AcDbCircle
 62
7
  6
CONTINUOUS
 10
7.3003672762
 20
4.9301198968
 40
0.33
100
AcDbArc
 50
270.0
 51
90.0
  0
ARC
  5
2DB
100
AcDbEntity
  8
0
100
AcDbCircle
 62
7
  6
CONTINUOUS
 10
5.7553672762
 20
4.9301198968
 40
0.25
100
AcDbArc
 50
164.1625624321
 51
207.494276246
  0
ARC
  5
2DC
100
AcDbEntity
  8
0
100
AcDbCircle
 62
7
  6
CONTINUOUS
 10
6.5053672762
 20
4.9301198968
 40
0.25
100
AcDbArc
 50
332.5057095067
 51
15.8374254718
  0
ARC
  5
2DD
100
AcDbEntity
  8
0
100
AcDbCircle
 62
7
  6
CONTINUOUS
 10
6.5843197638
 20
4.4032953732
 40
0.1168245235
100
AcDbArc
 50
19.3399772092
 51
90.0
  0
ARC
  5
2DE
100
AcDbEntity
  8
0
100
AcDbCircle
 62
7
  6
CONTINUOUS
 10
5.6764147885
 20
4.4046198968
 40
0.1155
100
AcDbArc
 50
90.0
 51
162.0998380608
  0
CIRCLE
  5
2DF
100
AcDbEntity
  8
0
100
AcDbCircle
 62
7
  6
CONTINUOUS
 10
5.0053672762
 20
4.9301198968
 40
0.1
  0
CIRCLE
  5
2E0
100
AcDbEntity
  8
0
100
AcDbCircle
 62
7
  6
CONTINUOUS
 10
7.2553672762
 20
4.9301198968
 40
0.1
  0
ARC
  5
2E1
100
AcDbEntity
  8
0
100
AcDbCircle
 62
7
  6
CONTINUOUS
 10
5.6303672762
 20
6.5801198968
 40
0.1
100
AcDbArc
 50
90.0
 51
180.0
  0
ARC
  5
2E2
100
AcDbEntity
  8
0
100
AcDbCircle
 62
7
  6
CONTINUOUS
 10
6.6303672762
 20
6.5801198968
 40
0.1
100
AcDbArc
 50
0.0
 51
90.0
  0
CIRCLE
  5
2E3
100
AcDbEntity
  8
02___PRT_ALL_AXES
100
AcDbCircle
 62
7
  6
CONTINUOUS
 10
5.7553672762
 20
4.9301198968
 40
0.1
  0
CIRCLE
  5
2E4
100
AcDbEntity
  8
02___PRT_ALL_AXES
100
AcDbCircle
 62
7
  6
CONTINUOUS
 10
6.5053672762
 20
4.9301198968
 40
0.1
  0
CIRCLE
  5
2E5
100
AcDbEntity
  8
0
100
AcDbCircle
 62
7
  6
CONTINUOUS
 10
5.7553672762
 20
4.9301198968
 40
0.08
  0
CIRCLE
  5
2E6
100
AcDbEntity
  8
0
100
AcDbCircle
 62
7
  6
CONTINUOUS
 10
6.5053672762
 20
4.9301198968
 40
0.08
  0
ARC
  5
2E7
100
AcDbEntity
  8
0
100
AcDbCircle
 62
7
  6
CONTINUOUS
 10
6.4453672762
 20
6.0851198968
 40
0.075
100
AcDbArc
 50
270.0
 51
360.0
  0
ARC
  5
2E8
100
AcDbEntity
  8
0
100
AcDbCircle
 62
7
  6
CONTINUOUS
 10
6.4453672762
 20
6.4351198968
 40
0.075
100
AcDbArc
 50
0.0
 51
90.0
  0
ARC
  5
2E9
100
AcDbEntity
  8
0
100
AcDbCircle
 62
7
  6
CONTINUOUS
 10
5.8153672762
 20
6.4351198968
 40
0.075
100
AcDbArc
 50
90.0
 51
180.0
  0
ARC
  5
2EA
100
AcDbEntity
  8
0
100
AcDbCircle
 62
7
  6
CONTINUOUS
 10
5.8153672762
 20
6.0851198968
 40
0.075
100
AcDbArc
 50
180.0
 51
270.0
  0
ARC
  5
2EB
100
AcDbEntity
  8
0
100
AcDbCircle
 62
7
  6
CONTINUOUS
 10
5.5669520519
 20
14.3750477814
 40
0.1
100
AcDbArc
 50
90.0
 51
177.7093899574
  0
ARC
  5
2EC
100
AcDbEntity
  8
0
100
AcDbCircle
 62
7
  6
CONTINUOUS
 10
5.5669520519
 20
10.8250477814
 40
0.1
100
AcDbArc
 50
182.2906100426
 51
270.0
  0
ARC
  5
2ED
100
AcDbEntity
  8
0
100
AcDbCircle
 62
7
  6
CONTINUOUS
 10
6.5747921158
 20
10.8250477814
 40
0.1
100
AcDbArc
 50
270.0
 51
357.7093899574
  0
ARC
  5
2EE
100
AcDbEntity
  8
0
100
AcDbCircle
 62
7
  6
CONTINUOUS
 10
6.5747921158
 20
14.3750477814
 40
0.1
100
AcDbArc
 50
2.2906100426
 51
90.0
  0
ARC
  5
2EF
100
AcDbEntity
  8
0
100
AcDbCircle
 62
7
  6
CONTINUOUS
 10
17.2853552569
 20
5.8006247044
 40
0.15
100
AcDbArc
 50
0.0
 51
90.0
  0
ARC
  5
2F0
100
AcDbEntity
  8
0
100
AcDbCircle
 62
7
  6
CONTINUOUS
 10
13.8353552569
 20
5.8006247044
 40
0.15
100
AcDbArc
 50
90.0
 51
180.0
  0
ARC
  5
2F1
100
AcDbEntity
  8
0
100
AcDbCircle
 62
7
  6
CONTINUOUS
 10
16.6243552569
 20
4.3516247044
 40
0.051
100
AcDbArc
 50
270.0
 51
360.0
  0
ARC
  5
2F2
100
AcDbEntity
  8
0
100
AcDbCircle
 62
7
  6
CONTINUOUS
 10
14.4963552569
 20
4.3516247044
 40
0.051
100
AcDbArc
 50
180.0
 51
270.0
  0
ARC
  5
2F3
100
AcDbEntity
  8
0
100
AcDbCircle
 62
7
  6
CONTINUOUS
 10
14.1666924418
 20
11.7266556313
 40
0.1790982613
100
AcDbArc
 50
202.1188887594
 51
205.406928074
  0
ARC
  5
2F4
100
AcDbEntity
  8
0
100
AcDbCircle
 62
7
  6
CONTINUOUS
 10
15.7165644717
 20
11.4700153649
 40
0.0462915004
100
AcDbArc
 50
299.1904141152
 51
299.916394118
  0
SPLINE
  5
2F5
100
AcDbEntity
  8
0
100
AcDbSpline
 62
7
  6
CONTINUOUS
 70
0
 71
3
 72
9
 73
5
 74
0
 42
0.0000001
 43
0.0000001
 44
0.0000000001
 40
0.0
 40
0.0
 40
0.0
 40
0.0
 40
0.5139466467
 40
1.0
 40
1.0
 40
1.0
 40
1.0
 10
15.7399561943
 20
11.4276365019
 30
0.0
 10
15.742523246
 20
11.4282401848
 30
0.0
 10
15.7474713406
 20
11.4296274513
 30
0.0
 10
15.7522634865
 20
11.4314906465
 30
0.0
 10
15.754533759
 20
11.4325229686
 30
0.0
  0
SPLINE
  5
2F6
100
AcDbEntity
  8
0
100
AcDbSpline
 62
7
  6
CONTINUOUS
 70
0
 71
3
 72
10
 73
6
 74
0
 42
0.0000001
 43
0.0000001
 44
0.0000000001
 40
0.0
 40
0.0
 40
0.0
 40
0.0
 40
0.2627676406
 40
0.5176181495
 40
1.0
 40
1.0
 40
1.0
 40
1.0
 10
15.7004491491
 20
11.4216019512
 30
0.0
 10
15.7025076395
 20
11.4215557344
 30
0.0
 10
15.7065666091
 20
11.4215759269
 30
0.0
 10
15.7143886146
 20
11.4220738711
 30
0.0
 10
15.7201188203
 20
11.4229712876
 30
0.0
 10
15.7237983224
 20
11.4238365703
 30
0.0
  0
SPLINE
  5
2F7
100
AcDbEntity
  8
0
100
AcDbSpline
 62
7
  6
CONTINUOUS
 70
0
 71
3
 72
9
 73
5
 74
0
 42
0.0000001
 43
0.0000001
 44
0.0000000001
 40
0.0
 40
0.0
 40
0.0
 40
0.0
 40
0.5193586925
 40
1.0
 40
1.0
 40
1.0
 40
1.0
 10
15.7237983224
 20
11.4238365703
 30
0.0
 10
15.7265671938
 20
11.4244877064
 30
0.0
 10
15.7318335209
 20
11.426047609
 30
0.0
 10
15.7368434224
 20
11.4283188543
 30
0.0
 10
15.7391414664
 20
11.4296027144
 30
0.0
  0
SPLINE
  5
2F8
100
AcDbEntity
  8
0
100
AcDbSpline
 62
7
  6
CONTINUOUS
 70
0
 71
3
 72
11
 73
7
 74
0
 42
0.0000001
 43
0.0000001
 44
0.0000000001
 40
0.0
 40
0.0
 40
0.0
 40
0.0
 40
0.2640004548
 40
0.517975149
 40
0.7628907739
 40
1.0
 40
1.0
 40
1.0
 40
1.0
 10
15.7396516986
 20
11.429892018
 30
0.0
 10
15.7407165581
 20
11.4305047891
 30
0.0
 10
15.7427586986
 20
11.4317918736
 30
0.0
 10
15.7455870883
 20
11.4339457898
 30
0.0
 10
15.7481058146
 20
11.4362747677
 30
0.0
 10
15.7495910716
 20
11.4379624722
 30
0.0
 10
15.7502733704
 20
11.4388296769
 30
0.0
  0
SPLINE
  5
2F9
100
AcDbEntity
  8
0
100
AcDbSpline
 62
7
  6
CONTINUOUS
 70
0
 71
3
 72
9
 73
5
 74
0
 42
0.0000001
 43
0.0000001
 44
0.0000000001
 40
0.0
 40
0.0
 40
0.0
 40
0.0
 40
0.5030446066
 40
1.0
 40
1.0
 40
1.0
 40
1.0
 10
15.9394117229
 20
11.4790071336
 30
0.0
 10
15.9414352449
 20
11.4821823977
 30
0.0
 10
15.9450559434
 20
11.4887613157
 30
0.0
 10
15.9477577546
 20
11.495769526
 30
0.0
 10
15.9488561255
 20
11.4993233108
 30
0.0
  0
SPLINE
  5
2FA
100
AcDbEntity
  8
0
100
AcDbSpline
 62
7
  6
CONTINUOUS
 70
0
 71
3
 72
16
 73
12
 74
0
 42
0.0000001
 43
0.0000001
 44
0.0000000001
 40
0.0
 40
0.0
 40
0.0
 40
0.0
 40
0.1416418695
 40
0.2795723455
 40
0.4131351574
 40
0.5417616769
 40
0.6649911822
 40
0.7244874763
 40
0.7825340609
 40
0.8942094516
 40
1.0
 40
1.0
 40
1.0
 40
1.0
 10
15.848889566
 20
11.7446713747
 30
0.0
 10
15.8553567593
 20
11.7411710603
 30
0.0
 10
15.8679301422
 20
11.7338999802
 30
0.0
 10
15.885833571
 20
11.7220645579
 30
0.0
 10
15.9024143128
 20
11.7095250923
 30
0.0
 10
15.9175285522
 20
11.6963873954
 30
0.0
 10
15.928928414
 20
11.6849020544
 30
0.0
 10
15.93717632
 20
11.6755045569
 30
0.0
 10
15.9446419073
 20
11.6662331417
 30
0.0
 10
15.9528694047
 20
11.6545068398
 30
0.0
 10
15.9584224164
 20
11.6446485496
 30
0.0
 10
15.9608420449
 20
11.6397178652
 30
0.0
  0
SPLINE
  5
2FB
100
AcDbEntity
  8
0
100
AcDbSpline
 62
7
  6
CONTINUOUS
 70
0
 71
3
 72
15
 73
11
 74
0
 42
0.0000001
 43
0.0000001
 44
0.0000000001
 40
0.0
 40
0.0
 40
0.0
 40
0.0
 40
0.1380976913
 40
0.2714760319
 40
0.4004270188
 40
0.5254263158
 40
0.6471147542
 40
0.766226141
 40
0.8835666843
 40
1.0
 40
1.0
 40
1.0
 40
1.0
 10
15.9608420449
 20
11.6397178652
 30
0.0
 10
15.9623856536
 20
11.6365723214
 30
0.0
 10
15.9651966122
 20
11.630275352
 30
0.0
 10
15.9685951341
 20
11.6206891883
 30
0.0
 10
15.9710830008
 20
11.6111685722
 30
0.0
 10
15.9726472298
 20
11.6017528298
 30
0.0
 10
15.9732821385
 20
11.5924782216
 30
0.0
 10
15.9729818063
 20
11.5833799056
 30
0.0
 10
15.9717492295
 20
11.5744953609
 30
0.0
 10
15.970304105
 20
11.5687285656
 30
0.0
 10
15.9694317629
 20
11.5659060981
 30
0.0
  0
SPLINE
  5
2FC
100
AcDbEntity
  8
0
100
AcDbSpline
 62
7
  6
CONTINUOUS
 70
0
 71
3
 72
14
 73
10
 74
0
 42
0.0000001
 43
0.0000001
 44
0.0000000001
 40
0.0
 40
0.0
 40
0.0
 40
0.0
 40
0.1118225555
 40
0.2274652054
 40
0.4700976277
 40
0.5971315715
 40
0.7278772198
 40
0.8622198835
 40
1.0
 40
1.0
 40
1.0
 40
1.0
 10
15.9402664074
 20
11.5731350779
 30
0.0
 10
15.9388108671
 20
11.5761011573
 30
0.0
 10
15.9356423285
 20
11.5820348308
 30
0.0
 10
15.9283401356
 20
11.5938581771
 30
0.0
 10
15.9197225532
 20
11.6053634154
 30
0.0
 10
15.9099773637
 20
11.616487681
 30
0.0
 10
15.901921748
 20
11.6248216139
 30
0.0
 10
15.8932590848
 20
11.6329908547
 30
0.0
 10
15.8871710244
 20
11.6382471781
 30
0.0
 10
15.8840352143
 20
11.6408431645
 30
0.0
  0
SPLINE
  5
2FD
100
AcDbEntity
  8
0
100
AcDbSpline
 62
7
  6
CONTINUOUS
 70
0
 71
3
 72
15
 73
11
 74
0
 42
0.0000001
 43
0.0000001
 44
0.0000000001
 40
0.0
 40
0.0
 40
0.0
 40
0.0
 40
0.1164332938
 40
0.2337738206
 40
0.3528851955
 40
0.4745736265
 40
0.5995729263
 40
0.7285239325
 40
0.8619022949
 40
1.0
 40
1.0
 40
1.0
 40
1.0
 10
15.9488561255
 20
11.4993233108
 30
0.0
 10
15.9497284674
 20
11.5021457778
 30
0.0
 10
15.9511735919
 20
11.507912572
 30
0.0
 10
15.9524061687
 20
11.5167971154
 30
0.0
 10
15.952706501
 20
11.5258954305
 30
0.0
 10
15.9520715928
 20
11.5351700383
 30
0.0
 10
15.9505073643
 20
11.5445857812
 30
0.0
 10
15.9480194971
 20
11.5541063983
 30
0.0
 10
15.9446209751
 20
11.5636925635
 30
0.0
 10
15.9418100163
 20
11.5699895338
 30
0.0
 10
15.9402664074
 20
11.5731350779
 30
0.0
  0
SPLINE
  5
2FE
100
AcDbEntity
  8
0
100
AcDbSpline
 62
7
  6
CONTINUOUS
 70
0
 71
3
 72
15
 73
11
 74
0
 42
0.0000001
 43
0.0000001
 44
0.0000000001
 40
0.0
 40
0.0
 40
0.0
 40
0.0
 40
0.1172219855
 40
0.2352578243
 40
0.3548856649
 40
0.4768392913
 40
0.6017939366
 40
0.7303489282
 40
0.8629834326
 40
1.0
 40
1.0
 40
1.0
 40
1.0
 10
14.1386990586
 20
12.2110622005
 30
0.0
 10
14.1376122137
 20
12.2075457036
 30
0.0
 10
14.1357915388
 20
12.2003711251
 30
0.0
 10
14.1341576959
 20
12.1893305553
 30
0.0
 10
14.1336192395
 20
12.1780335432
 30
0.0
 10
14.1341805228
 20
12.166521456
 30
0.0
 10
14.1358357862
 20
12.1548332484
 30
0.0
 10
14.1385793878
 20
12.1430082373
 30
0.0
 10
14.1424006552
 20
12.1310900321
 30
0.0
 10
14.1456001338
 20
12.123241263
 30
0.0
 10
14.1473640807
 20
12.1193173664
 30
0.0
  0
SPLINE
  5
2FF
100
AcDbEntity
  8
0
100
AcDbSpline
 62
7
  6
CONTINUOUS
 70
0
 71
3
 72
14
 73
10
 74
0
 42
0.0000001
 43
0.0000001
 44
0.0000000001
 40
0.0
 40
0.0
 40
0.0
 40
0.0
 40
0.1172281615
 40
0.2352707578
 40
0.3549183965
 40
0.4769067923
 40
0.6018971216
 40
0.7304718604
 40
1.0
 40
1.0
 40
1.0
 40
1.0
 10
14.1616953593
 20
12.2854782569
 30
0.0
 10
14.1627840348
 20
12.289000677
 30
0.0
 10
14.1653334059
 20
12.2959630698
 30
0.0
 10
14.1702228426
 20
12.306017382
 30
0.0
 10
14.1761680969
 20
12.3156626601
 30
0.0
 10
14.1831443451
 20
12.3248642412
 30
0.0
 10
14.1911264424
 20
12.3335926036
 30
0.0
 10
14.2032581476
 20
12.3447269859
 30
0.0
 10
14.2135208127
 20
12.3520146538
 30
0.0
 10
14.220756916
 20
12.3564296778
 30
0.0
  0
SPLINE
  5
300
100
AcDbEntity
  8
0
100
AcDbSpline
 62
7
  6
CONTINUOUS
 70
0
 71
3
 72
14
 73
10
 74
0
 42
0.0000001
 43
0.0000001
 44
0.0000000001
 40
0.0
 40
0.0
 40
0.0
 40
0.0
 40
0.1172281615
 40
0.2352707578
 40
0.3549183965
 40
0.4769067923
 40
0.6018971216
 40
0.7304718604
 40
1.0
 40
1.0
 40
1.0
 40
1.0
 10
14.0176658969
 20
11.8193987457
 30
0.0
 10
14.0187545724
 20
11.8229211658
 30
0.0
 10
14.0213039435
 20
11.8298835586
 30
0.0
 10
14.0261933802
 20
11.8399378708
 30
0.0
 10
14.0321386344
 20
11.8495831489
 30
0.0
 10
14.0391148826
 20
11.85878473
 30
0.0
 10
14.04709698
 20
11.8675130924
 30
0.0
 10
14.0592286852
 20
11.8786474747
 30
0.0
 10
14.0694913503
 20
11.8859351426
 30
0.0
 10
14.0767274536
 20
11.8903501666
 30
0.0
  0
SPLINE
  5
301
100
AcDbEntity
  8
0
100
AcDbSpline
 62
7
  6
CONTINUOUS
 70
0
 71
3
 72
14
 73
10
 74
0
 42
0.0000001
 43
0.0000001
 44
0.0000000001
 40
0.0
 40
0.0
 40
0.0
 40
0.0
 40
0.1180555846
 40
0.2368327116
 40
0.3570236246
 40
0.4792845403
 40
0.6042266235
 40
0.7323998312
 40
1.0
 40
1.0
 40
1.0
 40
1.0
 10
13.9946695962
 20
11.7449826893
 30
0.0
 10
13.9936507622
 20
11.741686242
 30
0.0
 10
13.9919235057
 20
11.7349706013
 30
0.0
 10
13.9902957031
 20
11.7246490425
 30
0.0
 10
13.9896294537
 20
11.7140975276
 30
0.0
 10
13.9899288091
 20
11.7033501899
 30
0.0
 10
13.9911911654
 20
11.6924381926
 30
0.0
 10
13.9941920508
 20
11.677505288
 30
0.0
 10
13.9978315208
 20
11.666465679
 30
0.0
 10
14.0007749976
 20
11.6592198181
 30
0.0
  0
SPLINE
  5
302
100
AcDbEntity
  8
0
100
AcDbSpline
 62
7
  6
CONTINUOUS
 70
0
 71
3
 72
14
 73
10
 74
0
 42
0.0000001
 43
0.0000001
 44
0.0000000001
 40
0.0
 40
0.0
 40
0.0
 40
0.0
 40
0.2695281396
 40
0.3981028784
 40
0.5230932077
 40
0.6450816035
 40
0.7647292422
 40
0.8827718385
 40
1.0
 40
1.0
 40
1.0
 40
1.0
 10
14.1977606153
 20
12.2820136214
 30
0.0
 10
14.190524512
 20
12.2775985974
 30
0.0
 10
14.1802618469
 20
12.2703109295
 30
0.0
 10
14.1681301417
 20
12.2591765472
 30
0.0
 10
14.1601480443
 20
12.2504481848
 30
0.0
 10
14.1531717961
 20
12.2412466037
 30
0.0
 10
14.1472265419
 20
12.2316013256
 30
0.0
 10
14.1423371052
 20
12.2215470134
 30
0.0
 10
14.1397877341
 20
12.2145846206
 30
0.0
 10
14.1386990586
 20
12.2110622005
 30
0.0
  0
SPLINE
  5
303
100
AcDbEntity
  8
0
100
AcDbSpline
 62
7
  6
CONTINUOUS
 70
0
 71
3
 72
14
 73
10
 74
0
 42
0.0000001
 43
0.0000001
 44
0.0000000001
 40
0.0
 40
0.0
 40
0.0
 40
0.0
 40
0.2695281396
 40
0.3981028784
 40
0.5230932077
 40
0.6450816035
 40
0.7647292422
 40
0.8827718385
 40
1.0
 40
1.0
 40
1.0
 40
1.0
 10
14.0537311528
 20
11.8159341101
 30
0.0
 10
14.0464950496
 20
11.8115190862
 30
0.0
 10
14.0362323845
 20
11.8042314183
 30
0.0
 10
14.0241006793
 20
11.793097036
 30
0.0
 10
14.0161185819
 20
11.7843686736
 30
0.0
 10
14.0091423337
 20
11.7751670925
 30
0.0
 10
14.0031970794
 20
11.7655218144
 30
0.0
 10
13.9983076427
 20
11.7554675022
 30
0.0
 10
13.9957582717
 20
11.7485051094
 30
0.0
 10
13.9946695962
 20
11.7449826893
 30
0.0
  0
SPLINE
  5
304
100
AcDbEntity
  8
0
100
AcDbSpline
 62
7
  6
CONTINUOUS
 70
0
 71
3
 72
23
 73
19
 74
0
 42
0.0000001
 43
0.0000001
 44
0.0000000001
 40
0.0
 40
0.0
 40
0.0
 40
0.0
 40
0.0787685312
 40
0.1556049133
 40
0.2302932366
 40
0.3027009232
 40
0.3727415632
 40
0.4403537066
 40
0.568118726
 40
0.6284191525
 40
0.6864349544
 40
0.7423353814
 40
0.7695684896
 40
0.7963617697
 40
0.8487663718
 40
0.8999082942
 40
0.9501768077
 40
1.0
 40
1.0
 40
1.0
 40
1.0
 10
16.7139296369
 20
11.9085172199
 30
0.0
 10
16.7205486838
 20
11.9085765239
 30
0.0
 10
16.7336239906
 20
11.9089861551
 30
0.0
 10
16.7529242523
 20
11.9105052026
 30
0.0
 10
16.7715954582
 20
11.9129195835
 30
0.0
 10
16.7895510361
 20
11.9162164985
 30
0.0
 10
16.8067164731
 20
11.9203830948
 30
0.0
 10
16.8280413439
 20
11.9269479503
 30
0.0
 10
16.8479588177
 20
11.9352311573
 30
0.0
 10
16.8660255699
 20
11.945331211
 30
0.0
 10
16.8781898676
 20
11.9535096759
 30
0.0
 10
16.887423422
 20
11.9609842789
 30
0.0
 10
16.8941691786
 20
11.9673002795
 30
0.0
 10
16.9003908132
 20
11.9737298493
 30
0.0
 10
16.9074035919
 20
11.9821714362
 30
0.0
 10
16.9145633098
 20
11.9929645063
 30
0.0
 10
16.9203678339
 20
12.0043000516
 30
0.0
 10
16.9233227
 20
12.0121989003
 30
0.0
 10
16.9245590401
 20
12.0161990906
 30
0.0
  0
SPLINE
  5
305
100
AcDbEntity
  8
0
100
AcDbSpline
 62
7
  6
CONTINUOUS
 70
0
 71
3
 72
15
 73
11
 74
0
 42
0.0000001
 43
0.0000001
 44
0.0000000001
 40
0.0
 40
0.0
 40
0.0
 40
0.0
 40
0.1380905849
 40
0.2714695097
 40
0.400427242
 40
0.5254293396
 40
0.6471170369
 40
0.7662260613
 40
0.8835659692
 40
1.0
 40
1.0
 40
1.0
 40
1.0
 10
16.7921873786
 20
11.7219671907
 30
0.0
 10
16.7942248361
 20
11.717815289
 30
0.0
 10
16.7979351366
 20
11.7095034552
 30
0.0
 10
16.8024210626
 20
11.6968496921
 30
0.0
 10
16.8057055419
 20
11.6842822589
 30
0.0
 10
16.8077701489
 20
11.6718531512
 30
0.0
 10
16.8086083935
 20
11.6596107089
 30
0.0
 10
16.8082118583
 20
11.6476010374
 30
0.0
 10
16.8065843173
 20
11.6358736317
 30
0.0
 10
16.8046773749
 20
11.628261314
 30
0.0
 10
16.8035258784
 20
11.6245356358
 30
0.0
  0
SPLINE
  5
306
100
AcDbEntity
  8
0
100
AcDbSpline
 62
7
  6
CONTINUOUS
 70
0
 71
3
 72
25
 73
21
 74
0
 42
0.0000001
 43
0.0000001
 44
0.0000000001
 40
0.0
 40
0.0
 40
0.0
 40
0.0
 40
0.0639651431
 40
0.1296550031
 40
0.1966308451
 40
0.2644991097
 40
0.3328302124
 40
0.4011783467
 40
0.4691027326
 40
0.5361712198
 40
0.6019662561
 40
0.6660975295
 40
0.6974309596
 40
0.728219466
 40
0.7880048149
 40
0.8452087423
 40
0.8727883769
 40
0.8996647555
 40
0.9512672769
 40
1.0
 40
1.0
 40
1.0
 40
1.0
 10
16.3875734346
 20
11.9270984803
 30
0.0
 10
16.3976691599
 20
11.9270984803
 30
0.0
 10
16.4181379877
 20
11.926410338
 30
0.0
 10
16.4490482005
 20
11.9234408007
 30
0.0
 10
16.480335856
 20
11.9185409938
 30
0.0
 10
16.5116958588
 20
11.9117602798
 30
0.0
 10
16.5428323887
 20
11.9031651752
 30
0.0
 10
16.5734464295
 20
11.8928350073
 30
0.0
 10
16.6032448874
 20
11.8808700615
 30
0.0
 10
16.631943569
 20
11.8673854375
 30
0.0
 10
16.6592662335
 20
11.8525082644
 30
0.0
 10
16.6808388436
 20
11.8389661198
 30
0.0
 10
16.6971710349
 20
11.8275437514
 30
0.0
 10
16.712556852
 20
11.8159848604
 30
0.0
 10
16.730461051
 20
11.8010030542
 30
0.0
 10
16.7468116124
 20
11.7850494286
 30
0.0
 10
16.7586173471
 20
11.7719576698
 30
0.0
 10
16.769269293
 20
11.7590386353
 30
0.0
 10
16.7809606226
 20
11.7426762384
 30
0.0
 10
16.7887989148
 20
11.7288721539
 30
0.0
 10
16.7921873786
 20
11.7219671907
 30
0.0
  0
SPLINE
  5
307
100
AcDbEntity
  8
0
100
AcDbSpline
 62
7
  6
CONTINUOUS
 70
0
 71
3
 72
35
 73
31
 74
0
 42
0.0000001
 43
0.0000001
 44
0.0000000001
 40
0.0
 40
0.0
 40
0.0
 40
0.0
 40
0.0214529013
 40
0.043201331
 40
0.0655222807
 40
0.0886558466
 40
0.1128005907
 40
0.1381014138
 40
0.1646564261
 40
0.19252054
 40
0.2521436082
 40
0.2838694482
 40
0.3167596992
 40
0.3507151169
 40
0.3856133142
 40
0.4213208682
 40
0.4576897334
 40
0.5317522676
 40
0.6064940467
 40
0.6437022668
 40
0.6805679846
 40
0.7169264838
 40
0.7526227513
 40
0.7875083518
 40
0.8214487395
 40
0.8859918446
 40
0.9164547818
 40
0.9456301841
 40
0.9734843066
 40
1.0
 40
1.0
 40
1.0
 40
1.0
 10
16.3282518244
 20
11.6770756518
 30
0.0
 10
16.3287187103
 20
11.6785859405
 30
0.0
 10
16.3298811315
 20
11.6815635227
 30
0.0
 10
16.3322689587
 20
11.6857773988
 30
0.0
 10
16.3352873955
 20
11.6897218735
 30
0.0
 10
16.3389096589
 20
11.6933709439
 30
0.0
 10
16.343111091
 20
11.696698801
 30
0.0
 10
16.3478592858
 20
11.6996867991
 30
0.0
 10
16.3531224531
 20
11.7023157163
 30
0.0
 10
16.3609540911
 20
11.7053871139
 30
0.0
 10
16.3695034303
 20
11.7075702968
 30
0.0
 10
16.3785585139
 20
11.7089413775
 30
0.0
 10
16.3857996551
 20
11.7095734532
 30
0.0
 10
16.3932979091
 20
11.7097821235
 30
0.0
 10
16.4010035866
 20
11.7095686192
 30
0.0
 10
16.4088641732
 20
11.7089319355
 30
0.0
 10
16.419543473
 20
11.7075182594
 30
0.0
 10
16.4329228214
 20
11.7047264887
 30
0.0
 10
16.44603783
 20
11.7006688319
 30
0.0
 10
16.4562600259
 20
11.6966897117
 30
0.0
 10
16.4636957173
 20
11.6933755944
 30
0.0
 10
16.4708592676
 20
11.6897486074
 30
0.0
 10
16.4777030933
 20
11.6858354877
 30
0.0
 10
16.4841804092
 20
11.6816604516
 30
0.0
 10
16.4921336708
 20
11.6758822403
 30
0.0
 10
16.4993315429
 20
11.6696324058
 30
0.0
 10
16.5055858606
 20
11.6629437392
 30
0.0
 10
16.5096304958
 20
11.6579143887
 30
0.0
 10
16.5130899721
 20
11.6528138665
 30
0.0
 10
16.5150385404
 20
11.6493051872
 30
0.0
 10
16.5158993046
 20
11.6475511343
 30
0.0
  0
SPLINE
  5
308
100
AcDbEntity
  8
0
100
AcDbSpline
 62
7
  6
CONTINUOUS
 70
0
 71
3
 72
22
 73
18
 74
0
 42
0.0000001
 43
0.0000001
 44
0.0000000001
 40
0.0
 40
0.0
 40
0.0
 40
0.0
 40
0.0788467062
 40
0.155787941
 40
0.2305952946
 40
0.3031180223
 40
0.3732639653
 40
0.4409663892
 40
0.5688465369
 40
0.629162194
 40
0.6871609905
 40
0.7430106178
 40
0.7969371554
 40
0.84922812
 40
0.9002313709
 40
0.9503430941
 40
1.0
 40
1.0
 40
1.0
 40
1.0
 10
16.5659047659
 20
11.4424198448
 30
0.0
 10
16.572635484
 20
11.4424198448
 30
0.0
 10
16.5859365055
 20
11.4427188466
 30
0.0
 10
16.6055805775
 20
11.4440931384
 30
0.0
 10
16.6245964099
 20
11.4463857236
 30
0.0
 10
16.6428923087
 20
11.4495856452
 30
0.0
 10
16.6603899296
 20
11.453678698
 30
0.0
 10
16.682131206
 20
11.460178431
 30
0.0
 10
16.7024479033
 20
11.4684399306
 30
0.0
 10
16.7208839135
 20
11.4785693075
 30
0.0
 10
16.7332946372
 20
11.4867896521
 30
0.0
 10
16.7444989995
 20
11.4957431092
 30
0.0
 10
16.7544456842
 20
11.5053918888
 30
0.0
 10
16.7630847347
 20
11.5156953642
 30
0.0
 10
16.7703767433
 20
11.5266057643
 30
0.0
 10
16.7762799148
 20
11.5380733615
 30
0.0
 10
16.7792778675
 20
11.5460696592
 30
0.0
 10
16.7805295776
 20
11.5501195794
 30
0.0
  0
SPLINE
  5
309
100
AcDbEntity
  8
0
100
AcDbSpline
 62
7
  6
CONTINUOUS
 70
0
 71
3
 72
14
 73
10
 74
0
 42
0.0000001
 43
0.0000001
 44
0.0000000001
 40
0.0
 40
0.0
 40
0.0
 40
0.0
 40
0.271218592
 40
0.4002573771
 40
0.5253429981
 40
0.6470742203
 40
0.7662004115
 40
0.8835471033
 40
1.0
 40
1.0
 40
1.0
 40
1.0
 10
16.5158993046
 20
11.6475511343
 30
0.0
 10
16.5171116757
 20
11.6450805817
 30
0.0
 10
16.5186448649
 20
11.6412950599
 30
0.0
 10
16.51999508
 20
11.6361327919
 30
0.0
 10
16.5206217674
 20
11.6323649357
 30
0.0
 10
16.5208752003
 20
11.6286544771
 30
0.0
 10
16.5207554883
 20
11.6250152779
 30
0.0
 10
16.5202621229
 20
11.6214618427
 30
0.0
 10
16.5196835735
 20
11.6191555266
 30
0.0
 10
16.5193345859
 20
11.6180266169
 30
0.0
  0
SPLINE
  5
30A
100
AcDbEntity
  8
0
100
AcDbSpline
 62
7
  6
CONTINUOUS
 70
0
 71
3
 72
15
 73
11
 74
0
 42
0.0000001
 43
0.0000001
 44
0.0000000001
 40
0.0
 40
0.0
 40
0.0
 40
0.0
 40
0.1380905849
 40
0.2714695097
 40
0.400427242
 40
0.5254293396
 40
0.6471170369
 40
0.7662260613
 40
0.8835659692
 40
1.0
 40
1.0
 40
1.0
 40
1.0
 10
16.9362168411
 20
12.188046702
 30
0.0
 10
16.9382542985
 20
12.1838948003
 30
0.0
 10
16.941964599
 20
12.1755829664
 30
0.0
 10
16.946450525
 20
12.1629292033
 30
0.0
 10
16.9497350043
 20
12.1503617701
 30
0.0
 10
16.9517996113
 20
12.1379326624
 30
0.0
 10
16.9526378559
 20
12.1256902202
 30
0.0
 10
16.9522413207
 20
12.1136805486
 30
0.0
 10
16.9506137798
 20
12.101953143
 30
0.0
 10
16.9487068374
 20
12.0943408253
 30
0.0
 10
16.9475553408
 20
12.090615147
 30
0.0
  0
SPLINE
  5
30B
100
AcDbEntity
  8
0
100
AcDbSpline
 62
7
  6
CONTINUOUS
 70
0
 71
3
 72
25
 73
21
 74
0
 42
0.0000001
 43
0.0000001
 44
0.0000000001
 40
0.0
 40
0.0
 40
0.0
 40
0.0
 40
0.0639651431
 40
0.1296550031
 40
0.1966308451
 40
0.2644991097
 40
0.3328302124
 40
0.4011783467
 40
0.4691027326
 40
0.5361712198
 40
0.6019662561
 40
0.6660975295
 40
0.6974309596
 40
0.728219466
 40
0.7880048149
 40
0.8452087423
 40
0.8727883769
 40
0.8996647555
 40
0.9512672769
 40
1.0
 40
1.0
 40
1.0
 40
1.0
 10
16.531602897
 20
12.3931779915
 30
0.0
 10
16.5416986224
 20
12.3931779915
 30
0.0
 10
16.5621674501
 20
12.3924898493
 30
0.0
 10
16.5930776629
 20
12.3895203119
 30
0.0
 10
16.6243653184
 20
12.3846205051
 30
0.0
 10
16.6557253212
 20
12.3778397911
 30
0.0
 10
16.6868618511
 20
12.3692446865
 30
0.0
 10
16.7174758919
 20
12.3589145185
 30
0.0
 10
16.7472743498
 20
12.3469495727
 30
0.0
 10
16.7759730315
 20
12.3334649488
 30
0.0
 10
16.8032956959
 20
12.3185877756
 30
0.0
 10
16.824868306
 20
12.305045631
 30
0.0
 10
16.8412004973
 20
12.2936232626
 30
0.0
 10
16.8565863144
 20
12.2820643717
 30
0.0
 10
16.8744905134
 20
12.2670825655
 30
0.0
 10
16.8908410748
 20
12.2511289398
 30
0.0
 10
16.9026468095
 20
12.238037181
 30
0.0
 10
16.9132987555
 20
12.2251181465
 30
0.0
 10
16.9249900851
 20
12.2087557496
 30
0.0
 10
16.9328283773
 20
12.1949516652
 30
0.0
 10
16.9362168411
 20
12.188046702
 30
0.0
  0
SPLINE
  5
30C
100
AcDbEntity
  8
0
100
AcDbSpline
 62
7
  6
CONTINUOUS
 70
0
 71
3
 72
25
 73
21
 74
0
 42
0.0000001
 43
0.0000001
 44
0.0000000001
 40
0.0
 40
0.0
 40
0.0
 40
0.0
 40
0.0487327231
 40
0.1003352445
 40
0.1272116231
 40
0.1547912577
 40
0.2119951851
 40
0.271780534
 40
0.3025690404
 40
0.3339024705
 40
0.3980337439
 40
0.4638287802
 40
0.5308972674
 40
0.5988216533
 40
0.6671697876
 40
0.7355008903
 40
0.8033691549
 40
0.8703449969
 40
0.9360348569
 40
1.0
 40
1.0
 40
1.0
 40
1.0
 10
16.7691910779
 20
11.6475511343
 30
0.0
 10
16.7658026141
 20
11.6544560975
 30
0.0
 10
16.7579643219
 20
11.668260182
 30
0.0
 10
16.7462729923
 20
11.6846225789
 30
0.0
 10
16.7356210463
 20
11.6975416134
 30
0.0
 10
16.7238153116
 20
11.7106333721
 30
0.0
 10
16.7074647503
 20
11.7265869978
 30
0.0
 10
16.6895605513
 20
11.741568804
 30
0.0
 10
16.6741747342
 20
11.7531276949
 30
0.0
 10
16.6578425429
 20
11.7645500634
 30
0.0
 10
16.6362699328
 20
11.7780922079
 30
0.0
 10
16.6089472683
 20
11.7929693811
 30
0.0
 10
16.5802485867
 20
11.8064540051
 30
0.0
 10
16.5504501288
 20
11.8184189509
 30
0.0
 10
16.519836088
 20
11.8287491188
 30
0.0
 10
16.4886995581
 20
11.8373442234
 30
0.0
 10
16.4573395553
 20
11.8441249374
 30
0.0
 10
16.4260518998
 20
11.8490247443
 30
0.0
 10
16.395141687
 20
11.8519942816
 30
0.0
 10
16.3746728592
 20
11.8526824238
 30
0.0
 10
16.3645771339
 20
11.8526824238
 30
0.0
  0
SPLINE
  5
30D
100
AcDbEntity
  8
0
100
AcDbSpline
 62
7
  6
CONTINUOUS
 70
0
 71
3
 72
15
 73
11
 74
0
 42
0.0000001
 43
0.0000001
 44
0.0000000001
 40
0.0
 40
0.0
 40
0.0
 40
0.0
 40
0.138067082
 40
0.2714441243
 40
0.4004209239
 40
0.5254349882
 40
0.647124059
 40
0.7662275771
 40
0.8835639483
 40
1.0
 40
1.0
 40
1.0
 40
1.0
 10
16.7520348664
 20
12.1136306455
 30
0.0
 10
16.7532694776
 20
12.1111147724
 30
0.0
 10
16.755517814
 20
12.1060777102
 30
0.0
 10
16.7582362485
 20
12.0984088241
 30
0.0
 10
16.7602277498
 20
12.0907918358
 30
0.0
 10
16.7614790679
 20
12.0832583585
 30
0.0
 10
16.7619869154
 20
12.0758385646
 30
0.0
 10
16.7617471839
 20
12.0685600904
 30
0.0
 10
16.7607596388
 20
12.0614528628
 30
0.0
 10
16.7596041126
 20
12.0568393827
 30
0.0
 10
16.7589065431
 20
12.0545812606
 30
0.0
  0
SPLINE
  5
30E
100
AcDbEntity
  8
0
100
AcDbSpline
 62
7
  6
CONTINUOUS
 70
0
 71
3
 72
14
 73
10
 74
0
 42
0.0000001
 43
0.0000001
 44
0.0000000001
 40
0.0
 40
0.0
 40
0.0
 40
0.0
 40
0.271218592
 40
0.4002573771
 40
0.5253429981
 40
0.6470742203
 40
0.7662004115
 40
0.8835471033
 40
1.0
 40
1.0
 40
1.0
 40
1.0
 10
16.3316871058
 20
11.6475511343
 30
0.0
 10
16.3304747346
 20
11.6500216869
 30
0.0
 10
16.3289415454
 20
11.6538072087
 30
0.0
 10
16.3275913303
 20
11.6589694767
 30
0.0
 10
16.326964643
 20
11.6627373329
 30
0.0
 10
16.32671121
 20
11.6664477915
 30
0.0
 10
16.326830922
 20
11.6700869907
 30
0.0
 10
16.3273242874
 20
11.6736404259
 30
0.0
 10
16.3279028368
 20
11.6759467421
 30
0.0
 10
16.3282518244
 20
11.6770756518
 30
0.0
  0
SPLINE
  5
30F
100
AcDbEntity
  8
0
100
AcDbSpline
 62
7
  6
CONTINUOUS
 70
0
 71
3
 72
15
 73
11
 74
0
 42
0.0000001
 43
0.0000001
 44
0.0000000001
 40
0.0
 40
0.0
 40
0.0
 40
0.0
 40
0.1164340308
 40
0.2337739387
 40
0.3528829631
 40
0.4745706604
 40
0.599572758
 40
0.7285304903
 40
0.8619094151
 40
1.0
 40
1.0
 40
1.0
 40
1.0
 10
16.7805295776
 20
11.5501195794
 30
0.0
 10
16.7816810742
 20
11.5538452576
 30
0.0
 10
16.7835880166
 20
11.5614575753
 30
0.0
 10
16.7852155576
 20
11.573184981
 30
0.0
 10
16.7856120928
 20
11.5851946525
 30
0.0
 10
16.7847738482
 20
11.5974370948
 30
0.0
 10
16.7827092412
 20
11.6098662025
 30
0.0
 10
16.7794247619
 20
11.6224336356
 30
0.0
 10
16.7749388359
 20
11.6350873988
 30
0.0
 10
16.7712285353
 20
11.6433992326
 30
0.0
 10
16.7691910779
 20
11.6475511343
 30
0.0
  0
SPLINE
  5
310
100
AcDbEntity
  8
0
100
AcDbSpline
 62
7
  6
CONTINUOUS
 70
0
 71
3
 72
35
 73
31
 74
0
 42
0.0000001
 43
0.0000001
 44
0.0000000001
 40
0.0
 40
0.0
 40
0.0
 40
0.0
 40
0.0214529013
 40
0.043201331
 40
0.0655222807
 40
0.0886558466
 40
0.1128005907
 40
0.1381014138
 40
0.1646564261
 40
0.19252054
 40
0.2521436082
 40
0.2838694482
 40
0.3167596992
 40
0.3507151169
 40
0.3856133142
 40
0.4213208682
 40
0.4576897334
 40
0.5317522676
 40
0.6064940467
 40
0.6437022668
 40
0.6805679846
 40
0.7169264838
 40
0.7526227513
 40
0.7875083518
 40
0.8214487395
 40
0.8859918446
 40
0.9164547818
 40
0.9456301841
 40
0.9734843066
 40
1.0
 40
1.0
 40
1.0
 40
1.0
 10
16.5193345859
 20
11.6180266169
 30
0.0
 10
16.5188677
 20
11.6165163281
 30
0.0
 10
16.5177052788
 20
11.613538746
 30
0.0
 10
16.5153174516
 20
11.6093248698
 30
0.0
 10
16.5122990148
 20
11.6053803951
 30
0.0
 10
16.5086767514
 20
11.6017313248
 30
0.0
 10
16.5044753193
 20
11.5984034676
 30
0.0
 10
16.4997271245
 20
11.5954154696
 30
0.0
 10
16.4944639572
 20
11.5927865524
 30
0.0
 10
16.4866323192
 20
11.5897151547
 30
0.0
 10
16.47808298
 20
11.5875319718
 30
0.0
 10
16.4690278964
 20
11.5861608911
 30
0.0
 10
16.4617867552
 20
11.5855288154
 30
0.0
 10
16.4542885012
 20
11.5853201451
 30
0.0
 10
16.4465828237
 20
11.5855336495
 30
0.0
 10
16.4387222371
 20
11.5861703331
 30
0.0
 10
16.4280429373
 20
11.5875840093
 30
0.0
 10
16.4146635889
 20
11.5903757799
 30
0.0
 10
16.4015485803
 20
11.5944334368
 30
0.0
 10
16.3913263844
 20
11.598412557
 30
0.0
 10
16.383890693
 20
11.6017266743
 30
0.0
 10
16.3767271427
 20
11.6053536613
 30
0.0
 10
16.369883317
 20
11.6092667809
 30
0.0
 10
16.3634060012
 20
11.6134418171
 30
0.0
 10
16.3554527395
 20
11.6192200284
 30
0.0
 10
16.3482548674
 20
11.6254698629
 30
0.0
 10
16.3420005497
 20
11.6321585294
 30
0.0
 10
16.3379559146
 20
11.6371878799
 30
0.0
 10
16.3344964382
 20
11.6422884021
 30
0.0
 10
16.3325478699
 20
11.6457970815
 30
0.0
 10
16.3316871058
 20
11.6475511343
 30
0.0
  0
SPLINE
  5
311
100
AcDbEntity
  8
0
100
AcDbSpline
 62
7
  6
CONTINUOUS
 70
0
 71
3
 72
25
 73
21
 74
0
 42
0.0000001
 43
0.0000001
 44
0.0000000001
 40
0.0
 40
0.0
 40
0.0
 40
0.0
 40
0.0487327231
 40
0.1003352445
 40
0.1272116231
 40
0.1547912577
 40
0.2119951851
 40
0.271780534
 40
0.3025690404
 40
0.3339024705
 40
0.3980337439
 40
0.4638287802
 40
0.5308972674
 40
0.5988216533
 40
0.6671697876
 40
0.7355008903
 40
0.8033691549
 40
0.8703449969
 40
0.9360348569
 40
1.0
 40
1.0
 40
1.0
 40
1.0
 10
16.9132205403
 20
12.1136306455
 30
0.0
 10
16.9098320765
 20
12.1205356087
 30
0.0
 10
16.9019937843
 20
12.1343396932
 30
0.0
 10
16.8903024547
 20
12.1507020901
 30
0.0
 10
16.8796505088
 20
12.1636211246
 30
0.0
 10
16.8678447741
 20
12.1767128834
 30
0.0
 10
16.8514942127
 20
12.1926665091
 30
0.0
 10
16.8335900137
 20
12.2076483152
 30
0.0
 10
16.8182041966
 20
12.2192072062
 30
0.0
 10
16.8018720053
 20
12.2306295746
 30
0.0
 10
16.7802993952
 20
12.2441717192
 30
0.0
 10
16.7529767307
 20
12.2590488924
 30
0.0
 10
16.7242780491
 20
12.2725335163
 30
0.0
 10
16.6944795912
 20
12.2844984621
 30
0.0
 10
16.6638655504
 20
12.29482863
 30
0.0
 10
16.6327290205
 20
12.3034237346
 30
0.0
 10
16.6013690177
 20
12.3102044487
 30
0.0
 10
16.5700813622
 20
12.3151042555
 30
0.0
 10
16.5391711494
 20
12.3180737929
 30
0.0
 10
16.5187023216
 20
12.3187619351
 30
0.0
 10
16.5086065963
 20
12.3187619351
 30
0.0
  0
SPLINE
  5
312
100
AcDbEntity
  8
0
100
AcDbSpline
 62
7
  6
CONTINUOUS
 70
0
 71
3
 72
15
 73
11
 74
0
 42
0.0000001
 43
0.0000001
 44
0.0000000001
 40
0.0
 40
0.0
 40
0.0
 40
0.0
 40
0.1164340308
 40
0.2337739387
 40
0.3528829631
 40
0.4745706604
 40
0.599572758
 40
0.7285304903
 40
0.8619094151
 40
1.0
 40
1.0
 40
1.0
 40
1.0
 10
16.9245590401
 20
12.0161990906
 30
0.0
 10
16.9257105366
 20
12.0199247689
 30
0.0
 10
16.927617479
 20
12.0275370866
 30
0.0
 10
16.92924502
 20
12.0392644922
 30
0.0
 10
16.9296415552
 20
12.0512741638
 30
0.0
 10
16.9288033106
 20
12.063516606
 30
0.0
 10
16.9267387036
 20
12.0759457137
 30
0.0
 10
16.9234542243
 20
12.0885131469
 30
0.0
 10
16.9189682983
 20
12.10116691
 30
0.0
 10
16.9152579978
 20
12.1094787438
 30
0.0
 10
16.9132205403
 20
12.1136306455
 30
0.0
  0
SPLINE
  5
313
100
AcDbEntity
  8
0
100
AcDbSpline
 62
7
  6
CONTINUOUS
 70
0
 71
3
 72
39
 73
35
 74
0
 42
0.0000001
 43
0.0000001
 44
0.0000000001
 40
0.0
 40
0.0
 40
0.0
 40
0.0
 40
0.0107135538
 40
0.0214643855
 40
0.0322893095
 40
0.0432237971
 40
0.0543017607
 40
0.065555057
 40
0.0886881003
 40
0.112830589
 40
0.1381297137
 40
0.1646827591
 40
0.192544001
 40
0.2217246674
 40
0.2522037279
 40
0.2839262822
 40
0.3168147858
 40
0.350766299
 40
0.3856623521
 40
0.457708798
 40
0.5317650198
 40
0.6065001666
 40
0.643704966
 40
0.6805676572
 40
0.7169241928
 40
0.7526165455
 40
0.7874977706
 40
0.8214338544
 40
0.8543047438
 40
0.8860076235
 40
0.9164634684
 40
0.9456283941
 40
0.9734780852
 40
1.0
 40
1.0
 40
1.0
 40
1.0
 10
16.3767387921
 20
12.1726800305
 30
0.0
 10
16.3772048551
 20
12.1741887365
 30
0.0
 10
16.3782484665
 20
12.1771787079
 30
0.0
 10
16.380138531
 20
12.1815505968
 30
0.0
 10
16.3823501773
 20
12.1858058504
 30
0.0
 10
16.384879202
 20
12.1899368563
 30
0.0
 10
16.3877216624
 20
12.1939365552
 30
0.0
 10
16.3919612708
 20
12.1991311417
 30
0.0
 10
16.3980563431
 20
12.2052701964
 30
0.0
 10
16.4064576982
 20
12.211926923
 30
0.0
 10
16.4159551064
 20
12.2179024014
 30
0.0
 10
16.4264811407
 20
12.2231598068
 30
0.0
 10
16.4379649597
 20
12.2276646356
 30
0.0
 10
16.4503280616
 20
12.2313910153
 30
0.0
 10
16.4634877836
 20
12.2343120745
 30
0.0
 10
16.4773548754
 20
12.2364123424
 30
0.0
 10
16.4918359082
 20
12.2376745636
 30
0.0
 10
16.5068332132
 20
12.2380941756
 30
0.0
 10
16.5276001226
 20
12.237515525
 30
0.0
 10
16.5541732255
 20
12.2346393805
 30
0.0
 10
16.586081725
 20
12.2279821342
 30
0.0
 10
16.6123133107
 20
12.2198655536
 30
0.0
 10
16.6327578542
 20
12.2119080471
 30
0.0
 10
16.6476289679
 20
12.2052784309
 30
0.0
 10
16.661956646
 20
12.1980254321
 30
0.0
 10
16.6756439937
 20
12.1901981835
 30
0.0
 10
16.6885976635
 20
12.1818493286
 30
0.0
 10
16.7007303332
 20
12.1730359813
 30
0.0
 10
16.7119586596
 20
12.163816768
 30
0.0
 10
16.7222080207
 20
12.1542559765
 30
0.0
 10
16.7314075759
 20
12.1444150205
 30
0.0
 10
16.7394969984
 20
12.1343596364
 30
0.0
 10
16.7464158477
 20
12.1241584743
 30
0.0
 10
16.7503127755
 20
12.1171398978
 30
0.0
 10
16.7520348664
 20
12.1136306455
 30
0.0
  0
SPLINE
  5
314
100
AcDbEntity
  8
0
100
AcDbSpline
 62
7
  6
CONTINUOUS
 70
0
 71
3
 72
15
 73
11
 74
0
 42
0.0000001
 43
0.0000001
 44
0.0000000001
 40
0.0
 40
0.0
 40
0.0
 40
0.0
 40
0.138067082
 40
0.2714441243
 40
0.4004209239
 40
0.5254349882
 40
0.647124059
 40
0.7662275771
 40
0.8835639483
 40
1.0
 40
1.0
 40
1.0
 40
1.0
 10
16.0612391209
 20
12.1136306455
 30
0.0
 10
16.0624737321
 20
12.1111147724
 30
0.0
 10
16.0647220685
 20
12.1060777102
 30
0.0
 10
16.067440503
 20
12.0984088241
 30
0.0
 10
16.0694320043
 20
12.0907918358
 30
0.0
 10
16.0706833224
 20
12.0832583585
 30
0.0
 10
16.0711911699
 20
12.0758385646
 30
0.0
 10
16.0709514384
 20
12.0685600904
 30
0.0
 10
16.0699638933
 20
12.0614528628
 30
0.0
 10
16.0688083671
 20
12.0568393827
 30
0.0
 10
16.0681107976
 20
12.0545812606
 30
0.0
  0
SPLINE
  5
315
100
AcDbEntity
  8
0
100
AcDbSpline
 62
7
  6
CONTINUOUS
 70
0
 71
3
 72
16
 73
12
 74
0
 42
0.0000001
 43
0.0000001
 44
0.0000000001
 40
0.0
 40
0.0
 40
0.0
 40
0.0
 40
0.1419790475
 40
0.2805669587
 40
0.4148698619
 40
0.544094861
 40
0.6675799692
 40
0.7270270057
 40
0.7848856593
 40
0.8957181075
 40
1.0
 40
1.0
 40
1.0
 40
1.0
 10
15.9551414375
 20
12.2059303746
 30
0.0
 10
15.9612737644
 20
12.2030549483
 30
0.0
 10
15.9732212734
 20
12.1969988346
 30
0.0
 10
15.9902708261
 20
12.1869219012
 30
0.0
 10
16.0060945236
 20
12.1760495179
 30
0.0
 10
16.0205177682
 20
12.1644973243
 30
0.0
 10
16.0313789785
 20
12.1542818491
 30
0.0
 10
16.0392048074
 20
12.1458684192
 30
0.0
 10
16.0462419199
 20
12.1375620676
 30
0.0
 10
16.0539304413
 20
12.1270237073
 30
0.0
 10
16.0590475595
 20
12.1180965782
 30
0.0
 10
16.0612391209
 20
12.1136306455
 30
0.0
  0
SPLINE
  5
316
100
AcDbEntity
  8
0
100
AcDbSpline
 62
7
  6
CONTINUOUS
 70
0
 71
3
 72
14
 73
10
 74
0
 42
0.0000001
 43
0.0000001
 44
0.0000000001
 40
0.0
 40
0.0
 40
0.0
 40
0.0
 40
0.1413195259
 40
0.2778353679
 40
0.5343743705
 40
0.6555504053
 40
0.772783141
 40
0.8871461365
 40
1.0
 40
1.0
 40
1.0
 40
1.0
 10
14.4280298612
 20
10.7039210496
 30
0.0
 10
14.4243611224
 20
10.7039210496
 30
0.0
 10
14.4171395028
 20
10.7042917607
 30
0.0
 10
14.4034304606
 20
10.7065138756
 30
0.0
 10
14.3906578188
 20
10.7109815103
 30
0.0
 10
14.3796762106
 20
10.717728705
 30
0.0
 10
14.372650819
 20
10.7236639582
 30
0.0
 10
14.3668097794
 20
10.73048526
 30
0.0
 10
14.3637552301
 20
10.7355699393
 30
0.0
 10
14.3624639353
 20
10.7381997706
 30
0.0
  0
SPLINE
  5
317
100
AcDbEntity
  8
0
100
AcDbSpline
 62
7
  6
CONTINUOUS
 70
0
 71
3
 72
18
 73
14
 74
0
 42
0.0000001
 43
0.0000001
 44
0.0000000001
 40
0.0
 40
0.0
 40
0.0
 40
0.0
 40
0.1124899426
 40
0.2318084639
 40
0.2937196072
 40
0.3568824522
 40
0.4859621298
 40
0.5514304458
 40
0.6171130611
 40
0.7478780079
 40
0.8761973223
 40
0.9388263631
 40
1.0
 40
1.0
 40
1.0
 40
1.0
 10
15.4715836759
 20
10.7791229365
 30
0.0
 10
15.469752535
 20
10.7739801008
 30
0.0
 10
15.4648779826
 20
10.763754916
 30
0.0
 10
15.4565535953
 20
10.7521042002
 30
0.0
 10
15.4485712855
 20
10.7433184643
 30
0.0
 10
15.4395999583
 20
10.7348401826
 30
0.0
 10
15.4295818064
 20
10.7272690578
 30
0.0
 10
15.4187617228
 20
10.7207416208
 30
0.0
 10
15.4074441427
 20
10.7149360357
 30
0.0
 10
15.3927068628
 20
10.7092019316
 30
0.0
 10
15.3774505773
 20
10.7056172288
 30
0.0
 10
15.3652914434
 20
10.7041704145
 30
0.0
 10
15.359280772
 20
10.7039210496
 30
0.0
 10
15.3563120323
 20
10.7039210496
 30
0.0
  0
SPLINE
  5
318
100
AcDbEntity
  8
0
100
AcDbSpline
 62
7
  6
CONTINUOUS
 70
0
 71
3
 72
12
 73
8
 74
0
 42
0.0000001
 43
0.0000001
 44
0.0000000001
 40
0.0
 40
0.0
 40
0.0
 40
0.0
 40
0.1199751281
 40
0.2404750757
 40
0.4849060931
 40
0.7373710754
 40
1.0
 40
1.0
 40
1.0
 40
1.0
 10
16.329626671
 20
13.6071182397
 30
0.0
 10
16.3303652422
 20
13.6056140768
 30
0.0
 10
16.3317004904
 20
13.6025251047
 30
0.0
 10
16.3337789485
 20
13.5960705345
 30
0.0
 10
16.3352332052
 20
13.5875141743
 30
0.0
 10
16.3350833995
 20
13.5768563383
 30
0.0
 10
16.3337837557
 20
13.5697434846
 30
0.0
 10
16.3328541072
 20
13.5661950737
 30
0.0
  0
SPLINE
  5
319
100
AcDbEntity
  8
02___PRT_ALL_AXES
100
AcDbSpline
 62
7
  6
CONTINUOUS
 70
0
 71
3
 72
13
 73
9
 74
0
 42
0.0000001
 43
0.0000001
 44
0.0000000001
 40
0.0
 40
0.0
 40
0.0
 40
0.0
 40
0.106656691
 40
0.2189700697
 40
0.4598946951
 40
0.5882319835
 40
0.7213430377
 40
1.0
 40
1.0
 40
1.0
 40
1.0
 10
15.7573249885
 20
11.4282195996
 30
0.0
 10
15.7564303961
 20
11.4300425872
 30
0.0
 10
15.7543944034
 20
11.4336899505
 30
0.0
 10
15.7494364582
 20
11.4409181274
 30
0.0
 10
15.7432998677
 20
11.4477893779
 30
0.0
 10
15.7362278747
 20
11.4542352701
 30
0.0
 10
15.7281908058
 20
11.4606598734
 30
0.0
 10
15.721623783
 20
11.464983185
 30
0.0
 10
15.717046026
 20
11.4676648855
 30
0.0
  0
SPLINE
  5
31A
100
AcDbEntity
  8
0
100
AcDbSpline
 62
7
  6
CONTINUOUS
 70
0
 71
3
 72
14
 73
10
 74
0
 42
0.0000001
 43
0.0000001
 44
0.0000000001
 40
0.0
 40
0.0
 40
0.0
 40
0.0
 40
0.1128538635
 40
0.227216859
 40
0.3444495947
 40
0.4656256295
 40
0.7221646321
 40
0.8586804741
 40
1.0
 40
1.0
 40
1.0
 40
1.0
 10
16.2808199723
 20
13.7065758346
 30
0.0
 10
16.2795286776
 20
13.7092056659
 30
0.0
 10
16.2764741282
 20
13.7142903452
 30
0.0
 10
16.2706330887
 20
13.7211116469
 30
0.0
 10
16.263607697
 20
13.7270469002
 30
0.0
 10
16.2526260889
 20
13.7337940949
 30
0.0
 10
16.239853447
 20
13.7382617296
 30
0.0
 10
16.2261444049
 20
13.7404838444
 30
0.0
 10
16.2189227853
 20
13.7408545556
 30
0.0
 10
16.2152540464
 20
13.7408545556
 30
0.0
  0
SPLINE
  5
31B
100
AcDbEntity
  8
02___PRT_ALL_AXES
100
AcDbSpline
 62
7
  6
CONTINUOUS
 70
0
 71
3
 72
11
 73
7
 74
0
 42
0.0000001
 43
0.0000001
 44
0.0000000001
 40
0.0
 40
0.0
 40
0.0
 40
0.0
 40
0.2336508419
 40
0.4745101543
 40
0.7287055942
 40
1.0
 40
1.0
 40
1.0
 40
1.0
 10
15.7607610985
 20
11.3986948228
 30
0.0
 10
15.7614604412
 20
11.4009578684
 30
0.0
 10
15.7623788073
 20
11.4057245833
 30
0.0
 10
15.7622174372
 20
11.4131592687
 30
0.0
 10
15.7605449642
 20
11.4207889876
 30
0.0
 10
15.7585365921
 20
11.425750611
 30
0.0
 10
15.7573249885
 20
11.4282195996
 30
0.0
  0
SPLINE
  5
31C
100
AcDbEntity
  8
0
100
AcDbSpline
 62
7
  6
CONTINUOUS
 70
0
 71
3
 72
12
 73
8
 74
0
 42
0.0000001
 43
0.0000001
 44
0.0000000001
 40
0.0
 40
0.0
 40
0.0
 40
0.0
 40
0.2626289246
 40
0.5150939069
 40
0.7595249243
 40
0.8800248719
 40
1.0
 40
1.0
 40
1.0
 40
1.0
 10
14.3104298005
 20
10.8785805315
 30
0.0
 10
14.309500152
 20
10.8750321206
 30
0.0
 10
14.3082005081
 20
10.8679192669
 30
0.0
 10
14.3080507025
 20
10.8572614308
 30
0.0
 10
14.3095049592
 20
10.8487050707
 30
0.0
 10
14.3115834172
 20
10.8422505005
 30
0.0
 10
14.3129186655
 20
10.8391615284
 30
0.0
 10
14.3136572367
 20
10.8376573655
 30
0.0
  0
SPLINE
  5
31D
100
AcDbEntity
  8
0
100
AcDbSpline
 62
7
  6
CONTINUOUS
 70
0
 71
3
 72
9
 73
5
 74
0
 42
0.0000001
 43
0.0000001
 44
0.0000000001
 40
0.0
 40
0.0
 40
0.0
 40
0.0
 40
0.2455367148
 40
1.0
 40
1.0
 40
1.0
 40
1.0
 10
15.9883711979
 20
11.1247897598
 30
0.0
 10
15.9877602544
 20
11.1253941842
 30
0.0
 10
15.9852452841
 20
11.1278286742
 30
0.0
 10
15.9826266143
 20
11.1301555866
 30
0.0
 10
15.9806026496
 20
11.131851734
 30
0.0
  0
SPLINE
  5
31E
100
AcDbEntity
  8
0
100
AcDbSpline
 62
7
  6
CONTINUOUS
 70
0
 71
3
 72
19
 73
15
 74
0
 42
0.0000001
 43
0.0000001
 44
0.0000000001
 40
0.0
 40
0.0
 40
0.0
 40
0.0
 40
0.0533580186
 40
0.1098341649
 40
0.1690479149
 40
0.2306290086
 40
0.3593551955
 40
0.4926773992
 40
0.6269752159
 40
0.7585802986
 40
0.8222735156
 40
0.8840156232
 40
0.9434009463
 40
1.0
 40
1.0
 40
1.0
 40
1.0
 10
14.5665868673
 20
11.040639552
 30
0.0
 10
14.5653370835
 20
11.0439741112
 30
0.0
 10
14.5629730517
 20
11.0509174502
 30
0.0
 10
14.5598936577
 20
11.0617755428
 30
0.0
 10
14.5572043627
 20
11.0733010889
 30
0.0
 10
14.5541233162
 20
11.0896707006
 30
0.0
 10
14.5514228801
 20
11.1111232933
 30
0.0
 10
14.5500163858
 20
11.1375588051
 30
0.0
 10
14.5504485122
 20
11.1642201008
 30
0.0
 10
14.5523456162
 20
11.1861566002
 30
0.0
 10
14.554798003
 20
11.2031388427
 30
0.0
 10
14.5570493412
 20
11.2152702254
 30
0.0
 10
14.5597138239
 20
11.2268321276
 30
0.0
 10
14.5618019098
 20
11.2342897793
 30
0.0
 10
14.5629171707
 20
11.2378987648
 30
0.0
  0
SPLINE
  5
31F
100
AcDbEntity
  8
0
100
AcDbSpline
 62
7
  6
CONTINUOUS
 70
0
 71
3
 72
15
 73
11
 74
0
 42
0.0000001
 43
0.0000001
 44
0.0000000001
 40
0.0
 40
0.0
 40
0.0
 40
0.0
 40
0.1129251423
 40
0.2330835428
 40
0.3586168611
 40
0.4876932582
 40
0.6184086382
 40
0.7487791678
 40
0.876750833
 40
1.0
 40
1.0
 40
1.0
 40
1.0
 10
16.4095666007
 20
12.4877785826
 30
0.0
 10
16.4058873288
 20
12.4914185942
 30
0.0
 10
16.3977935273
 20
12.4984359591
 30
0.0
 10
16.3842575932
 20
12.5078071189
 30
0.0
 10
16.3692063911
 20
12.5161386589
 30
0.0
 10
16.3530147272
 20
12.523248397
 30
0.0
 10
16.3360468077
 20
12.5289643558
 30
0.0
 10
16.3186931051
 20
12.5331663611
 30
0.0
 10
16.3013701095
 20
12.5357324201
 30
0.0
 10
16.2898502745
 20
12.5363483354
 30
0.0
 10
16.2842015139
 20
12.5363483354
 30
0.0
  0
SPLINE
  5
320
100
AcDbEntity
  8
0
100
AcDbSpline
 62
7
  6
CONTINUOUS
 70
0
 71
3
 72
12
 73
8
 74
0
 42
0.0000001
 43
0.0000001
 44
0.0000000001
 40
0.0
 40
0.0
 40
0.0
 40
0.0
 40
0.2626289246
 40
0.5150939069
 40
0.7595249243
 40
0.8800248719
 40
1.0
 40
1.0
 40
1.0
 40
1.0
 10
16.2840474085
 20
13.6656526686
 30
0.0
 10
16.284977057
 20
13.6692010795
 30
0.0
 10
16.2862767009
 20
13.6763139332
 30
0.0
 10
16.2864265065
 20
13.6869717693
 30
0.0
 10
16.2849722498
 20
13.6955281294
 30
0.0
 10
16.2828937918
 20
13.7019826996
 30
0.0
 10
16.2815585435
 20
13.7050716717
 30
0.0
 10
16.2808199723
 20
13.7065758346
 30
0.0
  0
SPLINE
  5
321
100
AcDbEntity
  8
0
100
AcDbSpline
 62
7
  6
CONTINUOUS
 70
0
 71
3
 72
18
 73
14
 74
0
 42
0.0000001
 43
0.0000001
 44
0.0000000001
 40
0.0
 40
0.0
 40
0.0
 40
0.0
 40
0.0611736369
 40
0.1238026777
 40
0.2521219921
 40
0.3828869389
 40
0.4485695542
 40
0.5140378702
 40
0.6431175478
 40
0.7062803928
 40
0.7681915361
 40
0.8875100574
 40
1.0
 40
1.0
 40
1.0
 40
1.0
 10
15.3075053337
 20
10.8033786445
 30
0.0
 10
15.3104740733
 20
10.8033786445
 30
0.0
 10
15.3164847447
 20
10.8036280094
 30
0.0
 10
15.3286438787
 20
10.8050748237
 30
0.0
 10
15.3439001642
 20
10.8086595265
 30
0.0
 10
15.358637444
 20
10.8143936307
 30
0.0
 10
15.3699550242
 20
10.8201992158
 30
0.0
 10
15.3807751078
 20
10.8267266527
 30
0.0
 10
15.3907932596
 20
10.8342977775
 30
0.0
 10
15.3997645868
 20
10.8427760592
 30
0.0
 10
15.4077468966
 20
10.8515617951
 30
0.0
 10
15.416071284
 20
10.8632125109
 30
0.0
 10
15.4209458363
 20
10.8734376958
 30
0.0
 10
15.4227769772
 20
10.8785805315
 30
0.0
  0
SPLINE
  5
322
100
AcDbEntity
  8
0
100
AcDbSpline
 62
7
  6
CONTINUOUS
 70
0
 71
3
 72
15
 73
11
 74
0
 42
0.0000001
 43
0.0000001
 44
0.0000000001
 40
0.0
 40
0.0
 40
0.0
 40
0.0
 40
0.1164945492
 40
0.2386334002
 40
0.3648295651
 40
0.4935729153
 40
0.6231604096
 40
0.751860687
 40
0.8780664791
 40
1.0
 40
1.0
 40
1.0
 40
1.0
 10
15.9806026496
 20
11.131851734
 30
0.0
 10
15.9768225581
 20
11.135019572
 30
0.0
 10
15.968723699
 20
11.141092574
 30
0.0
 10
15.9555347978
 20
11.1491685504
 30
0.0
 10
15.9412275086
 20
11.1562946806
 30
0.0
 10
15.9260887851
 20
11.1623297601
 30
0.0
 10
15.9104136451
 20
11.1671619068
 30
0.0
 10
15.8945041465
 20
11.1706924552
 30
0.0
 10
15.8786785725
 20
11.1728492091
 30
0.0
 10
15.868168344
 20
11.1733595126
 30
0.0
 10
15.8630061112
 20
11.1733595126
 30
0.0
  0
SPLINE
  5
323
100
AcDbEntity
  8
0
100
AcDbSpline
 62
7
  6
CONTINUOUS
 70
0
 71
3
 72
14
 73
10
 74
0
 42
0.0000001
 43
0.0000001
 44
0.0000000001
 40
0.0
 40
0.0
 40
0.0
 40
0.0
 40
0.1128538635
 40
0.227216859
 40
0.3444495947
 40
0.4656256295
 40
0.7221646321
 40
0.8586804741
 40
1.0
 40
1.0
 40
1.0
 40
1.0
 10
14.3136572367
 20
10.8376573655
 30
0.0
 10
14.3149485314
 20
10.8350275342
 30
0.0
 10
14.3180030808
 20
10.8299428549
 30
0.0
 10
14.3238441203
 20
10.8231215532
 30
0.0
 10
14.3308695119
 20
10.8171862999
 30
0.0
 10
14.3418511201
 20
10.8104391052
 30
0.0
 10
14.354623762
 20
10.8059714706
 30
0.0
 10
14.3683328041
 20
10.8037493557
 30
0.0
 10
14.3755544237
 20
10.8033786445
 30
0.0
 10
14.3792231626
 20
10.8033786445
 30
0.0
  0
SPLINE
  5
324
100
AcDbEntity
  8
0
100
AcDbSpline
 62
7
  6
CONTINUOUS
 70
0
 71
3
 72
15
 73
11
 74
0
 42
0.0000001
 43
0.0000001
 44
0.0000000001
 40
0.0
 40
0.0
 40
0.0
 40
0.0
 40
0.1129251423
 40
0.2330835428
 40
0.3586168611
 40
0.4876932582
 40
0.6184086382
 40
0.7487791678
 40
0.876750833
 40
1.0
 40
1.0
 40
1.0
 40
1.0
 10
15.8697586995
 20
10.7409595741
 30
0.0
 10
15.8660794276
 20
10.7445995858
 30
0.0
 10
15.8579856261
 20
10.7516169506
 30
0.0
 10
15.844449692
 20
10.7609881104
 30
0.0
 10
15.8293984899
 20
10.7693196504
 30
0.0
 10
15.813206826
 20
10.7764293885
 30
0.0
 10
15.7962389065
 20
10.7821453473
 30
0.0
 10
15.7788852039
 20
10.7863473527
 30
0.0
 10
15.7615622083
 20
10.7889134116
 30
0.0
 10
15.7500423733
 20
10.7895293269
 30
0.0
 10
15.7443936127
 20
10.7895293269
 30
0.0
  0
SPLINE
  5
325
100
AcDbEntity
  8
0
100
AcDbSpline
 62
7
  6
CONTINUOUS
 70
0
 71
3
 72
19
 73
15
 74
0
 42
0.0000001
 43
0.0000001
 44
0.0000000001
 40
0.0
 40
0.0
 40
0.0
 40
0.0
 40
0.0565990537
 40
0.1159843768
 40
0.1777264844
 40
0.2414197014
 40
0.3730247841
 40
0.5073226008
 40
0.6406448045
 40
0.7693709914
 40
0.8309520851
 40
0.8901658351
 40
0.9466419814
 40
1.0
 40
1.0
 40
1.0
 40
1.0
 10
14.8852885186
 20
11.2378987648
 30
0.0
 10
14.8841732577
 20
11.2342897793
 30
0.0
 10
14.8820851718
 20
11.2268321276
 30
0.0
 10
14.8794206891
 20
11.2152702254
 30
0.0
 10
14.8771693509
 20
11.2031388427
 30
0.0
 10
14.8747169641
 20
11.1861566002
 30
0.0
 10
14.8728198601
 20
11.1642201008
 30
0.0
 10
14.8723877337
 20
11.1375588051
 30
0.0
 10
14.873794228
 20
11.1111232933
 30
0.0
 10
14.8764946641
 20
11.0896707006
 30
0.0
 10
14.8795757106
 20
11.0733010889
 30
0.0
 10
14.8822650056
 20
11.0617755428
 30
0.0
 10
14.8853443996
 20
11.0509174502
 30
0.0
 10
14.8877084314
 20
11.0439741112
 30
0.0
 10
14.8889582152
 20
11.040639552
 30
0.0
  0
SPLINE
  5
326
100
AcDbEntity
  8
02___PRT_ALL_AXES
100
AcDbSpline
 62
7
  6
CONTINUOUS
 70
0
 71
3
 72
19
 73
15
 74
0
 42
0.0000001
 43
0.0000001
 44
0.0000000001
 40
0.0
 40
0.0
 40
0.0
 40
0.0
 40
0.1572834374
 40
0.3067662387
 40
0.4467334946
 40
0.5128070008
 40
0.576157
 40
0.6945939807
 40
0.7500062163
 40
0.8031166304
 40
0.8542305711
 40
0.9037552965
 40
0.9521681202
 40
1.0
 40
1.0
 40
1.0
 40
1.0
 10
15.681143527
 20
11.3668039537
 30
0.0
 10
15.6859522609
 20
11.3663221919
 30
0.0
 10
15.6953827879
 20
11.3658153238
 30
0.0
 10
15.7091171659
 20
11.3664965
 30
0.0
 10
15.7199246759
 20
11.3682922117
 30
0.0
 10
15.7279147054
 20
11.3704816447
 30
0.0
 10
15.735097999
 20
11.3730237772
 30
0.0
 10
15.7416794824
 20
11.3762578175
 30
0.0
 10
15.747433677
 20
11.3802155699
 30
0.0
 10
15.7511726551
 20
11.3834058201
 30
0.0
 10
15.7544024994
 20
11.3868683289
 30
0.0
 10
15.7571039915
 20
11.3905815617
 30
0.0
 10
15.7592608042
 20
11.3945209523
 30
0.0
 10
15.7603271633
 20
11.3972906257
 30
0.0
 10
15.7607610985
 20
11.3986948228
 30
0.0
  0
SPLINE
  5
327
100
AcDbEntity
  8
0
100
AcDbSpline
 62
7
  6
CONTINUOUS
 70
0
 71
3
 72
11
 73
7
 74
0
 42
0.0000001
 43
0.0000001
 44
0.0000000001
 40
0.0
 40
0.0
 40
0.0
 40
0.0
 40
0.2712945005
 40
0.5254922905
 40
0.766352027
 40
1.0
 40
1.0
 40
1.0
 40
1.0
 10
15.0725418085
 20
11.3236858579
 30
0.0
 10
15.0734505072
 20
11.3218341246
 30
0.0
 10
15.0749567472
 20
11.3181128892
 30
0.0
 10
15.0762110352
 20
11.3123905919
 30
0.0
 10
15.0763319604
 20
11.3068145959
 30
0.0
 10
15.0756430965
 20
11.3032396205
 30
0.0
 10
15.0751186
 20
11.3015423648
 30
0.0
  0
SPLINE
  5
328
100
AcDbEntity
  8
0
100
AcDbSpline
 62
7
  6
CONTINUOUS
 70
0
 71
3
 72
17
 73
13
 74
0
 42
0.0000001
 43
0.0000001
 44
0.0000000001
 40
0.0
 40
0.0
 40
0.0
 40
0.0
 40
0.0639263983
 40
0.1296686179
 40
0.2645794281
 40
0.4012344368
 40
0.5362343029
 40
0.6661558773
 40
0.7880080968
 40
0.899652339
 40
0.9512946385
 40
1.0
 40
1.0
 40
1.0
 40
1.0
 10
14.8738194406
 20
11.5878700944
 30
0.0
 10
14.8761115408
 20
11.5878700944
 30
0.0
 10
14.8807621144
 20
11.5877126384
 30
0.0
 10
14.8902098721
 20
11.5868056384
 30
0.0
 10
14.9021261822
 20
11.5845708205
 30
0.0
 10
14.9160910517
 20
11.580288876
 30
0.0
 10
14.9293297718
 20
11.5745478118
 30
0.0
 10
14.9413471931
 20
11.5675555939
 30
0.0
 10
14.9516984643
 20
11.5595768524
 30
0.0
 10
14.9588008573
 20
11.5521462117
 30
0.0
 10
14.9632255955
 20
11.5459529365
 30
0.0
 10
14.9650078154
 20
11.5428170962
 30
0.0
 10
14.9657771551
 20
11.5412493468
 30
0.0
  0
SPLINE
  5
329
100
AcDbEntity
  8
0
100
AcDbSpline
 62
7
  6
CONTINUOUS
 70
0
 71
3
 72
19
 73
15
 74
0
 42
0.0000001
 43
0.0000001
 44
0.0000000001
 40
0.0
 40
0.0
 40
0.0
 40
0.0
 40
0.0639188129
 40
0.1296532316
 40
0.2645480335
 40
0.4011868271
 40
0.4691328677
 40
0.5362265924
 40
0.6020432669
 40
0.6661954906
 40
0.7880332513
 40
0.8996642461
 40
0.9513004178
 40
1.0
 40
1.0
 40
1.0
 40
1.0
 10
15.8032807906
 20
14.3176889362
 30
0.0
 10
15.8063369241
 20
14.3176889362
 30
0.0
 10
15.812537668
 20
14.3174789951
 30
0.0
 10
15.8251348091
 20
14.3162696606
 30
0.0
 10
15.8410222044
 20
14.3132899132
 30
0.0
 10
15.8565750297
 20
14.3085221198
 30
0.0
 10
15.8686346664
 20
14.3036794828
 30
0.0
 10
15.8773321578
 20
14.2995944309
 30
0.0
 10
15.8856118328
 20
14.2950845832
 30
0.0
 10
15.8958138098
 20
14.2886798783
 30
0.0
 10
15.9071199421
 20
14.2799639928
 30
0.0
 10
15.9165892961
 20
14.2700571613
 30
0.0
 10
15.922489006
 20
14.2617993801
 30
0.0
 10
15.9248652904
 20
14.257618272
 30
0.0
 10
15.9258910766
 20
14.2555279394
 30
0.0
  0
SPLINE
  5
32A
100
AcDbEntity
  8
0
100
AcDbSpline
 62
7
  6
CONTINUOUS
 70
0
 71
3
 72
16
 73
12
 74
0
 42
0.0000001
 43
0.0000001
 44
0.0000000001
 40
0.0
 40
0.0
 40
0.0
 40
0.0
 40
0.0496746728
 40
0.0998132032
 40
0.2030131325
 40
0.3127339476
 40
0.4310010201
 40
0.5589181567
 40
0.6968081295
 40
0.8443029541
 40
1.0
 40
1.0
 40
1.0
 40
1.0
 10
14.2447727883
 20
11.5633928398
 30
0.0
 10
14.2450571754
 20
11.5643131084
 30
0.0
 10
14.2457389731
 20
11.566130274
 30
0.0
 10
14.2475448461
 20
11.5696362385
 30
0.0
 10
14.2506489058
 20
11.5737403817
 30
0.0
 10
14.255524321
 20
11.5779787273
 30
0.0
 10
14.2614760578
 20
11.5815330661
 30
0.0
 10
14.268397654
 20
11.5843466323
 30
0.0
 10
14.2761684297
 20
11.5863848702
 30
0.0
 10
14.2846486501
 20
11.5876083606
 30
0.0
 10
14.2905319973
 20
11.5878700944
 30
0.0
 10
14.2935510144
 20
11.5878700944
 30
0.0
  0
SPLINE
  5
32B
100
AcDbEntity
  8
0
100
AcDbSpline
 62
7
  6
CONTINUOUS
 70
0
 71
3
 72
17
 73
13
 74
0
 42
0.0000001
 43
0.0000001
 44
0.0000000001
 40
0.0
 40
0.0
 40
0.0
 40
0.0
 40
0.049667151
 40
0.0997980894
 40
0.15082243
 40
0.2031338132
 40
0.3128380143
 40
0.4310871786
 40
0.5589849459
 40
0.6968540392
 40
0.8443265299
 40
1.0
 40
1.0
 40
1.0
 40
1.0
 10
14.8171821618
 20
14.2850525968
 30
0.0
 10
14.8175613446
 20
14.2862796216
 30
0.0
 10
14.8184702006
 20
14.2887023705
 30
0.0
 10
14.8202602434
 20
14.2921763945
 30
0.0
 10
14.8224693214
 20
14.2954830683
 30
0.0
 10
14.8260130586
 20
14.2997128813
 30
0.0
 10
14.8315185105
 20
14.3045021679
 30
0.0
 10
14.8394528955
 20
14.3092390476
 30
0.0
 10
14.8486820705
 20
14.3129911422
 30
0.0
 10
14.8590429907
 20
14.3157085909
 30
0.0
 10
14.8703499857
 20
14.3173399723
 30
0.0
 10
14.8781944404
 20
14.3176889362
 30
0.0
 10
14.8822197966
 20
14.3176889362
 30
0.0
  0
SPLINE
  5
32C
100
AcDbEntity
  8
0
100
AcDbSpline
 62
7
  6
CONTINUOUS
 70
0
 71
3
 72
11
 73
7
 74
0
 42
0.0000001
 43
0.0000001
 44
0.0000000001
 40
0.0
 40
0.0
 40
0.0
 40
0.0
 40
0.2336479463
 40
0.4745077242
 40
0.7287055553
 40
1.0
 40
1.0
 40
1.0
 40
1.0
 10
14.0062599787
 20
11.6609074495
 30
0.0
 10
14.0055606503
 20
11.6586444421
 30
0.0
 10
14.004642164
 20
11.6538778084
 30
0.0
 10
14.0048033992
 20
11.6464431464
 30
0.0
 10
14.0064757832
 20
11.6388134167
 30
0.0
 10
14.0084841024
 20
11.6338517693
 30
0.0
 10
14.0096957004
 20
11.6313827922
 30
0.0
  0
SPLINE
  5
32D
100
AcDbEntity
  8
0
100
AcDbSpline
 62
7
  6
CONTINUOUS
 70
0
 71
3
 72
16
 73
12
 74
0
 42
0.0000001
 43
0.0000001
 44
0.0000000001
 40
0.0
 40
0.0
 40
0.0
 40
0.0
 40
0.0496746728
 40
0.0998132032
 40
0.2030131325
 40
0.3127339476
 40
0.4310010201
 40
0.5589181567
 40
0.6968081295
 40
0.8443029541
 40
1.0
 40
1.0
 40
1.0
 40
1.0
 10
15.0751186
 20
11.3015423648
 30
0.0
 10
15.0748342129
 20
11.3006220962
 30
0.0
 10
15.0741524151
 20
11.2988049307
 30
0.0
 10
15.0723465422
 20
11.2952989662
 30
0.0
 10
15.0692424825
 20
11.2911948229
 30
0.0
 10
15.0643670673
 20
11.2869564773
 30
0.0
 10
15.0584153305
 20
11.2834021385
 30
0.0
 10
15.0514937343
 20
11.2805885723
 30
0.0
 10
15.0437229586
 20
11.2785503344
 30
0.0
 10
15.0352427382
 20
11.277326844
 30
0.0
 10
15.029359391
 20
11.2770651102
 30
0.0
 10
15.0263403739
 20
11.2770651102
 30
0.0
  0
SPLINE
  5
32E
100
AcDbEntity
  8
0
100
AcDbSpline
 62
7
  6
CONTINUOUS
 70
0
 71
3
 72
11
 73
7
 74
0
 42
0.0000001
 43
0.0000001
 44
0.0000000001
 40
0.0
 40
0.0
 40
0.0
 40
0.0
 40
0.2712945005
 40
0.5254922905
 40
0.766352027
 40
1.0
 40
1.0
 40
1.0
 40
1.0
 10
14.2473495798
 20
11.5412493468
 30
0.0
 10
14.2464408811
 20
11.54310108
 30
0.0
 10
14.2449346411
 20
11.5468223155
 30
0.0
 10
14.2436803531
 20
11.5525446127
 30
0.0
 10
14.2435594279
 20
11.5581206087
 30
0.0
 10
14.2442482918
 20
11.5616955841
 30
0.0
 10
14.2447727883
 20
11.5633928398
 30
0.0
  0
SPLINE
  5
32F
100
AcDbEntity
  8
0
100
AcDbSpline
 62
7
  6
CONTINUOUS
 70
0
 71
3
 72
17
 73
13
 74
0
 42
0.0000001
 43
0.0000001
 44
0.0000000001
 40
0.0
 40
0.0
 40
0.0
 40
0.0
 40
0.0639263983
 40
0.1296686179
 40
0.2645794281
 40
0.4012344368
 40
0.5362343029
 40
0.6661558773
 40
0.7880080968
 40
0.899652339
 40
0.9512946385
 40
1.0
 40
1.0
 40
1.0
 40
1.0
 10
14.4460719477
 20
11.2770651102
 30
0.0
 10
14.4437798475
 20
11.2770651102
 30
0.0
 10
14.4391292739
 20
11.2772225662
 30
0.0
 10
14.4296815162
 20
11.2781295662
 30
0.0
 10
14.4177652061
 20
11.2803643841
 30
0.0
 10
14.4038003366
 20
11.2846463286
 30
0.0
 10
14.3905616165
 20
11.2903873929
 30
0.0
 10
14.3785441952
 20
11.2973796108
 30
0.0
 10
14.368192924
 20
11.3053583522
 30
0.0
 10
14.361090531
 20
11.3127889929
 30
0.0
 10
14.3566657928
 20
11.3189822681
 30
0.0
 10
14.3548835728
 20
11.3221181084
 30
0.0
 10
14.3541142331
 20
11.3236858579
 30
0.0
  0
SPLINE
  5
330
100
AcDbEntity
  8
0
100
AcDbSpline
 62
7
  6
CONTINUOUS
 70
0
 71
3
 72
17
 73
13
 74
0
 42
0.0000001
 43
0.0000001
 44
0.0000000001
 40
0.0
 40
0.0
 40
0.0
 40
0.0
 40
0.1556734687
 40
0.3031459035
 40
0.4410149619
 40
0.5689127331
 40
0.6871619209
 40
0.7968661363
 40
0.8491775312
 40
0.9002018858
 40
0.9503328366
 40
1.0
 40
1.0
 40
1.0
 40
1.0
 10
14.0712976132
 20
11.693543789
 30
0.0
 10
14.0672722571
 20
11.693543789
 30
0.0
 10
14.0594278038
 20
11.6931948261
 30
0.0
 10
14.0481208112
 20
11.6915634445
 30
0.0
 10
14.0377598929
 20
11.6888459971
 30
0.0
 10
14.0285307182
 20
11.6850939028
 30
0.0
 10
14.0205963308
 20
11.6803570247
 30
0.0
 10
14.0150908782
 20
11.6755677368
 30
0.0
 10
14.0115471405
 20
11.6713379229
 30
0.0
 10
14.0093380611
 20
11.6680312489
 30
0.0
 10
14.0075480171
 20
11.6645572244
 30
0.0
 10
14.0066391614
 20
11.6621344746
 30
0.0
 10
14.0062599787
 20
11.6609074495
 30
0.0
  0
SPLINE
  5
331
100
AcDbEntity
  8
0
100
AcDbSpline
 62
7
  6
CONTINUOUS
 70
0
 71
3
 72
19
 73
15
 74
0
 42
0.0000001
 43
0.0000001
 44
0.0000000001
 40
0.0
 40
0.0
 40
0.0
 40
0.0
 40
0.0486995725
 40
0.100335719
 40
0.2119666532
 40
0.3338043869
 40
0.3979566013
 40
0.4637732711
 40
0.5308669972
 40
0.5988130399
 40
0.735451855
 40
0.8703467272
 40
0.9360811758
 40
1.0
 40
1.0
 40
1.0
 40
1.0
 10
15.1149688932
 20
11.6313827922
 30
0.0
 10
15.1139431072
 20
11.6334731244
 30
0.0
 10
15.1115668242
 20
11.6376542313
 30
0.0
 10
15.1056671178
 20
11.6459120094
 30
0.0
 10
15.0961977675
 20
11.6558188371
 30
0.0
 10
15.08489164
 20
11.6645347208
 30
0.0
 10
15.074689666
 20
11.670939427
 30
0.0
 10
15.0664099918
 20
11.6754492748
 30
0.0
 10
15.0577125006
 20
11.6795343272
 30
0.0
 10
15.0456528639
 20
11.6843769671
 30
0.0
 10
15.0301000345
 20
11.6891447629
 30
0.0
 10
15.0142126334
 20
11.6921245115
 30
0.0
 10
15.0016154871
 20
11.6933338473
 30
0.0
 10
14.9954147413
 20
11.693543789
 30
0.0
 10
14.9923586072
 20
11.693543789
 30
0.0
  0
ELLIPSE
  5
332
100
AcDbEntity
  8
0
100
AcDbEllipse
 62
7
  6
CONTINUOUS
 10
6.2631836645
 20
14.3250477814
 30
0.0
 11
-0.0
 21
0.15
 31
0.0
 40
0.8655790315
 41
-0.0
 42
0.1337315894
  0
ELLIPSE
  5
333
100
AcDbEntity
  8
0
100
AcDbEllipse
 62
7
  6
CONTINUOUS
 10
6.2631836645
 20
10.8750477814
 30
0.0
 11
-0.0
 21
0.15
 31
0.0
 40
0.8655790315
 41
-3.275324243
 42
-3.1415926536
  0
ELLIPSE
  5
334
100
AcDbEntity
  8
0
100
AcDbEllipse
 62
7
  6
CONTINUOUS
 10
5.8785605032
 20
10.8750477814
 30
0.0
 11
0.0
 21
0.15
 31
0.0
 40
0.8655790315
 41
-3.1415926536
 42
-3.0078610642
  0
ELLIPSE
  5
335
100
AcDbEntity
  8
0
100
AcDbEllipse
 62
7
  6
CONTINUOUS
 10
5.8785605032
 20
14.3250477814
 30
0.0
 11
-0.0
 21
0.15
 31
0.0
 40
0.8655790315
 41
-0.1337315894
 42
-0.0
  0
ELLIPSE
  5
336
100
AcDbEntity
  8
0
100
AcDbEllipse
 62
7
  6
CONTINUOUS
 10
16.4017104816
 20
12.4286431764
 30
0.0
 11
0.0054332935
 21
0.0509801839
 31
0.0
 40
0.2616397176
 41
-2.2137152122
 42
-0.6429188854
  0
ELLIPSE
  5
337
100
AcDbEntity
  8
0
100
AcDbEllipse
 62
7
  6
CONTINUOUS
 10
15.8865933454
 20
10.7617235128
 30
0.0
 11
0.0054332935
 21
0.0509801839
 31
0.0
 40
0.2616397176
 41
-3.784511539
 42
-2.2137152122
  0
ELLIPSE
  5
338
100
AcDbEntity
  8
0
100
AcDbEllipse
 62
7
  6
CONTINUOUS
 10
14.592728429
 20
11.1446572695
 30
0.0
 11
0.0773929905
 21
0.1492998892
 31
0.0
 40
0.1870402312
 41
-2.3741418859
 42
-2.2404102965
  0
ELLIPSE
  5
339
100
AcDbEntity
  8
0
100
AcDbEllipse
 62
7
  6
CONTINUOUS
 10
14.9469898202
 20
11.1446572695
 30
0.0
 11
0.1533491925
 21
-0.1167486139
 31
0.0
 40
0.614150018
 41
-1.483332085
 42
-1.3496004956
  0
ENDSEC
  0
SECTION
  2
OBJECTS
  0
DICTIONARY
  5
C
100
AcDbDictionary
280
0
281
1
  3
ACAD_GROUP
350
D
  3
ACAD_MLINESTYLE
350
17
  3
ACAD_LAYOUT
350
1A
  3
ACAD_PLOTSETTINGS
350
19
  3
ACAD_PLOTSTYLENAME
350
E
  0
DICTIONARY
  5
D
102
{ACAD_REACTORS
330
C
102
}
100
AcDbDictionary
280
0
281
1
  0
ACDBDICTIONARYWDFLT
  5
E
102
{ACAD_REACTORS
330
C
102
}
100
AcDbDictionary
281
1
  3
Normal
350
F
100
AcDbDictionaryWithDefault
340
F
  0
DICTIONARY
  5
17
102
{ACAD_REACTORS
330
C
102
}
100
AcDbDictionary
280
0
281
1
  3
Standard
350
18
  0
DICTIONARY
  5
19
102
{ACAD_REACTORS
330
C
102
}
100
AcDbDictionary
281
1
  0
DICTIONARY
  5
1A
102
{ACAD_REACTORS
330
C
102
}
100
AcDbDictionary
281
1
  3
Model
350
33A
  3
Layout1
350
33B
  0
ACDBPLACEHOLDER
  5
F
102
{ACAD_REACTORS
330
E
102
}
  0
MLINESTYLE
  5
18
102
{ACAD_REACTORS
330
17
102
}
100
AcDbMlineStyle
  2
STANDARD
 70
0
  3

 62
256
 51
90.0
 52
90.0
 71
2
 49
0.5
 62
256
  6
BYLAYER
 49
-0.5
 62
256
  6
BYLAYER
  0
LAYOUT
  5
33A
102
{ACAD_REACTORS
330
1A
102
}
100
AcDbPlotSettings
  1

  2
none_device
  4
ANSI_C_(22.00_x_17.00_Inches)
  6

 40
0.0
 41
0.0
 42
0.0
 43
0.0
 44
558.8
 45
431.8
 46
0.0
 47
0.0
 48
0.0
 49
0.0
140
0.0
141
0.0
142
1.0
143
1.0
 70
1024
 72
0
 73
0
 74
0
  7

 75
0
147
1.0
148
0.0
149
0.0
100
AcDbLayout
  1
Model
 70
0
 71
0
 10
0.0
 20
0.0
 11
22.0
 21
17.0
 12
0.0
 22
0.0
 32
0.0
 14
0.0
 24
0.0
 34
0.0
 15
0.0
 25
0.0
 35
0.0
146
0.0
 13
0.0
 23
0.0
 33
0.0
 16
1.0
 26
0.0
 36
0.0
 17
0.0
 27
1.0
 37
0.0
 76
0
330
217
345
0
346
0
  0
LAYOUT
  5
33B
102
{ACAD_REACTORS
330
1A
102
}
100
AcDbPlotSettings
  1

  2
none_device
  4
ANSI_C_(22.00_x_17.00_Inches)
  6

 40
0.0
 41
0.0
 42
0.0
 43
0.0
 44
558.8
 45
431.8
 46
0.0
 47
0.0
 48
0.0
 49
0.0
140
0.0
141
0.0
142
1.0
143
1.0
 70
0
 72
0
 73
0
 74
0
  7

 75
0
147
1.0
148
0.0
149
0.0
100
AcDbLayout
  1
Layout1
 70
0
 71
1
 10
0.0
 20
0.0
 11
22.0
 21
17.0
 12
0.0
 22
0.0
 32
0.0
 14
0.0
 24
0.0
 34
0.0
 15
0.0
 25
0.0
 35
0.0
146
0.0
 13
0.0
 23
0.0
 33
0.0
 16
1.0
 26
0.0
 36
0.0
 17
0.0
 27
1.0
 37
0.0
 76
0
330
218
345
0
346
0
  0
ENDSEC
  0
EOF