999
DXF file: _cgs_temp_output.dxf
999
Pro/ENGINEER 2015110 by Parametric Technology Corporation
  0
SECTION
  2
HEADER
  9
$ACADVER
  1
AC1021
  9
$DWGCODEPAGE
  3
ANSI_1252
  9
$EXTMAX
 10
22.0
 20
17.0
 30
0.0
  9
$EXTMIN
 10
0.0
 20
0.0
 30
0.0
  9
$LIMMIN
 10
0.0
 20
0.0
  9
$LIMMAX
 10
22.0
 20
17.0
  9
$VIEWCTR
 10
11.0
 20
8.5
  9
$VIEWSIZE
 40
17.0
  9
$CLAYER
  8
0
  9
$LTSCALE
 40
1.21
  9
$CELTYPE
  6
BYLAYER
  9
$DIMSCALE
 40
1.0
  9
$DIMASZ
 40
0.1875
  9
$DIMEXO
 40
0.0625
  9
$DIMDLI
 40
0.836
  9
$DIMEXE
 40
0.125
  9
$DIMCEN
 40
0.198
  9
$DIMLFAC
 40
1.0
  9
$DIMBLK
  1
_CLOSED
  9
$DIMALT
 70
0
  9
$DIMALTF
 40
25.4
  9
$DIMTXT
 40
0.15625
  9
$DIMTOL
 70
0
  9
$DIMLIM
 70
0
  9
$DIMTFAC
 40
1.0
  9
$DIMGAP
 40
0.09
  9
$DIMDSEP
 70
46
  9
$AUNITS
 70
0
  9
$PDMODE
 70
3
  9
$PDSIZE
 40
0.3125
  9
$HANDSEED
  5
2D5
  9
$TILEMODE
 70
1
  9
$MEASUREMENT
 70
0
  9
$INSUNITS
 70
1
  0
ENDSEC
  0
SECTION
  2
CLASSES
  0
CLASS
  1
ACDBDICTIONARYWDFLT
  2
AcDbDictionaryWithDefault
  3
AutoCAD 2000
 90
0
 91
1
280
0
281
0
  0
CLASS
  1
ACDBPLACEHOLDER
  2
AcDbPlaceHolder
  3
AutoCAD 2000
 90
0
 91
1
280
0
281
0
  0
CLASS
  1
LAYOUT
  2
AcDbLayout
  3
AutoCAD 2000
 90
0
 91
0
280
0
281
0
  0
ENDSEC
  0
SECTION
  2
TABLES
  0
TABLE
  2
VPORT
  5
8
100
AcDbSymbolTable
 70
2
  0
VPORT
  5
1F4
100
AcDbSymbolTableRecord
100
AcDbViewportTableRecord
  2
*ACTIVE
 70
0
 10
0.0
 20
0.0
 11
1.0
 21
1.0
 12
11.0
 22
8.5
 13
0.0
 23
0.0
 14
1.0
 24
1.0
 15
0.0
 25
0.0
 16
0.0
 26
0.0
 36
1.0
 17
0.0
 27
0.0
 37
0.0
 40
17.0
 41
1.2941176471
 42
50.0
 43
0.0
 44
0.0
 50
0.0
 51
0.0
 71
0
 72
100
 73
1
 74
1
 75
0
 76
0
 77
0
 78
0
  0
ENDTAB
  0
TABLE
  2
LTYPE
  5
5
100
AcDbSymbolTable
 70
6
  0
LTYPE
  5
14
100
AcDbSymbolTableRecord
100
AcDbLinetypeTableRecord
  2
BYBLOCK
 70
0
  3

 72
65
 73
0
 40
0.0
  0
LTYPE
  5
15
100
AcDbSymbolTableRecord
100
AcDbLinetypeTableRecord
  2
BYLAYER
 70
0
  3

 72
65
 73
0
 40
0.0
  0
LTYPE
  5
16
100
AcDbSymbolTableRecord
100
AcDbLinetypeTableRecord
  2
CONTINUOUS
 70
64
  3
Solid line
 72
65
 73
0
 40
0.0
  0
LTYPE
  5
1F5
100
AcDbSymbolTableRecord
100
AcDbLinetypeTableRecord
  2
CENTER
 70
64
  3
____ _ ____ _ ____ _ ____ _ ____ _ ____ _ ____
 72
65
 73
4
 40
0.6
 49
0.375
 74
0
 49
-0.075
 74
0
 49
0.075
 74
0
 49
-0.075
 74
0
  0
LTYPE
  5
1F6
100
AcDbSymbolTableRecord
100
AcDbLinetypeTableRecord
  2
HIDDEN
 70
64
  3
- - - - - - - - - - - - - - - - - - - -
 72
65
 73
2
 40
0.2
 49
0.1
 74
0
 49
-0.1
 74
0
  0
LTYPE
  5
1F7
100
AcDbSymbolTableRecord
100
AcDbLinetypeTableRecord
  2
PHANTOM
 70
64
  3
_____ _ _ _____ _ _ _____ _ _ _____
 72
65
 73
6
 40
0.8
 49
0.45
 74
0
 49
-0.05
 74
0
 49
0.1
 74
0
 49
-0.05
 74
0
 49
0.1
 74
0
 49
-0.05
 74
0
  0
LTYPE
  5
1F8
100
AcDbSymbolTableRecord
100
AcDbLinetypeTableRecord
  2
DOT
 70
64
  3
. . . . . . . . . . . . . . . . . . . .
 72
65
 73
2
 40
0.2
 49
0.1
 74
0
 49
-0.1
 74
0
  0
LTYPE
  5
1F9
100
AcDbSymbolTableRecord
100
AcDbLinetypeTableRecord
  2
DASHED
 70
64
  3
- - - - - - - - - - - - - - - - - - - -
 72
65
 73
2
 40
0.2
 49
0.1
 74
0
 49
-0.1
 74
0
  0
ENDTAB
  0
TABLE
  2
LAYER
  5
2
100
AcDbSymbolTable
 70
36
  0
LAYER
  5
10
100
AcDbSymbolTableRecord
100
AcDbLayerTableRecord
  2
0
 70
0
 62
7
  6
CONTINUOUS
370
-3
390
F
  0
LAYER
  5
1FA
100
AcDbSymbolTableRecord
100
AcDbLayerTableRecord
  2
DEFAULT_1
 70
0
 62
7
  6
CENTER
370
-3
390
F
  0
LAYER
  5
1FB
100
AcDbSymbolTableRecord
100
AcDbLayerTableRecord
  2
DEFAULT_2
 70
0
 62
8
  6
HIDDEN
370
-3
390
F
  0
LAYER
  5
1FC
100
AcDbSymbolTableRecord
100
AcDbLayerTableRecord
  2
DEFAULT_3
 70
0
 62
7
  6
PHANTOM
370
-3
390
F
  0
LAYER
  5
1FD
100
AcDbSymbolTableRecord
100
AcDbLayerTableRecord
  2
01_ALL_DTM_PLN
 70
0
 62
7
  6
CONTINUOUS
370
-3
390
F
  0
LAYER
  5
1FE
100
AcDbSymbolTableRecord
100
AcDbLayerTableRecord
  2
01__ASM_ALL_DTM_PLN
 70
0
 62
7
  6
CONTINUOUS
370
-3
390
F
  0
LAYER
  5
1FF
100
AcDbSymbolTableRecord
100
AcDbLayerTableRecord
  2
01__ASM_DEF_DTM_PLN
 70
0
 62
7
  6
CONTINUOUS
370
-3
390
F
  0
LAYER
  5
200
100
AcDbSymbolTableRecord
100
AcDbLayerTableRecord
  2
01___PRT_ALL_DTM_PLN
 70
0
 62
7
  6
CONTINUOUS
370
-3
390
F
  0
LAYER
  5
201
100
AcDbSymbolTableRecord
100
AcDbLayerTableRecord
  2
01___PRT_DEF_DTM_PLN
 70
0
 62
7
  6
CONTINUOUS
370
-3
390
F
  0
LAYER
  5
202
100
AcDbSymbolTableRecord
100
AcDbLayerTableRecord
  2
02_ALL_AXES
 70
0
 62
7
  6
CONTINUOUS
370
-3
390
F
  0
LAYER
  5
203
100
AcDbSymbolTableRecord
100
AcDbLayerTableRecord
  2
02__ASM_ALL_AXES
 70
0
 62
7
  6
CONTINUOUS
370
-3
390
F
  0
LAYER
  5
204
100
AcDbSymbolTableRecord
100
AcDbLayerTableRecord
  2
02___PRT_ALL_AXES
 70
0
 62
7
  6
CONTINUOUS
370
-3
390
F
  0
LAYER
  5
205
100
AcDbSymbolTableRecord
100
AcDbLayerTableRecord
  2
03_ALL_CURVES
 70
0
 62
7
  6
CONTINUOUS
370
-3
390
F
  0
LAYER
  5
206
100
AcDbSymbolTableRecord
100
AcDbLayerTableRecord
  2
03__ASM_ALL_CURVES
 70
0
 62
7
  6
CONTINUOUS
370
-3
390
F
  0
LAYER
  5
207
100
AcDbSymbolTableRecord
100
AcDbLayerTableRecord
  2
03___PRT_ALL_CURVES
 70
0
 62
7
  6
CONTINUOUS
370
-3
390
F
  0
LAYER
  5
208
100
AcDbSymbolTableRecord
100
AcDbLayerTableRecord
  2
04_ALL_DTM_PNT
 70
0
 62
7
  6
CONTINUOUS
370
-3
390
F
  0
LAYER
  5
209
100
AcDbSymbolTableRecord
100
AcDbLayerTableRecord
  2
04__ASM_ALL_DTM_PNT
 70
0
 62
7
  6
CONTINUOUS
370
-3
390
F
  0
LAYER
  5
20A
100
AcDbSymbolTableRecord
100
AcDbLayerTableRecord
  2
04___PRT_ALL_DTM_PNT
 70
0
 62
7
  6
CONTINUOUS
370
-3
390
F
  0
LAYER
  5
20B
100
AcDbSymbolTableRecord
100
AcDbLayerTableRecord
  2
05_ALL_DTM_CSYS
 70
0
 62
7
  6
CONTINUOUS
370
-3
390
F
  0
LAYER
  5
20C
100
AcDbSymbolTableRecord
100
AcDbLayerTableRecord
  2
05__ASM_ALL_DTM_CSYS
 70
0
 62
7
  6
CONTINUOUS
370
-3
390
F
  0
LAYER
  5
20D
100
AcDbSymbolTableRecord
100
AcDbLayerTableRecord
  2
05__ASM_DEF_DTM_CSYS
 70
0
 62
7
  6
CONTINUOUS
370
-3
390
F
  0
LAYER
  5
20E
100
AcDbSymbolTableRecord
100
AcDbLayerTableRecord
  2
05___PRT_ALL_DTM_CSYS
 70
0
 62
7
  6
CONTINUOUS
370
-3
390
F
  0
LAYER
  5
20F
100
AcDbSymbolTableRecord
100
AcDbLayerTableRecord
  2
05___PRT_DEF_DTM_CSYS
 70
0
 62
7
  6
CONTINUOUS
370
-3
390
F
  0
LAYER
  5
210
100
AcDbSymbolTableRecord
100
AcDbLayerTableRecord
  2
06_ALL_SURFS
 70
0
 62
7
  6
CONTINUOUS
370
-3
390
F
  0
LAYER
  5
211
100
AcDbSymbolTableRecord
100
AcDbLayerTableRecord
  2
06__ASM_ALL_SURFS
 70
0
 62
7
  6
CONTINUOUS
370
-3
390
F
  0
LAYER
  5
212
100
AcDbSymbolTableRecord
100
AcDbLayerTableRecord
  2
06___PRT_ALL_SURFS
 70
0
 62
7
  6
CONTINUOUS
370
-3
390
F
  0
LAYER
  5
213
100
AcDbSymbolTableRecord
100
AcDbLayerTableRecord
  2
07__ASM_ALL_SKELETONS
 70
0
 62
7
  6
CONTINUOUS
370
-3
390
F
  0
LAYER
  5
214
100
AcDbSymbolTableRecord
100
AcDbLayerTableRecord
  2
LAYER_DIM
 70
0
 62
7
  6
CONTINUOUS
370
-3
390
F
  0
LAYER
  5
215
100
AcDbSymbolTableRecord
100
AcDbLayerTableRecord
  2
LAYER_FEATURE
 70
0
 62
7
  6
CONTINUOUS
370
-3
390
F
  0
LAYER
  5
216
100
AcDbSymbolTableRecord
100
AcDbLayerTableRecord
  2
LAYER_GEOM_FEAT
 70
0
 62
7
  6
CONTINUOUS
370
-3
390
F
  0
LAYER
  5
217
100
AcDbSymbolTableRecord
100
AcDbLayerTableRecord
  2
LAYER_PARAMETER_DIM
 70
0
 62
7
  6
CONTINUOUS
370
-3
390
F
  0
LAYER
  5
218
100
AcDbSymbolTableRecord
100
AcDbLayerTableRecord
  2
LAYER_PROTRUSION_FEAT
 70
0
 62
7
  6
CONTINUOUS
370
-3
390
F
  0
LAYER
  5
219
100
AcDbSymbolTableRecord
100
AcDbLayerTableRecord
  2
LAYER_ROUND_FEAT
 70
0
 62
7
  6
CONTINUOUS
370
-3
390
F
  0
ENDTAB
  0
TABLE
  2
STYLE
  5
3
100
AcDbSymbolTable
 70
1
  0
STYLE
  5
11
100
AcDbSymbolTableRecord
100
AcDbTextStyleTableRecord
  2
STANDARD
 70
0
 40
0.0
 41
0.8
 50
0.0
 71
0
 42
0.2
  3
txt
  4

  0
STYLE
  5
21A
100
AcDbSymbolTableRecord
100
AcDbTextStyleTableRecord
  2
TEXTSTYLE_1
 70
0
 40
0.0
 41
0.8
 50
0.0
 71
0
 42
0.2
  3
gdt
  4

  0
ENDTAB
  0
TABLE
  2
VIEW
  5
6
100
AcDbSymbolTable
 70
0
  0
ENDTAB
  0
TABLE
  2
UCS
  5
7
100
AcDbSymbolTable
 70
0
  0
ENDTAB
  0
TABLE
  2
APPID
  5
9
100
AcDbSymbolTable
 70
1
  0
APPID
  5
21B
100
AcDbSymbolTableRecord
100
AcDbRegAppTableRecord
  2
ACAD
 70
0
  0
ENDTAB
  0
TABLE
  2
BLOCK_RECORD
  5
1
100
AcDbSymbolTable
 70
0
  0
BLOCK_RECORD
  5
21C
100
AcDbSymbolTableRecord
100
AcDbBlockTableRecord
  2
*Model_Space
  0
BLOCK_RECORD
  5
21D
100
AcDbSymbolTableRecord
100
AcDbBlockTableRecord
  2
*Paper_Space
  0
ENDTAB
  0
TABLE
  2
DIMSTYLE
  5
A
100
AcDbSymbolTable
 70
1
100
AcDbDimStyleTable
 71
0
  0
DIMSTYLE
105
21E
100
AcDbSymbolTableRecord
100
AcDbDimStyleTableRecord
  2
STANDARD
 70
0
  3

  4

 40
1.0
 41
0.1875
 42
0.0625
 43
0.38
 44
0.125
 45
0.0
 46
0.0
 47
0.0001
 48
0.0001
140
0.15625
141
0.09
142
0.0
143
25.4
144
1.0
145
0.0
146
1.0
147
0.09
 71
0.0
 72
0.0
 73
1
 74
1
 75
0
 76
0
 77
0
 78
4
170
0
171
2
172
0
173
0
174
0
175
0
176
0
177
0
178
0
270
2
271
4
272
4
273
2
274
2
275
0
280
0
281
0
282
0
283
1
284
4
285
0
286
0
287
3
288
0
340
11
278
46
  0
ENDTAB
  0
ENDSEC
  0
SECTION
  2
BLOCKS
  0
BLOCK
  5
20
100
AcDbEntity
  8
0
100
AcDbBlockBegin
  2
*Model_Space
 70
0
 10
0.0
 20
0.0
 30
0.0
  3
*Model_Space
  1

  0
ENDBLK
  5
21
100
AcDbEntity
  8
0
100
AcDbBlockEnd
  0
BLOCK
  5
1C
100
AcDbEntity
  8
0
100
AcDbBlockBegin
  2
*Paper_Space
 70
0
 10
0.0
 20
0.0
 30
0.0
  3
*Paper_Space
  1

  0
ENDBLK
  5
1D
100
AcDbEntity
  8
0
100
AcDbBlockEnd
  0
ENDSEC
  0
SECTION
  2
ENTITIES
  0
MTEXT
  5
21F
100
AcDbEntity
  8
0
100
AcDbMText
 62
7
  6
CONTINUOUS
  7
STANDARD
 71
1
 72
1
 10
15.9560215477
 20
0.9479130325
 30
0.0
 11
1.0
 21
0.0
 31
0.0
 44
0.9
  1
SCALE: 1:1.000
 40
0.3
 41
3.36
  0
LINE
  5
220
100
AcDbEntity
  8
0
100
AcDbLine
 62
7
  6
CONTINUOUS
 10
0.0
 20
0.0
 11
0.0
 21
17.0
  0
LINE
  5
221
100
AcDbEntity
  8
0
100
AcDbLine
 62
7
  6
CONTINUOUS
 10
0.0
 20
0.0
 11
22.0
 21
0.0
  0
LINE
  5
222
100
AcDbEntity
  8
0
100
AcDbLine
 62
7
  6
CONTINUOUS
 10
0.0
 20
17.0
 11
22.0
 21
17.0
  0
LINE
  5
223
100
AcDbEntity
  8
0
100
AcDbLine
 62
7
  6
CONTINUOUS
 10
22.0
 20
0.0
 11
22.0
 21
17.0
  0
LINE
  5
224
100
AcDbEntity
  8
0
100
AcDbLine
 62
7
  6
CONTINUOUS
 10
4.5193672762
 20
5.6951198968
 11
4.5193672762
 21
5.6401198968
  0
LINE
  5
225
100
AcDbEntity
  8
0
100
AcDbLine
 62
7
  6
CONTINUOUS
 10
4.5193672762
 20
5.6401198968
 11
4.5877933187
 21
5.3424065888
  0
LINE
  5
226
100
AcDbEntity
  8
0
100
AcDbLine
 62
7
  6
CONTINUOUS
 10
4.8993672762
 20
5.6401198968
 11
4.8993672762
 21
5.6751198968
  0
LINE
  5
227
100
AcDbEntity
  8
LAYER_FEATURE
100
AcDbLine
 62
7
  6
CONTINUOUS
 10
4.9253672762
 20
5.6751198968
 11
4.9253672762
 21
5.6401198968
  0
LINE
  5
228
100
AcDbEntity
  8
0
100
AcDbLine
 62
7
  6
CONTINUOUS
 10
4.8309412336
 20
5.3424065888
 11
4.8993672762
 21
5.6401198968
  0
LINE
  5
229
100
AcDbEntity
  8
LAYER_FEATURE
100
AcDbLine
 62
7
  6
CONTINUOUS
 10
4.9253672762
 20
5.6401198968
 11
4.9937933187
 21
5.3424065888
  0
LINE
  5
22A
100
AcDbEntity
  8
LAYER_FEATURE
100
AcDbLine
 62
7
  6
CONTINUOUS
 10
5.3053672762
 20
5.6401198968
 11
5.3053672762
 21
5.6751198968
  0
LINE
  5
22B
100
AcDbEntity
  8
LAYER_FEATURE
100
AcDbLine
 62
7
  6
CONTINUOUS
 10
5.3313672762
 20
5.6751198968
 11
5.3313672762
 21
5.6401198968
  0
LINE
  5
22C
100
AcDbEntity
  8
LAYER_FEATURE
100
AcDbLine
 62
7
  6
CONTINUOUS
 10
5.2369412336
 20
5.3424065888
 11
5.3053672762
 21
5.6401198968
  0
LINE
  5
22D
100
AcDbEntity
  8
LAYER_FEATURE
100
AcDbLine
 62
7
  6
CONTINUOUS
 10
5.3313672762
 20
5.6401198968
 11
5.3997933187
 21
5.3424065888
  0
LINE
  5
22E
100
AcDbEntity
  8
LAYER_FEATURE
100
AcDbLine
 62
7
  6
CONTINUOUS
 10
5.7113672762
 20
5.6401198968
 11
5.7113672762
 21
5.6751198968
  0
LINE
  5
22F
100
AcDbEntity
  8
LAYER_FEATURE
100
AcDbLine
 62
7
  6
CONTINUOUS
 10
5.6429412336
 20
5.3424065888
 11
5.7113672762
 21
5.6401198968
  0
LINE
  5
230
100
AcDbEntity
  8
LAYER_FEATURE
100
AcDbLine
 62
7
  6
CONTINUOUS
 10
5.7373672762
 20
5.6751198968
 11
5.7373672762
 21
5.6401198968
  0
LINE
  5
231
100
AcDbEntity
  8
LAYER_FEATURE
100
AcDbLine
 62
7
  6
CONTINUOUS
 10
5.7373672762
 20
5.6401198968
 11
5.8057933187
 21
5.3424065888
  0
LINE
  5
232
100
AcDbEntity
  8
0
100
AcDbLine
 62
7
  6
CONTINUOUS
 10
4.6032243193
 20
5.3301198968
 11
4.815510233
 21
5.3301198968
  0
LINE
  5
233
100
AcDbEntity
  8
LAYER_FEATURE
100
AcDbLine
 62
7
  6
CONTINUOUS
 10
5.0092243193
 20
5.3301198968
 11
5.221510233
 21
5.3301198968
  0
LINE
  5
234
100
AcDbEntity
  8
LAYER_FEATURE
100
AcDbLine
 62
7
  6
CONTINUOUS
 10
5.4152243193
 20
5.3301198968
 11
5.627510233
 21
5.3301198968
  0
LINE
  5
235
100
AcDbEntity
  8
LAYER_FEATURE
100
AcDbLine
 62
7
  6
CONTINUOUS
 10
5.8212243193
 20
5.3301198968
 11
6.033510233
 21
5.3301198968
  0
LINE
  5
236
100
AcDbEntity
  8
LAYER_FEATURE
100
AcDbLine
 62
7
  6
CONTINUOUS
 10
6.2272243193
 20
5.3301198968
 11
6.439510233
 21
5.3301198968
  0
LINE
  5
237
100
AcDbEntity
  8
LAYER_FEATURE
100
AcDbLine
 62
7
  6
CONTINUOUS
 10
6.6332243193
 20
5.3301198968
 11
6.845510233
 21
5.3301198968
  0
LINE
  5
238
100
AcDbEntity
  8
LAYER_FEATURE
100
AcDbLine
 62
7
  6
CONTINUOUS
 10
7.0392243193
 20
5.3301198968
 11
7.251510233
 21
5.3301198968
  0
LINE
  5
239
100
AcDbEntity
  8
LAYER_FEATURE
100
AcDbLine
 62
7
  6
CONTINUOUS
 10
7.4452243193
 20
5.3301198968
 11
7.657510233
 21
5.3301198968
  0
LINE
  5
23A
100
AcDbEntity
  8
LAYER_FEATURE
100
AcDbLine
 62
7
  6
CONTINUOUS
 10
6.1173672762
 20
5.6401198968
 11
6.1173672762
 21
5.6751198968
  0
LINE
  5
23B
100
AcDbEntity
  8
LAYER_FEATURE
100
AcDbLine
 62
7
  6
CONTINUOUS
 10
6.1433672762
 20
5.6751198968
 11
6.1433672762
 21
5.6401198968
  0
LINE
  5
23C
100
AcDbEntity
  8
LAYER_FEATURE
100
AcDbLine
 62
7
  6
CONTINUOUS
 10
6.0489412336
 20
5.3424065888
 11
6.1173672762
 21
5.6401198968
  0
LINE
  5
23D
100
AcDbEntity
  8
LAYER_FEATURE
100
AcDbLine
 62
7
  6
CONTINUOUS
 10
6.1433672762
 20
5.6401198968
 11
6.2117933187
 21
5.3424065888
  0
LINE
  5
23E
100
AcDbEntity
  8
LAYER_FEATURE
100
AcDbLine
 62
7
  6
CONTINUOUS
 10
4.8993672762
 20
5.6751198968
 11
4.9253672762
 21
5.6751198968
  0
LINE
  5
23F
100
AcDbEntity
  8
LAYER_FEATURE
100
AcDbLine
 62
7
  6
CONTINUOUS
 10
5.3053672762
 20
5.6751198968
 11
5.3313672762
 21
5.6751198968
  0
LINE
  5
240
100
AcDbEntity
  8
LAYER_FEATURE
100
AcDbLine
 62
7
  6
CONTINUOUS
 10
5.7113672762
 20
5.6751198968
 11
5.7373672762
 21
5.6751198968
  0
LINE
  5
241
100
AcDbEntity
  8
LAYER_FEATURE
100
AcDbLine
 62
7
  6
CONTINUOUS
 10
6.1173672762
 20
5.6751198968
 11
6.1433672762
 21
5.6751198968
  0
LINE
  5
242
100
AcDbEntity
  8
LAYER_FEATURE
100
AcDbLine
 62
7
  6
CONTINUOUS
 10
6.5233672762
 20
5.6751198968
 11
6.5493672762
 21
5.6751198968
  0
LINE
  5
243
100
AcDbEntity
  8
LAYER_FEATURE
100
AcDbLine
 62
7
  6
CONTINUOUS
 10
6.9293672762
 20
5.6751198968
 11
6.9553672762
 21
5.6751198968
  0
LINE
  5
244
100
AcDbEntity
  8
LAYER_FEATURE
100
AcDbLine
 62
7
  6
CONTINUOUS
 10
7.3353672762
 20
5.6751198968
 11
7.3613672762
 21
5.6751198968
  0
LINE
  5
245
100
AcDbEntity
  8
0
100
AcDbLine
 62
7
  6
CONTINUOUS
 10
7.7263672762
 20
5.7101198968
 11
4.5343672762
 21
5.7101198968
  0
LINE
  5
246
100
AcDbEntity
  8
LAYER_FEATURE
100
AcDbLine
 62
7
  6
CONTINUOUS
 10
6.5233672762
 20
5.6401198968
 11
6.5233672762
 21
5.6751198968
  0
LINE
  5
247
100
AcDbEntity
  8
LAYER_FEATURE
100
AcDbLine
 62
7
  6
CONTINUOUS
 10
6.5493672762
 20
5.6751198968
 11
6.5493672762
 21
5.6401198968
  0
LINE
  5
248
100
AcDbEntity
  8
LAYER_FEATURE
100
AcDbLine
 62
7
  6
CONTINUOUS
 10
6.4549412336
 20
5.3424065888
 11
6.5233672762
 21
5.6401198968
  0
LINE
  5
249
100
AcDbEntity
  8
LAYER_FEATURE
100
AcDbLine
 62
7
  6
CONTINUOUS
 10
6.5493672762
 20
5.6401198968
 11
6.6177933187
 21
5.3424065888
  0
LINE
  5
24A
100
AcDbEntity
  8
LAYER_FEATURE
100
AcDbLine
 62
7
  6
CONTINUOUS
 10
6.8609412336
 20
5.3424065888
 11
6.9293672762
 21
5.6401198968
  0
LINE
  5
24B
100
AcDbEntity
  8
LAYER_FEATURE
100
AcDbLine
 62
7
  6
CONTINUOUS
 10
6.9293672762
 20
5.6401198968
 11
6.9293672762
 21
5.6751198968
  0
LINE
  5
24C
100
AcDbEntity
  8
LAYER_FEATURE
100
AcDbLine
 62
7
  6
CONTINUOUS
 10
6.9553672762
 20
5.6751198968
 11
6.9553672762
 21
5.6401198968
  0
LINE
  5
24D
100
AcDbEntity
  8
LAYER_FEATURE
100
AcDbLine
 62
7
  6
CONTINUOUS
 10
6.9553672762
 20
5.6401198968
 11
7.0237933187
 21
5.3424065888
  0
LINE
  5
24E
100
AcDbEntity
  8
LAYER_FEATURE
100
AcDbLine
 62
7
  6
CONTINUOUS
 10
7.2669412336
 20
5.3424065888
 11
7.3353672762
 21
5.6401198968
  0
LINE
  5
24F
100
AcDbEntity
  8
LAYER_FEATURE
100
AcDbLine
 62
7
  6
CONTINUOUS
 10
7.3353672762
 20
5.6401198968
 11
7.3353672762
 21
5.6751198968
  0
LINE
  5
250
100
AcDbEntity
  8
LAYER_FEATURE
100
AcDbLine
 62
7
  6
CONTINUOUS
 10
7.3613672762
 20
5.6751198968
 11
7.3613672762
 21
5.6401198968
  0
LINE
  5
251
100
AcDbEntity
  8
LAYER_FEATURE
100
AcDbLine
 62
7
  6
CONTINUOUS
 10
7.3613672762
 20
5.6401198968
 11
7.4297933187
 21
5.3424065888
  0
LINE
  5
252
100
AcDbEntity
  8
0
100
AcDbLine
 62
7
  6
CONTINUOUS
 10
7.7413672762
 20
5.6401198968
 11
7.7413672762
 21
5.6951198968
  0
LINE
  5
253
100
AcDbEntity
  8
LAYER_FEATURE
100
AcDbLine
 62
7
  6
CONTINUOUS
 10
7.6729412336
 20
5.3424065888
 11
7.7413672762
 21
5.6401198968
  0
LINE
  5
254
100
AcDbEntity
  8
0
100
AcDbLine
 62
7
  6
CONTINUOUS
 10
7.6818720839
 20
10.6000477814
 11
4.4598720839
 21
10.6000477814
  0
LINE
  5
255
100
AcDbEntity
  8
0
100
AcDbLine
 62
7
  6
CONTINUOUS
 10
4.4598720839
 20
14.6000477814
 11
4.4598720839
 21
10.6000477814
  0
LINE
  5
256
100
AcDbEntity
  8
0
100
AcDbLine
 62
7
  6
CONTINUOUS
 10
7.6818720839
 20
10.6000477814
 11
7.6818720839
 21
14.6000477814
  0
LINE
  5
257
100
AcDbEntity
  8
0
100
AcDbLine
 62
7
  6
CONTINUOUS
 10
4.4598720839
 20
14.6000477814
 11
7.6818720839
 21
14.6000477814
  0
LINE
  5
258
100
AcDbEntity
  8
LAYER_FEATURE
100
AcDbLine
 62
7
  6
CONTINUOUS
 10
13.5603552569
 20
5.2706247044
 11
13.5603552569
 21
5.5806247044
  0
LINE
  5
259
100
AcDbEntity
  8
0
100
AcDbLine
 62
7
  6
CONTINUOUS
 10
13.5603552569
 20
5.5806247044
 11
13.5603552569
 21
5.6506247044
  0
LINE
  5
25A
100
AcDbEntity
  8
LAYER_FEATURE
100
AcDbLine
 62
7
  6
CONTINUOUS
 10
13.5603552569
 20
5.2706247044
 11
17.5603552569
 21
5.2706247044
  0
LINE
  5
25B
100
AcDbEntity
  8
LAYER_FEATURE
100
AcDbLine
 62
7
  6
CONTINUOUS
 10
17.5603552569
 20
5.5806247044
 11
13.5603552569
 21
5.5806247044
  0
LINE
  5
25C
100
AcDbEntity
  8
0
100
AcDbLine
 62
7
  6
CONTINUOUS
 10
13.5603552569
 20
5.6506247044
 11
17.5603552569
 21
5.6506247044
  0
LINE
  5
25D
100
AcDbEntity
  8
0
100
AcDbLine
 62
7
  6
CONTINUOUS
 10
17.5603552569
 20
5.6506247044
 11
17.5603552569
 21
5.5806247044
  0
LINE
  5
25E
100
AcDbEntity
  8
LAYER_FEATURE
100
AcDbLine
 62
7
  6
CONTINUOUS
 10
17.5603552569
 20
5.2706247044
 11
17.5603552569
 21
5.5806247044
  0
LINE
  5
25F
100
AcDbEntity
  8
0
100
AcDbLine
 62
7
  6
CONTINUOUS
 10
13.4979939426
 20
11.0187443698
 11
13.6518335245
 21
10.8336828099
  0
LINE
  5
260
100
AcDbEntity
  8
0
100
AcDbLine
 62
7
  6
CONTINUOUS
 10
13.4812166399
 20
11.0529329181
 11
13.4979939426
 21
11.0187443698
  0
LINE
  5
261
100
AcDbEntity
  8
LAYER_FEATURE
100
AcDbLine
 62
7
  6
CONTINUOUS
 10
13.8719447062
 20
11.0187443698
 11
14.0257842881
 21
10.8336828099
  0
LINE
  5
262
100
AcDbEntity
  8
0
100
AcDbLine
 62
7
  6
CONTINUOUS
 10
13.8479971203
 20
11.0187443698
 11
13.837320655
 21
11.0405007187
  0
LINE
  5
263
100
AcDbEntity
  8
LAYER_FEATURE
100
AcDbLine
 62
7
  6
CONTINUOUS
 10
13.8612682408
 20
11.0405007187
 11
13.8719447062
 21
11.0187443698
  0
LINE
  5
264
100
AcDbEntity
  8
LAYER_FEATURE
100
AcDbLine
 62
7
  6
CONTINUOUS
 10
14.2458954697
 20
11.0187443698
 11
14.3997350517
 21
10.8336828099
  0
LINE
  5
265
100
AcDbEntity
  8
LAYER_FEATURE
100
AcDbLine
 62
7
  6
CONTINUOUS
 10
14.2219478839
 20
11.0187443698
 11
14.2112714185
 21
11.0405007187
  0
LINE
  5
266
100
AcDbEntity
  8
LAYER_FEATURE
100
AcDbLine
 62
7
  6
CONTINUOUS
 10
14.2352190044
 20
11.0405007187
 11
14.2458954697
 21
11.0187443698
  0
LINE
  5
267
100
AcDbEntity
  8
0
100
AcDbLine
 62
7
  6
CONTINUOUS
 10
13.8757875847
 20
10.8336828099
 11
13.8479971203
 21
11.0187443698
  0
LINE
  5
268
100
AcDbEntity
  8
0
100
AcDbLine
 62
7
  6
CONTINUOUS
 10
13.6697943728
 20
10.8260452797
 11
13.8653226474
 21
10.8260452797
  0
LINE
  5
269
100
AcDbEntity
  8
LAYER_FEATURE
100
AcDbLine
 62
7
  6
CONTINUOUS
 10
14.0437451364
 20
10.8260452797
 11
14.239273411
 21
10.8260452797
  0
LINE
  5
26A
100
AcDbEntity
  8
LAYER_FEATURE
100
AcDbLine
 62
7
  6
CONTINUOUS
 10
14.4176958999
 20
10.8260452797
 11
14.6132241746
 21
10.8260452797
  0
LINE
  5
26B
100
AcDbEntity
  8
LAYER_FEATURE
100
AcDbLine
 62
7
  6
CONTINUOUS
 10
14.7916466635
 20
10.8260452797
 11
14.9871749381
 21
10.8260452797
  0
LINE
  5
26C
100
AcDbEntity
  8
LAYER_FEATURE
100
AcDbLine
 62
7
  6
CONTINUOUS
 10
15.165597427
 20
10.8260452797
 11
15.3611257017
 21
10.8260452797
  0
LINE
  5
26D
100
AcDbEntity
  8
LAYER_FEATURE
100
AcDbLine
 62
7
  6
CONTINUOUS
 10
15.5395481906
 20
10.8260452797
 11
15.7350764653
 21
10.8260452797
  0
LINE
  5
26E
100
AcDbEntity
  8
LAYER_FEATURE
100
AcDbLine
 62
7
  6
CONTINUOUS
 10
15.9134989542
 20
10.8260452797
 11
16.1090272288
 21
10.8260452797
  0
LINE
  5
26F
100
AcDbEntity
  8
LAYER_FEATURE
100
AcDbLine
 62
7
  6
CONTINUOUS
 10
16.2874497177
 20
10.8260452797
 11
16.4829779924
 21
10.8260452797
  0
LINE
  5
270
100
AcDbEntity
  8
LAYER_FEATURE
100
AcDbLine
 62
7
  6
CONTINUOUS
 10
14.6198462333
 20
11.0187443698
 11
14.7736858152
 21
10.8336828099
  0
LINE
  5
271
100
AcDbEntity
  8
0
100
AcDbLine
 62
7
  6
CONTINUOUS
 10
13.8756207462
 20
10.8312125542
 11
13.8757875847
 21
10.8336828099
  0
LINE
  5
272
100
AcDbEntity
  8
0
100
AcDbLine
 62
7
  6
CONTINUOUS
 10
14.4489665358
 20
14.1906692672
 11
13.4807012422
 21
11.0573616287
  0
LINE
  5
273
100
AcDbEntity
  8
LAYER_FEATURE
100
AcDbLine
 62
7
  6
CONTINUOUS
 10
13.837320655
 20
11.0405007187
 11
13.8612682408
 21
11.0405007187
  0
LINE
  5
274
100
AcDbEntity
  8
LAYER_FEATURE
100
AcDbLine
 62
7
  6
CONTINUOUS
 10
14.2112714185
 20
11.0405007187
 11
14.2352190044
 21
11.0405007187
  0
LINE
  5
275
100
AcDbEntity
  8
LAYER_FEATURE
100
AcDbLine
 62
7
  6
CONTINUOUS
 10
14.5852221821
 20
11.0405007187
 11
14.609169768
 21
11.0405007187
  0
LINE
  5
276
100
AcDbEntity
  8
LAYER_FEATURE
100
AcDbLine
 62
7
  6
CONTINUOUS
 10
14.9591729457
 20
11.0405007187
 11
14.9831205315
 21
11.0405007187
  0
LINE
  5
277
100
AcDbEntity
  8
LAYER_FEATURE
100
AcDbLine
 62
7
  6
CONTINUOUS
 10
15.3331237092
 20
11.0405007187
 11
15.3570712951
 21
11.0405007187
  0
LINE
  5
278
100
AcDbEntity
  8
LAYER_FEATURE
100
AcDbLine
 62
7
  6
CONTINUOUS
 10
15.7070744728
 20
11.0405007187
 11
15.7310220587
 21
11.0405007187
  0
LINE
  5
279
100
AcDbEntity
  8
LAYER_FEATURE
100
AcDbLine
 62
7
  6
CONTINUOUS
 10
16.0810252364
 20
11.0405007187
 11
16.1049728222
 21
11.0405007187
  0
LINE
  5
27A
100
AcDbEntity
  8
0
100
AcDbLine
 62
7
  6
CONTINUOUS
 10
16.4304836197
 20
11.0622570676
 11
13.4904569268
 21
11.0622570676
  0
LINE
  5
27B
100
AcDbEntity
  8
LAYER_FEATURE
100
AcDbLine
 62
7
  6
CONTINUOUS
 10
14.5958986474
 20
11.0187443698
 11
14.5852221821
 21
11.0405007187
  0
LINE
  5
27C
100
AcDbEntity
  8
LAYER_FEATURE
100
AcDbLine
 62
7
  6
CONTINUOUS
 10
14.609169768
 20
11.0405007187
 11
14.6198462333
 21
11.0187443698
  0
LINE
  5
27D
100
AcDbEntity
  8
LAYER_FEATURE
100
AcDbLine
 62
7
  6
CONTINUOUS
 10
14.2497383483
 20
10.8336828099
 11
14.2219478839
 21
11.0187443698
  0
LINE
  5
27E
100
AcDbEntity
  8
LAYER_FEATURE
100
AcDbLine
 62
7
  6
CONTINUOUS
 10
14.9937969969
 20
11.0187443698
 11
15.1476365788
 21
10.8336828099
  0
LINE
  5
27F
100
AcDbEntity
  8
LAYER_FEATURE
100
AcDbLine
 62
7
  6
CONTINUOUS
 10
14.2495715098
 20
10.8312125542
 11
14.2497383483
 21
10.8336828099
  0
LINE
  5
280
100
AcDbEntity
  8
0
100
AcDbLine
 62
7
  6
CONTINUOUS
 10
13.8547203406
 20
11.0405007187
 11
13.8479971203
 21
11.0187443698
  0
LINE
  5
281
100
AcDbEntity
  8
0
100
AcDbLine
 62
7
  6
CONTINUOUS
 10
13.8763316814
 20
10.8335146714
 11
13.916871059
 21
10.9647001452
  0
LINE
  5
282
100
AcDbEntity
  8
LAYER_FEATURE
100
AcDbLine
 62
7
  6
CONTINUOUS
 10
15.3677477604
 20
11.0187443698
 11
15.5215873424
 21
10.8336828099
  0
LINE
  5
283
100
AcDbEntity
  8
LAYER_FEATURE
100
AcDbLine
 62
7
  6
CONTINUOUS
 10
14.969849411
 20
11.0187443698
 11
14.9591729457
 21
11.0405007187
  0
LINE
  5
284
100
AcDbEntity
  8
LAYER_FEATURE
100
AcDbLine
 62
7
  6
CONTINUOUS
 10
14.9831205315
 20
11.0405007187
 11
14.9937969969
 21
11.0187443698
  0
LINE
  5
285
100
AcDbEntity
  8
LAYER_FEATURE
100
AcDbLine
 62
7
  6
CONTINUOUS
 10
14.6236891119
 20
10.8336828099
 11
14.5958986474
 21
11.0187443698
  0
LINE
  5
286
100
AcDbEntity
  8
LAYER_FEATURE
100
AcDbLine
 62
7
  6
CONTINUOUS
 10
14.6235222733
 20
10.8312125542
 11
14.6236891119
 21
10.8336828099
  0
LINE
  5
287
100
AcDbEntity
  8
LAYER_FEATURE
100
AcDbLine
 62
7
  6
CONTINUOUS
 10
14.2286711042
 20
11.0405007187
 11
14.2219478839
 21
11.0187443698
  0
LINE
  5
288
100
AcDbEntity
  8
LAYER_FEATURE
100
AcDbLine
 62
7
  6
CONTINUOUS
 10
15.741698524
 20
11.0187443698
 11
15.8955381059
 21
10.8336828099
  0
LINE
  5
289
100
AcDbEntity
  8
LAYER_FEATURE
100
AcDbLine
 62
7
  6
CONTINUOUS
 10
15.3438001746
 20
11.0187443698
 11
15.3331237092
 21
11.0405007187
  0
LINE
  5
28A
100
AcDbEntity
  8
LAYER_FEATURE
100
AcDbLine
 62
7
  6
CONTINUOUS
 10
15.3570712951
 20
11.0405007187
 11
15.3677477604
 21
11.0187443698
  0
LINE
  5
28B
100
AcDbEntity
  8
LAYER_FEATURE
100
AcDbLine
 62
7
  6
CONTINUOUS
 10
14.9976398754
 20
10.8336828099
 11
14.969849411
 21
11.0187443698
  0
LINE
  5
28C
100
AcDbEntity
  8
LAYER_FEATURE
100
AcDbLine
 62
7
  6
CONTINUOUS
 10
14.250282445
 20
10.8335146714
 11
14.2908218225
 21
10.9647001452
  0
LINE
  5
28D
100
AcDbEntity
  8
LAYER_FEATURE
100
AcDbLine
 62
7
  6
CONTINUOUS
 10
14.9974732584
 20
10.8312124858
 11
14.9976398754
 21
10.8336828099
  0
LINE
  5
28E
100
AcDbEntity
  8
LAYER_FEATURE
100
AcDbLine
 62
7
  6
CONTINUOUS
 10
14.6026218678
 20
11.0405007187
 11
14.5958986474
 21
11.0187443698
  0
LINE
  5
28F
100
AcDbEntity
  8
LAYER_FEATURE
100
AcDbLine
 62
7
  6
CONTINUOUS
 10
16.1156492875
 20
11.0187443698
 11
16.2694888695
 21
10.8336828099
  0
LINE
  5
290
100
AcDbEntity
  8
LAYER_FEATURE
100
AcDbLine
 62
7
  6
CONTINUOUS
 10
15.7177509381
 20
11.0187443698
 11
15.7070744728
 21
11.0405007187
  0
LINE
  5
291
100
AcDbEntity
  8
LAYER_FEATURE
100
AcDbLine
 62
7
  6
CONTINUOUS
 10
15.7310220587
 20
11.0405007187
 11
15.741698524
 21
11.0187443698
  0
LINE
  5
292
100
AcDbEntity
  8
LAYER_FEATURE
100
AcDbLine
 62
7
  6
CONTINUOUS
 10
15.371590639
 20
10.8336828099
 11
15.3438001746
 21
11.0187443698
  0
LINE
  5
293
100
AcDbEntity
  8
LAYER_FEATURE
100
AcDbLine
 62
7
  6
CONTINUOUS
 10
14.6242332085
 20
10.8335146714
 11
14.6647725861
 21
10.9647001452
  0
LINE
  5
294
100
AcDbEntity
  8
LAYER_FEATURE
100
AcDbLine
 62
7
  6
CONTINUOUS
 10
15.3714238005
 20
10.8312125542
 11
15.371590639
 21
10.8336828099
  0
LINE
  5
295
100
AcDbEntity
  8
LAYER_FEATURE
100
AcDbLine
 62
7
  6
CONTINUOUS
 10
14.9765726313
 20
11.0405007187
 11
14.969849411
 21
11.0187443698
  0
LINE
  5
296
100
AcDbEntity
  8
LAYER_FEATURE
100
AcDbLine
 62
7
  6
CONTINUOUS
 10
16.0917017017
 20
11.0187443698
 11
16.0810252364
 21
11.0405007187
  0
LINE
  5
297
100
AcDbEntity
  8
LAYER_FEATURE
100
AcDbLine
 62
7
  6
CONTINUOUS
 10
16.1049728222
 20
11.0405007187
 11
16.1156492875
 21
11.0187443698
  0
LINE
  5
298
100
AcDbEntity
  8
LAYER_FEATURE
100
AcDbLine
 62
7
  6
CONTINUOUS
 10
15.7455414025
 20
10.8336828099
 11
15.7177509381
 21
11.0187443698
  0
LINE
  5
299
100
AcDbEntity
  8
LAYER_FEATURE
100
AcDbLine
 62
7
  6
CONTINUOUS
 10
14.9981839721
 20
10.8335146714
 11
15.0387233496
 21
10.9647001452
  0
LINE
  5
29A
100
AcDbEntity
  8
LAYER_FEATURE
100
AcDbLine
 62
7
  6
CONTINUOUS
 10
15.3505233949
 20
11.0405007187
 11
15.3438001746
 21
11.0187443698
  0
LINE
  5
29B
100
AcDbEntity
  8
0
100
AcDbLine
 62
7
  6
CONTINUOUS
 10
16.4656524653
 20
11.0187443698
 11
16.4488751626
 21
11.0529329181
  0
LINE
  5
29C
100
AcDbEntity
  8
LAYER_FEATURE
100
AcDbLine
 62
7
  6
CONTINUOUS
 10
15.745374564
 20
10.8312125542
 11
15.7455414025
 21
10.8336828099
  0
LINE
  5
29D
100
AcDbEntity
  8
LAYER_FEATURE
100
AcDbLine
 62
7
  6
CONTINUOUS
 10
15.3721347357
 20
10.8335146714
 11
15.4126741132
 21
10.9647001452
  0
LINE
  5
29E
100
AcDbEntity
  8
LAYER_FEATURE
100
AcDbLine
 62
7
  6
CONTINUOUS
 10
16.1194921661
 20
10.8336828099
 11
16.0917017017
 21
11.0187443698
  0
LINE
  5
29F
100
AcDbEntity
  8
LAYER_FEATURE
100
AcDbLine
 62
7
  6
CONTINUOUS
 10
15.7244741584
 20
11.0405007187
 11
15.7177509381
 21
11.0187443698
  0
LINE
  5
2A0
100
AcDbEntity
  8
LAYER_FEATURE
100
AcDbLine
 62
7
  6
CONTINUOUS
 10
16.1193253276
 20
10.8312125542
 11
16.1194921661
 21
10.8336828099
  0
LINE
  5
2A1
100
AcDbEntity
  8
LAYER_FEATURE
100
AcDbLine
 62
7
  6
CONTINUOUS
 10
15.7460854992
 20
10.8335146714
 11
15.7866248768
 21
10.9647001452
  0
LINE
  5
2A2
100
AcDbEntity
  8
LAYER_FEATURE
100
AcDbLine
 62
7
  6
CONTINUOUS
 10
16.4934429297
 20
10.8336828099
 11
16.4656524653
 21
11.0187443698
  0
LINE
  5
2A3
100
AcDbEntity
  8
LAYER_FEATURE
100
AcDbLine
 62
7
  6
CONTINUOUS
 10
16.098424922
 20
11.0405007187
 11
16.0917017017
 21
11.0187443698
  0
LINE
  5
2A4
100
AcDbEntity
  8
LAYER_FEATURE
100
AcDbLine
 62
7
  6
CONTINUOUS
 10
16.4932760911
 20
10.8312125542
 11
16.4934429297
 21
10.8336828099
  0
LINE
  5
2A5
100
AcDbEntity
  8
LAYER_FEATURE
100
AcDbLine
 62
7
  6
CONTINUOUS
 10
16.1200362628
 20
10.8335146714
 11
16.1605756403
 21
10.9647001452
  0
LINE
  5
2A6
100
AcDbEntity
  8
LAYER_FEATURE
100
AcDbLine
 62
7
  6
CONTINUOUS
 10
17.4339177589
 20
14.1520520084
 11
16.4656524653
 21
11.0187443698
  0
LINE
  5
2A7
100
AcDbEntity
  8
LAYER_FEATURE
100
AcDbLine
 62
7
  6
CONTINUOUS
 10
16.4939870264
 20
10.8335146714
 11
17.4615409532
 21
13.964520326
  0
LINE
  5
2A8
100
AcDbEntity
  8
0
100
AcDbLine
 62
7
  6
CONTINUOUS
 10
14.4587222205
 20
14.1955647061
 11
17.3987489133
 21
14.1955647061
  0
LINE
  5
2A9
100
AcDbEntity
  8
LAYER_FEATURE
100
AcDbLine
 62
7
  6
CONTINUOUS
 10
17.4617082233
 20
13.9669904485
 11
17.4615413848
 21
13.9645201927
  0
LINE
  5
2AA
100
AcDbEntity
  8
LAYER_FEATURE
100
AcDbLine
 62
7
  6
CONTINUOUS
 10
17.4617082233
 20
13.9669904485
 11
17.4339177589
 21
14.1520520084
  0
LINE
  5
2AB
100
AcDbEntity
  8
0
100
AcDbLine
 62
7
  6
CONTINUOUS
 10
17.4171404562
 20
14.1862405566
 11
17.4339177589
 21
14.1520520084
  0
ARC
  5
2AC
100
AcDbEntity
  8
0
100
AcDbCircle
 62
7
  6
CONTINUOUS
 10
4.6032243193
 20
5.3459532301
 40
0.0158333333
100
AcDbArc
 50
192.9439872503
 51
270.0
  0
ARC
  5
2AD
100
AcDbEntity
  8
0
100
AcDbCircle
 62
7
  6
CONTINUOUS
 10
4.815510233
 20
5.3459532301
 40
0.0158333333
100
AcDbArc
 50
270.0
 51
347.0560127497
  0
ARC
  5
2AE
100
AcDbEntity
  8
LAYER_FEATURE
100
AcDbCircle
 62
7
  6
CONTINUOUS
 10
5.0092243193
 20
5.3459532301
 40
0.0158333333
100
AcDbArc
 50
192.9439872503
 51
270.0
  0
ARC
  5
2AF
100
AcDbEntity
  8
LAYER_FEATURE
100
AcDbCircle
 62
7
  6
CONTINUOUS
 10
5.221510233
 20
5.3459532301
 40
0.0158333333
100
AcDbArc
 50
270.0
 51
347.0560127497
  0
ARC
  5
2B0
100
AcDbEntity
  8
LAYER_FEATURE
100
AcDbCircle
 62
7
  6
CONTINUOUS
 10
5.4152243193
 20
5.3459532301
 40
0.0158333333
100
AcDbArc
 50
192.9439872503
 51
270.0
  0
ARC
  5
2B1
100
AcDbEntity
  8
LAYER_FEATURE
100
AcDbCircle
 62
7
  6
CONTINUOUS
 10
5.627510233
 20
5.3459532301
 40
0.0158333333
100
AcDbArc
 50
270.0
 51
347.0560127497
  0
ARC
  5
2B2
100
AcDbEntity
  8
LAYER_FEATURE
100
AcDbCircle
 62
7
  6
CONTINUOUS
 10
5.8212243193
 20
5.3459532301
 40
0.0158333333
100
AcDbArc
 50
192.9439872503
 51
270.0
  0
ARC
  5
2B3
100
AcDbEntity
  8
LAYER_FEATURE
100
AcDbCircle
 62
7
  6
CONTINUOUS
 10
6.033510233
 20
5.3459532301
 40
0.0158333333
100
AcDbArc
 50
270.0
 51
347.0560127497
  0
ARC
  5
2B4
100
AcDbEntity
  8
LAYER_FEATURE
100
AcDbCircle
 62
7
  6
CONTINUOUS
 10
6.2272243193
 20
5.3459532301
 40
0.0158333333
100
AcDbArc
 50
192.9439872503
 51
270.0
  0
ARC
  5
2B5
100
AcDbEntity
  8
LAYER_FEATURE
100
AcDbCircle
 62
7
  6
CONTINUOUS
 10
6.439510233
 20
5.3459532301
 40
0.0158333333
100
AcDbArc
 50
270.0
 51
347.0560127497
  0
ARC
  5
2B6
100
AcDbEntity
  8
LAYER_FEATURE
100
AcDbCircle
 62
7
  6
CONTINUOUS
 10
6.6332243193
 20
5.3459532301
 40
0.0158333333
100
AcDbArc
 50
192.9439872503
 51
270.0
  0
ARC
  5
2B7
100
AcDbEntity
  8
LAYER_FEATURE
100
AcDbCircle
 62
7
  6
CONTINUOUS
 10
6.845510233
 20
5.3459532301
 40
0.0158333333
100
AcDbArc
 50
270.0
 51
347.0560127497
  0
ARC
  5
2B8
100
AcDbEntity
  8
LAYER_FEATURE
100
AcDbCircle
 62
7
  6
CONTINUOUS
 10
7.0392243193
 20
5.3459532301
 40
0.0158333333
100
AcDbArc
 50
192.9439872503
 51
270.0
  0
ARC
  5
2B9
100
AcDbEntity
  8
LAYER_FEATURE
100
AcDbCircle
 62
7
  6
CONTINUOUS
 10
7.657510233
 20
5.3459532301
 40
0.0158333333
100
AcDbArc
 50
270.0
 51
347.0560127497
  0
ARC
  5
2BA
100
AcDbEntity
  8
LAYER_FEATURE
100
AcDbCircle
 62
7
  6
CONTINUOUS
 10
7.4452243193
 20
5.3459532301
 40
0.0158333333
100
AcDbArc
 50
192.9439872503
 51
270.0
  0
ARC
  5
2BB
100
AcDbEntity
  8
LAYER_FEATURE
100
AcDbCircle
 62
7
  6
CONTINUOUS
 10
7.251510233
 20
5.3459532301
 40
0.0158333333
100
AcDbArc
 50
270.0
 51
347.0560127497
  0
ARC
  5
2BC
100
AcDbEntity
  8
0
100
AcDbCircle
 62
7
  6
CONTINUOUS
 10
4.5343672762
 20
5.6951198968
 40
0.015
100
AcDbArc
 50
90.0
 51
180.0
  0
ARC
  5
2BD
100
AcDbEntity
  8
0
100
AcDbCircle
 62
7
  6
CONTINUOUS
 10
7.7263672762
 20
5.6951198968
 40
0.015
100
AcDbArc
 50
0.0
 51
90.0
  0
SPLINE
  5
2BE
100
AcDbEntity
  8
0
100
AcDbSpline
 62
7
  6
CONTINUOUS
 70
0
 71
3
 72
15
 73
11
 74
0
 42
0.0000001
 43
0.0000001
 44
0.0000000001
 40
0.0
 40
0.0
 40
0.0
 40
0.0
 40
0.129418618
 40
0.264523685
 40
0.4013030994
 40
0.5362656855
 40
0.6661535488
 40
0.7881337292
 40
0.8999167668
 40
1.0
 40
1.0
 40
1.0
 40
1.0
 10
17.3987489133
 20
14.1955647061
 30
0.0
 10
17.3996767814
 20
14.1955647061
 30
0.0
 10
17.4015746243
 20
14.1954344759
 30
0.0
 10
17.4044087298
 20
14.194906042
 30
0.0
 10
17.407203086
 20
14.1940480542
 30
0.0
 10
17.4098508634
 20
14.1929005752
 30
0.0
 10
17.4122535599
 20
14.1915018333
 30
0.0
 10
17.4143264056
 20
14.1899057508
 30
0.0
 10
17.4159844193
 20
14.1881661929
 30
0.0
 10
17.4168243458
 20
14.1868847219
 30
0.0
 10
17.4171404562
 20
14.1862405566
 30
0.0
  0
SPLINE
  5
2BF
100
AcDbEntity
  8
0
100
AcDbSpline
 62
7
  6
CONTINUOUS
 70
0
 71
3
 72
10
 73
6
 74
0
 42
0.0000001
 43
0.0000001
 44
0.0000000001
 40
0.0
 40
0.0
 40
0.0
 40
0.0
 40
0.2343713892
 40
0.4761720272
 40
1.0
 40
1.0
 40
1.0
 40
1.0
 10
13.480701303
 20
11.0573615907
 30
0.0
 10
13.4805960843
 20
11.05702183
 30
0.0
 10
13.4804581741
 20
11.0563053444
 30
0.0
 10
13.4804950691
 20
11.054779651
 30
0.0
 10
13.4808664274
 20
11.0536465761
 30
0.0
 10
13.4812166399
 20
11.0529329181
 30
0.0
  0
SPLINE
  5
2C0
100
AcDbEntity
  8
0
100
AcDbSpline
 62
7
  6
CONTINUOUS
 70
0
 71
3
 72
13
 73
9
 74
0
 42
0.0000001
 43
0.0000001
 44
0.0000000001
 40
0.0
 40
0.0
 40
0.0
 40
0.0
 40
0.0997909208
 40
0.2030577562
 40
0.312840113
 40
0.431233508
 40
0.6971772698
 40
1.0
 40
1.0
 40
1.0
 40
1.0
 10
14.4489665967
 20
14.1906692292
 30
0.0
 10
14.449080948
 20
14.19103848
 30
0.0
 10
14.4494047408
 20
14.1917645668
 30
0.0
 10
14.4501414289
 20
14.192738304
 30
0.0
 10
14.4511163877
 20
14.1935860551
 30
0.0
 10
14.4527670512
 20
14.1945713353
 30
0.0
 10
14.4553398043
 20
14.1953772116
 30
0.0
 10
14.4575492009
 20
14.1955647061
 30
0.0
 10
14.4587222205
 20
14.1955647061
 30
0.0
  0
SPLINE
  5
2C1
100
AcDbEntity
  8
LAYER_FEATURE
100
AcDbSpline
 62
7
  6
CONTINUOUS
 70
0
 71
3
 72
13
 73
9
 74
0
 42
0.0000001
 43
0.0000001
 44
0.0000000001
 40
0.0
 40
0.0
 40
0.0
 40
0.0
 40
0.3029809297
 40
0.5686800427
 40
0.6870434766
 40
0.7968168441
 40
0.9001401448
 40
1.0
 40
1.0
 40
1.0
 40
1.0
 10
16.4829779924
 20
10.8260452797
 30
0.0
 10
16.4842168521
 20
10.8260452797
 30
0.0
 10
16.4865490668
 20
10.8262416745
 30
0.0
 10
16.4892633746
 20
10.8270943963
 30
0.0
 10
16.4910057125
 20
10.8281324382
 30
0.0
 10
16.4920340213
 20
10.8290282602
 30
0.0
 10
16.4928136024
 20
10.8300551796
 30
0.0
 10
16.4931549884
 20
10.8308226086
 30
0.0
 10
16.4932751177
 20
10.8312128547
 30
0.0
  0
SPLINE
  5
2C2
100
AcDbEntity
  8
LAYER_FEATURE
100
AcDbSpline
 62
7
  6
CONTINUOUS
 70
0
 71
3
 72
14
 73
10
 74
0
 42
0.0000001
 43
0.0000001
 44
0.0000000001
 40
0.0
 40
0.0
 40
0.0
 40
0.0
 40
0.1089024228
 40
0.226622916
 40
0.3512489173
 40
0.4807240812
 40
0.7448538498
 40
0.8749531175
 40
1.0
 40
1.0
 40
1.0
 40
1.0
 10
16.2694888695
 20
10.8336828099
 30
0.0
 10
16.2699543645
 20
10.833122842
 30
0.0
 10
16.2710182997
 20
10.8320352867
 30
0.0
 10
16.2728658445
 20
10.8305769608
 30
0.0
 10
16.2749855781
 20
10.8292675744
 30
0.0
 10
16.2781090602
 20
10.8277575073
 30
0.0
 10
16.2814745495
 20
10.8266978404
 30
0.0
 10
16.2849062978
 20
10.8261449604
 30
0.0
 10
16.2866135845
 20
10.8260452797
 30
0.0
 10
16.2874497177
 20
10.8260452797
 30
0.0
  0
SPLINE
  5
2C3
100
AcDbEntity
  8
LAYER_FEATURE
100
AcDbSpline
 62
7
  6
CONTINUOUS
 70
0
 71
3
 72
13
 73
9
 74
0
 42
0.0000001
 43
0.0000001
 44
0.0000000001
 40
0.0
 40
0.0
 40
0.0
 40
0.0
 40
0.3029809297
 40
0.5686800427
 40
0.6870434766
 40
0.7968168441
 40
0.9001401448
 40
1.0
 40
1.0
 40
1.0
 40
1.0
 10
16.1090272288
 20
10.8260452797
 30
0.0
 10
16.1102660885
 20
10.8260452797
 30
0.0
 10
16.1125983032
 20
10.8262416745
 30
0.0
 10
16.115312611
 20
10.8270943963
 30
0.0
 10
16.1170549489
 20
10.8281324382
 30
0.0
 10
16.1180832577
 20
10.8290282602
 30
0.0
 10
16.1188628388
 20
10.8300551796
 30
0.0
 10
16.1192042248
 20
10.8308226086
 30
0.0
 10
16.1193243541
 20
10.8312128547
 30
0.0
  0
SPLINE
  5
2C4
100
AcDbEntity
  8
LAYER_FEATURE
100
AcDbSpline
 62
7
  6
CONTINUOUS
 70
0
 71
3
 72
14
 73
10
 74
0
 42
0.0000001
 43
0.0000001
 44
0.0000000001
 40
0.0
 40
0.0
 40
0.0
 40
0.0
 40
0.1089024228
 40
0.226622916
 40
0.3512489173
 40
0.4807240812
 40
0.7448538498
 40
0.8749531175
 40
1.0
 40
1.0
 40
1.0
 40
1.0
 10
15.8955381059
 20
10.8336828099
 30
0.0
 10
15.8960036009
 20
10.833122842
 30
0.0
 10
15.8970675362
 20
10.8320352867
 30
0.0
 10
15.898915081
 20
10.8305769608
 30
0.0
 10
15.9010348146
 20
10.8292675744
 30
0.0
 10
15.9041582967
 20
10.8277575073
 30
0.0
 10
15.9075237859
 20
10.8266978404
 30
0.0
 10
15.9109555342
 20
10.8261449604
 30
0.0
 10
15.9126628209
 20
10.8260452797
 30
0.0
 10
15.9134989542
 20
10.8260452797
 30
0.0
  0
SPLINE
  5
2C5
100
AcDbEntity
  8
LAYER_FEATURE
100
AcDbSpline
 62
7
  6
CONTINUOUS
 70
0
 71
3
 72
13
 73
9
 74
0
 42
0.0000001
 43
0.0000001
 44
0.0000000001
 40
0.0
 40
0.0
 40
0.0
 40
0.0
 40
0.3029809297
 40
0.5686800427
 40
0.6870434766
 40
0.7968168441
 40
0.9001401448
 40
1.0
 40
1.0
 40
1.0
 40
1.0
 10
15.7350764653
 20
10.8260452797
 30
0.0
 10
15.736315325
 20
10.8260452797
 30
0.0
 10
15.7386475397
 20
10.8262416745
 30
0.0
 10
15.7413618474
 20
10.8270943963
 30
0.0
 10
15.7431041854
 20
10.8281324382
 30
0.0
 10
15.7441324942
 20
10.8290282602
 30
0.0
 10
15.7449120753
 20
10.8300551796
 30
0.0
 10
15.7452534613
 20
10.8308226086
 30
0.0
 10
15.7453735906
 20
10.8312128547
 30
0.0
  0
SPLINE
  5
2C6
100
AcDbEntity
  8
LAYER_FEATURE
100
AcDbSpline
 62
7
  6
CONTINUOUS
 70
0
 71
3
 72
14
 73
10
 74
0
 42
0.0000001
 43
0.0000001
 44
0.0000000001
 40
0.0
 40
0.0
 40
0.0
 40
0.0
 40
0.1089024228
 40
0.226622916
 40
0.3512489173
 40
0.4807240812
 40
0.7448538498
 40
0.8749531175
 40
1.0
 40
1.0
 40
1.0
 40
1.0
 10
15.5215873424
 20
10.8336828099
 30
0.0
 10
15.5220528373
 20
10.833122842
 30
0.0
 10
15.5231167726
 20
10.8320352867
 30
0.0
 10
15.5249643174
 20
10.8305769608
 30
0.0
 10
15.527084051
 20
10.8292675744
 30
0.0
 10
15.5302075331
 20
10.8277575073
 30
0.0
 10
15.5335730224
 20
10.8266978404
 30
0.0
 10
15.5370047707
 20
10.8261449604
 30
0.0
 10
15.5387120573
 20
10.8260452797
 30
0.0
 10
15.5395481906
 20
10.8260452797
 30
0.0
  0
SPLINE
  5
2C7
100
AcDbEntity
  8
LAYER_FEATURE
100
AcDbSpline
 62
7
  6
CONTINUOUS
 70
0
 71
3
 72
13
 73
9
 74
0
 42
0.0000001
 43
0.0000001
 44
0.0000000001
 40
0.0
 40
0.0
 40
0.0
 40
0.0
 40
0.3029809297
 40
0.5686800427
 40
0.6870434766
 40
0.7968168441
 40
0.9001401448
 40
1.0
 40
1.0
 40
1.0
 40
1.0
 10
15.3611257017
 20
10.8260452797
 30
0.0
 10
15.3623645614
 20
10.8260452797
 30
0.0
 10
15.3646967761
 20
10.8262416745
 30
0.0
 10
15.3674110839
 20
10.8270943963
 30
0.0
 10
15.3691534218
 20
10.8281324382
 30
0.0
 10
15.3701817306
 20
10.8290282602
 30
0.0
 10
15.3709613117
 20
10.8300551796
 30
0.0
 10
15.3713026977
 20
10.8308226086
 30
0.0
 10
15.371422827
 20
10.8312128547
 30
0.0
  0
SPLINE
  5
2C8
100
AcDbEntity
  8
LAYER_FEATURE
100
AcDbSpline
 62
7
  6
CONTINUOUS
 70
0
 71
3
 72
14
 73
10
 74
0
 42
0.0000001
 43
0.0000001
 44
0.0000000001
 40
0.0
 40
0.0
 40
0.0
 40
0.0
 40
0.1089024228
 40
0.226622916
 40
0.3512489173
 40
0.4807240812
 40
0.7448538498
 40
0.8749531175
 40
1.0
 40
1.0
 40
1.0
 40
1.0
 10
15.1476365788
 20
10.8336828099
 30
0.0
 10
15.1481020738
 20
10.833122842
 30
0.0
 10
15.149166009
 20
10.8320352867
 30
0.0
 10
15.1510135538
 20
10.8305769608
 30
0.0
 10
15.1531332875
 20
10.8292675744
 30
0.0
 10
15.1562567695
 20
10.8277575073
 30
0.0
 10
15.1596222588
 20
10.8266978404
 30
0.0
 10
15.1630540071
 20
10.8261449604
 30
0.0
 10
15.1647612938
 20
10.8260452797
 30
0.0
 10
15.165597427
 20
10.8260452797
 30
0.0
  0
SPLINE
  5
2C9
100
AcDbEntity
  8
LAYER_FEATURE
100
AcDbSpline
 62
7
  6
CONTINUOUS
 70
0
 71
3
 72
13
 73
9
 74
0
 42
0.0000001
 43
0.0000001
 44
0.0000000001
 40
0.0
 40
0.0
 40
0.0
 40
0.0
 40
0.3029810556
 40
0.5686803837
 40
0.6870437623
 40
0.7968173622
 40
0.9001408368
 40
1.0
 40
1.0
 40
1.0
 40
1.0
 10
14.9871749381
 20
10.8260452797
 30
0.0
 10
14.9884137982
 20
10.8260452797
 30
0.0
 10
14.990746013
 20
10.8262416795
 30
0.0
 10
14.9934603244
 20
10.8270943936
 30
0.0
 10
14.995202662
 20
10.8281324398
 30
0.0
 10
14.9962309675
 20
10.8290282681
 30
0.0
 10
14.9970105436
 20
10.8300551879
 30
0.0
 10
14.9973519395
 20
10.8308226099
 30
0.0
 10
14.9974720697
 20
10.8312128526
 30
0.0
  0
SPLINE
  5
2CA
100
AcDbEntity
  8
LAYER_FEATURE
100
AcDbSpline
 62
7
  6
CONTINUOUS
 70
0
 71
3
 72
14
 73
10
 74
0
 42
0.0000001
 43
0.0000001
 44
0.0000000001
 40
0.0
 40
0.0
 40
0.0
 40
0.0
 40
0.1089024228
 40
0.226622916
 40
0.3512489173
 40
0.4807240812
 40
0.7448538498
 40
0.8749531175
 40
1.0
 40
1.0
 40
1.0
 40
1.0
 10
14.7736858152
 20
10.8336828099
 30
0.0
 10
14.7741513102
 20
10.833122842
 30
0.0
 10
14.7752152455
 20
10.8320352867
 30
0.0
 10
14.7770627903
 20
10.8305769608
 30
0.0
 10
14.7791825239
 20
10.8292675744
 30
0.0
 10
14.782306006
 20
10.8277575073
 30
0.0
 10
14.7856714952
 20
10.8266978404
 30
0.0
 10
14.7891032435
 20
10.8261449604
 30
0.0
 10
14.7908105302
 20
10.8260452797
 30
0.0
 10
14.7916466635
 20
10.8260452797
 30
0.0
  0
SPLINE
  5
2CB
100
AcDbEntity
  8
LAYER_FEATURE
100
AcDbSpline
 62
7
  6
CONTINUOUS
 70
0
 71
3
 72
13
 73
9
 74
0
 42
0.0000001
 43
0.0000001
 44
0.0000000001
 40
0.0
 40
0.0
 40
0.0
 40
0.0
 40
0.3029809297
 40
0.5686800427
 40
0.6870434766
 40
0.7968168441
 40
0.9001401448
 40
1.0
 40
1.0
 40
1.0
 40
1.0
 10
14.6132241746
 20
10.8260452797
 30
0.0
 10
14.6144630343
 20
10.8260452797
 30
0.0
 10
14.616795249
 20
10.8262416745
 30
0.0
 10
14.6195095567
 20
10.8270943963
 30
0.0
 10
14.6212518947
 20
10.8281324382
 30
0.0
 10
14.6222802035
 20
10.8290282602
 30
0.0
 10
14.6230597846
 20
10.8300551796
 30
0.0
 10
14.6234011706
 20
10.8308226086
 30
0.0
 10
14.6235212999
 20
10.8312128547
 30
0.0
  0
SPLINE
  5
2CC
100
AcDbEntity
  8
LAYER_FEATURE
100
AcDbSpline
 62
7
  6
CONTINUOUS
 70
0
 71
3
 72
14
 73
10
 74
0
 42
0.0000001
 43
0.0000001
 44
0.0000000001
 40
0.0
 40
0.0
 40
0.0
 40
0.0
 40
0.1089024228
 40
0.226622916
 40
0.3512489173
 40
0.4807240812
 40
0.7448538498
 40
0.8749531175
 40
1.0
 40
1.0
 40
1.0
 40
1.0
 10
14.3997350517
 20
10.8336828099
 30
0.0
 10
14.4002005466
 20
10.833122842
 30
0.0
 10
14.4012644819
 20
10.8320352867
 30
0.0
 10
14.4031120267
 20
10.8305769608
 30
0.0
 10
14.4052317603
 20
10.8292675744
 30
0.0
 10
14.4083552424
 20
10.8277575073
 30
0.0
 10
14.4117207317
 20
10.8266978404
 30
0.0
 10
14.41515248
 20
10.8261449604
 30
0.0
 10
14.4168597666
 20
10.8260452797
 30
0.0
 10
14.4176958999
 20
10.8260452797
 30
0.0
  0
SPLINE
  5
2CD
100
AcDbEntity
  8
LAYER_FEATURE
100
AcDbSpline
 62
7
  6
CONTINUOUS
 70
0
 71
3
 72
13
 73
9
 74
0
 42
0.0000001
 43
0.0000001
 44
0.0000000001
 40
0.0
 40
0.0
 40
0.0
 40
0.0
 40
0.3029809297
 40
0.5686800427
 40
0.6870434766
 40
0.7968168441
 40
0.9001401448
 40
1.0
 40
1.0
 40
1.0
 40
1.0
 10
14.239273411
 20
10.8260452797
 30
0.0
 10
14.2405122707
 20
10.8260452797
 30
0.0
 10
14.2428444854
 20
10.8262416745
 30
0.0
 10
14.2455587932
 20
10.8270943963
 30
0.0
 10
14.2473011311
 20
10.8281324382
 30
0.0
 10
14.2483294399
 20
10.8290282602
 30
0.0
 10
14.249109021
 20
10.8300551796
 30
0.0
 10
14.249450407
 20
10.8308226086
 30
0.0
 10
14.2495705363
 20
10.8312128547
 30
0.0
  0
SPLINE
  5
2CE
100
AcDbEntity
  8
LAYER_FEATURE
100
AcDbSpline
 62
7
  6
CONTINUOUS
 70
0
 71
3
 72
14
 73
10
 74
0
 42
0.0000001
 43
0.0000001
 44
0.0000000001
 40
0.0
 40
0.0
 40
0.0
 40
0.0
 40
0.1089024228
 40
0.226622916
 40
0.3512489173
 40
0.4807240812
 40
0.7448538498
 40
0.8749531175
 40
1.0
 40
1.0
 40
1.0
 40
1.0
 10
14.0257842881
 20
10.8336828099
 30
0.0
 10
14.0262497831
 20
10.833122842
 30
0.0
 10
14.0273137183
 20
10.8320352867
 30
0.0
 10
14.0291612631
 20
10.8305769608
 30
0.0
 10
14.0312809968
 20
10.8292675744
 30
0.0
 10
14.0344044788
 20
10.8277575073
 30
0.0
 10
14.0377699681
 20
10.8266978404
 30
0.0
 10
14.0412017164
 20
10.8261449604
 30
0.0
 10
14.0429090031
 20
10.8260452797
 30
0.0
 10
14.0437451364
 20
10.8260452797
 30
0.0
  0
SPLINE
  5
2CF
100
AcDbEntity
  8
0
100
AcDbSpline
 62
7
  6
CONTINUOUS
 70
0
 71
3
 72
13
 73
9
 74
0
 42
0.0000001
 43
0.0000001
 44
0.0000000001
 40
0.0
 40
0.0
 40
0.0
 40
0.0
 40
0.3029809297
 40
0.5686800427
 40
0.6870434766
 40
0.7968168441
 40
0.9001401448
 40
1.0
 40
1.0
 40
1.0
 40
1.0
 10
13.8653226474
 20
10.8260452797
 30
0.0
 10
13.8665615071
 20
10.8260452797
 30
0.0
 10
13.8688937218
 20
10.8262416745
 30
0.0
 10
13.8716080296
 20
10.8270943963
 30
0.0
 10
13.8733503675
 20
10.8281324382
 30
0.0
 10
13.8743786763
 20
10.8290282602
 30
0.0
 10
13.8751582575
 20
10.8300551796
 30
0.0
 10
13.8754996435
 20
10.8308226086
 30
0.0
 10
13.8756197727
 20
10.8312128547
 30
0.0
  0
SPLINE
  5
2D0
100
AcDbEntity
  8
0
100
AcDbSpline
 62
7
  6
CONTINUOUS
 70
0
 71
3
 72
14
 73
10
 74
0
 42
0.0000001
 43
0.0000001
 44
0.0000000001
 40
0.0
 40
0.0
 40
0.0
 40
0.0
 40
0.1089024228
 40
0.226622916
 40
0.3512489173
 40
0.4807240812
 40
0.7448538498
 40
0.8749531175
 40
1.0
 40
1.0
 40
1.0
 40
1.0
 10
13.6518335245
 20
10.8336828099
 30
0.0
 10
13.6522990195
 20
10.833122842
 30
0.0
 10
13.6533629548
 20
10.8320352867
 30
0.0
 10
13.6552104996
 20
10.8305769608
 30
0.0
 10
13.6573302332
 20
10.8292675744
 30
0.0
 10
13.6604537153
 20
10.8277575073
 30
0.0
 10
13.6638192045
 20
10.8266978404
 30
0.0
 10
13.6672509528
 20
10.8261449604
 30
0.0
 10
13.6689582395
 20
10.8260452797
 30
0.0
 10
13.6697943728
 20
10.8260452797
 30
0.0
  0
SPLINE
  5
2D1
100
AcDbEntity
  8
0
100
AcDbSpline
 62
7
  6
CONTINUOUS
 70
0
 71
3
 72
13
 73
9
 74
0
 42
0.0000001
 43
0.0000001
 44
0.0000000001
 40
0.0
 40
0.0
 40
0.0
 40
0.0
 40
0.3028227302
 40
0.568766492
 40
0.687159887
 40
0.7969422438
 40
0.9002090792
 40
1.0
 40
1.0
 40
1.0
 40
1.0
 10
13.4904569268
 20
11.0622570676
 30
0.0
 10
13.4892839073
 20
11.0622570676
 30
0.0
 10
13.4870745107
 20
11.0620695731
 30
0.0
 10
13.4845017576
 20
11.0612636967
 30
0.0
 10
13.4828510941
 20
11.0602784166
 30
0.0
 10
13.4818761352
 20
11.0594306655
 30
0.0
 10
13.4811394472
 20
11.0584569283
 30
0.0
 10
13.4808156544
 20
11.0577308414
 30
0.0
 10
13.480701303
 20
11.0573615907
 30
0.0
  0
SPLINE
  5
2D2
100
AcDbEntity
  8
0
100
AcDbSpline
 62
7
  6
CONTINUOUS
 70
0
 71
3
 72
15
 73
11
 74
0
 42
0.0000001
 43
0.0000001
 44
0.0000000001
 40
0.0
 40
0.0
 40
0.0
 40
0.0
 40
0.1000832332
 40
0.2118662708
 40
0.3338464512
 40
0.4637343145
 40
0.5986969006
 40
0.735476315
 40
0.870581382
 40
1.0
 40
1.0
 40
1.0
 40
1.0
 10
16.4488751626
 20
11.0529329181
 30
0.0
 10
16.4485590522
 20
11.0535770834
 30
0.0
 10
16.4477191257
 20
11.0548585543
 30
0.0
 10
16.4460611119
 20
11.0565981122
 30
0.0
 10
16.4439882662
 20
11.0581941948
 30
0.0
 10
16.4415855697
 20
11.0595929367
 30
0.0
 10
16.4389377923
 20
11.0607404157
 30
0.0
 10
16.4361434362
 20
11.0615984035
 30
0.0
 10
16.4333093307
 20
11.0621268374
 30
0.0
 10
16.4314114877
 20
11.0622570676
 30
0.0
 10
16.4304836197
 20
11.0622570676
 30
0.0
  0
ENDSEC
  0
SECTION
  2
OBJECTS
  0
DICTIONARY
  5
C
100
AcDbDictionary
280
0
281
1
  3
ACAD_GROUP
350
D
  3
ACAD_MLINESTYLE
350
17
  3
ACAD_LAYOUT
350
1A
  3
ACAD_PLOTSETTINGS
350
19
  3
ACAD_PLOTSTYLENAME
350
E
  0
DICTIONARY
  5
D
102
{ACAD_REACTORS
330
C
102
}
100
AcDbDictionary
280
0
281
1
  0
ACDBDICTIONARYWDFLT
  5
E
102
{ACAD_REACTORS
330
C
102
}
100
AcDbDictionary
281
1
  3
Normal
350
F
100
AcDbDictionaryWithDefault
340
F
  0
DICTIONARY
  5
17
102
{ACAD_REACTORS
330
C
102
}
100
AcDbDictionary
280
0
281
1
  3
Standard
350
18
  0
DICTIONARY
  5
19
102
{ACAD_REACTORS
330
C
102
}
100
AcDbDictionary
281
1
  0
DICTIONARY
  5
1A
102
{ACAD_REACTORS
330
C
102
}
100
AcDbDictionary
281
1
  3
Model
350
2D3
  3
Layout1
350
2D4
  0
ACDBPLACEHOLDER
  5
F
102
{ACAD_REACTORS
330
E
102
}
  0
MLINESTYLE
  5
18
102
{ACAD_REACTORS
330
17
102
}
100
AcDbMlineStyle
  2
STANDARD
 70
0
  3

 62
256
 51
90.0
 52
90.0
 71
2
 49
0.5
 62
256
  6
BYLAYER
 49
-0.5
 62
256
  6
BYLAYER
  0
LAYOUT
  5
2D3
102
{ACAD_REACTORS
330
1A
102
}
100
AcDbPlotSettings
  1

  2
none_device
  4
ANSI_C_(22.00_x_17.00_Inches)
  6

 40
0.0
 41
0.0
 42
0.0
 43
0.0
 44
558.8
 45
431.8
 46
0.0
 47
0.0
 48
0.0
 49
0.0
140
0.0
141
0.0
142
1.0
143
1.0
 70
1024
 72
0
 73
0
 74
0
  7

 75
0
147
1.0
148
0.0
149
0.0
100
AcDbLayout
  1
Model
 70
0
 71
0
 10
0.0
 20
0.0
 11
22.0
 21
17.0
 12
0.0
 22
0.0
 32
0.0
 14
0.0
 24
0.0
 34
0.0
 15
0.0
 25
0.0
 35
0.0
146
0.0
 13
0.0
 23
0.0
 33
0.0
 16
1.0
 26
0.0
 36
0.0
 17
0.0
 27
1.0
 37
0.0
 76
0
330
21C
345
0
346
0
  0
LAYOUT
  5
2D4
102
{ACAD_REACTORS
330
1A
102
}
100
AcDbPlotSettings
  1

  2
none_device
  4
ANSI_C_(22.00_x_17.00_Inches)
  6

 40
0.0
 41
0.0
 42
0.0
 43
0.0
 44
558.8
 45
431.8
 46
0.0
 47
0.0
 48
0.0
 49
0.0
140
0.0
141
0.0
142
1.0
143
1.0
 70
0
 72
0
 73
0
 74
0
  7

 75
0
147
1.0
148
0.0
149
0.0
100
AcDbLayout
  1
Layout1
 70
0
 71
1
 10
0.0
 20
0.0
 11
22.0
 21
17.0
 12
0.0
 22
0.0
 32
0.0
 14
0.0
 24
0.0
 34
0.0
 15
0.0
 25
0.0
 35
0.0
146
0.0
 13
0.0
 23
0.0
 33
0.0
 16
1.0
 26
0.0
 36
0.0
 17
0.0
 27
1.0
 37
0.0
 76
0
330
21D
345
0
346
0
  0
ENDSEC
  0
EOF