0
SECTION
  2
HEADER
  9
$ACADVER
  1
AC1027
  9
$ACADMAINTVER
 70
     8
  9
$DWGCODEPAGE
  3
ANSI_1252
  9
$REQUIREDVERSIONS
160
                 0
  9
$COMMENTS
  1
File was created by Cadenas
  9
$CUSTOMPROPERTYTAG
  1
NN
  9
$CUSTOMPROPERTY
  1
BA1_001_101
  9
$CUSTOMPROPERTYTAG
  1
NT
  9
$CUSTOMPROPERTY
  1
Angular contact ball bearings, single row
  9
$CUSTOMPROPERTYTAG
  1
NB
  9
$CUSTOMPROPERTY
  1
7307 BEP
  9
$CUSTOMPROPERTYTAG
  1
NBSYN
  9
$CUSTOMPROPERTY
  1
$DESIGNATION.
  9
$CUSTOMPROPERTYTAG
  1
LINA
  9
$CUSTOMPROPERTY
  1
7307 BEP
  9
$CUSTOMPROPERTYTAG
  1
DESIGNATION
  9
$CUSTOMPROPERTY
  1
7307 BEP
  9
$CUSTOMPROPERTYTAG
  1
DD
  9
$CUSTOMPROPERTY
  1
35.000
  9
$CUSTOMPROPERTYTAG
  1
D
  9
$CUSTOMPROPERTY
  1
80.000
  9
$CUSTOMPROPERTYTAG
  1
B
  9
$CUSTOMPROPERTY
  1
21.0000
  9
$CUSTOMPROPERTYTAG
  1
DD2A
  9
$CUSTOMPROPERTY
  1
43.620
  9
$CUSTOMPROPERTYTAG
  1
D2A
  9
$CUSTOMPROPERTY
  1
71.540
  9
$CUSTOMPROPERTYTAG
  1
LOAD1
  9
$CUSTOMPROPERTY
  1
39.000
  9
$CUSTOMPROPERTYTAG
  1
LOAD2
  9
$CUSTOMPROPERTY
  1
24.500
  9
$CUSTOMPROPERTYTAG
  1
LOAD3
  9
$CUSTOMPROPERTY
  1
1.040
  9
$CUSTOMPROPERTYTAG
  1
SPEED1
  9
$CUSTOMPROPERTY
  1
10000
  9
$CUSTOMPROPERTYTAG
  1
SPEED2
  9
$CUSTOMPROPERTY
  1
10000
  9
$CUSTOMPROPERTYTAG
  1
COMPANY
  9
$CUSTOMPROPERTY
  1
SKF
  9
$INSBASE
 10
0.0
 20
0.0
 30
0.0
  9
$EXTMIN
 10
1.000000000000000E+20
 20
1.000000000000000E+20
 30
1.000000000000000E+20
  9
$EXTMAX
 10
-1.000000000000000E+20
 20
-1.000000000000000E+20
 30
-1.000000000000000E+20
  9
$LIMMIN
 10
0.0
 20
0.0
  9
$LIMMAX
 10
420.0
 20
297.0
  9
$ORTHOMODE
 70
     0
  9
$REGENMODE
 70
     1
  9
$FILLMODE
 70
     1
  9
$QTEXTMODE
 70
     0
  9
$MIRRTEXT
 70
     1
  9
$LTSCALE
 40
1.0
  9
$ATTMODE
 70
     1
  9
$TEXTSIZE
 40
2.5
  9
$TRACEWID
 40
1.0
  9
$TEXTSTYLE
  7
Standard
  9
$CLAYER
  8
0
  9
$CELTYPE
  6
ByLayer
  9
$CECOLOR
 62
   256
  9
$CELTSCALE
 40
1.0
  9
$DISPSILH
 70
     0
  9
$DIMSCALE
 40
1.0
  9
$DIMASZ
 40
2.5
  9
$DIMEXO
 40
0.625
  9
$DIMDLI
 40
3.75
  9
$DIMRND
 40
0.0
  9
$DIMDLE
 40
0.0
  9
$DIMEXE
 40
1.25
  9
$DIMTP
 40
0.0
  9
$DIMTM
 40
0.0
  9
$DIMTXT
 40
2.5
  9
$DIMCEN
 40
2.5
  9
$DIMTSZ
 40
0.0
  9
$DIMTOL
 70
     0
  9
$DIMLIM
 70
     0
  9
$DIMTIH
 70
     0
  9
$DIMTOH
 70
     0
  9
$DIMSE1
 70
     0
  9
$DIMSE2
 70
     0
  9
$DIMTAD
 70
     1
  9
$DIMZIN
 70
     8
  9
$DIMBLK
  1

  9
$DIMASO
 70
     1
  9
$DIMSHO
 70
     1
  9
$DIMPOST
  1

  9
$DIMAPOST
  1

  9
$DIMALT
 70
     0
  9
$DIMALTD
 70
     3
  9
$DIMALTF
 40
0.03937007874016
  9
$DIMLFAC
 40
1.0
  9
$DIMTOFL
 70
     1
  9
$DIMTVP
 40
0.0
  9
$DIMTIX
 70
     0
  9
$DIMSOXD
 70
     0
  9
$DIMSAH
 70
     0
  9
$DIMBLK1
  1

  9
$DIMBLK2
  1

  9
$DIMSTYLE
  2
ISO-25
  9
$DIMCLRD
 70
     0
  9
$DIMCLRE
 70
     0
  9
$DIMCLRT
 70
     0
  9
$DIMTFAC
 40
1.0
  9
$DIMGAP
 40
0.625
  9
$DIMJUST
 70
     0
  9
$DIMSD1
 70
     0
  9
$DIMSD2
 70
     0
  9
$DIMTOLJ
 70
     0
  9
$DIMTZIN
 70
     8
  9
$DIMALTZ
 70
     0
  9
$DIMALTTZ
 70
     0
  9
$DIMUPT
 70
     0
  9
$DIMDEC
 70
     2
  9
$DIMTDEC
 70
     2
  9
$DIMALTU
 70
     2
  9
$DIMALTTD
 70
     3
  9
$DIMTXSTY
  7
Standard
  9
$DIMAUNIT
 70
     0
  9
$DIMADEC
 70
     0
  9
$DIMALTRND
 40
0.0
  9
$DIMAZIN
 70
     0
  9
$DIMDSEP
 70
    44
  9
$DIMATFIT
 70
     3
  9
$DIMFRAC
 70
     0
  9
$DIMLDRBLK
  1

  9
$DIMLUNIT
 70
     2
  9
$DIMLWD
 70
    -2
  9
$DIMLWE
 70
    -2
  9
$DIMTMOVE
 70
     0
  9
$DIMFXL
 40
1.0
  9
$DIMFXLON
 70
     0
  9
$DIMJOGANG
 40
0.7853981633974483
  9
$DIMTFILL
 70
     0
  9
$DIMTFILLCLR
 70
     0
  9
$DIMARCSYM
 70
     0
  9
$DIMLTYPE
  6

  9
$DIMLTEX1
  6

  9
$DIMLTEX2
  6

  9
$DIMTXTDIRECTION
 70
     0
  9
$LUNITS
 70
     2
  9
$LUPREC
 70
     4
  9
$SKETCHINC
 40
1.0
  9
$FILLETRAD
 40
10.0
  9
$AUNITS
 70
     0
  9
$AUPREC
 70
     0
  9
$MENU
  1
.
  9
$ELEVATION
 40
0.0
  9
$PELEVATION
 40
0.0
  9
$THICKNESS
 40
0.0
  9
$LIMCHECK
 70
     0
  9
$CHAMFERA
 40
0.0
  9
$CHAMFERB
 40
0.0
  9
$CHAMFERC
 40
0.0
  9
$CHAMFERD
 40
0.0
  9
$SKPOLY
 70
     0
  9
$TDCREATE
 40
2457944.027185903
  9
$TDUCREATE
 40
2457943.943852569
  9
$TDUPDATE
 40
2457944.027196389
  9
$TDUUPDATE
 40
2457943.943863056
  9
$TDINDWG
 40
0.0000000116
  9
$TDUSRTIMER
 40
0.0000000116
  9
$USRTIMER
 70
     1
  9
$ANGBASE
 50
0.0
  9
$ANGDIR
 70
     0
  9
$PDMODE
 70
     0
  9
$PDSIZE
 40
0.0
  9
$PLINEWID
 40
0.0
  9
$SPLFRAME
 70
     0
  9
$SPLINETYPE
 70
     6
  9
$SPLINESEGS
 70
     8
  9
$HANDSEED
  5
1A8
  9
$SURFTAB1
 70
     6
  9
$SURFTAB2
 70
     6
  9
$SURFTYPE
 70
     6
  9
$SURFU
 70
     6
  9
$SURFV
 70
     6
  9
$UCSBASE
  2

  9
$UCSNAME
  2

  9
$UCSORG
 10
0.0
 20
0.0
 30
0.0
  9
$UCSXDIR
 10
1.0
 20
0.0
 30
0.0
  9
$UCSYDIR
 10
0.0
 20
1.0
 30
0.0
  9
$UCSORTHOREF
  2

  9
$UCSORTHOVIEW
 70
     0
  9
$UCSORGTOP
 10
0.0
 20
0.0
 30
0.0
  9
$UCSORGBOTTOM
 10
0.0
 20
0.0
 30
0.0
  9
$UCSORGLEFT
 10
0.0
 20
0.0
 30
0.0
  9
$UCSORGRIGHT
 10
0.0
 20
0.0
 30
0.0
  9
$UCSORGFRONT
 10
0.0
 20
0.0
 30
0.0
  9
$UCSORGBACK
 10
0.0
 20
0.0
 30
0.0
  9
$PUCSBASE
  2

  9
$PUCSNAME
  2

  9
$PUCSORG
 10
0.0
 20
0.0
 30
0.0
  9
$PUCSXDIR
 10
1.0
 20
0.0
 30
0.0
  9
$PUCSYDIR
 10
0.0
 20
1.0
 30
0.0
  9
$PUCSORTHOREF
  2

  9
$PUCSORTHOVIEW
 70
     0
  9
$PUCSORGTOP
 10
0.0
 20
0.0
 30
0.0
  9
$PUCSORGBOTTOM
 10
0.0
 20
0.0
 30
0.0
  9
$PUCSORGLEFT
 10
0.0
 20
0.0
 30
0.0
  9
$PUCSORGRIGHT
 10
0.0
 20
0.0
 30
0.0
  9
$PUCSORGFRONT
 10
0.0
 20
0.0
 30
0.0
  9
$PUCSORGBACK
 10
0.0
 20
0.0
 30
0.0
  9
$USERI1
 70
     0
  9
$USERI2
 70
     0
  9
$USERI3
 70
     0
  9
$USERI4
 70
     0
  9
$USERI5
 70
     0
  9
$USERR1
 40
0.0
  9
$USERR2
 40
0.0
  9
$USERR3
 40
0.0
  9
$USERR4
 40
0.0
  9
$USERR5
 40
0.0
  9
$WORLDVIEW
 70
     1
  9
$SHADEDGE
 70
     3
  9
$SHADEDIF
 70
    70
  9
$TILEMODE
 70
     1
  9
$MAXACTVP
 70
    64
  9
$PINSBASE
 10
0.0
 20
0.0
 30
0.0
  9
$PLIMCHECK
 70
     0
  9
$PEXTMIN
 10
1.000000000000000E+20
 20
1.000000000000000E+20
 30
1.000000000000000E+20
  9
$PEXTMAX
 10
-1.000000000000000E+20
 20
-1.000000000000000E+20
 30
-1.000000000000000E+20
  9
$PLIMMIN
 10
0.0
 20
0.0
  9
$PLIMMAX
 10
420.0
 20
297.0
  9
$UNITMODE
 70
     0
  9
$VISRETAIN
 70
     1
  9
$PLINEGEN
 70
     0
  9
$PSLTSCALE
 70
     1
  9
$TREEDEPTH
 70
  3020
  9
$CMLSTYLE
  2
Standard
  9
$CMLJUST
 70
     0
  9
$CMLSCALE
 40
20.0
  9
$PROXYGRAPHICS
 70
     1
  9
$MEASUREMENT
 70
     1
  9
$CELWEIGHT
370
    -1
  9
$ENDCAPS
280
     0
  9
$JOINSTYLE
280
     0
  9
$LWDISPLAY
290
     0
  9
$INSUNITS
 70
     4
  9
$HYPERLINKBASE
  1

  9
$STYLESHEET
  1

  9
$XEDIT
290
     1
  9
$CEPSNTYPE
380
     0
  9
$PSTYLEMODE
290
     1
  9
$FINGERPRINTGUID
  2
{A7D91133-C0EF-4692-8C5C-9860C97ED091}
  9
$VERSIONGUID
  2
{FAEB1C32-E019-11D5-929B-00C0DF256EC4}
  9
$EXTNAMES
290
     1
  9
$PSVPSCALE
 40
0.0
  9
$OLESTARTUP
290
     0
  9
$SORTENTS
280
   127
  9
$INDEXCTL
280
     0
  9
$HIDETEXT
280
     1
  9
$XCLIPFRAME
280
     2
  9
$HALOGAP
280
     0
  9
$OBSCOLOR
 70
   257
  9
$OBSLTYPE
280
     0
  9
$INTERSECTIONDISPLAY
280
     0
  9
$INTERSECTIONCOLOR
 70
   257
  9
$DIMASSOC
280
     2
  9
$PROJECTNAME
  1

  9
$CAMERADISPLAY
290
     0
  9
$LENSLENGTH
 40
50.0
  9
$CAMERAHEIGHT
 40
0.0
  9
$STEPSPERSEC
 40
2.0
  9
$STEPSIZE
 40
6.0
  9
$3DDWFPREC
 40
2.0
  9
$PSOLWIDTH
 40
5.0
  9
$PSOLHEIGHT
 40
80.0
  9
$LOFTANG1
 40
1.570796326794897
  9
$LOFTANG2
 40
1.570796326794897
  9
$LOFTMAG1
 40
0.0
  9
$LOFTMAG2
 40
0.0
  9
$LOFTPARAM
 70
     7
  9
$LOFTNORMALS
280
     1
  9
$LATITUDE
 40
37.795
  9
$LONGITUDE
 40
-122.394
  9
$NORTHDIRECTION
 40
0.0
  9
$TIMEZONE
 70
 -8000
  9
$LIGHTGLYPHDISPLAY
280
     1
  9
$TILEMODELIGHTSYNCH
280
     1
  9
$CMATERIAL
347
44
  9
$SOLIDHIST
280
     0
  9
$SHOWHIST
280
     1
  9
$DWFFRAME
280
     2
  9
$DGNFRAME
280
     2
  9
$REALWORLDSCALE
290
     1
  9
$INTERFERECOLOR
 62
   256
  9
$CSHADOW
280
     0
  9
$SHADOWPLANELOCATION
 40
0.0
  0
ENDSEC
  0
SECTION
  2
CLASSES
  0
CLASS
  1
ACDBDICTIONARYWDFLT
  2
AcDbDictionaryWithDefault
  3
ObjectDBX Classes
 90
        0
 91
        4
280
     0
281
     0
  0
CLASS
  1
VISUALSTYLE
  2
AcDbVisualStyle
  3
ObjectDBX Classes
 90
     4095
 91
        4
280
     0
281
     0
  0
CLASS
  1
MATERIAL
  2
AcDbMaterial
  3
ObjectDBX Classes
 90
     1153
 91
        4
280
     0
281
     0
  0
CLASS
  1
SCALE
  2
AcDbScale
  3
ObjectDBX Classes
 90
     1153
 91
        4
280
     0
281
     0
  0
CLASS
  1
TABLESTYLE
  2
AcDbTableStyle
  3
ObjectDBX Classes
 90
     4095
 91
        4
280
     0
281
     0
  0
CLASS
  1
MLEADERSTYLE
  2
AcDbMLeaderStyle
  3
ACDB_MLEADERSTYLE_CLASS
 90
     4095
 91
        4
280
     0
281
     0
  0
CLASS
  1
SUN
  2
AcDbSun
  3
SCENEOE
 90
     1153
 91
        4
280
     0
281
     0
  0
CLASS
  1
DICTIONARYVAR
  2
AcDbDictionaryVar
  3
ObjectDBX Classes
 90
        0
 91
        4
280
     0
281
     0
  0
CLASS
  1
CELLSTYLEMAP
  2
AcDbCellStyleMap
  3
ObjectDBX Classes
 90
     1152
 91
        4
280
     0
281
     0
  0
ENDSEC
  0
SECTION
  2
TABLES
  0
TABLE
  2
VPORT
  5
8
330
0
100
AcDbSymbolTable
 70
     1
  0
VPORT
  5
29
330
8
100
AcDbSymbolTableRecord
100
AcDbViewportTableRecord
  2
*Active
 70
     0
 10
0.0
 20
0.0
 11
1.0
 21
1.0
 12
15.29761904761909
 22
0.25
 13
0.0
 23
0.0
 14
10.0
 24
10.0
 15
10.0
 25
10.0
 16
0.0
 26
0.0
 36
1.0
 17
0.0
 27
0.0
 37
0.0
 40
82.11
 41
0.3800650695060644
 42
50.0
 43
0.0
 44
0.0
 50
0.0
 51
0.0
 71
     0
 72
   100
 73
     1
 74
     3
 75
     0
 76
     0
 77
     0
 78
     0
281
     0
 65
     1
110
0.0
120
0.0
130
0.0
111
1.0
121
0.0
131
0.0
112
0.0
122
1.0
132
0.0
 79
     0
146
0.0
348
2F
 60
     3
 61
     5
292
     1
282
     1
141
0.0
142
0.0
 63
   250
361
6D
  0
ENDTAB
  0
TABLE
  2
LTYPE
  5
5
330
0
100
AcDbSymbolTable
 70
     1
  0
LTYPE
  5
14
330
5
100
AcDbSymbolTableRecord
100
AcDbLinetypeTableRecord
  2
ByBlock
 70
     0
  3

 72
    65
 73
     0
 40
0.0
  0
LTYPE
  5
15
330
5
100
AcDbSymbolTableRecord
100
AcDbLinetypeTableRecord
  2
ByLayer
 70
     0
  3

 72
    65
 73
     0
 40
0.0
  0
LTYPE
  5
16
330
5
100
AcDbSymbolTableRecord
100
AcDbLinetypeTableRecord
  2
Continuous
 70
     0
  3
Solid line
 72
    65
 73
     0
 40
0.0
  0
ENDTAB
  0
TABLE
  2
LAYER
  5
2
330
0
100
AcDbSymbolTable
 70
     3
  0
LAYER
  5
10
330
2
100
AcDbSymbolTableRecord
100
AcDbLayerTableRecord
  2
0
 70
     0
 62
     7
  6
Continuous
370
    -3
390
F
347
46
348
0
  0
LAYER
  5
6E
330
2
100
AcDbSymbolTableRecord
100
AcDbLayerTableRecord
  2
AM_6
 70
     0
 62
    -2
  6
Continuous
370
    35
390
F
347
46
348
0
  0
LAYER
  5
84
330
2
100
AcDbSymbolTableRecord
100
AcDbLayerTableRecord
  2
AM_0
 70
     0
 62
     2
  6
Continuous
370
    35
390
F
347
46
348
0
  0
ENDTAB
  0
TABLE
  2
STYLE
  5
3
330
0
100
AcDbSymbolTable
 70
     1
  0
STYLE
  5
11
330
3
100
AcDbSymbolTableRecord
100
AcDbTextStyleTableRecord
  2
Standard
 70
     0
 40
0.0
 41
1.0
 50
0.0
 71
     0
 42
2.5
  3
txt
  4

  0
ENDTAB
  0
TABLE
  2
VIEW
  5
6
330
0
100
AcDbSymbolTable
 70
     0
  0
ENDTAB
  0
TABLE
  2
UCS
  5
7
330
0
100
AcDbSymbolTable
 70
     0
  0
ENDTAB
  0
TABLE
  2
APPID
  5
9
330
0
100
AcDbSymbolTable
 70
     1
  0
APPID
  5
12
330
9
100
AcDbSymbolTableRecord
100
AcDbRegAppTableRecord
  2
ACAD
 70
     0
  0
ENDTAB
  0
TABLE
  2
DIMSTYLE
  5
A
330
0
100
AcDbSymbolTable
 70
     1
100
AcDbDimStyleTable
  0
DIMSTYLE
105
27
330
A
100
AcDbSymbolTableRecord
100
AcDbDimStyleTableRecord
  2
ISO-25
 70
     0
 41
2.5
 42
0.625
 43
3.75
 44
1.25
 73
     0
 74
     0
 77
     1
 78
     8
140
2.5
141
2.5
143
0.03937007874016
147
0.625
171
     3
172
     1
178
     0
271
     2
272
     2
274
     3
278
    44
283
     0
284
     8
340
11
  0
ENDTAB
  0
TABLE
  2
BLOCK_RECORD
  5
1
330
0
100
AcDbSymbolTable
 70
    14
  0
BLOCK_RECORD
  5
1F
330
1
100
AcDbSymbolTableRecord
100
AcDbBlockTableRecord
  2
*Model_Space
340
22
 70
     0
280
     1
281
     0
  0
BLOCK_RECORD
  5
1B
330
1
100
AcDbSymbolTableRecord
100
AcDbBlockTableRecord
  2
*Paper_Space
340
1E
 70
     0
280
     1
281
     0
  0
BLOCK_RECORD
  5
23
330
1
100
AcDbSymbolTableRecord
100
AcDbBlockTableRecord
  2
*Paper_Space0
340
26
 70
     0
280
     1
281
     0
  0
BLOCK_RECORD
  5
80
330
1
100
AcDbSymbolTableRecord
100
AcDbBlockTableRecord
  2
1_PART_7307_BEP_PART1_in_ASM_7307_BEP
340
0
102
{BLKREFS
331
81
102
}
 70
     0
280
     1
281
     0
  0
BLOCK_RECORD
  5
97
330
1
100
AcDbSymbolTableRecord
100
AcDbBlockTableRecord
  2
2_PART_7307_BEP_PART2_in_ASM_7307_BEP
340
0
102
{BLKREFS
331
98
102
}
 70
     0
280
     1
281
     0
  0
BLOCK_RECORD
  5
AD
330
1
100
AcDbSymbolTableRecord
100
AcDbBlockTableRecord
  2
3_PART_7307_BEP_PART3_in_ASM_7307_BEP
340
0
102
{BLKREFS
331
AE
102
}
 70
     0
280
     1
281
     0
  0
BLOCK_RECORD
  5
C3
330
1
100
AcDbSymbolTableRecord
100
AcDbBlockTableRecord
  2
4_PART_7307_BEP_PART3_in_ASM_7307_BEP
340
0
102
{BLKREFS
331
C4
102
}
 70
     0
280
     1
281
     0
  0
BLOCK_RECORD
  5
D9
330
1
100
AcDbSymbolTableRecord
100
AcDbBlockTableRecord
  2
5_PART_7307_BEP_PART3_in_ASM_7307_BEP
340
0
102
{BLKREFS
331
DA
102
}
 70
     0
280
     1
281
     0
  0
BLOCK_RECORD
  5
EF
330
1
100
AcDbSymbolTableRecord
100
AcDbBlockTableRecord
  2
6_PART_7307_BEP_PART3_in_ASM_7307_BEP
340
0
102
{BLKREFS
331
F0
102
}
 70
     0
280
     1
281
     0
  0
BLOCK_RECORD
  5
105
330
1
100
AcDbSymbolTableRecord
100
AcDbBlockTableRecord
  2
7_PART_7307_BEP_PART3_in_ASM_7307_BEP
340
0
102
{BLKREFS
331
106
102
}
 70
     0
280
     1
281
     0
  0
BLOCK_RECORD
  5
11B
330
1
100
AcDbSymbolTableRecord
100
AcDbBlockTableRecord
  2
8_PART_7307_BEP_PART3_in_ASM_7307_BEP
340
0
102
{BLKREFS
331
11C
102
}
 70
     0
280
     1
281
     0
  0
BLOCK_RECORD
  5
131
330
1
100
AcDbSymbolTableRecord
100
AcDbBlockTableRecord
  2
9_PART_7307_BEP_PART3_in_ASM_7307_BEP
340
0
102
{BLKREFS
331
132
102
}
 70
     0
280
     1
281
     0
  0
BLOCK_RECORD
  5
147
330
1
100
AcDbSymbolTableRecord
100
AcDbBlockTableRecord
  2
10_PART_7307_BEP_PART3_in_ASM_7307_BEP
340
0
102
{BLKREFS
331
148
102
}
 70
     0
280
     1
281
     0
  0
BLOCK_RECORD
  5
15D
330
1
100
AcDbSymbolTableRecord
100
AcDbBlockTableRecord
  2
11_PART_7307_BEP_PART3_in_ASM_7307_BEP
340
0
102
{BLKREFS
331
15E
102
}
 70
     0
280
     1
281
     0
  0
BLOCK_RECORD
  5
173
330
1
100
AcDbSymbolTableRecord
100
AcDbBlockTableRecord
  2
12_PART_7307_BEP_PART3_in_ASM_7307_BEP
340
0
102
{BLKREFS
331
174
102
}
 70
     0
280
     1
281
     0
  0
BLOCK_RECORD
  5
189
330
1
100
AcDbSymbolTableRecord
100
AcDbBlockTableRecord
  2
13_PART_7307_BEP_PART3_in_ASM_7307_BEP
340
0
102
{BLKREFS
331
18A
102
}
 70
     0
280
     1
281
     0
  0
ENDTAB
  0
ENDSEC
  0
SECTION
  2
BLOCKS
  0
BLOCK
  5
20
330
1F
100
AcDbEntity
  8
0
100
AcDbBlockBegin
  2
*Model_Space
 70
     0
 10
0.0
 20
0.0
 30
0.0
  3
*Model_Space
  1

  0
ENDBLK
  5
21
330
1F
100
AcDbEntity
  8
0
100
AcDbBlockEnd
  0
BLOCK
  5
1C
330
1B
100
AcDbEntity
 67
     1
  8
0
100
AcDbBlockBegin
  2
*Paper_Space
 70
     0
 10
0.0
 20
0.0
 30
0.0
  3
*Paper_Space
  1

  0
ENDBLK
  5
1D
330
1B
100
AcDbEntity
 67
     1
  8
0
100
AcDbBlockEnd
  0
BLOCK
  5
24
330
23
100
AcDbEntity
  8
0
100
AcDbBlockBegin
  2
*Paper_Space0
 70
     0
 10
0.0
 20
0.0
 30
0.0
  3
*Paper_Space0
  1

  0
ENDBLK
  5
25
330
23
100
AcDbEntity
  8
0
100
AcDbBlockEnd
  0
BLOCK
  5
82
330
80
100
AcDbEntity
  8
0
100
AcDbBlockBegin
  2
1_PART_7307_BEP_PART1_in_ASM_7307_BEP
 70
     2
 10
0.0
 20
0.0
 30
0.0
  3
1_PART_7307_BEP_PART1_in_ASM_7307_BEP
  1

  0
3DSOLID
  5
85
330
80
100
AcDbEntity
  8
AM_0
100
AcDbModelerGeometry
290
     0
  2
{00000000-0000-0000-0000-000000000000}
100
AcDb3dSolid
350
0
  0
ATTDEF
  5
86
330
80
100
AcDbEntity
  8
AM_6
100
AcDbText
 10
26.00000000000003
 20
26.32500000000001
 30
0.0
 40
0.5
  1

100
AcDbAttributeDefinition
  3

  2
NN
 70
     8
280
     0
  0
ATTDEF
  5
87
330
80
100
AcDbEntity
  8
AM_6
100
AcDbText
 10
26.00000000000003
 20
25.82500000000001
 30
0.0
 40
0.5
  1
Angular contact ball bearings, single row
100
AcDbAttributeDefinition
  3

  2
NT
 70
     8
280
     0
  0
ATTDEF
  5
88
330
80
100
AcDbEntity
  8
AM_6
100
AcDbText
 10
26.00000000000003
 20
25.32500000000001
 30
0.0
 40
0.5
  1
7307 BEP_PART1
100
AcDbAttributeDefinition
  3

  2
NB
 70
     8
280
     0
  0
ATTDEF
  5
89
330
80
100
AcDbEntity
  8
AM_6
100
AcDbText
 10
26.00000000000003
 20
24.82500000000001
 30
0.0
 40
0.5
  1
$DESIGNATION._PART1
100
AcDbAttributeDefinition
  3

  2
NBSYN
 70
     8
280
     0
  0
ATTDEF
  5
8A
330
80
100
AcDbEntity
  8
AM_6
100
AcDbText
 10
26.00000000000003
 20
24.32500000000001
 30
0.0
 40
0.5
  1
7307 BEP_PART1
100
AcDbAttributeDefinition
  3

  2
LINA
 70
     8
280
     0
  0
ATTDEF
  5
8B
330
80
100
AcDbEntity
  8
AM_6
100
AcDbText
 10
26.00000000000003
 20
23.82500000000001
 30
0.0
 40
0.5
  1
7307 BEP
100
AcDbAttributeDefinition
  3

  2
DESIGNATION
 70
     8
280
     0
  0
ATTDEF
  5
8C
330
80
100
AcDbEntity
  8
AM_6
100
AcDbText
 10
26.00000000000003
 20
23.32500000000001
 30
0.0
 40
0.5
  1
35.000
100
AcDbAttributeDefinition
  3

  2
DD
 70
     8
280
     0
  0
ATTDEF
  5
8D
330
80
100
AcDbEntity
  8
AM_6
100
AcDbText
 10
26.00000000000003
 20
22.82500000000001
 30
0.0
 40
0.5
  1
80.000
100
AcDbAttributeDefinition
  3

  2
D
 70
     8
280
     0
  0
ATTDEF
  5
8E
330
80
100
AcDbEntity
  8
AM_6
100
AcDbText
 10
26.00000000000003
 20
22.32500000000001
 30
0.0
 40
0.5
  1
21.0000
100
AcDbAttributeDefinition
  3

  2
B
 70
     8
280
     0
  0
ATTDEF
  5
8F
330
80
100
AcDbEntity
  8
AM_6
100
AcDbText
 10
26.00000000000003
 20
21.82500000000001
 30
0.0
 40
0.5
  1
43.620
100
AcDbAttributeDefinition
  3

  2
DD2A
 70
     8
280
     0
  0
ATTDEF
  5
90
330
80
100
AcDbEntity
  8
AM_6
100
AcDbText
 10
26.00000000000003
 20
21.32500000000001
 30
0.0
 40
0.5
  1
71.540
100
AcDbAttributeDefinition
  3

  2
D2A
 70
     8
280
     0
  0
ATTDEF
  5
91
330
80
100
AcDbEntity
  8
AM_6
100
AcDbText
 10
26.00000000000003
 20
20.82500000000001
 30
0.0
 40
0.5
  1
39.000
100
AcDbAttributeDefinition
  3

  2
LOAD1
 70
     8
280
     0
  0
ATTDEF
  5
92
330
80
100
AcDbEntity
  8
AM_6
100
AcDbText
 10
26.00000000000003
 20
20.32500000000001
 30
0.0
 40
0.5
  1
24.500
100
AcDbAttributeDefinition
  3

  2
LOAD2
 70
     8
280
     0
  0
ATTDEF
  5
93
330
80
100
AcDbEntity
  8
AM_6
100
AcDbText
 10
26.00000000000003
 20
19.82500000000001
 30
0.0
 40
0.5
  1
1.040
100
AcDbAttributeDefinition
  3

  2
LOAD3
 70
     8
280
     0
  0
ATTDEF
  5
94
330
80
100
AcDbEntity
  8
AM_6
100
AcDbText
 10
26.00000000000003
 20
19.32500000000001
 30
0.0
 40
0.5
  1
10000
100
AcDbAttributeDefinition
  3

  2
SPEED1
 70
     8
280
     0
  0
ATTDEF
  5
95
330
80
100
AcDbEntity
  8
AM_6
100
AcDbText
 10
26.00000000000003
 20
18.82500000000001
 30
0.0
 40
0.5
  1
10000
100
AcDbAttributeDefinition
  3

  2
SPEED2
 70
     8
280
     0
  0
ATTDEF
  5
96
330
80
100
AcDbEntity
  8
AM_6
100
AcDbText
 10
26.00000000000003
 20
18.32500000000001
 30
0.0
 40
0.5
  1
SKF
100
AcDbAttributeDefinition
  3

  2
COMPANY
 70
     8
280
     0
  0
ENDBLK
  5
83
330
80
100
AcDbEntity
  8
0
100
AcDbBlockEnd
  0
BLOCK
  5
99
330
97
100
AcDbEntity
  8
0
100
AcDbBlockBegin
  2
2_PART_7307_BEP_PART2_in_ASM_7307_BEP
 70
     2
 10
0.0
 20
0.0
 30
0.0
  3
2_PART_7307_BEP_PART2_in_ASM_7307_BEP
  1

  0
3DSOLID
  5
9B
330
97
100
AcDbEntity
  8
AM_0
100
AcDbModelerGeometry
290
     0
  2
{00000000-0000-0000-0000-000000000000}
100
AcDb3dSolid
350
0
  0
ATTDEF
  5
9C
330
97
100
AcDbEntity
  8
AM_6
100
AcDbText
 10
26.00000000000009
 20
40.0
 30
0.0
 40
0.5
  1

100
AcDbAttributeDefinition
  3

  2
NN
 70
     8
280
     0
  0
ATTDEF
  5
9D
330
97
100
AcDbEntity
  8
AM_6
100
AcDbText
 10
26.00000000000009
 20
39.5
 30
0.0
 40
0.5
  1
Angular contact ball bearings, single row
100
AcDbAttributeDefinition
  3

  2
NT
 70
     8
280
     0
  0
ATTDEF
  5
9E
330
97
100
AcDbEntity
  8
AM_6
100
AcDbText
 10
26.00000000000009
 20
39.0
 30
0.0
 40
0.5
  1
7307 BEP_PART2
100
AcDbAttributeDefinition
  3

  2
NB
 70
     8
280
     0
  0
ATTDEF
  5
9F
330
97
100
AcDbEntity
  8
AM_6
100
AcDbText
 10
26.00000000000009
 20
38.5
 30
0.0
 40
0.5
  1
$DESIGNATION._PART2
100
AcDbAttributeDefinition
  3

  2
NBSYN
 70
     8
280
     0
  0
ATTDEF
  5
A0
330
97
100
AcDbEntity
  8
AM_6
100
AcDbText
 10
26.00000000000009
 20
38.0
 30
0.0
 40
0.5
  1
7307 BEP_PART2
100
AcDbAttributeDefinition
  3

  2
LINA
 70
     8
280
     0
  0
ATTDEF
  5
A1
330
97
100
AcDbEntity
  8
AM_6
100
AcDbText
 10
26.00000000000009
 20
37.5
 30
0.0
 40
0.5
  1
7307 BEP
100
AcDbAttributeDefinition
  3

  2
DESIGNATION
 70
     8
280
     0
  0
ATTDEF
  5
A2
330
97
100
AcDbEntity
  8
AM_6
100
AcDbText
 10
26.00000000000009
 20
37.0
 30
0.0
 40
0.5
  1
35.000
100
AcDbAttributeDefinition
  3

  2
DD
 70
     8
280
     0
  0
ATTDEF
  5
A3
330
97
100
AcDbEntity
  8
AM_6
100
AcDbText
 10
26.00000000000009
 20
36.5
 30
0.0
 40
0.5
  1
80.000
100
AcDbAttributeDefinition
  3

  2
D
 70
     8
280
     0
  0
ATTDEF
  5
A4
330
97
100
AcDbEntity
  8
AM_6
100
AcDbText
 10
26.00000000000009
 20
36.0
 30
0.0
 40
0.5
  1
21.0000
100
AcDbAttributeDefinition
  3

  2
B
 70
     8
280
     0
  0
ATTDEF
  5
A5
330
97
100
AcDbEntity
  8
AM_6
100
AcDbText
 10
26.00000000000009
 20
35.5
 30
0.0
 40
0.5
  1
43.620
100
AcDbAttributeDefinition
  3

  2
DD2A
 70
     8
280
     0
  0
ATTDEF
  5
A6
330
97
100
AcDbEntity
  8
AM_6
100
AcDbText
 10
26.00000000000009
 20
35.0
 30
0.0
 40
0.5
  1
71.540
100
AcDbAttributeDefinition
  3

  2
D2A
 70
     8
280
     0
  0
ATTDEF
  5
A7
330
97
100
AcDbEntity
  8
AM_6
100
AcDbText
 10
26.00000000000009
 20
34.5
 30
0.0
 40
0.5
  1
39.000
100
AcDbAttributeDefinition
  3

  2
LOAD1
 70
     8
280
     0
  0
ATTDEF
  5
A8
330
97
100
AcDbEntity
  8
AM_6
100
AcDbText
 10
26.00000000000009
 20
34.0
 30
0.0
 40
0.5
  1
24.500
100
AcDbAttributeDefinition
  3

  2
LOAD2
 70
     8
280
     0
  0
ATTDEF
  5
A9
330
97
100
AcDbEntity
  8
AM_6
100
AcDbText
 10
26.00000000000009
 20
33.5
 30
0.0
 40
0.5
  1
1.040
100
AcDbAttributeDefinition
  3

  2
LOAD3
 70
     8
280
     0
  0
ATTDEF
  5
AA
330
97
100
AcDbEntity
  8
AM_6
100
AcDbText
 10
26.00000000000009
 20
33.0
 30
0.0
 40
0.5
  1
10000
100
AcDbAttributeDefinition
  3

  2
SPEED1
 70
     8
280
     0
  0
ATTDEF
  5
AB
330
97
100
AcDbEntity
  8
AM_6
100
AcDbText
 10
26.00000000000009
 20
32.5
 30
0.0
 40
0.5
  1
10000
100
AcDbAttributeDefinition
  3

  2
SPEED2
 70
     8
280
     0
  0
ATTDEF
  5
AC
330
97
100
AcDbEntity
  8
AM_6
100
AcDbText
 10
26.00000000000009
 20
32.0
 30
0.0
 40
0.5
  1
SKF
100
AcDbAttributeDefinition
  3

  2
COMPANY
 70
     8
280
     0
  0
ENDBLK
  5
9A
330
97
100
AcDbEntity
  8
0
100
AcDbBlockEnd
  0
BLOCK
  5
AF
330
AD
100
AcDbEntity
  8
0
100
AcDbBlockBegin
  2
3_PART_7307_BEP_PART3_in_ASM_7307_BEP
 70
     2
 10
0.0
 20
0.0
 30
0.0
  3
3_PART_7307_BEP_PART3_in_ASM_7307_BEP
  1

  0
3DSOLID
  5
B1
330
AD
100
AcDbEntity
  8
AM_0
100
AcDbModelerGeometry
290
     0
  2
{00000000-0000-0000-0000-000000000000}
100
AcDb3dSolid
350
0
  0
ATTDEF
  5
B2
330
AD
100
AcDbEntity
  8
AM_6
100
AcDbText
 10
22.64400000000008
 20
35.89400000000003
 30
0.0
 40
0.5
  1

100
AcDbAttributeDefinition
  3

  2
NN
 70
     8
280
     0
  0
ATTDEF
  5
B3
330
AD
100
AcDbEntity
  8
AM_6
100
AcDbText
 10
22.64400000000008
 20
35.39400000000003
 30
0.0
 40
0.5
  1
Angular contact ball bearings, single row
100
AcDbAttributeDefinition
  3

  2
NT
 70
     8
280
     0
  0
ATTDEF
  5
B4
330
AD
100
AcDbEntity
  8
AM_6
100
AcDbText
 10
22.64400000000008
 20
34.89400000000003
 30
0.0
 40
0.5
  1
7307 BEP_PART3
100
AcDbAttributeDefinition
  3

  2
NB
 70
     8
280
     0
  0
ATTDEF
  5
B5
330
AD
100
AcDbEntity
  8
AM_6
100
AcDbText
 10
22.64400000000008
 20
34.39400000000003
 30
0.0
 40
0.5
  1
$DESIGNATION._PART3
100
AcDbAttributeDefinition
  3

  2
NBSYN
 70
     8
280
     0
  0
ATTDEF
  5
B6
330
AD
100
AcDbEntity
  8
AM_6
100
AcDbText
 10
22.64400000000008
 20
33.89400000000003
 30
0.0
 40
0.5
  1
7307 BEP_PART3
100
AcDbAttributeDefinition
  3

  2
LINA
 70
     8
280
     0
  0
ATTDEF
  5
B7
330
AD
100
AcDbEntity
  8
AM_6
100
AcDbText
 10
22.64400000000008
 20
33.39400000000003
 30
0.0
 40
0.5
  1
7307 BEP
100
AcDbAttributeDefinition
  3

  2
DESIGNATION
 70
     8
280
     0
  0
ATTDEF
  5
B8
330
AD
100
AcDbEntity
  8
AM_6
100
AcDbText
 10
22.64400000000008
 20
32.89400000000003
 30
0.0
 40
0.5
  1
35.000
100
AcDbAttributeDefinition
  3

  2
DD
 70
     8
280
     0
  0
ATTDEF
  5
B9
330
AD
100
AcDbEntity
  8
AM_6
100
AcDbText
 10
22.64400000000008
 20
32.39400000000003
 30
0.0
 40
0.5
  1
80.000
100
AcDbAttributeDefinition
  3

  2
D
 70
     8
280
     0
  0
ATTDEF
  5
BA
330
AD
100
AcDbEntity
  8
AM_6
100
AcDbText
 10
22.64400000000008
 20
31.89400000000003
 30
0.0
 40
0.5
  1
21.0000
100
AcDbAttributeDefinition
  3

  2
B
 70
     8
280
     0
  0
ATTDEF
  5
BB
330
AD
100
AcDbEntity
  8
AM_6
100
AcDbText
 10
22.64400000000008
 20
31.39400000000003
 30
0.0
 40
0.5
  1
43.620
100
AcDbAttributeDefinition
  3

  2
DD2A
 70
     8
280
     0
  0
ATTDEF
  5
BC
330
AD
100
AcDbEntity
  8
AM_6
100
AcDbText
 10
22.64400000000008
 20
30.89400000000003
 30
0.0
 40
0.5
  1
71.540
100
AcDbAttributeDefinition
  3

  2
D2A
 70
     8
280
     0
  0
ATTDEF
  5
BD
330
AD
100
AcDbEntity
  8
AM_6
100
AcDbText
 10
22.64400000000008
 20
30.39400000000003
 30
0.0
 40
0.5
  1
39.000
100
AcDbAttributeDefinition
  3

  2
LOAD1
 70
     8
280
     0
  0
ATTDEF
  5
BE
330
AD
100
AcDbEntity
  8
AM_6
100
AcDbText
 10
22.64400000000008
 20
29.89400000000003
 30
0.0
 40
0.5
  1
24.500
100
AcDbAttributeDefinition
  3

  2
LOAD2
 70
     8
280
     0
  0
ATTDEF
  5
BF
330
AD
100
AcDbEntity
  8
AM_6
100
AcDbText
 10
22.64400000000008
 20
29.39400000000003
 30
0.0
 40
0.5
  1
1.040
100
AcDbAttributeDefinition
  3

  2
LOAD3
 70
     8
280
     0
  0
ATTDEF
  5
C0
330
AD
100
AcDbEntity
  8
AM_6
100
AcDbText
 10
22.64400000000008
 20
28.89400000000003
 30
0.0
 40
0.5
  1
10000
100
AcDbAttributeDefinition
  3

  2
SPEED1
 70
     8
280
     0
  0
ATTDEF
  5
C1
330
AD
100
AcDbEntity
  8
AM_6
100
AcDbText
 10
22.64400000000008
 20
28.39400000000003
 30
0.0
 40
0.5
  1
10000
100
AcDbAttributeDefinition
  3

  2
SPEED2
 70
     8
280
     0
  0
ATTDEF
  5
C2
330
AD
100
AcDbEntity
  8
AM_6
100
AcDbText
 10
22.64400000000008
 20
27.89400000000003
 30
0.0
 40
0.5
  1
SKF
100
AcDbAttributeDefinition
  3

  2
COMPANY
 70
     8
280
     0
  0
ENDBLK
  5
B0
330
AD
100
AcDbEntity
  8
0
100
AcDbBlockEnd
  0
BLOCK
  5
C5
330
C3
100
AcDbEntity
  8
0
100
AcDbBlockBegin
  2
4_PART_7307_BEP_PART3_in_ASM_7307_BEP
 70
     2
 10
0.0
 20
0.0
 30
0.0
  3
4_PART_7307_BEP_PART3_in_ASM_7307_BEP
  1

  0
3DSOLID
  5
C7
330
C3
100
AcDbEntity
  8
AM_0
100
AcDbModelerGeometry
290
     0
  2
{00000000-0000-0000-0000-000000000000}
100
AcDb3dSolid
350
0
  0
ATTDEF
  5
C8
330
C3
100
AcDbEntity
  8
AM_6
100
AcDbText
 10
22.64400000000008
 20
35.89400000000003
 30
0.0
 40
0.5
  1

100
AcDbAttributeDefinition
  3

  2
NN
 70
     8
280
     0
  0
ATTDEF
  5
C9
330
C3
100
AcDbEntity
  8
AM_6
100
AcDbText
 10
22.64400000000008
 20
35.39400000000003
 30
0.0
 40
0.5
  1
Angular contact ball bearings, single row
100
AcDbAttributeDefinition
  3

  2
NT
 70
     8
280
     0
  0
ATTDEF
  5
CA
330
C3
100
AcDbEntity
  8
AM_6
100
AcDbText
 10
22.64400000000008
 20
34.89400000000003
 30
0.0
 40
0.5
  1
7307 BEP_PART3
100
AcDbAttributeDefinition
  3

  2
NB
 70
     8
280
     0
  0
ATTDEF
  5
CB
330
C3
100
AcDbEntity
  8
AM_6
100
AcDbText
 10
22.64400000000008
 20
34.39400000000003
 30
0.0
 40
0.5
  1
$DESIGNATION._PART3
100
AcDbAttributeDefinition
  3

  2
NBSYN
 70
     8
280
     0
  0
ATTDEF
  5
CC
330
C3
100
AcDbEntity
  8
AM_6
100
AcDbText
 10
22.64400000000008
 20
33.89400000000003
 30
0.0
 40
0.5
  1
7307 BEP_PART3
100
AcDbAttributeDefinition
  3

  2
LINA
 70
     8
280
     0
  0
ATTDEF
  5
CD
330
C3
100
AcDbEntity
  8
AM_6
100
AcDbText
 10
22.64400000000008
 20
33.39400000000003
 30
0.0
 40
0.5
  1
7307 BEP
100
AcDbAttributeDefinition
  3

  2
DESIGNATION
 70
     8
280
     0
  0
ATTDEF
  5
CE
330
C3
100
AcDbEntity
  8
AM_6
100
AcDbText
 10
22.64400000000008
 20
32.89400000000003
 30
0.0
 40
0.5
  1
35.000
100
AcDbAttributeDefinition
  3

  2
DD
 70
     8
280
     0
  0
ATTDEF
  5
CF
330
C3
100
AcDbEntity
  8
AM_6
100
AcDbText
 10
22.64400000000008
 20
32.39400000000003
 30
0.0
 40
0.5
  1
80.000
100
AcDbAttributeDefinition
  3

  2
D
 70
     8
280
     0
  0
ATTDEF
  5
D0
330
C3
100
AcDbEntity
  8
AM_6
100
AcDbText
 10
22.64400000000008
 20
31.89400000000003
 30
0.0
 40
0.5
  1
21.0000
100
AcDbAttributeDefinition
  3

  2
B
 70
     8
280
     0
  0
ATTDEF
  5
D1
330
C3
100
AcDbEntity
  8
AM_6
100
AcDbText
 10
22.64400000000008
 20
31.39400000000003
 30
0.0
 40
0.5
  1
43.620
100
AcDbAttributeDefinition
  3

  2
DD2A
 70
     8
280
     0
  0
ATTDEF
  5
D2
330
C3
100
AcDbEntity
  8
AM_6
100
AcDbText
 10
22.64400000000008
 20
30.89400000000003
 30
0.0
 40
0.5
  1
71.540
100
AcDbAttributeDefinition
  3

  2
D2A
 70
     8
280
     0
  0
ATTDEF
  5
D3
330
C3
100
AcDbEntity
  8
AM_6
100
AcDbText
 10
22.64400000000008
 20
30.39400000000003
 30
0.0
 40
0.5
  1
39.000
100
AcDbAttributeDefinition
  3

  2
LOAD1
 70
     8
280
     0
  0
ATTDEF
  5
D4
330
C3
100
AcDbEntity
  8
AM_6
100
AcDbText
 10
22.64400000000008
 20
29.89400000000003
 30
0.0
 40
0.5
  1
24.500
100
AcDbAttributeDefinition
  3

  2
LOAD2
 70
     8
280
     0
  0
ATTDEF
  5
D5
330
C3
100
AcDbEntity
  8
AM_6
100
AcDbText
 10
22.64400000000008
 20
29.39400000000003
 30
0.0
 40
0.5
  1
1.040
100
AcDbAttributeDefinition
  3

  2
LOAD3
 70
     8
280
     0
  0
ATTDEF
  5
D6
330
C3
100
AcDbEntity
  8
AM_6
100
AcDbText
 10
22.64400000000008
 20
28.89400000000003
 30
0.0
 40
0.5
  1
10000
100
AcDbAttributeDefinition
  3

  2
SPEED1
 70
     8
280
     0
  0
ATTDEF
  5
D7
330
C3
100
AcDbEntity
  8
AM_6
100
AcDbText
 10
22.64400000000008
 20
28.39400000000003
 30
0.0
 40
0.5
  1
10000
100
AcDbAttributeDefinition
  3

  2
SPEED2
 70
     8
280
     0
  0
ATTDEF
  5
D8
330
C3
100
AcDbEntity
  8
AM_6
100
AcDbText
 10
22.64400000000008
 20
27.89400000000003
 30
0.0
 40
0.5
  1
SKF
100
AcDbAttributeDefinition
  3

  2
COMPANY
 70
     8
280
     0
  0
ENDBLK
  5
C6
330
C3
100
AcDbEntity
  8
0
100
AcDbBlockEnd
  0
BLOCK
  5
DB
330
D9
100
AcDbEntity
  8
0
100
AcDbBlockBegin
  2
5_PART_7307_BEP_PART3_in_ASM_7307_BEP
 70
     2
 10
0.0
 20
0.0
 30
0.0
  3
5_PART_7307_BEP_PART3_in_ASM_7307_BEP
  1

  0
3DSOLID
  5
DD
330
D9
100
AcDbEntity
  8
AM_0
100
AcDbModelerGeometry
290
     0
  2
{00000000-0000-0000-0000-000000000000}
100
AcDb3dSolid
350
0
  0
ATTDEF
  5
DE
330
D9
100
AcDbEntity
  8
AM_6
100
AcDbText
 10
22.64400000000008
 20
35.89400000000003
 30
0.0
 40
0.5
  1

100
AcDbAttributeDefinition
  3

  2
NN
 70
     8
280
     0
  0
ATTDEF
  5
DF
330
D9
100
AcDbEntity
  8
AM_6
100
AcDbText
 10
22.64400000000008
 20
35.39400000000003
 30
0.0
 40
0.5
  1
Angular contact ball bearings, single row
100
AcDbAttributeDefinition
  3

  2
NT
 70
     8
280
     0
  0
ATTDEF
  5
E0
330
D9
100
AcDbEntity
  8
AM_6
100
AcDbText
 10
22.64400000000008
 20
34.89400000000003
 30
0.0
 40
0.5
  1
7307 BEP_PART3
100
AcDbAttributeDefinition
  3

  2
NB
 70
     8
280
     0
  0
ATTDEF
  5
E1
330
D9
100
AcDbEntity
  8
AM_6
100
AcDbText
 10
22.64400000000008
 20
34.39400000000003
 30
0.0
 40
0.5
  1
$DESIGNATION._PART3
100
AcDbAttributeDefinition
  3

  2
NBSYN
 70
     8
280
     0
  0
ATTDEF
  5
E2
330
D9
100
AcDbEntity
  8
AM_6
100
AcDbText
 10
22.64400000000008
 20
33.89400000000003
 30
0.0
 40
0.5
  1
7307 BEP_PART3
100
AcDbAttributeDefinition
  3

  2
LINA
 70
     8
280
     0
  0
ATTDEF
  5
E3
330
D9
100
AcDbEntity
  8
AM_6
100
AcDbText
 10
22.64400000000008
 20
33.39400000000003
 30
0.0
 40
0.5
  1
7307 BEP
100
AcDbAttributeDefinition
  3

  2
DESIGNATION
 70
     8
280
     0
  0
ATTDEF
  5
E4
330
D9
100
AcDbEntity
  8
AM_6
100
AcDbText
 10
22.64400000000008
 20
32.89400000000003
 30
0.0
 40
0.5
  1
35.000
100
AcDbAttributeDefinition
  3

  2
DD
 70
     8
280
     0
  0
ATTDEF
  5
E5
330
D9
100
AcDbEntity
  8
AM_6
100
AcDbText
 10
22.64400000000008
 20
32.39400000000003
 30
0.0
 40
0.5
  1
80.000
100
AcDbAttributeDefinition
  3

  2
D
 70
     8
280
     0
  0
ATTDEF
  5
E6
330
D9
100
AcDbEntity
  8
AM_6
100
AcDbText
 10
22.64400000000008
 20
31.89400000000003
 30
0.0
 40
0.5
  1
21.0000
100
AcDbAttributeDefinition
  3

  2
B
 70
     8
280
     0
  0
ATTDEF
  5
E7
330
D9
100
AcDbEntity
  8
AM_6
100
AcDbText
 10
22.64400000000008
 20
31.39400000000003
 30
0.0
 40
0.5
  1
43.620
100
AcDbAttributeDefinition
  3

  2
DD2A
 70
     8
280
     0
  0
ATTDEF
  5
E8
330
D9
100
AcDbEntity
  8
AM_6
100
AcDbText
 10
22.64400000000008
 20
30.89400000000003
 30
0.0
 40
0.5
  1
71.540
100
AcDbAttributeDefinition
  3

  2
D2A
 70
     8
280
     0
  0
ATTDEF
  5
E9
330
D9
100
AcDbEntity
  8
AM_6
100
AcDbText
 10
22.64400000000008
 20
30.39400000000003
 30
0.0
 40
0.5
  1
39.000
100
AcDbAttributeDefinition
  3

  2
LOAD1
 70
     8
280
     0
  0
ATTDEF
  5
EA
330
D9
100
AcDbEntity
  8
AM_6
100
AcDbText
 10
22.64400000000008
 20
29.89400000000003
 30
0.0
 40
0.5
  1
24.500
100
AcDbAttributeDefinition
  3

  2
LOAD2
 70
     8
280
     0
  0
ATTDEF
  5
EB
330
D9
100
AcDbEntity
  8
AM_6
100
AcDbText
 10
22.64400000000008
 20
29.39400000000003
 30
0.0
 40
0.5
  1
1.040
100
AcDbAttributeDefinition
  3

  2
LOAD3
 70
     8
280
     0
  0
ATTDEF
  5
EC
330
D9
100
AcDbEntity
  8
AM_6
100
AcDbText
 10
22.64400000000008
 20
28.89400000000003
 30
0.0
 40
0.5
  1
10000
100
AcDbAttributeDefinition
  3

  2
SPEED1
 70
     8
280
     0
  0
ATTDEF
  5
ED
330
D9
100
AcDbEntity
  8
AM_6
100
AcDbText
 10
22.64400000000008
 20
28.39400000000003
 30
0.0
 40
0.5
  1
10000
100
AcDbAttributeDefinition
  3

  2
SPEED2
 70
     8
280
     0
  0
ATTDEF
  5
EE
330
D9
100
AcDbEntity
  8
AM_6
100
AcDbText
 10
22.64400000000008
 20
27.89400000000003
 30
0.0
 40
0.5
  1
SKF
100
AcDbAttributeDefinition
  3

  2
COMPANY
 70
     8
280
     0
  0
ENDBLK
  5
DC
330
D9
100
AcDbEntity
  8
0
100
AcDbBlockEnd
  0
BLOCK
  5
F1
330
EF
100
AcDbEntity
  8
0
100
AcDbBlockBegin
  2
6_PART_7307_BEP_PART3_in_ASM_7307_BEP
 70
     2
 10
0.0
 20
0.0
 30
0.0
  3
6_PART_7307_BEP_PART3_in_ASM_7307_BEP
  1

  0
3DSOLID
  5
F3
330
EF
100
AcDbEntity
  8
AM_0
100
AcDbModelerGeometry
290
     0
  2
{00000000-0000-0000-0000-000000000000}
100
AcDb3dSolid
350
0
  0
ATTDEF
  5
F4
330
EF
100
AcDbEntity
  8
AM_6
100
AcDbText
 10
22.64400000000008
 20
35.89400000000003
 30
0.0
 40
0.5
  1

100
AcDbAttributeDefinition
  3

  2
NN
 70
     8
280
     0
  0
ATTDEF
  5
F5
330
EF
100
AcDbEntity
  8
AM_6
100
AcDbText
 10
22.64400000000008
 20
35.39400000000003
 30
0.0
 40
0.5
  1
Angular contact ball bearings, single row
100
AcDbAttributeDefinition
  3

  2
NT
 70
     8
280
     0
  0
ATTDEF
  5
F6
330
EF
100
AcDbEntity
  8
AM_6
100
AcDbText
 10
22.64400000000008
 20
34.89400000000003
 30
0.0
 40
0.5
  1
7307 BEP_PART3
100
AcDbAttributeDefinition
  3

  2
NB
 70
     8
280
     0
  0
ATTDEF
  5
F7
330
EF
100
AcDbEntity
  8
AM_6
100
AcDbText
 10
22.64400000000008
 20
34.39400000000003
 30
0.0
 40
0.5
  1
$DESIGNATION._PART3
100
AcDbAttributeDefinition
  3

  2
NBSYN
 70
     8
280
     0
  0
ATTDEF
  5
F8
330
EF
100
AcDbEntity
  8
AM_6
100
AcDbText
 10
22.64400000000008
 20
33.89400000000003
 30
0.0
 40
0.5
  1
7307 BEP_PART3
100
AcDbAttributeDefinition
  3

  2
LINA
 70
     8
280
     0
  0
ATTDEF
  5
F9
330
EF
100
AcDbEntity
  8
AM_6
100
AcDbText
 10
22.64400000000008
 20
33.39400000000003
 30
0.0
 40
0.5
  1
7307 BEP
100
AcDbAttributeDefinition
  3

  2
DESIGNATION
 70
     8
280
     0
  0
ATTDEF
  5
FA
330
EF
100
AcDbEntity
  8
AM_6
100
AcDbText
 10
22.64400000000008
 20
32.89400000000003
 30
0.0
 40
0.5
  1
35.000
100
AcDbAttributeDefinition
  3

  2
DD
 70
     8
280
     0
  0
ATTDEF
  5
FB
330
EF
100
AcDbEntity
  8
AM_6
100
AcDbText
 10
22.64400000000008
 20
32.39400000000003
 30
0.0
 40
0.5
  1
80.000
100
AcDbAttributeDefinition
  3

  2
D
 70
     8
280
     0
  0
ATTDEF
  5
FC
330
EF
100
AcDbEntity
  8
AM_6
100
AcDbText
 10
22.64400000000008
 20
31.89400000000003
 30
0.0
 40
0.5
  1
21.0000
100
AcDbAttributeDefinition
  3

  2
B
 70
     8
280
     0
  0
ATTDEF
  5
FD
330
EF
100
AcDbEntity
  8
AM_6
100
AcDbText
 10
22.64400000000008
 20
31.39400000000003
 30
0.0
 40
0.5
  1
43.620
100
AcDbAttributeDefinition
  3

  2
DD2A
 70
     8
280
     0
  0
ATTDEF
  5
FE
330
EF
100
AcDbEntity
  8
AM_6
100
AcDbText
 10
22.64400000000008
 20
30.89400000000003
 30
0.0
 40
0.5
  1
71.540
100
AcDbAttributeDefinition
  3

  2
D2A
 70
     8
280
     0
  0
ATTDEF
  5
FF
330
EF
100
AcDbEntity
  8
AM_6
100
AcDbText
 10
22.64400000000008
 20
30.39400000000003
 30
0.0
 40
0.5
  1
39.000
100
AcDbAttributeDefinition
  3

  2
LOAD1
 70
     8
280
     0
  0
ATTDEF
  5
100
330
EF
100
AcDbEntity
  8
AM_6
100
AcDbText
 10
22.64400000000008
 20
29.89400000000003
 30
0.0
 40
0.5
  1
24.500
100
AcDbAttributeDefinition
  3

  2
LOAD2
 70
     8
280
     0
  0
ATTDEF
  5
101
330
EF
100
AcDbEntity
  8
AM_6
100
AcDbText
 10
22.64400000000008
 20
29.39400000000003
 30
0.0
 40
0.5
  1
1.040
100
AcDbAttributeDefinition
  3

  2
LOAD3
 70
     8
280
     0
  0
ATTDEF
  5
102
330
EF
100
AcDbEntity
  8
AM_6
100
AcDbText
 10
22.64400000000008
 20
28.89400000000003
 30
0.0
 40
0.5
  1
10000
100
AcDbAttributeDefinition
  3

  2
SPEED1
 70
     8
280
     0
  0
ATTDEF
  5
103
330
EF
100
AcDbEntity
  8
AM_6
100
AcDbText
 10
22.64400000000008
 20
28.39400000000003
 30
0.0
 40
0.5
  1
10000
100
AcDbAttributeDefinition
  3

  2
SPEED2
 70
     8
280
     0
  0
ATTDEF
  5
104
330
EF
100
AcDbEntity
  8
AM_6
100
AcDbText
 10
22.64400000000008
 20
27.89400000000003
 30
0.0
 40
0.5
  1
SKF
100
AcDbAttributeDefinition
  3

  2
COMPANY
 70
     8
280
     0
  0
ENDBLK
  5
F2
330
EF
100
AcDbEntity
  8
0
100
AcDbBlockEnd
  0
BLOCK
  5
107
330
105
100
AcDbEntity
  8
0
100
AcDbBlockBegin
  2
7_PART_7307_BEP_PART3_in_ASM_7307_BEP
 70
     2
 10
0.0
 20
0.0
 30
0.0
  3
7_PART_7307_BEP_PART3_in_ASM_7307_BEP
  1

  0
3DSOLID
  5
109
330
105
100
AcDbEntity
  8
AM_0
100
AcDbModelerGeometry
290
     0
  2
{00000000-0000-0000-0000-000000000000}
100
AcDb3dSolid
350
0
  0
ATTDEF
  5
10A
330
105
100
AcDbEntity
  8
AM_6
100
AcDbText
 10
22.64400000000008
 20
35.89400000000003
 30
0.0
 40
0.5
  1

100
AcDbAttributeDefinition
  3

  2
NN
 70
     8
280
     0
  0
ATTDEF
  5
10B
330
105
100
AcDbEntity
  8
AM_6
100
AcDbText
 10
22.64400000000008
 20
35.39400000000003
 30
0.0
 40
0.5
  1
Angular contact ball bearings, single row
100
AcDbAttributeDefinition
  3

  2
NT
 70
     8
280
     0
  0
ATTDEF
  5
10C
330
105
100
AcDbEntity
  8
AM_6
100
AcDbText
 10
22.64400000000008
 20
34.89400000000003
 30
0.0
 40
0.5
  1
7307 BEP_PART3
100
AcDbAttributeDefinition
  3

  2
NB
 70
     8
280
     0
  0
ATTDEF
  5
10D
330
105
100
AcDbEntity
  8
AM_6
100
AcDbText
 10
22.64400000000008
 20
34.39400000000003
 30
0.0
 40
0.5
  1
$DESIGNATION._PART3
100
AcDbAttributeDefinition
  3

  2
NBSYN
 70
     8
280
     0
  0
ATTDEF
  5
10E
330
105
100
AcDbEntity
  8
AM_6
100
AcDbText
 10
22.64400000000008
 20
33.89400000000003
 30
0.0
 40
0.5
  1
7307 BEP_PART3
100
AcDbAttributeDefinition
  3

  2
LINA
 70
     8
280
     0
  0
ATTDEF
  5
10F
330
105
100
AcDbEntity
  8
AM_6
100
AcDbText
 10
22.64400000000008
 20
33.39400000000003
 30
0.0
 40
0.5
  1
7307 BEP
100
AcDbAttributeDefinition
  3

  2
DESIGNATION
 70
     8
280
     0
  0
ATTDEF
  5
110
330
105
100
AcDbEntity
  8
AM_6
100
AcDbText
 10
22.64400000000008
 20
32.89400000000003
 30
0.0
 40
0.5
  1
35.000
100
AcDbAttributeDefinition
  3

  2
DD
 70
     8
280
     0
  0
ATTDEF
  5
111
330
105
100
AcDbEntity
  8
AM_6
100
AcDbText
 10
22.64400000000008
 20
32.39400000000003
 30
0.0
 40
0.5
  1
80.000
100
AcDbAttributeDefinition
  3

  2
D
 70
     8
280
     0
  0
ATTDEF
  5
112
330
105
100
AcDbEntity
  8
AM_6
100
AcDbText
 10
22.64400000000008
 20
31.89400000000003
 30
0.0
 40
0.5
  1
21.0000
100
AcDbAttributeDefinition
  3

  2
B
 70
     8
280
     0
  0
ATTDEF
  5
113
330
105
100
AcDbEntity
  8
AM_6
100
AcDbText
 10
22.64400000000008
 20
31.39400000000003
 30
0.0
 40
0.5
  1
43.620
100
AcDbAttributeDefinition
  3

  2
DD2A
 70
     8
280
     0
  0
ATTDEF
  5
114
330
105
100
AcDbEntity
  8
AM_6
100
AcDbText
 10
22.64400000000008
 20
30.89400000000003
 30
0.0
 40
0.5
  1
71.540
100
AcDbAttributeDefinition
  3

  2
D2A
 70
     8
280
     0
  0
ATTDEF
  5
115
330
105
100
AcDbEntity
  8
AM_6
100
AcDbText
 10
22.64400000000008
 20
30.39400000000003
 30
0.0
 40
0.5
  1
39.000
100
AcDbAttributeDefinition
  3

  2
LOAD1
 70
     8
280
     0
  0
ATTDEF
  5
116
330
105
100
AcDbEntity
  8
AM_6
100
AcDbText
 10
22.64400000000008
 20
29.89400000000003
 30
0.0
 40
0.5
  1
24.500
100
AcDbAttributeDefinition
  3

  2
LOAD2
 70
     8
280
     0
  0
ATTDEF
  5
117
330
105
100
AcDbEntity
  8
AM_6
100
AcDbText
 10
22.64400000000008
 20
29.39400000000003
 30
0.0
 40
0.5
  1
1.040
100
AcDbAttributeDefinition
  3

  2
LOAD3
 70
     8
280
     0
  0
ATTDEF
  5
118
330
105
100
AcDbEntity
  8
AM_6
100
AcDbText
 10
22.64400000000008
 20
28.89400000000003
 30
0.0
 40
0.5
  1
10000
100
AcDbAttributeDefinition
  3

  2
SPEED1
 70
     8
280
     0
  0
ATTDEF
  5
119
330
105
100
AcDbEntity
  8
AM_6
100
AcDbText
 10
22.64400000000008
 20
28.39400000000003
 30
0.0
 40
0.5
  1
10000
100
AcDbAttributeDefinition
  3

  2
SPEED2
 70
     8
280
     0
  0
ATTDEF
  5
11A
330
105
100
AcDbEntity
  8
AM_6
100
AcDbText
 10
22.64400000000008
 20
27.89400000000003
 30
0.0
 40
0.5
  1
SKF
100
AcDbAttributeDefinition
  3

  2
COMPANY
 70
     8
280
     0
  0
ENDBLK
  5
108
330
105
100
AcDbEntity
  8
0
100
AcDbBlockEnd
  0
BLOCK
  5
11D
330
11B
100
AcDbEntity
  8
0
100
AcDbBlockBegin
  2
8_PART_7307_BEP_PART3_in_ASM_7307_BEP
 70
     2
 10
0.0
 20
0.0
 30
0.0
  3
8_PART_7307_BEP_PART3_in_ASM_7307_BEP
  1

  0
3DSOLID
  5
11F
330
11B
100
AcDbEntity
  8
AM_0
100
AcDbModelerGeometry
290
     0
  2
{00000000-0000-0000-0000-000000000000}
100
AcDb3dSolid
350
0
  0
ATTDEF
  5
120
330
11B
100
AcDbEntity
  8
AM_6
100
AcDbText
 10
22.64400000000008
 20
35.89400000000003
 30
0.0
 40
0.5
  1

100
AcDbAttributeDefinition
  3

  2
NN
 70
     8
280
     0
  0
ATTDEF
  5
121
330
11B
100
AcDbEntity
  8
AM_6
100
AcDbText
 10
22.64400000000008
 20
35.39400000000003
 30
0.0
 40
0.5
  1
Angular contact ball bearings, single row
100
AcDbAttributeDefinition
  3

  2
NT
 70
     8
280
     0
  0
ATTDEF
  5
122
330
11B
100
AcDbEntity
  8
AM_6
100
AcDbText
 10
22.64400000000008
 20
34.89400000000003
 30
0.0
 40
0.5
  1
7307 BEP_PART3
100
AcDbAttributeDefinition
  3

  2
NB
 70
     8
280
     0
  0
ATTDEF
  5
123
330
11B
100
AcDbEntity
  8
AM_6
100
AcDbText
 10
22.64400000000008
 20
34.39400000000003
 30
0.0
 40
0.5
  1
$DESIGNATION._PART3
100
AcDbAttributeDefinition
  3

  2
NBSYN
 70
     8
280
     0
  0
ATTDEF
  5
124
330
11B
100
AcDbEntity
  8
AM_6
100
AcDbText
 10
22.64400000000008
 20
33.89400000000003
 30
0.0
 40
0.5
  1
7307 BEP_PART3
100
AcDbAttributeDefinition
  3

  2
LINA
 70
     8
280
     0
  0
ATTDEF
  5
125
330
11B
100
AcDbEntity
  8
AM_6
100
AcDbText
 10
22.64400000000008
 20
33.39400000000003
 30
0.0
 40
0.5
  1
7307 BEP
100
AcDbAttributeDefinition
  3

  2
DESIGNATION
 70
     8
280
     0
  0
ATTDEF
  5
126
330
11B
100
AcDbEntity
  8
AM_6
100
AcDbText
 10
22.64400000000008
 20
32.89400000000003
 30
0.0
 40
0.5
  1
35.000
100
AcDbAttributeDefinition
  3

  2
DD
 70
     8
280
     0
  0
ATTDEF
  5
127
330
11B
100
AcDbEntity
  8
AM_6
100
AcDbText
 10
22.64400000000008
 20
32.39400000000003
 30
0.0
 40
0.5
  1
80.000
100
AcDbAttributeDefinition
  3

  2
D
 70
     8
280
     0
  0
ATTDEF
  5
128
330
11B
100
AcDbEntity
  8
AM_6
100
AcDbText
 10
22.64400000000008
 20
31.89400000000003
 30
0.0
 40
0.5
  1
21.0000
100
AcDbAttributeDefinition
  3

  2
B
 70
     8
280
     0
  0
ATTDEF
  5
129
330
11B
100
AcDbEntity
  8
AM_6
100
AcDbText
 10
22.64400000000008
 20
31.39400000000003
 30
0.0
 40
0.5
  1
43.620
100
AcDbAttributeDefinition
  3

  2
DD2A
 70
     8
280
     0
  0
ATTDEF
  5
12A
330
11B
100
AcDbEntity
  8
AM_6
100
AcDbText
 10
22.64400000000008
 20
30.89400000000003
 30
0.0
 40
0.5
  1
71.540
100
AcDbAttributeDefinition
  3

  2
D2A
 70
     8
280
     0
  0
ATTDEF
  5
12B
330
11B
100
AcDbEntity
  8
AM_6
100
AcDbText
 10
22.64400000000008
 20
30.39400000000003
 30
0.0
 40
0.5
  1
39.000
100
AcDbAttributeDefinition
  3

  2
LOAD1
 70
     8
280
     0
  0
ATTDEF
  5
12C
330
11B
100
AcDbEntity
  8
AM_6
100
AcDbText
 10
22.64400000000008
 20
29.89400000000003
 30
0.0
 40
0.5
  1
24.500
100
AcDbAttributeDefinition
  3

  2
LOAD2
 70
     8
280
     0
  0
ATTDEF
  5
12D
330
11B
100
AcDbEntity
  8
AM_6
100
AcDbText
 10
22.64400000000008
 20
29.39400000000003
 30
0.0
 40
0.5
  1
1.040
100
AcDbAttributeDefinition
  3

  2
LOAD3
 70
     8
280
     0
  0
ATTDEF
  5
12E
330
11B
100
AcDbEntity
  8
AM_6
100
AcDbText
 10
22.64400000000008
 20
28.89400000000003
 30
0.0
 40
0.5
  1
10000
100
AcDbAttributeDefinition
  3

  2
SPEED1
 70
     8
280
     0
  0
ATTDEF
  5
12F
330
11B
100
AcDbEntity
  8
AM_6
100
AcDbText
 10
22.64400000000008
 20
28.39400000000003
 30
0.0
 40
0.5
  1
10000
100
AcDbAttributeDefinition
  3

  2
SPEED2
 70
     8
280
     0
  0
ATTDEF
  5
130
330
11B
100
AcDbEntity
  8
AM_6
100
AcDbText
 10
22.64400000000008
 20
27.89400000000003
 30
0.0
 40
0.5
  1
SKF
100
AcDbAttributeDefinition
  3

  2
COMPANY
 70
     8
280
     0
  0
ENDBLK
  5
11E
330
11B
100
AcDbEntity
  8
0
100
AcDbBlockEnd
  0
BLOCK
  5
133
330
131
100
AcDbEntity
  8
0
100
AcDbBlockBegin
  2
9_PART_7307_BEP_PART3_in_ASM_7307_BEP
 70
     2
 10
0.0
 20
0.0
 30
0.0
  3
9_PART_7307_BEP_PART3_in_ASM_7307_BEP
  1

  0
3DSOLID
  5
135
330
131
100
AcDbEntity
  8
AM_0
100
AcDbModelerGeometry
290
     0
  2
{00000000-0000-0000-0000-000000000000}
100
AcDb3dSolid
350
0
  0
ATTDEF
  5
136
330
131
100
AcDbEntity
  8
AM_6
100
AcDbText
 10
22.64400000000008
 20
35.89400000000003
 30
0.0
 40
0.5
  1

100
AcDbAttributeDefinition
  3

  2
NN
 70
     8
280
     0
  0
ATTDEF
  5
137
330
131
100
AcDbEntity
  8
AM_6
100
AcDbText
 10
22.64400000000008
 20
35.39400000000003
 30
0.0
 40
0.5
  1
Angular contact ball bearings, single row
100
AcDbAttributeDefinition
  3

  2
NT
 70
     8
280
     0
  0
ATTDEF
  5
138
330
131
100
AcDbEntity
  8
AM_6
100
AcDbText
 10
22.64400000000008
 20
34.89400000000003
 30
0.0
 40
0.5
  1
7307 BEP_PART3
100
AcDbAttributeDefinition
  3

  2
NB
 70
     8
280
     0
  0
ATTDEF
  5
139
330
131
100
AcDbEntity
  8
AM_6
100
AcDbText
 10
22.64400000000008
 20
34.39400000000003
 30
0.0
 40
0.5
  1
$DESIGNATION._PART3
100
AcDbAttributeDefinition
  3

  2
NBSYN
 70
     8
280
     0
  0
ATTDEF
  5
13A
330
131
100
AcDbEntity
  8
AM_6
100
AcDbText
 10
22.64400000000008
 20
33.89400000000003
 30
0.0
 40
0.5
  1
7307 BEP_PART3
100
AcDbAttributeDefinition
  3

  2
LINA
 70
     8
280
     0
  0
ATTDEF
  5
13B
330
131
100
AcDbEntity
  8
AM_6
100
AcDbText
 10
22.64400000000008
 20
33.39400000000003
 30
0.0
 40
0.5
  1
7307 BEP
100
AcDbAttributeDefinition
  3

  2
DESIGNATION
 70
     8
280
     0
  0
ATTDEF
  5
13C
330
131
100
AcDbEntity
  8
AM_6
100
AcDbText
 10
22.64400000000008
 20
32.89400000000003
 30
0.0
 40
0.5
  1
35.000
100
AcDbAttributeDefinition
  3

  2
DD
 70
     8
280
     0
  0
ATTDEF
  5
13D
330
131
100
AcDbEntity
  8
AM_6
100
AcDbText
 10
22.64400000000008
 20
32.39400000000003
 30
0.0
 40
0.5
  1
80.000
100
AcDbAttributeDefinition
  3

  2
D
 70
     8
280
     0
  0
ATTDEF
  5
13E
330
131
100
AcDbEntity
  8
AM_6
100
AcDbText
 10
22.64400000000008
 20
31.89400000000003
 30
0.0
 40
0.5
  1
21.0000
100
AcDbAttributeDefinition
  3

  2
B
 70
     8
280
     0
  0
ATTDEF
  5
13F
330
131
100
AcDbEntity
  8
AM_6
100
AcDbText
 10
22.64400000000008
 20
31.39400000000003
 30
0.0
 40
0.5
  1
43.620
100
AcDbAttributeDefinition
  3

  2
DD2A
 70
     8
280
     0
  0
ATTDEF
  5
140
330
131
100
AcDbEntity
  8
AM_6
100
AcDbText
 10
22.64400000000008
 20
30.89400000000003
 30
0.0
 40
0.5
  1
71.540
100
AcDbAttributeDefinition
  3

  2
D2A
 70
     8
280
     0
  0
ATTDEF
  5
141
330
131
100
AcDbEntity
  8
AM_6
100
AcDbText
 10
22.64400000000008
 20
30.39400000000003
 30
0.0
 40
0.5
  1
39.000
100
AcDbAttributeDefinition
  3

  2
LOAD1
 70
     8
280
     0
  0
ATTDEF
  5
142
330
131
100
AcDbEntity
  8
AM_6
100
AcDbText
 10
22.64400000000008
 20
29.89400000000003
 30
0.0
 40
0.5
  1
24.500
100
AcDbAttributeDefinition
  3

  2
LOAD2
 70
     8
280
     0
  0
ATTDEF
  5
143
330
131
100
AcDbEntity
  8
AM_6
100
AcDbText
 10
22.64400000000008
 20
29.39400000000003
 30
0.0
 40
0.5
  1
1.040
100
AcDbAttributeDefinition
  3

  2
LOAD3
 70
     8
280
     0
  0
ATTDEF
  5
144
330
131
100
AcDbEntity
  8
AM_6
100
AcDbText
 10
22.64400000000008
 20
28.89400000000003
 30
0.0
 40
0.5
  1
10000
100
AcDbAttributeDefinition
  3

  2
SPEED1
 70
     8
280
     0
  0
ATTDEF
  5
145
330
131
100
AcDbEntity
  8
AM_6
100
AcDbText
 10
22.64400000000008
 20
28.39400000000003
 30
0.0
 40
0.5
  1
10000
100
AcDbAttributeDefinition
  3

  2
SPEED2
 70
     8
280
     0
  0
ATTDEF
  5
146
330
131
100
AcDbEntity
  8
AM_6
100
AcDbText
 10
22.64400000000008
 20
27.89400000000003
 30
0.0
 40
0.5
  1
SKF
100
AcDbAttributeDefinition
  3

  2
COMPANY
 70
     8
280
     0
  0
ENDBLK
  5
134
330
131
100
AcDbEntity
  8
0
100
AcDbBlockEnd
  0
BLOCK
  5
149
330
147
100
AcDbEntity
  8
0
100
AcDbBlockBegin
  2
10_PART_7307_BEP_PART3_in_ASM_7307_BEP
 70
     2
 10
0.0
 20
0.0
 30
0.0
  3
10_PART_7307_BEP_PART3_in_ASM_7307_BEP
  1

  0
3DSOLID
  5
14B
330
147
100
AcDbEntity
  8
AM_0
100
AcDbModelerGeometry
290
     0
  2
{00000000-0000-0000-0000-000000000000}
100
AcDb3dSolid
350
0
  0
ATTDEF
  5
14C
330
147
100
AcDbEntity
  8
AM_6
100
AcDbText
 10
22.64400000000008
 20
35.89400000000003
 30
0.0
 40
0.5
  1

100
AcDbAttributeDefinition
  3

  2
NN
 70
     8
280
     0
  0
ATTDEF
  5
14D
330
147
100
AcDbEntity
  8
AM_6
100
AcDbText
 10
22.64400000000008
 20
35.39400000000003
 30
0.0
 40
0.5
  1
Angular contact ball bearings, single row
100
AcDbAttributeDefinition
  3

  2
NT
 70
     8
280
     0
  0
ATTDEF
  5
14E
330
147
100
AcDbEntity
  8
AM_6
100
AcDbText
 10
22.64400000000008
 20
34.89400000000003
 30
0.0
 40
0.5
  1
7307 BEP_PART3
100
AcDbAttributeDefinition
  3

  2
NB
 70
     8
280
     0
  0
ATTDEF
  5
14F
330
147
100
AcDbEntity
  8
AM_6
100
AcDbText
 10
22.64400000000008
 20
34.39400000000003
 30
0.0
 40
0.5
  1
$DESIGNATION._PART3
100
AcDbAttributeDefinition
  3

  2
NBSYN
 70
     8
280
     0
  0
ATTDEF
  5
150
330
147
100
AcDbEntity
  8
AM_6
100
AcDbText
 10
22.64400000000008
 20
33.89400000000003
 30
0.0
 40
0.5
  1
7307 BEP_PART3
100
AcDbAttributeDefinition
  3

  2
LINA
 70
     8
280
     0
  0
ATTDEF
  5
151
330
147
100
AcDbEntity
  8
AM_6
100
AcDbText
 10
22.64400000000008
 20
33.39400000000003
 30
0.0
 40
0.5
  1
7307 BEP
100
AcDbAttributeDefinition
  3

  2
DESIGNATION
 70
     8
280
     0
  0
ATTDEF
  5
152
330
147
100
AcDbEntity
  8
AM_6
100
AcDbText
 10
22.64400000000008
 20
32.89400000000003
 30
0.0
 40
0.5
  1
35.000
100
AcDbAttributeDefinition
  3

  2
DD
 70
     8
280
     0
  0
ATTDEF
  5
153
330
147
100
AcDbEntity
  8
AM_6
100
AcDbText
 10
22.64400000000008
 20
32.39400000000003
 30
0.0
 40
0.5
  1
80.000
100
AcDbAttributeDefinition
  3

  2
D
 70
     8
280
     0
  0
ATTDEF
  5
154
330
147
100
AcDbEntity
  8
AM_6
100
AcDbText
 10
22.64400000000008
 20
31.89400000000003
 30
0.0
 40
0.5
  1
21.0000
100
AcDbAttributeDefinition
  3

  2
B
 70
     8
280
     0
  0
ATTDEF
  5
155
330
147
100
AcDbEntity
  8
AM_6
100
AcDbText
 10
22.64400000000008
 20
31.39400000000003
 30
0.0
 40
0.5
  1
43.620
100
AcDbAttributeDefinition
  3

  2
DD2A
 70
     8
280
     0
  0
ATTDEF
  5
156
330
147
100
AcDbEntity
  8
AM_6
100
AcDbText
 10
22.64400000000008
 20
30.89400000000003
 30
0.0
 40
0.5
  1
71.540
100
AcDbAttributeDefinition
  3

  2
D2A
 70
     8
280
     0
  0
ATTDEF
  5
157
330
147
100
AcDbEntity
  8
AM_6
100
AcDbText
 10
22.64400000000008
 20
30.39400000000003
 30
0.0
 40
0.5
  1
39.000
100
AcDbAttributeDefinition
  3

  2
LOAD1
 70
     8
280
     0
  0
ATTDEF
  5
158
330
147
100
AcDbEntity
  8
AM_6
100
AcDbText
 10
22.64400000000008
 20
29.89400000000003
 30
0.0
 40
0.5
  1
24.500
100
AcDbAttributeDefinition
  3

  2
LOAD2
 70
     8
280
     0
  0
ATTDEF
  5
159
330
147
100
AcDbEntity
  8
AM_6
100
AcDbText
 10
22.64400000000008
 20
29.39400000000003
 30
0.0
 40
0.5
  1
1.040
100
AcDbAttributeDefinition
  3

  2
LOAD3
 70
     8
280
     0
  0
ATTDEF
  5
15A
330
147
100
AcDbEntity
  8
AM_6
100
AcDbText
 10
22.64400000000008
 20
28.89400000000003
 30
0.0
 40
0.5
  1
10000
100
AcDbAttributeDefinition
  3

  2
SPEED1
 70
     8
280
     0
  0
ATTDEF
  5
15B
330
147
100
AcDbEntity
  8
AM_6
100
AcDbText
 10
22.64400000000008
 20
28.39400000000003
 30
0.0
 40
0.5
  1
10000
100
AcDbAttributeDefinition
  3

  2
SPEED2
 70
     8
280
     0
  0
ATTDEF
  5
15C
330
147
100
AcDbEntity
  8
AM_6
100
AcDbText
 10
22.64400000000008
 20
27.89400000000003
 30
0.0
 40
0.5
  1
SKF
100
AcDbAttributeDefinition
  3

  2
COMPANY
 70
     8
280
     0
  0
ENDBLK
  5
14A
330
147
100
AcDbEntity
  8
0
100
AcDbBlockEnd
  0
BLOCK
  5
15F
330
15D
100
AcDbEntity
  8
0
100
AcDbBlockBegin
  2
11_PART_7307_BEP_PART3_in_ASM_7307_BEP
 70
     2
 10
0.0
 20
0.0
 30
0.0
  3
11_PART_7307_BEP_PART3_in_ASM_7307_BEP
  1

  0
3DSOLID
  5
161
330
15D
100
AcDbEntity
  8
AM_0
100
AcDbModelerGeometry
290
     0
  2
{00000000-0000-0000-0000-000000000000}
100
AcDb3dSolid
350
0
  0
ATTDEF
  5
162
330
15D
100
AcDbEntity
  8
AM_6
100
AcDbText
 10
22.64400000000008
 20
35.89400000000003
 30
0.0
 40
0.5
  1

100
AcDbAttributeDefinition
  3

  2
NN
 70
     8
280
     0
  0
ATTDEF
  5
163
330
15D
100
AcDbEntity
  8
AM_6
100
AcDbText
 10
22.64400000000008
 20
35.39400000000003
 30
0.0
 40
0.5
  1
Angular contact ball bearings, single row
100
AcDbAttributeDefinition
  3

  2
NT
 70
     8
280
     0
  0
ATTDEF
  5
164
330
15D
100
AcDbEntity
  8
AM_6
100
AcDbText
 10
22.64400000000008
 20
34.89400000000003
 30
0.0
 40
0.5
  1
7307 BEP_PART3
100
AcDbAttributeDefinition
  3

  2
NB
 70
     8
280
     0
  0
ATTDEF
  5
165
330
15D
100
AcDbEntity
  8
AM_6
100
AcDbText
 10
22.64400000000008
 20
34.39400000000003
 30
0.0
 40
0.5
  1
$DESIGNATION._PART3
100
AcDbAttributeDefinition
  3

  2
NBSYN
 70
     8
280
     0
  0
ATTDEF
  5
166
330
15D
100
AcDbEntity
  8
AM_6
100
AcDbText
 10
22.64400000000008
 20
33.89400000000003
 30
0.0
 40
0.5
  1
7307 BEP_PART3
100
AcDbAttributeDefinition
  3

  2
LINA
 70
     8
280
     0
  0
ATTDEF
  5
167
330
15D
100
AcDbEntity
  8
AM_6
100
AcDbText
 10
22.64400000000008
 20
33.39400000000003
 30
0.0
 40
0.5
  1
7307 BEP
100
AcDbAttributeDefinition
  3

  2
DESIGNATION
 70
     8
280
     0
  0
ATTDEF
  5
168
330
15D
100
AcDbEntity
  8
AM_6
100
AcDbText
 10
22.64400000000008
 20
32.89400000000003
 30
0.0
 40
0.5
  1
35.000
100
AcDbAttributeDefinition
  3

  2
DD
 70
     8
280
     0
  0
ATTDEF
  5
169
330
15D
100
AcDbEntity
  8
AM_6
100
AcDbText
 10
22.64400000000008
 20
32.39400000000003
 30
0.0
 40
0.5
  1
80.000
100
AcDbAttributeDefinition
  3

  2
D
 70
     8
280
     0
  0
ATTDEF
  5
16A
330
15D
100
AcDbEntity
  8
AM_6
100
AcDbText
 10
22.64400000000008
 20
31.89400000000003
 30
0.0
 40
0.5
  1
21.0000
100
AcDbAttributeDefinition
  3

  2
B
 70
     8
280
     0
  0
ATTDEF
  5
16B
330
15D
100
AcDbEntity
  8
AM_6
100
AcDbText
 10
22.64400000000008
 20
31.39400000000003
 30
0.0
 40
0.5
  1
43.620
100
AcDbAttributeDefinition
  3

  2
DD2A
 70
     8
280
     0
  0
ATTDEF
  5
16C
330
15D
100
AcDbEntity
  8
AM_6
100
AcDbText
 10
22.64400000000008
 20
30.89400000000003
 30
0.0
 40
0.5
  1
71.540
100
AcDbAttributeDefinition
  3

  2
D2A
 70
     8
280
     0
  0
ATTDEF
  5
16D
330
15D
100
AcDbEntity
  8
AM_6
100
AcDbText
 10
22.64400000000008
 20
30.39400000000003
 30
0.0
 40
0.5
  1
39.000
100
AcDbAttributeDefinition
  3

  2
LOAD1
 70
     8
280
     0
  0
ATTDEF
  5
16E
330
15D
100
AcDbEntity
  8
AM_6
100
AcDbText
 10
22.64400000000008
 20
29.89400000000003
 30
0.0
 40
0.5
  1
24.500
100
AcDbAttributeDefinition
  3

  2
LOAD2
 70
     8
280
     0
  0
ATTDEF
  5
16F
330
15D
100
AcDbEntity
  8
AM_6
100
AcDbText
 10
22.64400000000008
 20
29.39400000000003
 30
0.0
 40
0.5
  1
1.040
100
AcDbAttributeDefinition
  3

  2
LOAD3
 70
     8
280
     0
  0
ATTDEF
  5
170
330
15D
100
AcDbEntity
  8
AM_6
100
AcDbText
 10
22.64400000000008
 20
28.89400000000003
 30
0.0
 40
0.5
  1
10000
100
AcDbAttributeDefinition
  3

  2
SPEED1
 70
     8
280
     0
  0
ATTDEF
  5
171
330
15D
100
AcDbEntity
  8
AM_6
100
AcDbText
 10
22.64400000000008
 20
28.39400000000003
 30
0.0
 40
0.5
  1
10000
100
AcDbAttributeDefinition
  3

  2
SPEED2
 70
     8
280
     0
  0
ATTDEF
  5
172
330
15D
100
AcDbEntity
  8
AM_6
100
AcDbText
 10
22.64400000000008
 20
27.89400000000003
 30
0.0
 40
0.5
  1
SKF
100
AcDbAttributeDefinition
  3

  2
COMPANY
 70
     8
280
     0
  0
ENDBLK
  5
160
330
15D
100
AcDbEntity
  8
0
100
AcDbBlockEnd
  0
BLOCK
  5
175
330
173
100
AcDbEntity
  8
0
100
AcDbBlockBegin
  2
12_PART_7307_BEP_PART3_in_ASM_7307_BEP
 70
     2
 10
0.0
 20
0.0
 30
0.0
  3
12_PART_7307_BEP_PART3_in_ASM_7307_BEP
  1

  0
3DSOLID
  5
177
330
173
100
AcDbEntity
  8
AM_0
100
AcDbModelerGeometry
290
     0
  2
{00000000-0000-0000-0000-000000000000}
100
AcDb3dSolid
350
0
  0
ATTDEF
  5
178
330
173
100
AcDbEntity
  8
AM_6
100
AcDbText
 10
22.64400000000008
 20
35.89400000000003
 30
0.0
 40
0.5
  1

100
AcDbAttributeDefinition
  3

  2
NN
 70
     8
280
     0
  0
ATTDEF
  5
179
330
173
100
AcDbEntity
  8
AM_6
100
AcDbText
 10
22.64400000000008
 20
35.39400000000003
 30
0.0
 40
0.5
  1
Angular contact ball bearings, single row
100
AcDbAttributeDefinition
  3

  2
NT
 70
     8
280
     0
  0
ATTDEF
  5
17A
330
173
100
AcDbEntity
  8
AM_6
100
AcDbText
 10
22.64400000000008
 20
34.89400000000003
 30
0.0
 40
0.5
  1
7307 BEP_PART3
100
AcDbAttributeDefinition
  3

  2
NB
 70
     8
280
     0
  0
ATTDEF
  5
17B
330
173
100
AcDbEntity
  8
AM_6
100
AcDbText
 10
22.64400000000008
 20
34.39400000000003
 30
0.0
 40
0.5
  1
$DESIGNATION._PART3
100
AcDbAttributeDefinition
  3

  2
NBSYN
 70
     8
280
     0
  0
ATTDEF
  5
17C
330
173
100
AcDbEntity
  8
AM_6
100
AcDbText
 10
22.64400000000008
 20
33.89400000000003
 30
0.0
 40
0.5
  1
7307 BEP_PART3
100
AcDbAttributeDefinition
  3

  2
LINA
 70
     8
280
     0
  0
ATTDEF
  5
17D
330
173
100
AcDbEntity
  8
AM_6
100
AcDbText
 10
22.64400000000008
 20
33.39400000000003
 30
0.0
 40
0.5
  1
7307 BEP
100
AcDbAttributeDefinition
  3

  2
DESIGNATION
 70
     8
280
     0
  0
ATTDEF
  5
17E
330
173
100
AcDbEntity
  8
AM_6
100
AcDbText
 10
22.64400000000008
 20
32.89400000000003
 30
0.0
 40
0.5
  1
35.000
100
AcDbAttributeDefinition
  3

  2
DD
 70
     8
280
     0
  0
ATTDEF
  5
17F
330
173
100
AcDbEntity
  8
AM_6
100
AcDbText
 10
22.64400000000008
 20
32.39400000000003
 30
0.0
 40
0.5
  1
80.000
100
AcDbAttributeDefinition
  3

  2
D
 70
     8
280
     0
  0
ATTDEF
  5
180
330
173
100
AcDbEntity
  8
AM_6
100
AcDbText
 10
22.64400000000008
 20
31.89400000000003
 30
0.0
 40
0.5
  1
21.0000
100
AcDbAttributeDefinition
  3

  2
B
 70
     8
280
     0
  0
ATTDEF
  5
181
330
173
100
AcDbEntity
  8
AM_6
100
AcDbText
 10
22.64400000000008
 20
31.39400000000003
 30
0.0
 40
0.5
  1
43.620
100
AcDbAttributeDefinition
  3

  2
DD2A
 70
     8
280
     0
  0
ATTDEF
  5
182
330
173
100
AcDbEntity
  8
AM_6
100
AcDbText
 10
22.64400000000008
 20
30.89400000000003
 30
0.0
 40
0.5
  1
71.540
100
AcDbAttributeDefinition
  3

  2
D2A
 70
     8
280
     0
  0
ATTDEF
  5
183
330
173
100
AcDbEntity
  8
AM_6
100
AcDbText
 10
22.64400000000008
 20
30.39400000000003
 30
0.0
 40
0.5
  1
39.000
100
AcDbAttributeDefinition
  3

  2
LOAD1
 70
     8
280
     0
  0
ATTDEF
  5
184
330
173
100
AcDbEntity
  8
AM_6
100
AcDbText
 10
22.64400000000008
 20
29.89400000000003
 30
0.0
 40
0.5
  1
24.500
100
AcDbAttributeDefinition
  3

  2
LOAD2
 70
     8
280
     0
  0
ATTDEF
  5
185
330
173
100
AcDbEntity
  8
AM_6
100
AcDbText
 10
22.64400000000008
 20
29.39400000000003
 30
0.0
 40
0.5
  1
1.040
100
AcDbAttributeDefinition
  3

  2
LOAD3
 70
     8
280
     0
  0
ATTDEF
  5
186
330
173
100
AcDbEntity
  8
AM_6
100
AcDbText
 10
22.64400000000008
 20
28.89400000000003
 30
0.0
 40
0.5
  1
10000
100
AcDbAttributeDefinition
  3

  2
SPEED1
 70
     8
280
     0
  0
ATTDEF
  5
187
330
173
100
AcDbEntity
  8
AM_6
100
AcDbText
 10
22.64400000000008
 20
28.39400000000003
 30
0.0
 40
0.5
  1
10000
100
AcDbAttributeDefinition
  3

  2
SPEED2
 70
     8
280
     0
  0
ATTDEF
  5
188
330
173
100
AcDbEntity
  8
AM_6
100
AcDbText
 10
22.64400000000008
 20
27.89400000000003
 30
0.0
 40
0.5
  1
SKF
100
AcDbAttributeDefinition
  3

  2
COMPANY
 70
     8
280
     0
  0
ENDBLK
  5
176
330
173
100
AcDbEntity
  8
0
100
AcDbBlockEnd
  0
BLOCK
  5
18B
330
189
100
AcDbEntity
  8
0
100
AcDbBlockBegin
  2
13_PART_7307_BEP_PART3_in_ASM_7307_BEP
 70
     2
 10
0.0
 20
0.0
 30
0.0
  3
13_PART_7307_BEP_PART3_in_ASM_7307_BEP
  1

  0
3DSOLID
  5
18D
330
189
100
AcDbEntity
  8
AM_0
100
AcDbModelerGeometry
290
     0
  2
{00000000-0000-0000-0000-000000000000}
100
AcDb3dSolid
350
0
  0
ATTDEF
  5
18E
330
189
100
AcDbEntity
  8
AM_6
100
AcDbText
 10
22.64400000000008
 20
35.89400000000003
 30
0.0
 40
0.5
  1

100
AcDbAttributeDefinition
  3

  2
NN
 70
     8
280
     0
  0
ATTDEF
  5
18F
330
189
100
AcDbEntity
  8
AM_6
100
AcDbText
 10
22.64400000000008
 20
35.39400000000003
 30
0.0
 40
0.5
  1
Angular contact ball bearings, single row
100
AcDbAttributeDefinition
  3

  2
NT
 70
     8
280
     0
  0
ATTDEF
  5
190
330
189
100
AcDbEntity
  8
AM_6
100
AcDbText
 10
22.64400000000008
 20
34.89400000000003
 30
0.0
 40
0.5
  1
7307 BEP_PART3
100
AcDbAttributeDefinition
  3

  2
NB
 70
     8
280
     0
  0
ATTDEF
  5
191
330
189
100
AcDbEntity
  8
AM_6
100
AcDbText
 10
22.64400000000008
 20
34.39400000000003
 30
0.0
 40
0.5
  1
$DESIGNATION._PART3
100
AcDbAttributeDefinition
  3

  2
NBSYN
 70
     8
280
     0
  0
ATTDEF
  5
192
330
189
100
AcDbEntity
  8
AM_6
100
AcDbText
 10
22.64400000000008
 20
33.89400000000003
 30
0.0
 40
0.5
  1
7307 BEP_PART3
100
AcDbAttributeDefinition
  3

  2
LINA
 70
     8
280
     0
  0
ATTDEF
  5
193
330
189
100
AcDbEntity
  8
AM_6
100
AcDbText
 10
22.64400000000008
 20
33.39400000000003
 30
0.0
 40
0.5
  1
7307 BEP
100
AcDbAttributeDefinition
  3

  2
DESIGNATION
 70
     8
280
     0
  0
ATTDEF
  5
194
330
189
100
AcDbEntity
  8
AM_6
100
AcDbText
 10
22.64400000000008
 20
32.89400000000003
 30
0.0
 40
0.5
  1
35.000
100
AcDbAttributeDefinition
  3

  2
DD
 70
     8
280
     0
  0
ATTDEF
  5
195
330
189
100
AcDbEntity
  8
AM_6
100
AcDbText
 10
22.64400000000008
 20
32.39400000000003
 30
0.0
 40
0.5
  1
80.000
100
AcDbAttributeDefinition
  3

  2
D
 70
     8
280
     0
  0
ATTDEF
  5
196
330
189
100
AcDbEntity
  8
AM_6
100
AcDbText
 10
22.64400000000008
 20
31.89400000000003
 30
0.0
 40
0.5
  1
21.0000
100
AcDbAttributeDefinition
  3

  2
B
 70
     8
280
     0
  0
ATTDEF
  5
197
330
189
100
AcDbEntity
  8
AM_6
100
AcDbText
 10
22.64400000000008
 20
31.39400000000003
 30
0.0
 40
0.5
  1
43.620
100
AcDbAttributeDefinition
  3

  2
DD2A
 70
     8
280
     0
  0
ATTDEF
  5
198
330
189
100
AcDbEntity
  8
AM_6
100
AcDbText
 10
22.64400000000008
 20
30.89400000000003
 30
0.0
 40
0.5
  1
71.540
100
AcDbAttributeDefinition
  3

  2
D2A
 70
     8
280
     0
  0
ATTDEF
  5
199
330
189
100
AcDbEntity
  8
AM_6
100
AcDbText
 10
22.64400000000008
 20
30.39400000000003
 30
0.0
 40
0.5
  1
39.000
100
AcDbAttributeDefinition
  3

  2
LOAD1
 70
     8
280
     0
  0
ATTDEF
  5
19A
330
189
100
AcDbEntity
  8
AM_6
100
AcDbText
 10
22.64400000000008
 20
29.89400000000003
 30
0.0
 40
0.5
  1
24.500
100
AcDbAttributeDefinition
  3

  2
LOAD2
 70
     8
280
     0
  0
ATTDEF
  5
19B
330
189
100
AcDbEntity
  8
AM_6
100
AcDbText
 10
22.64400000000008
 20
29.39400000000003
 30
0.0
 40
0.5
  1
1.040
100
AcDbAttributeDefinition
  3

  2
LOAD3
 70
     8
280
     0
  0
ATTDEF
  5
19C
330
189
100
AcDbEntity
  8
AM_6
100
AcDbText
 10
22.64400000000008
 20
28.89400000000003
 30
0.0
 40
0.5
  1
10000
100
AcDbAttributeDefinition
  3

  2
SPEED1
 70
     8
280
     0
  0
ATTDEF
  5
19D
330
189
100
AcDbEntity
  8
AM_6
100
AcDbText
 10
22.64400000000008
 20
28.39400000000003
 30
0.0
 40
0.5
  1
10000
100
AcDbAttributeDefinition
  3

  2
SPEED2
 70
     8
280
     0
  0
ATTDEF
  5
19E
330
189
100
AcDbEntity
  8
AM_6
100
AcDbText
 10
22.64400000000008
 20
27.89400000000003
 30
0.0
 40
0.5
  1
SKF
100
AcDbAttributeDefinition
  3

  2
COMPANY
 70
     8
280
     0
  0
ENDBLK
  5
18C
330
189
100
AcDbEntity
  8
0
100
AcDbBlockEnd
  0
ENDSEC
  0
SECTION
  2
ENTITIES
  0
ATTDEF
  5
6F
330
1F
100
AcDbEntity
  8
AM_6
100
AcDbText
 10
26.00000000000009
 20
40.0
 30
0.0
 40
0.5
  1
BA1_001_101
100
AcDbAttributeDefinition
  3

  2
NN
 70
     8
280
     0
  0
ATTDEF
  5
70
330
1F
100
AcDbEntity
  8
AM_6
100
AcDbText
 10
26.00000000000009
 20
39.5
 30
0.0
 40
0.5
  1
Angular contact ball bearings, single row
100
AcDbAttributeDefinition
  3

  2
NT
 70
     8
280
     0
  0
ATTDEF
  5
71
330
1F
100
AcDbEntity
  8
AM_6
100
AcDbText
 10
26.00000000000009
 20
39.0
 30
0.0
 40
0.5
  1
7307 BEP
100
AcDbAttributeDefinition
  3

  2
NB
 70
     8
280
     0
  0
ATTDEF
  5
72
330
1F
100
AcDbEntity
  8
AM_6
100
AcDbText
 10
26.00000000000009
 20
38.5
 30
0.0
 40
0.5
  1
$DESIGNATION.
100
AcDbAttributeDefinition
  3

  2
NBSYN
 70
     8
280
     0
  0
ATTDEF
  5
73
330
1F
100
AcDbEntity
  8
AM_6
100
AcDbText
 10
26.00000000000009
 20
38.0
 30
0.0
 40
0.5
  1
7307 BEP
100
AcDbAttributeDefinition
  3

  2
LINA
 70
     8
280
     0
  0
ATTDEF
  5
74
330
1F
100
AcDbEntity
  8
AM_6
100
AcDbText
 10
26.00000000000009
 20
37.5
 30
0.0
 40
0.5
  1
7307 BEP
100
AcDbAttributeDefinition
  3

  2
DESIGNATION
 70
     8
280
     0
  0
ATTDEF
  5
75
330
1F
100
AcDbEntity
  8
AM_6
100
AcDbText
 10
26.00000000000009
 20
37.0
 30
0.0
 40
0.5
  1
35.000
100
AcDbAttributeDefinition
  3

  2
DD
 70
     8
280
     0
  0
ATTDEF
  5
76
330
1F
100
AcDbEntity
  8
AM_6
100
AcDbText
 10
26.00000000000009
 20
36.5
 30
0.0
 40
0.5
  1
80.000
100
AcDbAttributeDefinition
  3

  2
D
 70
     8
280
     0
  0
ATTDEF
  5
77
330
1F
100
AcDbEntity
  8
AM_6
100
AcDbText
 10
26.00000000000009
 20
36.0
 30
0.0
 40
0.5
  1
21.0000
100
AcDbAttributeDefinition
  3

  2
B
 70
     8
280
     0
  0
ATTDEF
  5
78
330
1F
100
AcDbEntity
  8
AM_6
100
AcDbText
 10
26.00000000000009
 20
35.5
 30
0.0
 40
0.5
  1
43.620
100
AcDbAttributeDefinition
  3

  2
DD2A
 70
     8
280
     0
  0
ATTDEF
  5
79
330
1F
100
AcDbEntity
  8
AM_6
100
AcDbText
 10
26.00000000000009
 20
35.0
 30
0.0
 40
0.5
  1
71.540
100
AcDbAttributeDefinition
  3

  2
D2A
 70
     8
280
     0
  0
ATTDEF
  5
7A
330
1F
100
AcDbEntity
  8
AM_6
100
AcDbText
 10
26.00000000000009
 20
34.5
 30
0.0
 40
0.5
  1
39.000
100
AcDbAttributeDefinition
  3

  2
LOAD1
 70
     8
280
     0
  0
ATTDEF
  5
7B
330
1F
100
AcDbEntity
  8
AM_6
100
AcDbText
 10
26.00000000000009
 20
34.0
 30
0.0
 40
0.5
  1
24.500
100
AcDbAttributeDefinition
  3

  2
LOAD2
 70
     8
280
     0
  0
ATTDEF
  5
7C
330
1F
100
AcDbEntity
  8
AM_6
100
AcDbText
 10
26.00000000000009
 20
33.5
 30
0.0
 40
0.5
  1
1.040
100
AcDbAttributeDefinition
  3

  2
LOAD3
 70
     8
280
     0
  0
ATTDEF
  5
7D
330
1F
100
AcDbEntity
  8
AM_6
100
AcDbText
 10
26.00000000000009
 20
33.0
 30
0.0
 40
0.5
  1
10000
100
AcDbAttributeDefinition
  3

  2
SPEED1
 70
     8
280
     0
  0
ATTDEF
  5
7E
330
1F
100
AcDbEntity
  8
AM_6
100
AcDbText
 10
26.00000000000009
 20
32.5
 30
0.0
 40
0.5
  1
10000
100
AcDbAttributeDefinition
  3

  2
SPEED2
 70
     8
280
     0
  0
ATTDEF
  5
7F
330
1F
100
AcDbEntity
  8
AM_6
100
AcDbText
 10
26.00000000000009
 20
32.0
 30
0.0
 40
0.5
  1
SKF
100
AcDbAttributeDefinition
  3

  2
COMPANY
 70
     8
280
     0
  0
INSERT
  5
81
330
1F
100
AcDbEntity
  8
0
100
AcDbBlockReference
  2
1_PART_7307_BEP_PART1_in_ASM_7307_BEP
 10
0.0
 20
0.0
 30
0.0
  0
INSERT
  5
98
330
1F
100
AcDbEntity
  8
0
100
AcDbBlockReference
  2
2_PART_7307_BEP_PART2_in_ASM_7307_BEP
 10
0.0
 20
0.0
 30
0.0
  0
INSERT
  5
AE
330
1F
100
AcDbEntity
  8
0
100
AcDbBlockReference
  2
3_PART_7307_BEP_PART3_in_ASM_7307_BEP
 10
0.0
 20
0.0
 30
0.0
  0
INSERT
  5
C4
330
1F
100
AcDbEntity
  8
0
100
AcDbBlockReference
  2
4_PART_7307_BEP_PART3_in_ASM_7307_BEP
 10
0.0
 20
0.0
 30
0.0
  0
INSERT
  5
DA
330
1F
100
AcDbEntity
  8
0
100
AcDbBlockReference
  2
5_PART_7307_BEP_PART3_in_ASM_7307_BEP
 10
0.0
 20
0.0
 30
0.0
  0
INSERT
  5
F0
330
1F
100
AcDbEntity
  8
0
100
AcDbBlockReference
  2
6_PART_7307_BEP_PART3_in_ASM_7307_BEP
 10
0.0
 20
0.0
 30
0.0
  0
INSERT
  5
106
330
1F
100
AcDbEntity
  8
0
100
AcDbBlockReference
  2
7_PART_7307_BEP_PART3_in_ASM_7307_BEP
 10
0.0
 20
0.0
 30
0.0
  0
INSERT
  5
11C
330
1F
100
AcDbEntity
  8
0
100
AcDbBlockReference
  2
8_PART_7307_BEP_PART3_in_ASM_7307_BEP
 10
0.0
 20
0.0
 30
0.0
  0
INSERT
  5
132
330
1F
100
AcDbEntity
  8
0
100
AcDbBlockReference
  2
9_PART_7307_BEP_PART3_in_ASM_7307_BEP
 10
0.0
 20
0.0
 30
0.0
  0
INSERT
  5
148
330
1F
100
AcDbEntity
  8
0
100
AcDbBlockReference
  2
10_PART_7307_BEP_PART3_in_ASM_7307_BEP
 10
0.0
 20
0.0
 30
0.0
  0
INSERT
  5
15E
330
1F
100
AcDbEntity
  8
0
100
AcDbBlockReference
  2
11_PART_7307_BEP_PART3_in_ASM_7307_BEP
 10
0.0
 20
0.0
 30
0.0
  0
INSERT
  5
174
330
1F
100
AcDbEntity
  8
0
100
AcDbBlockReference
  2
12_PART_7307_BEP_PART3_in_ASM_7307_BEP
 10
0.0
 20
0.0
 30
0.0
  0
INSERT
  5
18A
330
1F
100
AcDbEntity
  8
0
100
AcDbBlockReference
  2
13_PART_7307_BEP_PART3_in_ASM_7307_BEP
 10
0.0
 20
0.0
 30
0.0
  0
ENDSEC
  0
SECTION
  2
OBJECTS
  0
DICTIONARY
  5
C
330
0
100
AcDbDictionary
281
     1
  3
ACAD_DETAILVIEWSTYLE
350
1A6
  3
ACAD_GROUP
350
D
  3
ACAD_LAYOUT
350
1A
  3
ACAD_MATERIAL
350
43
  3
ACAD_MLEADERSTYLE
350
6B
  3
ACAD_MLINESTYLE
350
17
  3
ACAD_PLOTSETTINGS
350
19
  3
ACAD_PLOTSTYLENAME
350
E
  3
ACAD_SCALELIST
350
47
  3
ACAD_SECTIONVIEWSTYLE
350
1A7
  3
ACAD_TABLESTYLE
350
69
  3
ACAD_VISUALSTYLE
350
2A
  3
ACDB_RECOMPOSE_DATA
350
1A3
  3
AcDbVariableDictionary
350
19F
  0
SUN
  5
6D
330
29
100
AcDbSun
 90
        1
290
     0
 63
     7
421
 16777215
 40
1.0
291
     1
 91
  2455826
 92
 54000000
292
     0
 70
     2
 71
   256
280
     1
  0
DICTIONARY
  5
1A6
102
{ACAD_REACTORS
330
C
102
}
330
C
100
AcDbDictionary
281
     1
  0
DICTIONARY
  5
D
102
{ACAD_REACTORS
330
C
102
}
330
C
100
AcDbDictionary
281
     1
  0
DICTIONARY
  5
1A
102
{ACAD_REACTORS
330
C
102
}
330
C
100
AcDbDictionary
281
     1
  3
Layout1
350
1E
  3
Layout2
350
26
  3
Model
350
22
  0
DICTIONARY
  5
43
102
{ACAD_REACTORS
330
C
102
}
330
C
100
AcDbDictionary
281
     1
  3
ByBlock
350
45
  3
ByLayer
350
44
  3
Global
350
46
  0
DICTIONARY
  5
6B
102
{ACAD_REACTORS
330
C
102
}
330
C
100
AcDbDictionary
281
     1
  3
Standard
350
6C
  0
DICTIONARY
  5
17
102
{ACAD_REACTORS
330
C
102
}
330
C
100
AcDbDictionary
281
     1
  3
Standard
350
18
  0
DICTIONARY
  5
19
102
{ACAD_REACTORS
330
C
102
}
330
C
100
AcDbDictionary
281
     1
  0
ACDBDICTIONARYWDFLT
  5
E
102
{ACAD_REACTORS
330
C
102
}
330
C
100
AcDbDictionary
281
     1
  3
Normal
350
F
100
AcDbDictionaryWithDefault
340
F
  0
DICTIONARY
  5
47
102
{ACAD_REACTORS
330
C
102
}
330
C
100
AcDbDictionary
281
     1
  3
A0
350
48
  3
A1
350
49
  3
A2
350
4A
  3
A3
350
4B
  3
A4
350
4C
  3
A5
350
4D
  3
A6
350
4E
  3
A7
350
4F
  3
A8
350
50
  3
A9
350
51
  3
B0
350
52
  3
B1
350
53
  3
B2
350
54
  3
B3
350
55
  3
B4
350
56
  3
B5
350
57
  3
B6
350
58
  3
B7
350
59
  3
B8
350
5A
  3
B9
350
5B
  3
C0
350
5C
  3
C1
350
5D
  3
C2
350
5E
  3
C3
350
5F
  3
C4
350
60
  3
C5
350
61
  3
C6
350
62
  3
C7
350
63
  3
C8
350
64
  3
C9
350
65
  3
D0
350
66
  3
D1
350
67
  3
D2
350
68
  0
DICTIONARY
  5
1A7
102
{ACAD_REACTORS
330
C
102
}
330
C
100
AcDbDictionary
281
     1
  0
DICTIONARY
  5
69
102
{ACAD_REACTORS
330
C
102
}
330
C
100
AcDbDictionary
281
     1
  3
Standard
350
6A
  0
DICTIONARY
  5
2A
102
{ACAD_REACTORS
330
C
102
}
330
C
100
AcDbDictionary
281
     1
  3
2dWireframe
350
2F
  3
Basic
350
32
  3
Brighten
350
36
  3
ColorChange
350
3A
  3
Conceptual
350
34
  3
Dim
350
35
  3
EdgeColorOff
350
3D
  3
Facepattern
350
39
  3
Flat
350
2B
  3
FlatWithEdges
350
2C
  3
Gouraud
350
2D
  3
GouraudWithEdges
350
2E
  3
Hidden
350
31
  3
JitterOff
350
3B
  3
Linepattern
350
38
  3
OverhangOff
350
3C
  3
Realistic
350
33
  3
Shaded
350
42
  3
Shaded with edges
350
41
  3
Shades of Gray
350
3E
  3
Sketchy
350
3F
  3
Thicken
350
37
  3
Wireframe
350
30
  3
X-Ray
350
40
  0
XRECORD
  5
1A3
102
{ACAD_REACTORS
330
C
102
}
330
C
100
AcDbXrecord
280
     1
 90
        1
330
6A
  0
DICTIONARY
  5
19F
102
{ACAD_REACTORS
330
C
102
}
330
C
100
AcDbDictionary
281
     1
  3
CANNOSCALE
350
1A0
  3
CMLEADERSTYLE
350
1A5
  3
CTABLESTYLE
350
1A4
  0
LAYOUT
  5
1E
102
{ACAD_REACTORS
330
1A
102
}
330
1A
100
AcDbPlotSettings
  1

  2
none_device
  4

  6

 40
0.0
 41
0.0
 42
0.0
 43
0.0
 44
0.0
 45
0.0
 46
0.0
 47
0.0
 48
0.0
 49
0.0
140
0.0
141
0.0
142
1.0
143
1.0
 70
   688
 72
     1
 73
     0
 74
     5
  7

 75
    16
 76
     0
 77
     2
 78
   300
147
1.0
148
0.0
149
0.0
100
AcDbLayout
  1
Layout1
 70
     1
 71
     1
 10
0.0
 20
0.0
 11
420.0
 21
297.0
 12
0.0
 22
0.0
 32
0.0
 14
1.000000000000000E+20
 24
1.000000000000000E+20
 34
1.000000000000000E+20
 15
-1.000000000000000E+20
 25
-1.000000000000000E+20
 35
-1.000000000000000E+20
146
0.0
 13
0.0
 23
0.0
 33
0.0
 16
1.0
 26
0.0
 36
0.0
 17
0.0
 27
1.0
 37
0.0
 76
     0
330
1B
  0
LAYOUT
  5
26
102
{ACAD_REACTORS
330
1A
102
}
330
1A
100
AcDbPlotSettings
  1

  2
none_device
  4

  6

 40
0.0
 41
0.0
 42
0.0
 43
0.0
 44
0.0
 45
0.0
 46
0.0
 47
0.0
 48
0.0
 49
0.0
140
0.0
141
0.0
142
1.0
143
1.0
 70
   688
 72
     1
 73
     0
 74
     5
  7

 75
    16
 76
     0
 77
     2
 78
   300
147
1.0
148
0.0
149
0.0
100
AcDbLayout
  1
Layout2
 70
     1
 71
     2
 10
0.0
 20
0.0
 11
0.0
 21
0.0
 12
0.0
 22
0.0
 32
0.0
 14
0.0
 24
0.0
 34
0.0
 15
0.0
 25
0.0
 35
0.0
146
0.0
 13
0.0
 23
0.0
 33
0.0
 16
1.0
 26
0.0
 36
0.0
 17
0.0
 27
1.0
 37
0.0
 76
     0
330
23
  0
LAYOUT
  5
22
102
{ACAD_REACTORS
330
1A
102
}
330
1A
100
AcDbPlotSettings
  1

  2
none_device
  4
Letter_(8.50_x_11.00_Inches)
  6

 40
6.35
 41
6.35
 42
6.35000508
 43
6.35000508
 44
215.9
 45
279.4
 46
0.0
 47
0.0
 48
0.0
 49
0.0
140
0.0
141
0.0
142
1.0
143
1.0
 70
  1712
 72
     1
 73
     0
 74
     0
  7

 75
     0
 76
     0
 77
     2
 78
   300
147
1.0
148
0.0
149
0.0
100
AcDbLayout
  1
Model
 70
     1
 71
     0
 10
0.0
 20
0.0
 11
420.0
 21
297.0
 12
0.0
 22
0.0
 32
0.0
 14
1.000000000000000E+20
 24
1.000000000000000E+20
 34
1.000000000000000E+20
 15
-1.000000000000000E+20
 25
-1.000000000000000E+20
 35
-1.000000000000000E+20
146
0.0
 13
0.0
 23
0.0
 33
0.0
 16
1.0
 26
0.0
 36
0.0
 17
0.0
 27
1.0
 37
0.0
 76
     0
330
1F
331
29
  0
MATERIAL
  5
45
102
{ACAD_REACTORS
330
43
102
}
330
43
100
AcDbMaterial
  1
ByBlock
 72
     1
 94
      127
  0
MATERIAL
  5
44
102
{ACAD_REACTORS
330
43
102
}
330
43
100
AcDbMaterial
  1
ByLayer
 72
     1
 94
      127
  0
MATERIAL
  5
46
102
{ACAD_REACTORS
330
43
102
}
330
43
100
AcDbMaterial
  1
Global
 72
     1
 94
      127
  0
MLEADERSTYLE
  5
6C
102
{ACAD_REACTORS
330
6B
102
}
330
6B
100
AcDbMLeaderStyle
179
     2
170
     2
171
     1
172
     0
 90
        2
 40
0.0
 41
0.0
173
     1
 91
-1056964608
340
14
 92
       -2
290
     1
 42
2.0
291
     1
 43
8.0
  3
Standard
341
0
 44
4.0
300

342
11
174
     1
178
     6
175
     1
176
     0
 93
-1056964608
 45
4.0
292
     0
297
     0
 46
4.0
343
0
 94
-1056964608
 47
1.0
 49
1.0
140
1.0
293
     1
141
0.0
294
     1
177
     0
142
1.0
295
     0
296
     0
143
3.75
271
     0
272
     9
273
     9
298
     0
  0
MLINESTYLE
  5
18
102
{ACAD_REACTORS
330
17
102
}
330
17
100
AcDbMlineStyle
  2
Standard
 70
     0
  3

 62
   256
 51
90.0
 52
90.0
 71
     2
 49
0.5
 62
   256
  6
BYLAYER
 49
-0.5
 62
   256
  6
BYLAYER
  0
ACDBPLACEHOLDER
  5
F
102
{ACAD_REACTORS
330
E
102
}
330
E
  0
SCALE
  5
48
102
{ACAD_REACTORS
330
47
102
}
330
47
100
AcDbScale
 70
     0
300
1:1
140
1.0
141
1.0
290
     1
  0
SCALE
  5
49
102
{ACAD_REACTORS
330
47
102
}
330
47
100
AcDbScale
 70
     0
300
1:2
140
1.0
141
2.0
290
     0
  0
SCALE
  5
4A
102
{ACAD_REACTORS
330
47
102
}
330
47
100
AcDbScale
 70
     0
300
1:4
140
1.0
141
4.0
290
     0
  0
SCALE
  5
4B
102
{ACAD_REACTORS
330
47
102
}
330
47
100
AcDbScale
 70
     0
300
1:5
140
1.0
141
5.0
290
     0
  0
SCALE
  5
4C
102
{ACAD_REACTORS
330
47
102
}
330
47
100
AcDbScale
 70
     0
300
1:8
140
1.0
141
8.0
290
     0
  0
SCALE
  5
4D
102
{ACAD_REACTORS
330
47
102
}
330
47
100
AcDbScale
 70
     0
300
1:10
140
1.0
141
10.0
290
     0
  0
SCALE
  5
4E
102
{ACAD_REACTORS
330
47
102
}
330
47
100
AcDbScale
 70
     0
300
1:16
140
1.0
141
16.0
290
     0
  0
SCALE
  5
4F
102
{ACAD_REACTORS
330
47
102
}
330
47
100
AcDbScale
 70
     0
300
1:20
140
1.0
141
20.0
290
     0
  0
SCALE
  5
50
102
{ACAD_REACTORS
330
47
102
}
330
47
100
AcDbScale
 70
     0
300
1:30
140
1.0
141
30.0
290
     0
  0
SCALE
  5
51
102
{ACAD_REACTORS
330
47
102
}
330
47
100
AcDbScale
 70
     0
300
1:40
140
1.0
141
40.0
290
     0
  0
SCALE
  5
52
102
{ACAD_REACTORS
330
47
102
}
330
47
100
AcDbScale
 70
     0
300
1:50
140
1.0
141
50.0
290
     0
  0
SCALE
  5
53
102
{ACAD_REACTORS
330
47
102
}
330
47
100
AcDbScale
 70
     0
300
1:100
140
1.0
141
100.0
290
     0
  0
SCALE
  5
54
102
{ACAD_REACTORS
330
47
102
}
330
47
100
AcDbScale
 70
     0
300
2:1
140
2.0
141
1.0
290
     0
  0
SCALE
  5
55
102
{ACAD_REACTORS
330
47
102
}
330
47
100
AcDbScale
 70
     0
300
4:1
140
4.0
141
1.0
290
     0
  0
SCALE
  5
56
102
{ACAD_REACTORS
330
47
102
}
330
47
100
AcDbScale
 70
     0
300
8:1
140
8.0
141
1.0
290
     0
  0
SCALE
  5
57
102
{ACAD_REACTORS
330
47
102
}
330
47
100
AcDbScale
 70
     0
300
10:1
140
10.0
141
1.0
290
     0
  0
SCALE
  5
58
102
{ACAD_REACTORS
330
47
102
}
330
47
100
AcDbScale
 70
     0
300
100:1
140
100.0
141
1.0
290
     0
  0
SCALE
  5
59
102
{ACAD_REACTORS
330
47
102
}
330
47
100
AcDbScale
 70
     0
300
1/128" = 1'-0"
140
0.0078125
141
12.0
290
     0
  0
SCALE
  5
5A
102
{ACAD_REACTORS
330
47
102
}
330
47
100
AcDbScale
 70
     0
300
1/64" = 1'-0"
140
0.015625
141
12.0
290
     0
  0
SCALE
  5
5B
102
{ACAD_REACTORS
330
47
102
}
330
47
100
AcDbScale
 70
     0
300
1/32" = 1'-0"
140
0.03125
141
12.0
290
     0
  0
SCALE
  5
5C
102
{ACAD_REACTORS
330
47
102
}
330
47
100
AcDbScale
 70
     0
300
1/16" = 1'-0"
140
0.0625
141
12.0
290
     0
  0
SCALE
  5
5D
102
{ACAD_REACTORS
330
47
102
}
330
47
100
AcDbScale
 70
     0
300
3/32" = 1'-0"
140
0.09375
141
12.0
290
     0
  0
SCALE
  5
5E
102
{ACAD_REACTORS
330
47
102
}
330
47
100
AcDbScale
 70
     0
300
1/8" = 1'-0"
140
0.125
141
12.0
290
     0
  0
SCALE
  5
5F
102
{ACAD_REACTORS
330
47
102
}
330
47
100
AcDbScale
 70
     0
300
3/16" = 1'-0"
140
0.1875
141
12.0
290
     0
  0
SCALE
  5
60
102
{ACAD_REACTORS
330
47
102
}
330
47
100
AcDbScale
 70
     0
300
1/4" = 1'-0"
140
0.25
141
12.0
290
     0
  0
SCALE
  5
61
102
{ACAD_REACTORS
330
47
102
}
330
47
100
AcDbScale
 70
     0
300
3/8" = 1'-0"
140
0.375
141
12.0
290
     0
  0
SCALE
  5
62
102
{ACAD_REACTORS
330
47
102
}
330
47
100
AcDbScale
 70
     0
300
1/2" = 1'-0"
140
0.5
141
12.0
290
     0
  0
SCALE
  5
63
102
{ACAD_REACTORS
330
47
102
}
330
47
100
AcDbScale
 70
     0
300
3/4" = 1'-0"
140
0.75
141
12.0
290
     0
  0
SCALE
  5
64
102
{ACAD_REACTORS
330
47
102
}
330
47
100
AcDbScale
 70
     0
300
1" = 1'-0"
140
1.0
141
12.0
290
     0
  0
SCALE
  5
65
102
{ACAD_REACTORS
330
47
102
}
330
47
100
AcDbScale
 70
     0
300
1-1/2" = 1'-0"
140
1.5
141
12.0
290
     0
  0
SCALE
  5
66
102
{ACAD_REACTORS
330
47
102
}
330
47
100
AcDbScale
 70
     0
300
3" = 1'-0"
140
3.0
141
12.0
290
     0
  0
SCALE
  5
67
102
{ACAD_REACTORS
330
47
102
}
330
47
100
AcDbScale
 70
     0
300
6" = 1'-0"
140
6.0
141
12.0
290
     0
  0
SCALE
  5
68
102
{ACAD_REACTORS
330
47
102
}
330
47
100
AcDbScale
 70
     0
300
1'-0" = 1'-0"
140
12.0
141
12.0
290
     0
  0
TABLESTYLE
  5
6A
102
{ACAD_REACTORS
330
69
102
}
102
{ACAD_XDICTIONARY
360
1A1
102
}
330
69
100
AcDbTableStyle
  3
Standard
 70
     0
 71
     0
 40
0.06
 41
0.06
280
     0
281
     0
  7
Standard
140
4.5
170
     2
 62
     0
 63
   257
283
     0
 90
        4
 91
        0
  1

274
    -2
284
     1
 64
     0
275
    -2
285
     1
 65
     0
276
    -2
286
     1
 66
     0
277
    -2
287
     1
 67
     0
278
    -2
288
     1
 68
     0
279
    -2
289
     1
 69
     0
  7
Standard
140
6.0
170
     5
 62
     0
 63
   257
283
     0
 90
        4
 91
        0
  1

274
    -2
284
     1
 64
     0
275
    -2
285
     1
 65
     0
276
    -2
286
     1
 66
     0
277
    -2
287
     1
 67
     0
278
    -2
288
     1
 68
     0
279
    -2
289
     1
 69
     0
  7
Standard
140
4.5
170
     5
 62
     0
 63
   257
283
     0
 90
        4
 91
        0
  1

274
    -2
284
     1
 64
     0
275
    -2
285
     1
 65
     0
276
    -2
286
     1
 66
     0
277
    -2
287
     1
 67
     0
278
    -2
288
     1
 68
     0
279
    -2
289
     1
 69
     0
  0
VISUALSTYLE
  5
2F
102
{ACAD_REACTORS
330
2A
102
}
330
2A
100
AcDbVisualStyle
  2
2dWireframe
 70
     4
177
     3
291
     0
 70
    58
 90
        0
176
     1
 90
        2
176
     1
 90
        0
176
     1
 90
        0
176
     1
 40
0.6
176
     1
 40
30.0
176
     1
 62
     7
420
 16777215
176
     1
 90
        1
176
     1
 90
        4
176
     1
 62
     7
176
     1
 62
   257
176
     1
 90
        1
176
     1
 90
        1
176
     1
 40
1.0
176
     1
 90
        0
176
     1
 62
   257
176
     1
 40
1.0
176
     1
 90
        1
176
     1
 90
        6
176
     1
 90
        2
176
     1
 62
     7
176
     1
 90
        5
176
     1
 90
        0
176
     1
 90
        0
176
     1
290
     0
176
     1
 90
        1
176
     1
 40
0.0
176
     1
 90
        0
176
     1
290
     1
176
     1
290
     1
176
     1
290
     0
176
     1
290
     0
176
     1
290
     0
176
     1
290
     0
176
     1
290
     0
176
     1
290
     0
176
     1
290
     0
176
     1
 90
       50
176
     1
 40
0.0
176
     1
 40
1.0
176
     1
 90
        0
176
     1
 62
    18
420
        0
176
     1
 90
       50
176
     1
 90
        3
176
     1
 62
     5
420
      255
176
     1
290
     0
176
     1
 90
       50
176
     1
 90
       50
176
     1
 90
       50
176
     1
290
     0
176
     1
 90
       50
176
     1
 62
   256
176
     0
 40
1.0
176
     0
 90
        2
176
     1
  1
strokes_ogs.tif
176
     1
290
     0
176
     1
 40
1.0
176
     1
 40
1.0
176
     1
  0
VISUALSTYLE
  5
32
102
{ACAD_REACTORS
330
2A
102
}
330
2A
100
AcDbVisualStyle
  2
Basic
 70
     7
177
     3
291
     1
 70
    58
 90
        1
176
     1
 90
        0
176
     1
 90
        1
176
     1
 90
        0
176
     1
 40
0.6
176
     1
 40
30.0
176
     1
 62
     7
420
 16777215
176
     1
 90
        0
176
     1
 90
        4
176
     1
 62
     7
176
     1
 62
   257
176
     1
 90
        1
176
     1
 90
        1
176
     1
 40
1.0
176
     1
 90
        8
176
     1
 62
     7
176
     1
 40
1.0
176
     1
 90
        1
176
     1
 90
        6
176
     1
 90
        2
176
     1
 62
     7
176
     1
 90
        5
176
     1
 90
        0
176
     1
 90
        0
176
     1
290
     0
176
     1
 90
        1
176
     1
 40
0.0
176
     1
 90
        0
176
     1
290
     0
176
     1
290
     1
176
     1
290
     1
176
     1
290
     0
176
     1
290
     0
176
     1
290
     0
176
     1
290
     0
176
     1
290
     0
176
     1
290
     0
176
     1
 90
       50
176
     1
 40
0.0
176
     1
 40
1.0
176
     1
 90
        0
176
     1
 62
    18
420
        0
176
     1
 90
       50
176
     1
 90
        3
176
     1
 62
     5
420
      255
176
     1
290
     0
176
     1
 90
       50
176
     1
 90
       50
176
     1
 90
       50
176
     1
290
     0
176
     1
 90
       50
176
     1
 62
   256
176
     0
 40
1.0
176
     0
 90
        2
176
     1
  1
strokes_ogs.tif
176
     1
290
     0
176
     1
 40
1.0
176
     1
 40
1.0
176
     1
  0
VISUALSTYLE
  5
36
102
{ACAD_REACTORS
330
2A
102
}
330
2A
100
AcDbVisualStyle
  2
Brighten
 70
    12
177
     3
291
     1
 70
    58
 90
        2
176
     1
 90
        2
176
     1
 90
        0
176
     1
 90
        0
176
     1
 40
0.6
176
     1
 40
30.0
176
     1
 62
     7
420
 16777215
176
     1
 90
        1
176
     1
 90
        4
176
     1
 62
     7
176
     1
 62
   257
176
     1
 90
        1
176
     1
 90
        1
176
     1
 40
1.0
176
     1
 90
        8
176
     1
 62
     7
176
     1
 40
1.0
176
     1
 90
        1
176
     1
 90
        6
176
     1
 90
        2
176
     1
 62
     7
176
     1
 90
        5
176
     1
 90
        0
176
     1
 90
        0
176
     1
290
     0
176
     1
 90
        1
176
     1
 40
50.0
176
     1
 90
        0
176
     1
290
     0
176
     1
290
     1
176
     1
290
     1
176
     1
290
     0
176
     1
290
     0
176
     1
290
     0
176
     1
290
     0
176
     1
290
     0
176
     1
290
     0
176
     1
 90
       50
176
     1
 40
0.0
176
     1
 40
1.0
176
     1
 90
        0
176
     1
 62
    18
420
        0
176
     1
 90
       50
176
     1
 90
        3
176
     1
 62
     5
420
      255
176
     1
290
     0
176
     1
 90
       50
176
     1
 90
       50
176
     1
 90
       50
176
     1
290
     0
176
     1
 90
       50
176
     1
 62
   256
176
     0
 40
1.0
176
     0
 90
        2
176
     1
  1
strokes_ogs.tif
176
     1
290
     0
176
     1
 40
1.0
176
     1
 40
1.0
176
     1
  0
VISUALSTYLE
  5
3A
102
{ACAD_REACTORS
330
2A
102
}
330
2A
100
AcDbVisualStyle
  2
ColorChange
 70
    16
177
     3
291
     1
 70
    58
 90
        2
176
     1
 90
        2
176
     1
 90
        3
176
     1
 90
        0
176
     1
 40
0.6
176
     1
 40
30.0
176
     1
 62
     8
420
  8421504
176
     1
 90
        1
176
     1
 90
        4
176
     1
 62
     7
176
     1
 62
   257
176
     1
 90
        1
176
     1
 90
        1
176
     1
 40
1.0
176
     1
 90
        8
176
     1
 62
     8
420
  8421504
176
     1
 40
1.0
176
     1
 90
        1
176
     1
 90
        6
176
     1
 90
        2
176
     1
 62
     7
176
     1
 90
        5
176
     1
 90
        0
176
     1
 90
        0
176
     1
290
     0
176
     1
 90
        1
176
     1
 40
0.0
176
     1
 90
        0
176
     1
290
     0
176
     1
290
     1
176
     1
290
     1
176
     1
290
     0
176
     1
290
     0
176
     1
290
     0
176
     1
290
     0
176
     1
290
     0
176
     1
290
     0
176
     1
 90
       50
176
     1
 40
0.0
176
     1
 40
1.0
176
     1
 90
        0
176
     1
 62
    18
420
        0
176
     1
 90
       50
176
     1
 90
        3
176
     1
 62
     5
420
      255
176
     1
290
     0
176
     1
 90
       50
176
     1
 90
       50
176
     1
 90
       50
176
     1
290
     0
176
     1
 90
       50
176
     1
 62
   256
176
     0
 40
1.0
176
     0
 90
        2
176
     1
  1
strokes_ogs.tif
176
     1
290
     0
176
     1
 40
1.0
176
     1
 40
1.0
176
     1
  0
VISUALSTYLE
  5
34
102
{ACAD_REACTORS
330
2A
102
}
330
2A
100
AcDbVisualStyle
  2
Conceptual
 70
     9
177
     3
291
     0
 70
    58
 90
        3
176
     1
 90
        2
176
     1
 90
        0
176
     1
 90
        0
176
     1
 40
0.6
176
     1
 40
30.0
176
     1
 62
     7
420
 16777215
176
     1
 90
        2
176
     1
 90
        2
176
     1
 62
     7
176
     1
 62
   257
176
     1
 90
        1
176
     1
 90
        1
176
     1
 40
179.0
176
     1
 90
        8
176
     1
 62
     7
176
     1
 40
1.0
176
     1
 90
        1
176
     1
 90
        6
176
     1
 90
        2
176
     1
 62
     7
176
     1
 90
        3
176
     1
 90
        0
176
     1
 90
        0
176
     1
290
     0
176
     1
 90
        1
176
     1
 40
0.0
176
     1
 90
        0
176
     1
290
     0
176
     1
290
     1
176
     1
290
     1
176
     1
290
     0
176
     1
290
     0
176
     1
290
     0
176
     1
290
     0
176
     1
290
     0
176
     1
290
     0
176
     1
 90
       50
176
     1
 40
0.0
176
     1
 40
1.0
176
     1
 90
        0
176
     1
 62
    18
420
        0
176
     1
 90
       50
176
     1
 90
        3
176
     1
 62
     5
420
      255
176
     1
290
     0
176
     1
 90
       50
176
     1
 90
       50
176
     1
 90
       50
176
     1
290
     0
176
     1
 90
       50
176
     1
 62
   256
176
     0
 40
1.0
176
     0
 90
        2
176
     1
  1
strokes_ogs.tif
176
     1
290
     0
176
     1
 40
1.0
176
     1
 40
1.0
176
     1
  0
VISUALSTYLE
  5
35
102
{ACAD_REACTORS
330
2A
102
}
330
2A
100
AcDbVisualStyle
  2
Dim
 70
    11
177
     3
291
     1
 70
    58
 90
        2
176
     1
 90
        2
176
     1
 90
        0
176
     1
 90
        0
176
     1
 40
0.6
176
     1
 40
30.0
176
     1
 62
     7
420
 16777215
176
     1
 90
        1
176
     1
 90
        4
176
     1
 62
     7
176
     1
 62
   257
176
     1
 90
        1
176
     1
 90
        1
176
     1
 40
1.0
176
     1
 90
        8
176
     1
 62
     7
176
     1
 40
1.0
176
     1
 90
        1
176
     1
 90
        6
176
     1
 90
        2
176
     1
 62
     7
176
     1
 90
        5
176
     1
 90
        0
176
     1
 90
        0
176
     1
290
     0
176
     1
 90
        1
176
     1
 40
-50.0
176
     1
 90
        0
176
     1
290
     0
176
     1
290
     1
176
     1
290
     1
176
     1
290
     0
176
     1
290
     0
176
     1
290
     0
176
     1
290
     0
176
     1
290
     0
176
     1
290
     0
176
     1
 90
       50
176
     1
 40
0.0
176
     1
 40
1.0
176
     1
 90
        0
176
     1
 62
    18
420
        0
176
     1
 90
       50
176
     1
 90
        3
176
     1
 62
     5
420
      255
176
     1
290
     0
176
     1
 90
       50
176
     1
 90
       50
176
     1
 90
       50
176
     1
290
     0
176
     1
 90
       50
176
     1
 62
   256
176
     0
 40
1.0
176
     0
 90
        2
176
     1
  1
strokes_ogs.tif
176
     1
290
     0
176
     1
 40
1.0
176
     1
 40
1.0
176
     1
  0
VISUALSTYLE
  5
3D
102
{ACAD_REACTORS
330
2A
102
}
330
2A
100
AcDbVisualStyle
  2
EdgeColorOff
 70
    22
177
     3
291
     1
 70
    58
 90
        2
176
     0
 90
        2
176
     0
 90
        0
176
     0
 90
        0
176
     0
 40
0.6
176
     0
 40
30.0
176
     0
 62
     7
420
 16777215
176
     0
 90
        1
176
     0
 90
        4
176
     0
 62
     7
176
     0
 62
   257
176
     0
 90
        1
176
     0
 90
        1
176
     0
 40
1.0
176
     0
 90
        8
176
     2
 62
     7
176
     0
 40
1.0
176
     0
 90
        1
176
     0
 90
        6
176
     0
 90
        2
176
     0
 62
     7
176
     0
 90
        5
176
     0
 90
        0
176
     0
 90
        0
176
     0
290
     0
176
     0
 90
        1
176
     0
 40
0.0
176
     0
 90
        0
176
     0
290
     0
176
     0
290
     1
176
     0
290
     1
176
     0
290
     0
176
     0
290
     0
176
     0
290
     0
176
     0
290
     0
176
     0
290
     0
176
     0
290
     0
176
     0
 90
       50
176
     0
 40
0.0
176
     0
 40
1.0
176
     0
 90
        0
176
     0
 62
    18
420
        0
176
     0
 90
       50
176
     0
 90
        3
176
     0
 62
     5
420
      255
176
     0
290
     0
176
     0
 90
       50
176
     0
 90
       50
176
     0
 90
       50
176
     0
290
     0
176
     0
 90
       50
176
     0
 62
   256
176
     0
 40
1.0
176
     0
 90
        2
176
     0
  1
strokes_ogs.tif
176
     0
290
     0
176
     0
 40
1.0
176
     0
 40
1.0
176
     0
  0
VISUALSTYLE
  5
39
102
{ACAD_REACTORS
330
2A
102
}
330
2A
100
AcDbVisualStyle
  2
Facepattern
 70
    15
177
     3
291
     1
 70
    58
 90
        2
176
     1
 90
        2
176
     1
 90
        0
176
     1
 90
        0
176
     1
 40
0.6
176
     1
 40
30.0
176
     1
 62
     7
420
 16777215
176
     1
 90
        1
176
     1
 90
        4
176
     1
 62
     7
176
     1
 62
   257
176
     1
 90
        1
176
     1
 90
        1
176
     1
 40
1.0
176
     1
 90
        8
176
     1
 62
     7
176
     1
 40
1.0
176
     1
 90
        1
176
     1
 90
        6
176
     1
 90
        2
176
     1
 62
     7
176
     1
 90
        5
176
     1
 90
        0
176
     1
 90
        0
176
     1
290
     0
176
     1
 90
        1
176
     1
 40
0.0
176
     1
 90
        0
176
     1
290
     0
176
     1
290
     1
176
     1
290
     1
176
     1
290
     0
176
     1
290
     0
176
     1
290
     0
176
     1
290
     0
176
     1
290
     0
176
     1
290
     0
176
     1
 90
       50
176
     1
 40
0.0
176
     1
 40
1.0
176
     1
 90
        0
176
     1
 62
    18
420
        0
176
     1
 90
       50
176
     1
 90
        3
176
     1
 62
     5
420
      255
176
     1
290
     0
176
     1
 90
       50
176
     1
 90
       50
176
     1
 90
       50
176
     1
290
     0
176
     1
 90
       50
176
     1
 62
   256
176
     0
 40
1.0
176
     0
 90
        2
176
     1
  1
strokes_ogs.tif
176
     1
290
     0
176
     1
 40
1.0
176
     1
 40
1.0
176
     1
  0
VISUALSTYLE
  5
2B
102
{ACAD_REACTORS
330
2A
102
}
330
2A
100
AcDbVisualStyle
  2
Flat
 70
     0
177
     3
291
     1
 70
    58
 90
        2
176
     1
 90
        1
176
     1
 90
        1
176
     1
 90
        2
176
     1
 40
0.6
176
     1
 40
30.0
176
     1
 62
     7
420
 16777215
176
     1
 90
        0
176
     1
 90
        0
176
     1
 62
     7
176
     1
 62
   257
176
     1
 90
        1
176
     1
 90
        1
176
     1
 40
1.0
176
     1
 90
        8
176
     1
 62
     7
176
     1
 40
1.0
176
     1
 90
        1
176
     1
 90
        6
176
     1
 90
        2
176
     1
 62
     7
176
     1
 90
        5
176
     1
 90
        0
176
     1
 90
        0
176
     1
290
     0
176
     1
 90
       13
176
     1
 40
0.0
176
     1
 90
        0
176
     1
290
     0
176
     1
290
     1
176
     1
290
     1
176
     1
290
     0
176
     1
290
     0
176
     1
290
     0
176
     1
290
     0
176
     1
290
     0
176
     1
290
     0
176
     1
 90
       50
176
     1
 40
0.0
176
     1
 40
1.0
176
     1
 90
        0
176
     1
 62
    18
420
        0
176
     1
 90
       50
176
     1
 90
        3
176
     1
 62
     5
420
      255
176
     1
290
     0
176
     1
 90
       50
176
     1
 90
       50
176
     1
 90
       50
176
     1
290
     0
176
     1
 90
       50
176
     1
 62
   256
176
     0
 40
1.0
176
     0
 90
        2
176
     1
  1
strokes_ogs.tif
176
     1
290
     0
176
     1
 40
1.0
176
     1
 40
1.0
176
     1
  0
VISUALSTYLE
  5
2C
102
{ACAD_REACTORS
330
2A
102
}
330
2A
100
AcDbVisualStyle
  2
FlatWithEdges
 70
     1
177
     3
291
     1
 70
    58
 90
        2
176
     1
 90
        1
176
     1
 90
        1
176
     1
 90
        2
176
     1
 40
0.6
176
     1
 40
30.0
176
     1
 62
     7
420
 16777215
176
     1
 90
        1
176
     1
 90
        0
176
     1
 62
     7
176
     1
 62
   257
176
     1
 90
        1
176
     1
 90
        1
176
     1
 40
1.0
176
     1
 90
        0
176
     1
 62
   257
176
     1
 40
1.0
176
     1
 90
        1
176
     1
 90
        6
176
     1
 90
        2
176
     1
 62
     7
176
     1
 90
        5
176
     1
 90
        0
176
     1
 90
        0
176
     1
290
     0
176
     1
 90
       13
176
     1
 40
0.0
176
     1
 90
        0
176
     1
290
     0
176
     1
290
     1
176
     1
290
     1
176
     1
290
     0
176
     1
290
     0
176
     1
290
     0
176
     1
290
     0
176
     1
290
     0
176
     1
290
     0
176
     1
 90
       50
176
     1
 40
0.0
176
     1
 40
1.0
176
     1
 90
        0
176
     1
 62
    18
420
        0
176
     1
 90
       50
176
     1
 90
        3
176
     1
 62
     5
420
      255
176
     1
290
     0
176
     1
 90
       50
176
     1
 90
       50
176
     1
 90
       50
176
     1
290
     0
176
     1
 90
       50
176
     1
 62
   256
176
     0
 40
1.0
176
     0
 90
        2
176
     1
  1
strokes_ogs.tif
176
     1
290
     0
176
     1
 40
1.0
176
     1
 40
1.0
176
     1
  0
VISUALSTYLE
  5
2D
102
{ACAD_REACTORS
330
2A
102
}
330
2A
100
AcDbVisualStyle
  2
Gouraud
 70
     2
177
     3
291
     1
 70
    58
 90
        2
176
     1
 90
        2
176
     1
 90
        1
176
     1
 90
        2
176
     1
 40
0.6
176
     1
 40
30.0
176
     1
 62
     7
420
 16777215
176
     1
 90
        0
176
     1
 90
        0
176
     1
 62
     7
176
     1
 62
   257
176
     1
 90
        1
176
     1
 90
        1
176
     1
 40
1.0
176
     1
 90
        0
176
     1
 62
     7
176
     1
 40
1.0
176
     1
 90
        1
176
     1
 90
        6
176
     1
 90
        2
176
     1
 62
     7
176
     1
 90
        5
176
     1
 90
        0
176
     1
 90
        0
176
     1
290
     0
176
     1
 90
       13
176
     1
 40
0.0
176
     1
 90
        0
176
     1
290
     0
176
     1
290
     1
176
     1
290
     1
176
     1
290
     0
176
     1
290
     0
176
     1
290
     0
176
     1
290
     0
176
     1
290
     0
176
     1
290
     0
176
     1
 90
       50
176
     1
 40
0.0
176
     1
 40
1.0
176
     1
 90
        0
176
     1
 62
    18
420
        0
176
     1
 90
       50
176
     1
 90
        3
176
     1
 62
     5
420
      255
176
     1
290
     0
176
     1
 90
       50
176
     1
 90
       50
176
     1
 90
       50
176
     1
290
     0
176
     1
 90
       50
176
     1
 62
   256
176
     0
 40
1.0
176
     0
 90
        2
176
     1
  1
strokes_ogs.tif
176
     1
290
     0
176
     1
 40
1.0
176
     1
 40
1.0
176
     1
  0
VISUALSTYLE
  5
2E
102
{ACAD_REACTORS
330
2A
102
}
330
2A
100
AcDbVisualStyle
  2
GouraudWithEdges
 70
     3
177
     3
291
     1
 70
    58
 90
        2
176
     1
 90
        2
176
     1
 90
        1
176
     1
 90
        2
176
     1
 40
0.6
176
     1
 40
30.0
176
     1
 62
     7
420
 16777215
176
     1
 90
        1
176
     1
 90
        0
176
     1
 62
     7
176
     1
 62
   257
176
     1
 90
        1
176
     1
 90
        1
176
     1
 40
1.0
176
     1
 90
        0
176
     1
 62
   257
176
     1
 40
1.0
176
     1
 90
        1
176
     1
 90
        6
176
     1
 90
        2
176
     1
 62
     7
176
     1
 90
        5
176
     1
 90
        0
176
     1
 90
        0
176
     1
290
     0
176
     1
 90
       13
176
     1
 40
0.0
176
     1
 90
        0
176
     1
290
     0
176
     1
290
     1
176
     1
290
     1
176
     1
290
     0
176
     1
290
     0
176
     1
290
     0
176
     1
290
     0
176
     1
290
     0
176
     1
290
     0
176
     1
 90
       50
176
     1
 40
0.0
176
     1
 40
1.0
176
     1
 90
        0
176
     1
 62
    18
420
        0
176
     1
 90
       50
176
     1
 90
        3
176
     1
 62
     5
420
      255
176
     1
290
     0
176
     1
 90
       50
176
     1
 90
       50
176
     1
 90
       50
176
     1
290
     0
176
     1
 90
       50
176
     1
 62
   256
176
     0
 40
1.0
176
     0
 90
        2
176
     1
  1
strokes_ogs.tif
176
     1
290
     0
176
     1
 40
1.0
176
     1
 40
1.0
176
     1
  0
VISUALSTYLE
  5
31
102
{ACAD_REACTORS
330
2A
102
}
330
2A
100
AcDbVisualStyle
  2
Hidden
 70
     6
177
     3
291
     0
 70
    58
 90
        1
176
     1
 90
        2
176
     1
 90
        2
176
     1
 90
        0
176
     1
 40
0.6
176
     1
 40
30.0
176
     1
 62
     7
420
 16777215
176
     1
 90
        2
176
     1
 90
        2
176
     1
 62
     7
176
     1
 62
   257
176
     1
 90
        2
176
     1
 90
        1
176
     1
 40
40.0
176
     1
 90
        0
176
     1
 62
   257
176
     1
 40
1.0
176
     1
 90
        1
176
     1
 90
        6
176
     1
 90
        2
176
     1
 62
     7
176
     1
 90
        3
176
     1
 90
        0
176
     1
 90
        0
176
     1
290
     0
176
     1
 90
        1
176
     1
 40
0.0
176
     1
 90
        0
176
     1
290
     0
176
     1
290
     1
176
     1
290
     1
176
     1
290
     0
176
     1
290
     0
176
     1
290
     0
176
     1
290
     0
176
     1
290
     0
176
     1
290
     0
176
     1
 90
       50
176
     1
 40
0.0
176
     1
 40
1.0
176
     1
 90
        0
176
     1
 62
    18
420
        0
176
     1
 90
       50
176
     1
 90
        3
176
     1
 62
     5
420
      255
176
     1
290
     0
176
     1
 90
       50
176
     1
 90
       50
176
     1
 90
       50
176
     1
290
     0
176
     1
 90
       50
176
     1
 62
   256
176
     0
 40
1.0
176
     0
 90
        2
176
     1
  1
strokes_ogs.tif
176
     1
290
     0
176
     1
 40
1.0
176
     1
 40
1.0
176
     1
  0
VISUALSTYLE
  5
3B
102
{ACAD_REACTORS
330
2A
102
}
330
2A
100
AcDbVisualStyle
  2
JitterOff
 70
    20
177
     3
291
     1
 70
    58
 90
        2
176
     0
 90
        2
176
     0
 90
        0
176
     0
 90
        0
176
     0
 40
0.6
176
     0
 40
30.0
176
     0
 62
     7
420
 16777215
176
     0
 90
        1
176
     0
 90
        4
176
     0
 62
     7
176
     0
 62
   257
176
     0
 90
        1
176
     0
 90
        1
176
     0
 40
1.0
176
     0
 90
       10
176
     2
 62
     7
176
     0
 40
1.0
176
     0
 90
        1
176
     0
 90
        6
176
     0
 90
        2
176
     0
 62
     7
176
     0
 90
        5
176
     0
 90
        0
176
     0
 90
        0
176
     0
290
     0
176
     0
 90
        1
176
     0
 40
0.0
176
     0
 90
        0
176
     0
290
     0
176
     0
290
     1
176
     0
290
     1
176
     0
290
     0
176
     0
290
     0
176
     0
290
     0
176
     0
290
     0
176
     0
290
     0
176
     0
290
     0
176
     0
 90
       50
176
     0
 40
0.0
176
     0
 40
1.0
176
     0
 90
        0
176
     0
 62
    18
420
        0
176
     0
 90
       50
176
     0
 90
        3
176
     0
 62
     5
420
      255
176
     0
290
     0
176
     0
 90
       50
176
     0
 90
       50
176
     0
 90
       50
176
     0
290
     0
176
     0
 90
       50
176
     0
 62
   256
176
     0
 40
1.0
176
     0
 90
        2
176
     0
  1
strokes_ogs.tif
176
     0
290
     0
176
     0
 40
1.0
176
     0
 40
1.0
176
     0
  0
VISUALSTYLE
  5
38
102
{ACAD_REACTORS
330
2A
102
}
330
2A
100
AcDbVisualStyle
  2
Linepattern
 70
    14
177
     3
291
     1
 70
    58
 90
        2
176
     1
 90
        2
176
     1
 90
        0
176
     1
 90
        0
176
     1
 40
0.6
176
     1
 40
30.0
176
     1
 62
     7
420
 16777215
176
     1
 90
        1
176
     1
 90
        4
176
     1
 62
     7
176
     1
 62
   257
176
     1
 90
        7
176
     1
 90
        7
176
     1
 40
1.0
176
     1
 90
        8
176
     1
 62
     7
176
     1
 40
1.0
176
     1
 90
        1
176
     1
 90
        6
176
     1
 90
        2
176
     1
 62
     7
176
     1
 90
        5
176
     1
 90
        0
176
     1
 90
        0
176
     1
290
     0
176
     1
 90
        1
176
     1
 40
0.0
176
     1
 90
        0
176
     1
290
     0
176
     1
290
     1
176
     1
290
     1
176
     1
290
     0
176
     1
290
     0
176
     1
290
     0
176
     1
290
     0
176
     1
290
     0
176
     1
290
     0
176
     1
 90
       50
176
     1
 40
0.0
176
     1
 40
1.0
176
     1
 90
        0
176
     1
 62
    18
420
        0
176
     1
 90
       50
176
     1
 90
        3
176
     1
 62
     5
420
      255
176
     1
290
     0
176
     1
 90
       50
176
     1
 90
       50
176
     1
 90
       50
176
     1
290
     0
176
     1
 90
       50
176
     1
 62
   256
176
     0
 40
1.0
176
     0
 90
        2
176
     1
  1
strokes_ogs.tif
176
     1
290
     0
176
     1
 40
1.0
176
     1
 40
1.0
176
     1
  0
VISUALSTYLE
  5
3C
102
{ACAD_REACTORS
330
2A
102
}
330
2A
100
AcDbVisualStyle
  2
OverhangOff
 70
    21
177
     3
291
     1
 70
    58
 90
        2
176
     0
 90
        2
176
     0
 90
        0
176
     0
 90
        0
176
     0
 40
0.6
176
     0
 40
30.0
176
     0
 62
     7
420
 16777215
176
     0
 90
        1
176
     0
 90
        4
176
     0
 62
     7
176
     0
 62
   257
176
     0
 90
        1
176
     0
 90
        1
176
     0
 40
1.0
176
     0
 90
        9
176
     2
 62
     7
176
     0
 40
1.0
176
     0
 90
        1
176
     0
 90
        6
176
     0
 90
        2
176
     0
 62
     7
176
     0
 90
        5
176
     0
 90
        0
176
     0
 90
        0
176
     0
290
     0
176
     0
 90
        1
176
     0
 40
0.0
176
     0
 90
        0
176
     0
290
     0
176
     0
290
     1
176
     0
290
     1
176
     0
290
     0
176
     0
290
     0
176
     0
290
     0
176
     0
290
     0
176
     0
290
     0
176
     0
290
     0
176
     0
 90
       50
176
     0
 40
0.0
176
     0
 40
1.0
176
     0
 90
        0
176
     0
 62
    18
420
        0
176
     0
 90
       50
176
     0
 90
        3
176
     0
 62
     5
420
      255
176
     0
290
     0
176
     0
 90
       50
176
     0
 90
       50
176
     0
 90
       50
176
     0
290
     0
176
     0
 90
       50
176
     0
 62
   256
176
     0
 40
1.0
176
     0
 90
        2
176
     0
  1
strokes_ogs.tif
176
     0
290
     0
176
     0
 40
1.0
176
     0
 40
1.0
176
     0
  0
VISUALSTYLE
  5
33
102
{ACAD_REACTORS
330
2A
102
}
330
2A
100
AcDbVisualStyle
  2
Realistic
 70
     8
177
     3
291
     0
 70
    58
 90
        2
176
     1
 90
        3
176
     1
 90
        0
176
     1
 90
        2
176
     1
 40
0.6
176
     1
 40
30.0
176
     1
 62
     7
420
 16777215
176
     1
 90
        0
176
     1
 90
        0
176
     1
 62
     7
176
     1
 62
   257
176
     1
 90
        1
176
     1
 90
        1
176
     1
 40
1.0
176
     1
 90
        8
176
     1
 62
   257
176
     1
 40
1.0
176
     1
 90
        1
176
     1
 90
        6
176
     1
 90
        2
176
     1
 62
     7
176
     1
 90
        3
176
     1
 90
        0
176
     1
 90
        0
176
     1
290
     0
176
     1
 90
       13
176
     1
 40
0.0
176
     1
 90
        0
176
     1
290
     0
176
     1
290
     1
176
     1
290
     1
176
     1
290
     0
176
     1
290
     0
176
     1
290
     0
176
     1
290
     0
176
     1
290
     0
176
     1
290
     0
176
     1
 90
       50
176
     1
 40
0.0
176
     1
 40
1.0
176
     1
 90
        0
176
     1
 62
    18
420
        0
176
     1
 90
       50
176
     1
 90
        3
176
     1
 62
     5
420
      255
176
     1
290
     0
176
     1
 90
       50
176
     1
 90
       50
176
     1
 90
       50
176
     1
290
     0
176
     1
 90
       50
176
     1
 62
   256
176
     0
 40
1.0
176
     0
 90
        2
176
     1
  1
strokes_ogs.tif
176
     1
290
     0
176
     1
 40
1.0
176
     1
 40
1.0
176
     1
  0
VISUALSTYLE
  5
42
102
{ACAD_REACTORS
330
2A
102
}
330
2A
100
AcDbVisualStyle
  2
Shaded
 70
    27
177
     3
291
     0
 70
    58
 90
        2
176
     1
 90
        2
176
     1
 90
        1
176
     1
 90
        2
176
     1
 40
0.6
176
     1
 40
30.0
176
     1
 62
     7
420
 16777215
176
     1
 90
        0
176
     1
 90
        4
176
     1
 62
     7
176
     1
 62
   257
176
     1
 90
        1
176
     1
 90
        1
176
     1
 40
1.0
176
     1
 90
        8
176
     1
 62
   257
176
     1
 40
1.0
176
     1
 90
        1
176
     1
 90
        6
176
     1
 90
        2
176
     1
 62
     8
420
  7895160
176
     1
 90
        3
176
     1
 90
        0
176
     1
 90
        0
176
     1
290
     0
176
     1
 90
        5
176
     1
 40
0.0
176
     1
 90
        0
176
     1
290
     0
176
     1
290
     1
176
     1
290
     1
176
     1
290
     0
176
     1
290
     0
176
     1
290
     0
176
     1
290
     0
176
     1
290
     0
176
     1
290
     0
176
     1
 90
       50
176
     1
 40
0.0
176
     1
 40
1.0
176
     1
 90
        0
176
     1
 62
    18
420
        0
176
     1
 90
       50
176
     1
 90
        3
176
     1
 62
     5
420
      255
176
     1
290
     0
176
     1
 90
       50
176
     1
 90
       50
176
     1
 90
       50
176
     1
290
     0
176
     1
 90
       50
176
     1
 62
   256
176
     0
 40
1.0
176
     0
 90
        2
176
     1
  1
strokes_ogs.tif
176
     1
290
     0
176
     1
 40
1.0
176
     1
 40
1.0
176
     1
  0
VISUALSTYLE
  5
41
102
{ACAD_REACTORS
330
2A
102
}
330
2A
100
AcDbVisualStyle
  2
Shaded with edges
 70
    26
177
     3
291
     0
 70
    58
 90
        2
176
     1
 90
        2
176
     1
 90
        1
176
     1
 90
        2
176
     1
 40
0.6
176
     1
 40
30.0
176
     1
 62
     7
420
 16777215
176
     1
 90
        1
176
     1
 90
       10
176
     1
 62
     7
176
     1
 62
   257
176
     1
 90
        2
176
     1
 90
        1
176
     1
 40
1.0
176
     1
 90
        8
176
     1
 62
   257
176
     1
 40
1.0
176
     1
 90
        1
176
     1
 90
        6
176
     1
 90
        2
176
     1
 62
     7
176
     1
 90
        3
176
     1
 90
        0
176
     1
 90
        0
176
     1
290
     0
176
     1
 90
        5
176
     1
 40
0.0
176
     1
 90
        0
176
     1
290
     0
176
     1
290
     1
176
     1
290
     1
176
     1
290
     0
176
     1
290
     0
176
     1
290
     0
176
     1
290
     0
176
     1
290
     0
176
     1
290
     0
176
     1
 90
       50
176
     1
 40
0.0
176
     1
 40
1.0
176
     1
 90
        0
176
     1
 62
    18
420
        0
176
     1
 90
       50
176
     1
 90
        3
176
     1
 62
     5
420
      255
176
     1
290
     0
176
     1
 90
       50
176
     1
 90
       50
176
     1
 90
       50
176
     1
290
     0
176
     1
 90
       50
176
     1
 62
   256
176
     0
 40
1.0
176
     0
 90
        2
176
     1
  1
strokes_ogs.tif
176
     1
290
     0
176
     1
 40
1.0
176
     1
 40
1.0
176
     1
  0
VISUALSTYLE
  5
3E
102
{ACAD_REACTORS
330
2A
102
}
330
2A
100
AcDbVisualStyle
  2
Shades of Gray
 70
    23
177
     3
291
     0
 70
    58
 90
        2
176
     1
 90
        2
176
     1
 90
        3
176
     1
 90
        0
176
     1
 40
0.6
176
     1
 40
30.0
176
     1
 62
     7
420
 16777215
176
     1
 90
        2
176
     1
 90
        2
176
     1
 62
     7
176
     1
 62
     7
176
     1
 90
        1
176
     1
 90
        1
176
     1
 40
40.0
176
     1
 90
        8
176
     1
 62
     7
176
     1
 40
1.0
176
     1
 90
        1
176
     1
 90
        6
176
     1
 90
        2
176
     1
 62
     7
176
     1
 90
        3
176
     1
 90
        0
176
     1
 90
        0
176
     1
290
     0
176
     1
 90
        1
176
     1
 40
0.0
176
     1
 90
        0
176
     1
290
     0
176
     1
290
     1
176
     1
290
     1
176
     1
290
     0
176
     1
290
     0
176
     1
290
     0
176
     1
290
     0
176
     1
290
     0
176
     1
290
     0
176
     1
 90
       50
176
     1
 40
0.0
176
     1
 40
1.0
176
     1
 90
        0
176
     1
 62
    18
420
        0
176
     1
 90
       50
176
     1
 90
        3
176
     1
 62
     5
420
      255
176
     1
290
     0
176
     1
 90
       50
176
     1
 90
       50
176
     1
 90
       50
176
     1
290
     0
176
     1
 90
       50
176
     1
 62
   256
176
     0
 40
1.0
176
     0
 90
        2
176
     1
  1
strokes_ogs.tif
176
     1
290
     0
176
     1
 40
1.0
176
     1
 40
1.0
176
     1
  0
VISUALSTYLE
  5
3F
102
{ACAD_REACTORS
330
2A
102
}
330
2A
100
AcDbVisualStyle
  2
Sketchy
 70
    24
177
     3
291
     0
 70
    58
 90
        1
176
     1
 90
        2
176
     1
 90
        2
176
     1
 90
        0
176
     1
 40
0.6
176
     1
 40
30.0
176
     1
 62
     7
420
 16777215
176
     1
 90
        2
176
     1
 90
        2
176
     1
 62
     7
176
     1
 62
     7
176
     1
 90
        1
176
     1
 90
        1
176
     1
 40
40.0
176
     1
 90
       11
176
     1
 62
     7
176
     1
 40
1.0
176
     1
 90
        1
176
     1
 90
        6
176
     1
 90
        2
176
     1
 62
     7
176
     1
 90
        6
176
     1
 90
        0
176
     1
 90
        0
176
     1
290
     0
176
     1
 90
        1
176
     1
 40
0.0
176
     1
 90
        0
176
     1
290
     0
176
     1
290
     1
176
     1
290
     1
176
     1
290
     0
176
     1
290
     0
176
     1
290
     0
176
     1
290
     0
176
     1
290
     0
176
     1
290
     0
176
     1
 90
       50
176
     1
 40
0.0
176
     1
 40
1.0
176
     1
 90
        0
176
     1
 62
    18
420
        0
176
     1
 90
       50
176
     1
 90
        3
176
     1
 62
     5
420
      255
176
     1
290
     0
176
     1
 90
       50
176
     1
 90
       50
176
     1
 90
       50
176
     1
290
     0
176
     1
 90
       50
176
     1
 62
   256
176
     0
 40
1.0
176
     0
 90
        2
176
     1
  1
strokes_ogs.tif
176
     1
290
     0
176
     1
 40
1.0
176
     1
 40
1.0
176
     1
  0
VISUALSTYLE
  5
37
102
{ACAD_REACTORS
330
2A
102
}
330
2A
100
AcDbVisualStyle
  2
Thicken
 70
    13
177
     3
291
     1
 70
    58
 90
        2
176
     1
 90
        2
176
     1
 90
        0
176
     1
 90
        0
176
     1
 40
0.6
176
     1
 40
30.0
176
     1
 62
     7
420
 16777215
176
     1
 90
        1
176
     1
 90
        4
176
     1
 62
     7
176
     1
 62
   257
176
     1
 90
        1
176
     1
 90
        1
176
     1
 40
1.0
176
     1
 90
       12
176
     1
 62
     7
176
     1
 40
1.0
176
     1
 90
        1
176
     1
 90
        6
176
     1
 90
        2
176
     1
 62
     7
176
     1
 90
        5
176
     1
 90
        0
176
     1
 90
        0
176
     1
290
     0
176
     1
 90
        1
176
     1
 40
0.0
176
     1
 90
        0
176
     1
290
     0
176
     1
290
     1
176
     1
290
     1
176
     1
290
     0
176
     1
290
     0
176
     1
290
     0
176
     1
290
     0
176
     1
290
     0
176
     1
290
     0
176
     1
 90
       50
176
     1
 40
0.0
176
     1
 40
1.0
176
     1
 90
        0
176
     1
 62
    18
420
        0
176
     1
 90
       50
176
     1
 90
        3
176
     1
 62
     5
420
      255
176
     1
290
     0
176
     1
 90
       50
176
     1
 90
       50
176
     1
 90
       50
176
     1
290
     0
176
     1
 90
       50
176
     1
 62
   256
176
     0
 40
1.0
176
     0
 90
        2
176
     1
  1
strokes_ogs.tif
176
     1
290
     0
176
     1
 40
1.0
176
     1
 40
1.0
176
     1
  0
VISUALSTYLE
  5
30
102
{ACAD_REACTORS
330
2A
102
}
330
2A
100
AcDbVisualStyle
  2
Wireframe
 70
     5
177
     3
291
     0
 70
    58
 90
        0
176
     1
 90
        2
176
     1
 90
        0
176
     1
 90
        0
176
     1
 40
0.6
176
     1
 40
30.0
176
     1
 62
     7
420
 16777215
176
     1
 90
        1
176
     1
 90
        4
176
     1
 62
     7
176
     1
 62
   257
176
     1
 90
        1
176
     1
 90
        1
176
     1
 40
1.0
176
     1
 90
        0
176
     1
 62
   257
176
     1
 40
1.0
176
     1
 90
        1
176
     1
 90
        6
176
     1
 90
        2
176
     1
 62
     7
176
     1
 90
        3
176
     1
 90
        0
176
     1
 90
        0
176
     1
290
     0
176
     1
 90
        1
176
     1
 40
0.0
176
     1
 90
        0
176
     1
290
     0
176
     1
290
     1
176
     1
290
     1
176
     1
290
     0
176
     1
290
     0
176
     1
290
     0
176
     1
290
     0
176
     1
290
     0
176
     1
290
     0
176
     1
 90
       50
176
     1
 40
0.0
176
     1
 40
1.0
176
     1
 90
        0
176
     1
 62
    18
420
        0
176
     1
 90
       50
176
     1
 90
        3
176
     1
 62
     5
420
      255
176
     1
290
     0
176
     1
 90
       50
176
     1
 90
       50
176
     1
 90
       50
176
     1
290
     0
176
     1
 90
       50
176
     1
 62
   256
176
     0
 40
1.0
176
     0
 90
        2
176
     1
  1
strokes_ogs.tif
176
     1
290
     0
176
     1
 40
1.0
176
     1
 40
1.0
176
     1
  0
VISUALSTYLE
  5
40
102
{ACAD_REACTORS
330
2A
102
}
330
2A
100
AcDbVisualStyle
  2
X-Ray
 70
    25
177
     3
291
     0
 70
    58
 90
        2
176
     1
 90
        2
176
     1
 90
        1
176
     1
 90
        1
176
     1
 40
0.5
176
     1
 40
30.0
176
     1
 62
     7
420
 16777215
176
     1
 90
        1
176
     1
 90
        0
176
     1
 62
     7
176
     1
 62
   257
176
     1
 90
        1
176
     1
 90
        1
176
     1
 40
1.0
176
     1
 90
        8
176
     1
 62
     7
176
     1
 40
1.0
176
     1
 90
        1
176
     1
 90
        6
176
     1
 90
        2
176
     1
 62
     7
176
     1
 90
        3
176
     1
 90
        0
176
     1
 90
        0
176
     1
290
     0
176
     1
 90
       13
176
     1
 40
0.0
176
     1
 90
        0
176
     1
290
     0
176
     1
290
     1
176
     1
290
     1
176
     1
290
     0
176
     1
290
     0
176
     1
290
     0
176
     1
290
     0
176
     1
290
     0
176
     1
290
     0
176
     1
 90
       50
176
     1
 40
0.0
176
     1
 40
1.0
176
     1
 90
        0
176
     1
 62
    18
420
        0
176
     1
 90
       50
176
     1
 90
        3
176
     1
 62
     5
420
      255
176
     1
290
     0
176
     1
 90
       50
176
     1
 90
       50
176
     1
 90
       50
176
     1
290
     0
176
     1
 90
       50
176
     1
 62
   256
176
     0
 40
1.0
176
     0
 90
        2
176
     1
  1
strokes_ogs.tif
176
     1
290
     0
176
     1
 40
1.0
176
     1
 40
1.0
176
     1
  0
DICTIONARYVAR
  5
1A0
102
{ACAD_REACTORS
330
19F
102
}
330
19F
100
DictionaryVariables
280
     0
  1
1:1
  0
DICTIONARYVAR
  5
1A5
102
{ACAD_REACTORS
330
19F
102
}
330
19F
100
DictionaryVariables
280
     0
  1
Standard
  0
DICTIONARYVAR
  5
1A4
102
{ACAD_REACTORS
330
19F
102
}
330
19F
100
DictionaryVariables
280
     0
  1
Standard
  0
DICTIONARY
  5
1A1
330
6A
100
AcDbDictionary
280
     1
281
     1
  3
ACAD_ROUNDTRIP_2008_TABLESTYLE_CELLSTYLEMAP
360
1A2
  0
CELLSTYLEMAP
  5
1A2
102
{ACAD_REACTORS
330
1A1
102
}
330
1A1
100
AcDbCellStyleMap
 90
        3
300
CELLSTYLE
  1
TABLEFORMAT_BEGIN
 90
        5
170
     1
 91
        0
 92
    32768
 62
   257
 93
        1
300
CONTENTFORMAT
  1
CONTENTFORMAT_BEGIN
 90
        0
 91
        0
 92
        4
 93
        0
300

 40
0.0
140
1.0
 94
        5
 62
     0
340
11
144
6.0
309
CONTENTFORMAT_END
171
     1
301
MARGIN
  1
CELLMARGIN_BEGIN
 40
1.5
 40
1.5
 40
1.5
 40
1.5
 40
1.5
 40
1.5
309
CELLMARGIN_END
 94
        6
 95
        1
302
GRIDFORMAT
  1
GRIDFORMAT_BEGIN
 90
        0
 91
        1
 62
     0
 92
       -2
340
14
 93
        0
 40
0.045
309
GRIDFORMAT_END
 95
        2
302
GRIDFORMAT
  1
GRIDFORMAT_BEGIN
 90
        0
 91
        1
 62
     0
 92
       -2
340
14
 93
        0
 40
0.045
309
GRIDFORMAT_END
 95
        4
302
GRIDFORMAT
  1
GRIDFORMAT_BEGIN
 90
        0
 91
        1
 62
     0
 92
       -2
340
14
 93
        0
 40
0.045
309
GRIDFORMAT_END
 95
        8
302
GRIDFORMAT
  1
GRIDFORMAT_BEGIN
 90
        0
 91
        1
 62
     0
 92
       -2
340
14
 93
        0
 40
0.045
309
GRIDFORMAT_END
 95
       16
302
GRIDFORMAT
  1
GRIDFORMAT_BEGIN
 90
        0
 91
        1
 62
     0
 92
       -2
340
14
 93
        0
 40
0.045
309
GRIDFORMAT_END
 95
       32
302
GRIDFORMAT
  1
GRIDFORMAT_BEGIN
 90
        0
 91
        1
 62
     0
 92
       -2
340
14
 93
        0
 40
0.045
309
GRIDFORMAT_END
309
TABLEFORMAT_END
  1
CELLSTYLE_BEGIN
 90
        1
 91
        1
300
_TITLE
309
CELLSTYLE_END
300
CELLSTYLE
  1
TABLEFORMAT_BEGIN
 90
        5
170
     1
 91
        0
 92
        0
 62
   257
 93
        1
300
CONTENTFORMAT
  1
CONTENTFORMAT_BEGIN
 90
        0
 91
        0
 92
        4
 93
        0
300

 40
0.0
140
1.0
 94
        5
 62
     0
340
11
144
4.5
309
CONTENTFORMAT_END
171
     1
301
MARGIN
  1
CELLMARGIN_BEGIN
 40
1.5
 40
1.5
 40
1.5
 40
1.5
 40
1.5
 40
1.5
309
CELLMARGIN_END
 94
        6
 95
        1
302
GRIDFORMAT
  1
GRIDFORMAT_BEGIN
 90
        0
 91
        1
 62
     0
 92
       -2
340
14
 93
        0
 40
0.045
309
GRIDFORMAT_END
 95
        2
302
GRIDFORMAT
  1
GRIDFORMAT_BEGIN
 90
        0
 91
        1
 62
     0
 92
       -2
340
14
 93
        0
 40
0.045
309
GRIDFORMAT_END
 95
        4
302
GRIDFORMAT
  1
GRIDFORMAT_BEGIN
 90
        0
 91
        1
 62
     0
 92
       -2
340
14
 93
        0
 40
0.045
309
GRIDFORMAT_END
 95
        8
302
GRIDFORMAT
  1
GRIDFORMAT_BEGIN
 90
        0
 91
        1
 62
     0
 92
       -2
340
14
 93
        0
 40
0.045
309
GRIDFORMAT_END
 95
       16
302
GRIDFORMAT
  1
GRIDFORMAT_BEGIN
 90
        0
 91
        1
 62
     0
 92
       -2
340
14
 93
        0
 40
0.045
309
GRIDFORMAT_END
 95
       32
302
GRIDFORMAT
  1
GRIDFORMAT_BEGIN
 90
        0
 91
        1
 62
     0
 92
       -2
340
14
 93
        0
 40
0.045
309
GRIDFORMAT_END
309
TABLEFORMAT_END
  1
CELLSTYLE_BEGIN
 90
        2
 91
        1
300
_HEADER
309
CELLSTYLE_END
300
CELLSTYLE
  1
TABLEFORMAT_BEGIN
 90
        5
170
     1
 91
        0
 92
        0
 62
   257
 93
        1
300
CONTENTFORMAT
  1
CONTENTFORMAT_BEGIN
 90
        0
 91
        0
 92
        4
 93
        0
300

 40
0.0
140
1.0
 94
        2
 62
     0
340
11
144
4.5
309
CONTENTFORMAT_END
171
     1
301
MARGIN
  1
CELLMARGIN_BEGIN
 40
1.5
 40
1.5
 40
1.5
 40
1.5
 40
1.5
 40
1.5
309
CELLMARGIN_END
 94
        6
 95
        1
302
GRIDFORMAT
  1
GRIDFORMAT_BEGIN
 90
        0
 91
        1
 62
     0
 92
       -2
340
14
 93
        0
 40
0.045
309
GRIDFORMAT_END
 95
        2
302
GRIDFORMAT
  1
GRIDFORMAT_BEGIN
 90
        0
 91
        1
 62
     0
 92
       -2
340
14
 93
        0
 40
0.045
309
GRIDFORMAT_END
 95
        4
302
GRIDFORMAT
  1
GRIDFORMAT_BEGIN
 90
        0
 91
        1
 62
     0
 92
       -2
340
14
 93
        0
 40
0.045
309
GRIDFORMAT_END
 95
        8
302
GRIDFORMAT
  1
GRIDFORMAT_BEGIN
 90
        0
 91
        1
 62
     0
 92
       -2
340
14
 93
        0
 40
0.045
309
GRIDFORMAT_END
 95
       16
302
GRIDFORMAT
  1
GRIDFORMAT_BEGIN
 90
        0
 91
        1
 62
     0
 92
       -2
340
14
 93
        0
 40
0.045
309
GRIDFORMAT_END
 95
       32
302
GRIDFORMAT
  1
GRIDFORMAT_BEGIN
 90
        0
 91
        1
 62
     0
 92
       -2
340
14
 93
        0
 40
0.045
309
GRIDFORMAT_END
309
TABLEFORMAT_END
  1
CELLSTYLE_BEGIN
 90
        3
 91
        2
300
_DATA
309
CELLSTYLE_END
  0
ENDSEC
  0
SECTION
  2
ACDSDATA
 70
     2
 71
     2
  0
ACDSSCHEMA
 90
        0
  1
AcDb_Thumbnail_Schema
  2
AcDbDs::ID
280
    10
 91
        8
  2
Thumbnail_Data
280
    15
 91
        0
101
ACDSRECORD
 95
        0
 90
        2
  2
AcDbDs::TreatedAsObjectData
280
     1
291
     1
101
ACDSRECORD
 95
        0
 90
        3
  2
AcDbDs::Legacy
280
     1
291
     1
101
ACDSRECORD
  1
AcDbDs::ID
 90
        4
  2
AcDs:Indexable
280
     1
291
     1
101
ACDSRECORD
  1
AcDbDs::ID
 90
        5
  2
AcDbDs::HandleAttribute
280
     7
282
     1
  0
ACDSSCHEMA
 90
        1
  1
AcDb3DSolid_ASM_Data
  2
AcDbDs::ID
280
    10
 91
        8
  2
ASM_Data
280
    15
 91
        0
101
ACDSRECORD
 95
        1
 90
        2
  2
AcDbDs::TreatedAsObjectData
280
     1
291
     1
101
ACDSRECORD
 95
        1
 90
        3
  2
AcDbDs::Legacy
280
     1
291
     1
101
ACDSRECORD
  1
AcDbDs::ID
 90
        4
  2
AcDs:Indexable
280
     1
291
     1
101
ACDSRECORD
  1
AcDbDs::ID
 90
        5
  2
AcDbDs::HandleAttribute
280
     7
282
     1
  0
ACDSSCHEMA
 90
        2
  1
AcDbDs::TreatedAsObjectDataSchema
  2
AcDbDs::TreatedAsObjectData
280
     1
 91
        0
  0
ACDSSCHEMA
 90
        3
  1
AcDbDs::LegacySchema
  2
AcDbDs::Legacy
280
     1
 91
        0
  0
ACDSSCHEMA
 90
        4
  1
AcDbDs::IndexedPropertySchema
  2
AcDs:Indexable
280
     1
 91
        0
  0
ACDSSCHEMA
 90
        5
  1
AcDbDs::HandleAttributeSchema
  2
AcDbDs::HandleAttribute
280
     7
 91
        1
284
     1
  0
ACDSRECORD
 90
        1
  2
AcDbDs::ID
280
    10
320
85
  2
ASM_Data
280
    15
 94
      716
310
414349532042696E61727946696C652855000000000000020000000C00000007214F70656E2044657369676E20416C6C69616E63652041434953204275696C646572070E41434953203231382E3030204E54071853756E204A756C2030392030303A33393A3039203230313706000000000000F03F068DEDB5A0F7C6B03E06
310
BBBDD7D9DF7CDB3D0D0961736D6865616465720CFFFFFFFF04FFFFFFFF070C3230382E302E342E37303039110D04626F64790C0200000004FFFFFFFF0CFFFFFFFF0C030000000CFFFFFFFF0CFFFFFFFF110E0D737472696E675F6174747269620E0B6E616D655F6174747269620E0367656E0D066174747269620CFFFFFFFF
310
04FFFFFFFF0CFFFFFFFF0CFFFFFFFF0C01000000150200000015010000001501000000150200000007114154545249425F58414349535F4E414D45070F5F37333037204245505F5041525433110D046C756D700CFFFFFFFF04FFFFFFFF0CFFFFFFFF0CFFFFFFFF0C040000000C01000000110D057368656C6C0CFFFFFFFF04
310
FFFFFFFF0CFFFFFFFF0CFFFFFFFF0CFFFFFFFF0C050000000CFFFFFFFF0C03000000110D04666163650C0700000004FFFFFFFF0CFFFFFFFF0CFFFFFFFF0CFFFFFFFF0C040000000CFFFFFFFF0C060000000B0B110E067370686572650D07737572666163650CFFFFFFFF04FFFFFFFF0CFFFFFFFF13FFFFFFFFFFFF244045B0
310
A441A02F384040A2F09A3B162F4006F97E6ABC74931C40140000000000000000B5F064878CEBEABF1158BBF8ED4CE1BF14000000000000F03F000000000000000000000000000000000B0B0B0B0B110E0D737472696E675F6174747269620E0B6E616D655F6174747269620E0367656E0D066174747269620CFFFFFFFF04FF
310
FFFFFF0CFFFFFFFF0CFFFFFFFF0C050000001502000000150100000015010000001502000000070F4154545249425F58414349535F49440703383133110E03456E640E026F660E0341534D0D0464617461
  0
ACDSRECORD
 90
        1
  2
AcDbDs::ID
280
    10
320
9B
  2
ASM_Data
280
    15
 94
      716
310
414349532042696E61727946696C652855000000000000020000000C00000007214F70656E2044657369676E20416C6C69616E63652041434953204275696C646572070E41434953203231382E3030204E54071853756E204A756C2030392030303A33393A3039203230313706000000000000F03F068DEDB5A0F7C6B03E06
310
BBBDD7D9DF7CDB3D0D0961736D6865616465720CFFFFFFFF04FFFFFFFF070C3230382E302E342E37303039110D04626F64790C0200000004FFFFFFFF0CFFFFFFFF0C030000000CFFFFFFFF0CFFFFFFFF110E0D737472696E675F6174747269620E0B6E616D655F6174747269620E0367656E0D066174747269620CFFFFFFFF
310
04FFFFFFFF0CFFFFFFFF0CFFFFFFFF0C01000000150200000015010000001501000000150200000007114154545249425F58414349535F4E414D45070F5F37333037204245505F5041525433110D046C756D700CFFFFFFFF04FFFFFFFF0CFFFFFFFF0CFFFFFFFF0C040000000C01000000110D057368656C6C0CFFFFFFFF04
310
FFFFFFFF0CFFFFFFFF0CFFFFFFFF0CFFFFFFFF0C050000000CFFFFFFFF0C03000000110D04666163650C0700000004FFFFFFFF0CFFFFFFFF0CFFFFFFFF0CFFFFFFFF0C040000000CFFFFFFFF0C060000000B0B110E067370686572650D07737572666163650CFFFFFFFF04FFFFFFFF0CFFFFFFFF13FFFFFFFFFFFF2440D7DA
310
A8B3E8E2274099FB6938E4263A4006F97E6ABC74931C40140000000000000000BC12C7D92896DABF122CEE8EB41BEDBF14000000000000F03F000000000000000000000000000000000B0B0B0B0B110E0D737472696E675F6174747269620E0B6E616D655F6174747269620E0367656E0D066174747269620CFFFFFFFF04FF
310
FFFFFF0CFFFFFFFF0CFFFFFFFF0C050000001502000000150100000015010000001502000000070F4154545249425F58414349535F49440703383134110E03456E640E026F660E0341534D0D0464617461
  0
ACDSRECORD
 90
        1
  2
AcDbDs::ID
280
    10
320
B1
  2
ASM_Data
280
    15
 94
      716
310
414349532042696E61727946696C652855000000000000020000000C00000007214F70656E2044657369676E20416C6C69616E63652041434953204275696C646572070E41434953203231382E3030204E54071853756E204A756C2030392030303A33393A3039203230313706000000000000F03F068DEDB5A0F7C6B03E06
310
BBBDD7D9DF7CDB3D0D0961736D6865616465720CFFFFFFFF04FFFFFFFF070C3230382E302E342E37303039110D04626F64790C0200000004FFFFFFFF0CFFFFFFFF0C030000000CFFFFFFFF0CFFFFFFFF110E0D737472696E675F6174747269620E0B6E616D655F6174747269620E0367656E0D066174747269620CFFFFFFFF
310
04FFFFFFFF0CFFFFFFFF0CFFFFFFFF0C01000000150200000015010000001501000000150200000007114154545249425F58414349535F4E414D45070F5F37333037204245505F5041525433110D046C756D700CFFFFFFFF04FFFFFFFF0CFFFFFFFF0CFFFFFFFF0C040000000C01000000110D057368656C6C0CFFFFFFFF04
310
FFFFFFFF0CFFFFFFFF0CFFFFFFFF0CFFFFFFFF0C050000000CFFFFFFFF0C03000000110D04666163650C0700000004FFFFFFFF0CFFFFFFFF0CFFFFFFFF0CFFFFFFFF0C040000000CFFFFFFFF0C060000000B0B110E067370686572650D07737572666163650CFFFFFFFF04FFFFFFFF0CFFFFFFFF13FFFFFFFFFFFF2440E1B7
310
E5B3BF5D10C0248CCAF715753C4006F87E6ABC74931C40140000000000000000DF440F645F37C23FF04238049EACEFBF14000000000000F03F000000000000000000000000000000000B0B0B0B0B110E0D737472696E675F6174747269620E0B6E616D655F6174747269620E0367656E0D066174747269620CFFFFFFFF04FF
310
FFFFFF0CFFFFFFFF0CFFFFFFFF0C050000001502000000150100000015010000001502000000070F4154545249425F58414349535F49440703383135110E03456E640E026F660E0341534D0D0464617461
  0
ACDSRECORD
 90
        1
  2
AcDbDs::ID
280
    10
320
C7
  2
ASM_Data
280
    15
 94
      716
310
414349532042696E61727946696C652855000000000000020000000C00000007214F70656E2044657369676E20416C6C69616E63652041434953204275696C646572070E41434953203231382E3030204E54071853756E204A756C2030392030303A33393A3039203230313706000000000000F03F068DEDB5A0F7C6B03E06
310
BBBDD7D9DF7CDB3D0D0961736D6865616465720CFFFFFFFF04FFFFFFFF070C3230382E302E342E37303039110D04626F64790C0200000004FFFFFFFF0CFFFFFFFF0C030000000CFFFFFFFF0CFFFFFFFF110E0D737472696E675F6174747269620E0B6E616D655F6174747269620E0367656E0D066174747269620CFFFFFFFF
310
04FFFFFFFF0CFFFFFFFF0CFFFFFFFF0C01000000150200000015010000001501000000150200000007114154545249425F58414349535F4E414D45070F5F37333037204245505F5041525433110D046C756D700CFFFFFFFF04FFFFFFFF0CFFFFFFFF0CFFFFFFFF0C040000000C01000000110D057368656C6C0CFFFFFFFF04
310
FFFFFFFF0CFFFFFFFF0CFFFFFFFF0CFFFFFFFF0C050000000CFFFFFFFF0C03000000110D04666163650C0700000004FFFFFFFF0CFFFFFFFF0CFFFFFFFF0CFFFFFFFF0C040000000CFFFFFFFF0C060000000B0B110E067370686572650D07737572666163650CFFFFFFFF04FFFFFFFF0CFFFFFFFF13FFFFFFFFFFFF24408B39
310
8566C6D332C08040361E51BA354006F97E6ABC74931C401400000000000000008858777F9EF4E43FA0283ABB192FE8BF14000000000000F03F000000000000000000000000000000000B0B0B0B0B110E0D737472696E675F6174747269620E0B6E616D655F6174747269620E0367656E0D066174747269620CFFFFFFFF04FF
310
FFFFFF0CFFFFFFFF0CFFFFFFFF0C050000001502000000150100000015010000001502000000070F4154545249425F58414349535F49440703383136110E03456E640E026F660E0341534D0D0464617461
  0
ACDSRECORD
 90
        1
  2
AcDbDs::ID
280
    10
320
DD
  2
ASM_Data
280
    15
 94
      716
310
414349532042696E61727946696C652855000000000000020000000C00000007214F70656E2044657369676E20416C6C69616E63652041434953204275696C646572070E41434953203231382E3030204E54071853756E204A756C2030392030303A33393A3039203230313706000000000000F03F068DEDB5A0F7C6B03E06
310
BBBDD7D9DF7CDB3D0D0961736D6865616465720CFFFFFFFF04FFFFFFFF070C3230382E302E342E37303039110D04626F64790C0200000004FFFFFFFF0CFFFFFFFF0C030000000CFFFFFFFF0CFFFFFFFF110E0D737472696E675F6174747269620E0B6E616D655F6174747269620E0367656E0D066174747269620CFFFFFFFF
310
04FFFFFFFF0CFFFFFFFF0CFFFFFFFF0C01000000150200000015010000001501000000150200000007114154545249425F58414349535F4E414D45070F5F37333037204245505F5041525433110D046C756D700CFFFFFFFF04FFFFFFFF0CFFFFFFFF0CFFFFFFFF0C040000000C01000000110D057368656C6C0CFFFFFFFF04
310
FFFFFFFF0CFFFFFFFF0CFFFFFFFF0CFFFFFFFF0C050000000CFFFFFFFF0C03000000110D04666163650C0700000004FFFFFFFF0CFFFFFFFF0CFFFFFFFF0CFFFFFFFF0C040000000CFFFFFFFF0C060000000B0B110E067370686572650D07737572666163650CFFFFFFFF04FFFFFFFF0CFFFFFFFF13FFFFFFFFFFFF24403076
310
FA47DE953BC05D83B86D1A33204006F97E6ABC74931C401400000000000000005850CD9B2AB4EE3FC28D76FDE707D2BF14000000000000F03F000000000000000000000000000000000B0B0B0B0B110E0D737472696E675F6174747269620E0B6E616D655F6174747269620E0367656E0D066174747269620CFFFFFFFF04FF
310
FFFFFF0CFFFFFFFF0CFFFFFFFF0C050000001502000000150100000015010000001502000000070F4154545249425F58414349535F49440703383137110E03456E640E026F660E0341534D0D0464617461
  0
ACDSRECORD
 90
        1
  2
AcDbDs::ID
280
    10
320
F3
  2
ASM_Data
280
    15
 94
      716
310
414349532042696E61727946696C652855000000000000020000000C00000007214F70656E2044657369676E20416C6C69616E63652041434953204275696C646572070E41434953203231382E3030204E54071853756E204A756C2030392030303A33393A3039203230313706000000000000F03F068DEDB5A0F7C6B03E06
310
BBBDD7D9DF7CDB3D0D0961736D6865616465720CFFFFFFFF04FFFFFFFF070C3230382E302E342E37303039110D04626F64790C0200000004FFFFFFFF0CFFFFFFFF0C030000000CFFFFFFFF0CFFFFFFFF110E0D737472696E675F6174747269620E0B6E616D655F6174747269620E0367656E0D066174747269620CFFFFFFFF
310
04FFFFFFFF0CFFFFFFFF0CFFFFFFFF0C01000000150200000015010000001501000000150200000007114154545249425F58414349535F4E414D45070F5F37333037204245505F5041525433110D046C756D700CFFFFFFFF04FFFFFFFF0CFFFFFFFF0CFFFFFFFF0C040000000C01000000110D057368656C6C0CFFFFFFFF04
310
FFFFFFFF0CFFFFFFFF0CFFFFFFFF0CFFFFFFFF0C050000000CFFFFFFFF0C03000000110D04666163650C0700000004FFFFFFFF0CFFFFFFFF0CFFFFFFFF0CFFFFFFFF0C040000000CFFFFFFFF0C060000000B0B110E067370686572650D07737572666163650CFFFFFFFF04FFFFFFFF0CFFFFFFFF13FFFFFFFFFFFF24402F76
310
FA47DE953BC06083B86D1A3320C006F87E6ABC74931C401400000000000000005750CD9B2AB4EE3FC68D76FDE707D23F14000000000000F03F000000000000000000000000000000000B0B0B0B0B110E0D737472696E675F6174747269620E0B6E616D655F6174747269620E0367656E0D066174747269620CFFFFFFFF04FF
310
FFFFFF0CFFFFFFFF0CFFFFFFFF0C050000001502000000150100000015010000001502000000070F4154545249425F58414349535F49440703383138110E03456E640E026F660E0341534D0D0464617461
  0
ACDSRECORD
 90
        1
  2
AcDbDs::ID
280
    10
320
109
  2
ASM_Data
280
    15
 94
      716
310
414349532042696E61727946696C652855000000000000020000000C00000007214F70656E2044657369676E20416C6C69616E63652041434953204275696C646572070E41434953203231382E3030204E54071853756E204A756C2030392030303A33393A3039203230313706000000000000F03F068DEDB5A0F7C6B03E06
310
BBBDD7D9DF7CDB3D0D0961736D6865616465720CFFFFFFFF04FFFFFFFF070C3230382E302E342E37303039110D04626F64790C0200000004FFFFFFFF0CFFFFFFFF0C030000000CFFFFFFFF0CFFFFFFFF110E0D737472696E675F6174747269620E0B6E616D655F6174747269620E0367656E0D066174747269620CFFFFFFFF
310
04FFFFFFFF0CFFFFFFFF0CFFFFFFFF0C01000000150200000015010000001501000000150200000007114154545249425F58414349535F4E414D45070F5F37333037204245505F5041525433110D046C756D700CFFFFFFFF04FFFFFFFF0CFFFFFFFF0CFFFFFFFF0C040000000C01000000110D057368656C6C0CFFFFFFFF04
310
FFFFFFFF0CFFFFFFFF0CFFFFFFFF0CFFFFFFFF0C050000000CFFFFFFFF0C03000000110D04666163650C0700000004FFFFFFFF0CFFFFFFFF0CFFFFFFFF0CFFFFFFFF0C040000000CFFFFFFFF0C060000000B0B110E067370686572650D07737572666163650CFFFFFFFF04FFFFFFFF0CFFFFFFFF13FFFFFFFFFFFF24408A39
310
8566C6D332C08240361E51BA35C006FA7E6ABC74931C401400000000000000008658777F9EF4E43FA1283ABB192FE83F14000000000000F03F000000000000000000000000000000000B0B0B0B0B110E0D737472696E675F6174747269620E0B6E616D655F6174747269620E0367656E0D066174747269620CFFFFFFFF04FF
310
FFFFFF0CFFFFFFFF0CFFFFFFFF0C050000001502000000150100000015010000001502000000070F4154545249425F58414349535F49440703383139110E03456E640E026F660E0341534D0D0464617461
  0
ACDSRECORD
 90
        1
  2
AcDbDs::ID
280
    10
320
11F
  2
ASM_Data
280
    15
 94
      716
310
414349532042696E61727946696C652855000000000000020000000C00000007214F70656E2044657369676E20416C6C69616E63652041434953204275696C646572070E41434953203231382E3030204E54071853756E204A756C2030392030303A33393A3039203230313706000000000000F03F068DEDB5A0F7C6B03E06
310
BBBDD7D9DF7CDB3D0D0961736D6865616465720CFFFFFFFF04FFFFFFFF070C3230382E302E342E37303039110D04626F64790C0200000004FFFFFFFF0CFFFFFFFF0C030000000CFFFFFFFF0CFFFFFFFF110E0D737472696E675F6174747269620E0B6E616D655F6174747269620E0367656E0D066174747269620CFFFFFFFF
310
04FFFFFFFF0CFFFFFFFF0CFFFFFFFF0C01000000150200000015010000001501000000150200000007114154545249425F58414349535F4E414D45070F5F37333037204245505F5041525433110D046C756D700CFFFFFFFF04FFFFFFFF0CFFFFFFFF0CFFFFFFFF0C040000000C01000000110D057368656C6C0CFFFFFFFF04
310
FFFFFFFF0CFFFFFFFF0CFFFFFFFF0CFFFFFFFF0C050000000CFFFFFFFF0C03000000110D04666163650C0700000004FFFFFFFF0CFFFFFFFF0CFFFFFFFF0CFFFFFFFF0C040000000CFFFFFFFF0C060000000B0B110E067370686572650D07737572666163650CFFFFFFFF04FFFFFFFF0CFFFFFFFF13FFFFFFFFFFFF2440E1B7
310
E5B3BF5D10C0248CCAF715753CC006F87E6ABC74931C40140000000000000000DF440F645F37C23FF04238049EACEF3F14000000000000F03F000000000000000000000000000000000B0B0B0B0B110E0D737472696E675F6174747269620E0B6E616D655F6174747269620E0367656E0D066174747269620CFFFFFFFF04FF
310
FFFFFF0CFFFFFFFF0CFFFFFFFF0C050000001502000000150100000015010000001502000000070F4154545249425F58414349535F49440703383230110E03456E640E026F660E0341534D0D0464617461
  0
ACDSRECORD
 90
        1
  2
AcDbDs::ID
280
    10
320
135
  2
ASM_Data
280
    15
 94
      716
310
414349532042696E61727946696C652855000000000000020000000C00000007214F70656E2044657369676E20416C6C69616E63652041434953204275696C646572070E41434953203231382E3030204E54071853756E204A756C2030392030303A33393A3039203230313706000000000000F03F068DEDB5A0F7C6B03E06
310
BBBDD7D9DF7CDB3D0D0961736D6865616465720CFFFFFFFF04FFFFFFFF070C3230382E302E342E37303039110D04626F64790C0200000004FFFFFFFF0CFFFFFFFF0C030000000CFFFFFFFF0CFFFFFFFF110E0D737472696E675F6174747269620E0B6E616D655F6174747269620E0367656E0D066174747269620CFFFFFFFF
310
04FFFFFFFF0CFFFFFFFF0CFFFFFFFF0C01000000150200000015010000001501000000150200000007114154545249425F58414349535F4E414D45070F5F37333037204245505F5041525433110D046C756D700CFFFFFFFF04FFFFFFFF0CFFFFFFFF0CFFFFFFFF0C040000000C01000000110D057368656C6C0CFFFFFFFF04
310
FFFFFFFF0CFFFFFFFF0CFFFFFFFF0CFFFFFFFF0C050000000CFFFFFFFF0C03000000110D04666163650C0700000004FFFFFFFF0CFFFFFFFF0CFFFFFFFF0CFFFFFFFF0C040000000CFFFFFFFF0C060000000B0B110E067370686572650D07737572666163650CFFFFFFFF04FFFFFFFF0CFFFFFFFF13FFFFFFFFFFFF2440D0DA
310
A8B3E8E227409AFB6938E4263AC006F87E6ABC74931C40140000000000000000B612C7D92896DABF132CEE8EB41BED3F14000000000000F03F000000000000000000000000000000000B0B0B0B0B110E0D737472696E675F6174747269620E0B6E616D655F6174747269620E0367656E0D066174747269620CFFFFFFFF04FF
310
FFFFFF0CFFFFFFFF0CFFFFFFFF0C050000001502000000150100000015010000001502000000070F4154545249425F58414349535F49440703383231110E03456E640E026F660E0341534D0D0464617461
  0
ACDSRECORD
 90
        1
  2
AcDbDs::ID
280
    10
320
14B
  2
ASM_Data
280
    15
 94
      716
310
414349532042696E61727946696C652855000000000000020000000C00000007214F70656E2044657369676E20416C6C69616E63652041434953204275696C646572070E41434953203231382E3030204E54071853756E204A756C2030392030303A33393A3039203230313706000000000000F03F068DEDB5A0F7C6B03E06
310
BBBDD7D9DF7CDB3D0D0961736D6865616465720CFFFFFFFF04FFFFFFFF070C3230382E302E342E37303039110D04626F64790C0200000004FFFFFFFF0CFFFFFFFF0C030000000CFFFFFFFF0CFFFFFFFF110E0D737472696E675F6174747269620E0B6E616D655F6174747269620E0367656E0D066174747269620CFFFFFFFF
310
04FFFFFFFF0CFFFFFFFF0CFFFFFFFF0C01000000150200000015010000001501000000150200000007114154545249425F58414349535F4E414D45070F5F37333037204245505F5041525433110D046C756D700CFFFFFFFF04FFFFFFFF0CFFFFFFFF0CFFFFFFFF0C040000000C01000000110D057368656C6C0CFFFFFFFF04
310
FFFFFFFF0CFFFFFFFF0CFFFFFFFF0CFFFFFFFF0C050000000CFFFFFFFF0C03000000110D04666163650C0700000004FFFFFFFF0CFFFFFFFF0CFFFFFFFF0CFFFFFFFF0C040000000CFFFFFFFF0C060000000B0B110E067370686572650D07737572666163650CFFFFFFFF04FFFFFFFF0CFFFFFFFF13FFFFFFFFFFFF244048B0
310
A441A02F384035A2F09A3B162FC006FA7E6ABC74931C40140000000000000000BBF064878CEBEABF0B58BBF8ED4CE13F14000000000000F03F000000000000000000000000000000000B0B0B0B0B110E0D737472696E675F6174747269620E0B6E616D655F6174747269620E0367656E0D066174747269620CFFFFFFFF04FF
310
FFFFFF0CFFFFFFFF0CFFFFFFFF0C050000001502000000150100000015010000001502000000070F4154545249425F58414349535F49440703383232110E03456E640E026F660E0341534D0D0464617461
  0
ACDSRECORD
 90
        1
  2
AcDbDs::ID
280
    10
320
161
  2
ASM_Data
280
    15
 94
      716
310
414349532042696E61727946696C652855000000000000020000000C00000007214F70656E2044657369676E20416C6C69616E63652041434953204275696C646572070E41434953203231382E3030204E54071853756E204A756C2030392030303A33393A3039203230313706000000000000F03F068DEDB5A0F7C6B03E06
310
BBBDD7D9DF7CDB3D0D0961736D6865616465720CFFFFFFFF04FFFFFFFF070C3230382E302E342E37303039110D04626F64790C0200000004FFFFFFFF0CFFFFFFFF0C030000000CFFFFFFFF0CFFFFFFFF110E0D737472696E675F6174747269620E0B6E616D655F6174747269620E0367656E0D066174747269620CFFFFFFFF
310
04FFFFFFFF0CFFFFFFFF0CFFFFFFFF0C01000000150200000015010000001501000000150200000007114154545249425F58414349535F4E414D45070F5F37333037204245505F5041525433110D046C756D700CFFFFFFFF04FFFFFFFF0CFFFFFFFF0CFFFFFFFF0C040000000C01000000110D057368656C6C0CFFFFFFFF04
310
FFFFFFFF0CFFFFFFFF0CFFFFFFFF0CFFFFFFFF0C050000000CFFFFFFFF0C03000000110D04666163650C0700000004FFFFFFFF0CFFFFFFFF0CFFFFFFFF0CFFFFFFFF0C040000000CFFFFFFFF0C060000000B0B110E067370686572650D07737572666163650CFFFFFFFF04FFFFFFFF0CFFFFFFFF13FFFFFFFFFFFF24400100
310
000000C03C40000000000000000006F97E6ABC74931C40140000000000000080000000000000F0BF000000000000000014000000000000F03F000000000000008000000000000000800B0B0B0B0B110E0D737472696E675F6174747269620E0B6E616D655F6174747269620E0367656E0D066174747269620CFFFFFFFF04FF
310
FFFFFF0CFFFFFFFF0CFFFFFFFF0C050000001502000000150100000015010000001502000000070F4154545249425F58414349535F49440703383233110E03456E640E026F660E0341534D0D0464617461
  0
ACDSRECORD
 90
        1
  2
AcDbDs::ID
280
    10
320
177
  2
ASM_Data
280
    15
 94
     8046
310
414349532042696E61727946696C652855000000000000020000000C00000007214F70656E2044657369676E20416C6C69616E63652041434953204275696C646572070E41434953203231382E3030204E54071853756E204A756C2030392030303A33393A3039203230313706000000000000F03F068DEDB5A0F7C6B03E06
310
BBBDD7D9DF7CDB3D0D0961736D6865616465720CFFFFFFFF04FFFFFFFF070C3230382E302E342E37303039110D04626F64790C0200000004FFFFFFFF0CFFFFFFFF0C030000000CFFFFFFFF0CFFFFFFFF110E0D737472696E675F6174747269620E0B6E616D655F6174747269620E0367656E0D066174747269620CFFFFFFFF
310
04FFFFFFFF0CFFFFFFFF0CFFFFFFFF0C01000000150200000015010000001501000000150200000007114154545249425F58414349535F4E414D45070F5F37333037204245505F5041525432110D046C756D700CFFFFFFFF04FFFFFFFF0CFFFFFFFF0CFFFFFFFF0C040000000C01000000110D057368656C6C0CFFFFFFFF04
310
FFFFFFFF0CFFFFFFFF0CFFFFFFFF0CFFFFFFFF0C050000000CFFFFFFFF0C03000000110D04666163650C0E00000004FFFFFFFF0CFFFFFFFF0C060000000C070000000C040000000CFFFFFFFF0C080000000B0B110D04666163650C1700000004FFFFFFFF0CFFFFFFFF0C090000000C0A0000000C040000000CFFFFFFFF0C0B
310
0000000A0B110D046C6F6F700CFFFFFFFF04FFFFFFFF0CFFFFFFFF0C0C0000000C0D0000000C05000000110E05706C616E650D07737572666163650CFFFFFFFF04FFFFFFFF0CFFFFFFFF13000000000040AFBC0000000000404340000000000000000014000000000000F0BF00000000000000000000000000000000140000
310
00000000000000000000000000000000000000408F400B0B0B0B0B110D04666163650C2300000004FFFFFFFF0CFFFFFFFF0C0F0000000C100000000C040000000CFFFFFFFF0C110000000A0B110D046C6F6F700CFFFFFFFF04FFFFFFFF0CFFFFFFFF0C120000000C130000000C06000000110E04636F6E650D077375726661
310
63650CFFFFFFFF04FFFFFFFF0CFFFFFFFF1300000000000000000000000000000000000000000000000014000000000000F03F000000000000008000000000000000001400000000000000000000000000000000CDCCCCCCCC3C404006000000000000F03F0B0B06CC3B7F669EA0E6BF06CD3B7F669EA0E63F06CDCCCCCCCC
310
3C40400B0B0B0B0B110D046C6F6F700CFFFFFFFF04FFFFFFFF0CFFFFFFFF0CFFFFFFFF0C140000000C05000000110D06636F656467650CFFFFFFFF04FFFFFFFF0CFFFFFFFF0C0D0000000C0D0000000C150000000C160000000B0C0700000004000000000CFFFFFFFF110E0D737472696E675F6174747269620E0B6E616D65
310
5F6174747269620E0367656E0D066174747269620CFFFFFFFF04FFFFFFFF0CFFFFFFFF0CFFFFFFFF0C050000001502000000150100000015010000001502000000070F4154545249425F58414349535F49440703383235110D04666163650C3000000004FFFFFFFF0CFFFFFFFF0C180000000C190000000C040000000CFFFF
310
FFFF0C1A0000000A0B110D046C6F6F700CFFFFFFFF04FFFFFFFF0CFFFFFFFF0C1B0000000C1C0000000C09000000110E04636F6E650D07737572666163650CFFFFFFFF04FFFFFFFF0CFFFFFFFF1300000000000035400000000000000000000000000000000014000000000000F0BF00000000000000800000000000000000
310
14000000000000008000000000000000009A99999999B93FC006000000000000F03F0B0B06000000000000008006000000000000F03F069A99999999B93F400B0B0B0B0B110D046C6F6F700CFFFFFFFF04FFFFFFFF0CFFFFFFFF0CFFFFFFFF0C150000000C06000000110D06636F656467650CFFFFFFFF04FFFFFFFF0CFFFF
310
FFFF0C130000000C130000000C1D0000000C1E0000000B0C0A00000004000000000CFFFFFFFF110D06636F656467650CFFFFFFFF04FFFFFFFF0CFFFFFFFF0C140000000C140000000C1F0000000C200000000A0C0C00000004000000000CFFFFFFFF110D06636F656467650CFFFFFFFF04FFFFFFFF0CFFFFFFFF0C15000000
310
0C150000000C0D0000000C160000000A0C1200000004000000000CFFFFFFFF110D04656467650CFFFFFFFF04FFFFFFFF0CFFFFFFFF0C210000000600000000000000000C2100000006182D4454FB2119400C0D0000000C220000000B0707756E6B6E6F776E110E0D737472696E675F6174747269620E0B6E616D655F617474
310
7269620E0367656E0D066174747269620CFFFFFFFF04FFFFFFFF0CFFFFFFFF0CFFFFFFFF0C060000001502000000150100000015010000001502000000070F4154545249425F58414349535F49440703383239110D04666163650C3D00000004FFFFFFFF0CFFFFFFFF0C240000000C250000000C040000000CFFFFFFFF0C26
310
0000000A0B110D046C6F6F700CFFFFFFFF04FFFFFFFF0CFFFFFFFF0C270000000C280000000C0F000000110E05746F7275730D07737572666163650CFFFFFFFF04FFFFFFFF0CFFFFFFFF1305000000000025400000000000000000000000000000000014000000000000F03F0000000000000000000000000000008006FBFF
310
FFFFFFBF3C40060E7F6ABC74931C401400000000000000800000000000000000000000000000F0BF0B0B0B0B0B110D046C6F6F700CFFFFFFFF04FFFFFFFF0CFFFFFFFF0CFFFFFFFF0C1D0000000C09000000110D06636F656467650CFFFFFFFF04FFFFFFFF0CFFFFFFFF0C1C0000000C1C0000000C280000000C290000000B
310
0C1000000004000000000CFFFFFFFF110D06636F656467650CFFFFFFFF04FFFFFFFF0CFFFFFFFF0C1D0000000C1D0000000C130000000C1E0000000A0C1B00000004000000000CFFFFFFFF110D04656467650CFFFFFFFF04FFFFFFFF0CFFFFFFFF0C2A0000000600000000000000000C2A00000006182D4454FB2119400C13
310
0000000C2B0000000B0707756E6B6E6F776E110D06636F656467650CFFFFFFFF04FFFFFFFF0CFFFFFFFF0C1F0000000C1F0000000C140000000C200000000B0C2C00000004000000000CFFFFFFFF110D04656467650CFFFFFFFF04FFFFFFFF0CFFFFFFFF0C2D0000000600000000000000000C2D00000006182D4454FB2119
310
400C1F0000000C2E0000000B0707756E6B6E6F776E110D067665727465780CFFFFFFFF04FFFFFFFF0CFFFFFFFF0C1600000004020000000C2F000000110E07656C6C697073650D0563757276650CFFFFFFFF04FFFFFFFF0CFFFFFFFF1300000000000000000000000000000000000000000000000014000000000000F03F00
310
0000000000000000000000000000801400000000000000800000000000000000CDCCCCCCCC3C40C006000000000000F03F0B0B110E0D737472696E675F6174747269620E0B6E616D655F6174747269620E0367656E0D066174747269620CFFFFFFFF04FFFFFFFF0CFFFFFFFF0CFFFFFFFF0C09000000150200000015010000
310
0015010000001502000000070F4154545249425F58414349535F49440703383234110D04666163650C4A00000004FFFFFFFF0CFFFFFFFF0C310000000C320000000C040000000CFFFFFFFF0C330000000B0B110D046C6F6F700CFFFFFFFF04FFFFFFFF0CFFFFFFFF0C340000000C350000000C18000000110E04636F6E650D
310
07737572666163650CFFFFFFFF04FFFFFFFF0CFFFFFFFF1300000000000035400000000000000000000000000000000014000000000000F0BF000000000000008000000000000000001400000000000000800000000000000000C3F5285C8FE241C006000000000000F03F0B0B06000000000000008006000000000000F03F
310
06C3F5285C8FE241400B0B0B0B0B110D046C6F6F700CFFFFFFFF04FFFFFFFF0CFFFFFFFF0CFFFFFFFF0C360000000C0F000000110D06636F656467650CFFFFFFFF04FFFFFFFF0CFFFFFFFF0C280000000C280000000C1C0000000C290000000A0C1900000004000000000CFFFFFFFF110D04656467650CFFFFFFFF04FFFFFF
310
FF0CFFFFFFFF0C370000000600000000000000000C3700000006182D4454FB2119400C1C0000000C380000000B0707756E6B6E6F776E110D067665727465780CFFFFFFFF04FFFFFFFF0CFFFFFFFF0C1E00000004020000000C39000000110E07656C6C697073650D0563757276650CFFFFFFFF04FFFFFFFF0CFFFFFFFF1306
310
0000000000E83F0000000000000000000000000000000014000000000000F03F0000000000000000000000000000008014000000000000008000000000000000009A99999999B93FC006000000000000F03F0B0B110D046C6F6F700CFFFFFFFF04FFFFFFFF0CFFFFFFFF0C3A0000000C1F0000000C3B000000110D06766572
310
7465780CFFFFFFFF04FFFFFFFF0CFFFFFFFF0C2000000004020000000C3C000000110E07656C6C697073650D0563757276650CFFFFFFFF04FFFFFFFF0CFFFFFFFF1300000000000000000000000000000000000000000000000014000000000000F03F00000000000000000000000000000080140000000000000080000000
310
000000000001000000004043C006000000000000F03F0B0B110D05706F696E740CFFFFFFFF04FFFFFFFF0CFFFFFFFF1300000000000000000000000000000000CDCCCCCCCC3C40C0110E0D737472696E675F6174747269620E0B6E616D655F6174747269620E0367656E0D066174747269620CFFFFFFFF04FFFFFFFF0CFFFF
310
FFFF0CFFFFFFFF0C0F0000001502000000150100000015010000001502000000070F4154545249425F58414349535F49440703383333110D04666163650C5800000004FFFFFFFF0CFFFFFFFF0C3E0000000C3F0000000C040000000CFFFFFFFF0C400000000B0B110D046C6F6F700CFFFFFFFF04FFFFFFFF0CFFFFFFFF0C41
310
0000000C420000000C24000000110E05746F7275730D07737572666163650CFFFFFFFF04FFFFFFFF0CFFFFFFFF1302000000008034400000000000000000000000000000000014000000000000F03F0000000000000000000000000000008006C3F5285C8F22424006040000000000E03F1400000000000000800000000000
310
000000000000000000F0BF0B0B0B0B0B110D046C6F6F700CFFFFFFFF04FFFFFFFF0CFFFFFFFF0CFFFFFFFF0C430000000C18000000110D06636F656467650CFFFFFFFF04FFFFFFFF0CFFFFFFFF0C350000000C350000000C440000000C450000000B0C2500000004000000000CFFFFFFFF110D06636F656467650CFFFFFFFF
310
04FFFFFFFF0CFFFFFFFF0C360000000C360000000C430000000C460000000B0C2700000004000000000CFFFFFFFF110D067665727465780CFFFFFFFF04FFFFFFFF0CFFFFFFFF0C2900000004020000000C47000000110E07656C6C697073650D0563757276650CFFFFFFFF04FFFFFFFF0CFFFFFFFF13007DDECD0805104000
310
00000000000000000000000000000014000000000000F03F0000000000000000000000000000008014000000000000008000000000000000009A99999999B93FC006000000000000F03F0B0B110D05706F696E740CFFFFFFFF04FFFFFFFF0CFFFFFFFF13060000000000E83F00000000000000009A99999999B93FC0110D04
310
6C6F6F700CFFFFFFFF04FFFFFFFF0CFFFFFFFF0CFFFFFFFF0C480000000C3B000000110D04666163650C6500000004FFFFFFFF0CFFFFFFFF0CFFFFFFFF0C2C0000000C040000000CFFFFFFFF0C490000000B0B110D05706F696E740CFFFFFFFF04FFFFFFFF0CFFFFFFFF130000000000000000000000000000000001000000
310
004043C0110E0D737472696E675F6174747269620E0B6E616D655F6174747269620E0367656E0D066174747269620CFFFFFFFF04FFFFFFFF0CFFFFFFFF0CFFFFFFFF0C180000001502000000150100000015010000001502000000070F4154545249425F58414349535F49440703383236110D04666163650C6600000004FF
310
FFFFFF0CFFFFFFFF0C4B0000000C4C0000000C040000000CFFFFFFFF0C4D0000000B0B110D046C6F6F700CFFFFFFFF04FFFFFFFF0CFFFFFFFF0C4E0000000C4F0000000C31000000110E05706C616E650D07737572666163650CFFFFFFFF04FFFFFFFF0CFFFFFFFF130100000000003540C3F5285C8F224240000000000000
310
000014000000000000F03F0000000000000000000000000000008014000000000000008000000000000000000000000000408FC00B0B0B0B0B110D046C6F6F700CFFFFFFFF04FFFFFFFF0CFFFFFFFF0CFFFFFFFF0C440000000C24000000110D06636F656467650CFFFFFFFF04FFFFFFFF0CFFFFFFFF0C420000000C420000
310
000C500000000C510000000B0C3200000004000000000CFFFFFFFF110D06636F656467650CFFFFFFFF04FFFFFFFF0CFFFFFFFF0C430000000C430000000C360000000C460000000A0C3400000004000000000CFFFFFFFF110D06636F656467650CFFFFFFFF04FFFFFFFF0CFFFFFFFF0C440000000C440000000C350000000C
310
450000000A0C4100000004000000000CFFFFFFFF110D04656467650CFFFFFFFF04FFFFFFFF0CFFFFFFFF0C520000000600000000000000000C5200000006182D4454FB2119400C350000000C530000000B0707756E6B6E6F776E110D04656467650CFFFFFFFF04FFFFFFFF0CFFFFFFFF0C540000000600000000000000000C
310
5400000006182D4454FB2119400C360000000C550000000B0707756E6B6E6F776E110D05706F696E740CFFFFFFFF04FFFFFFFF0CFFFFFFFF13007DDECD0805104000000000000000009A99999999B93FC0110D06636F656467650CFFFFFFFF04FFFFFFFF0CFFFFFFFF0C480000000C480000000C560000000C570000000A0C
310
3A00000004000000000CFFFFFFFF110E05746F7275730D07737572666163650CFFFFFFFF04FFFFFFFF0CFFFFFFFF13E5FFFFFFFFFFF73F0000000000000000000000000000000014000000000000F03F0000000000000000000000000000008006010000000040434006E7FFFFFFFFFFF73F14000000000000008000000000
310
00000000000000000000F0BF0B0B0B0B0B110E0D737472696E675F6174747269620E0B6E616D655F6174747269620E0367656E0D066174747269620CFFFFFFFF04FFFFFFFF0CFFFFFFFF0CFFFFFFFF0C240000001502000000150100000015010000001502000000070F4154545249425F58414349535F4944070338323711
310
0D04666163650C6E00000004FFFFFFFF0CFFFFFFFF0C3B0000000C590000000C040000000CFFFFFFFF0C5A0000000B0B110D046C6F6F700CFFFFFFFF04FFFFFFFF0CFFFFFFFF0C5B0000000C5C0000000C3E000000110E05746F7275730D07737572666163650CFFFFFFFF04FFFFFFFF0CFFFFFFFF13FDFFFFFFFFFF334000
310
00000000000000000000000000000014000000000000F03F0000000000000000000000000000008006FEFFFFFFFF7F434006330000000000F03F1400000000000000800000000000000000000000000000F0BF0B0B0B0B0B110D046C6F6F700CFFFFFFFF04FFFFFFFF0CFFFFFFFF0CFFFFFFFF0C500000000C31000000110D
310
06636F656467650CFFFFFFFF04FFFFFFFF0CFFFFFFFF0C4F0000000C4F0000000C5D0000000C5E0000000B0C3F00000004000000000CFFFFFFFF110D06636F656467650CFFFFFFFF04FFFFFFFF0CFFFFFFFF0C500000000C500000000C420000000C510000000A0C4E00000004000000000CFFFFFFFF110D04656467650CFF
310
FFFFFF04FFFFFFFF0CFFFFFFFF0C5F0000000600000000000000000C5F00000006182D4454FB2119400C420000000C600000000B0707756E6B6E6F776E110D067665727465780CFFFFFFFF04FFFFFFFF0CFFFFFFFF0C4500000004020000000C61000000110E07656C6C697073650D0563757276650CFFFFFFFF04FFFFFFFF
310
0CFFFFFFFF1300000000008034400000000000000000000000000000000014000000000000F03F000000000000000000000000000000801400000000000000800000000000000000C3F5285C8FE241C006000000000000F03F0B0B110D067665727465780CFFFFFFFF04FFFFFFFF0CFFFFFFFF0C4600000004020000000C62
310
000000110E07656C6C697073650D0563757276650CFFFFFFFF04FFFFFFFF0CFFFFFFFF13AFC3349089A627400000000000000000000000000000000014000000000000F03F000000000000000000000000000000801400000000000000800000000000000000C3F5285C8FE241C006000000000000F03F0B0B110D06636F65
310
6467650CFFFFFFFF04FFFFFFFF0CFFFFFFFF0C560000000C560000000C480000000C570000000B0C5900000004000000000CFFFFFFFF110D04656467650CFFFFFFFF04FFFFFFFF0CFFFFFFFF0C630000000600000000000000000C6300000006182D4454FB2119400C560000000C640000000B0707756E6B6E6F776E110E0D
310
737472696E675F6174747269620E0B6E616D655F6174747269620E0367656E0D066174747269620CFFFFFFFF04FFFFFFFF0CFFFFFFFF0CFFFFFFFF0C310000001502000000150100000015010000001502000000070F4154545249425F58414349535F49440703383238110D046C6F6F700CFFFFFFFF04FFFFFFFF0CFFFFFF
310
FF0C670000000C560000000C4B000000110E04636F6E650D07737572666163650CFFFFFFFF04FFFFFFFF0CFFFFFFFF1300000000000035400000000000000000000000000000000014000000000000F0BF000000000000008000000000000000001400000000000000800000000000000000FFFFFFFFFFFF43C00600000000
310
0000F03F0B0B06000000000000008006000000000000F03F06FFFFFFFFFFFF43400B0B0B0B0B110D046C6F6F700CFFFFFFFF04FFFFFFFF0CFFFFFFFF0CFFFFFFFF0C5D0000000C3E000000110D06636F656467650CFFFFFFFF04FFFFFFFF0CFFFFFFFF0C5C0000000C5C0000000C680000000C690000000B0C4C0000000400
310
0000000CFFFFFFFF110D06636F656467650CFFFFFFFF04FFFFFFFF0CFFFFFFFF0C5D0000000C5D0000000C4F0000000C5E0000000A0C5B00000004000000000CFFFFFFFF110D04656467650CFFFFFFFF04FFFFFFFF0CFFFFFFFF0C6A0000000600000000000000000C6A00000006182D4454FB2119400C4F0000000C6B0000
310
000B0707756E6B6E6F776E110D067665727465780CFFFFFFFF04FFFFFFFF0CFFFFFFFF0C5100000004020000000C6C000000110E07656C6C697073650D0563757276650CFFFFFFFF04FFFFFFFF0CFFFFFFFF1302000000000035400000000000000000000000000000000014000000000000F03F0000000000000000000000
310
00000000801400000000000000800000000000000000C3F5285C8F2242C006000000000000F03F0B0B110D05706F696E740CFFFFFFFF04FFFFFFFF0CFFFFFFFF1300000000008034400000000000000000C3F5285C8FE241C0110D05706F696E740CFFFFFFFF04FFFFFFFF0CFFFFFFFF13AFC3349089A62740000000000000
310
0000C3F5285C8FE241C0110D067665727465780CFFFFFFFF04FFFFFFFF0CFFFFFFFF0C5700000004020000000C6D000000110E07656C6C697073650D0563757276650CFFFFFFFF04FFFFFFFF0CFFFFFFFF13060000000000F83F0000000000000000000000000000000014000000000000F03F000000000000000000000000
310
00000080140000000000000080000000000000000000000000000044C006000000000000F03F0B0B110E0D737472696E675F6174747269620E0B6E616D655F6174747269620E0367656E0D066174747269620CFFFFFFFF04FFFFFFFF0CFFFFFFFF0CFFFFFFFF0C3B0000001502000000150100000015010000001502000000
310
070F4154545249425F58414349535F49440703383332110E0D737472696E675F6174747269620E0B6E616D655F6174747269620E0367656E0D066174747269620CFFFFFFFF04FFFFFFFF0CFFFFFFFF0CFFFFFFFF0C3E0000001502000000150100000015010000001502000000070F4154545249425F58414349535F494407
310
03383330110D046C6F6F700CFFFFFFFF04FFFFFFFF0CFFFFFFFF0CFFFFFFFF0C680000000C4B000000110D06636F656467650CFFFFFFFF04FFFFFFFF0CFFFFFFFF0C680000000C680000000C5C0000000C690000000A0C6700000004000000000CFFFFFFFF110D04656467650CFFFFFFFF04FFFFFFFF0CFFFFFFFF0C6F0000
310
000600000000000000000C6F00000006182D4454FB2119400C5C0000000C700000000B0707756E6B6E6F776E110D067665727465780CFFFFFFFF04FFFFFFFF0CFFFFFFFF0C5E00000004020000000C71000000110E07656C6C697073650D0563757276650CFFFFFFFF04FFFFFFFF0CFFFFFFFF130000000000003540000000
310
0000000000000000000000000014000000000000F03F00000000000000000000000000000080140000000000000080000000000000000000000000008043C006000000000000F03F0B0B110D05706F696E740CFFFFFFFF04FFFFFFFF0CFFFFFFFF1302000000000035400000000000000000C3F5285C8F2242C0110D05706F
310
696E740CFFFFFFFF04FFFFFFFF0CFFFFFFFF13060000000000F83F000000000000000000000000000044C0110E0D737472696E675F6174747269620E0B6E616D655F6174747269620E0367656E0D066174747269620CFFFFFFFF04FFFFFFFF0CFFFFFFFF0CFFFFFFFF0C4B0000001502000000150100000015010000001502
310
000000070F4154545249425F58414349535F49440703383331110D067665727465780CFFFFFFFF04FFFFFFFF0CFFFFFFFF0C6900000004020000000C72000000110E07656C6C697073650D0563757276650CFFFFFFFF04FFFFFFFF0CFFFFFFFF13FDFFFFFFFFFF334000000000000000000000000000000000140000000000
310
00F03F000000000000000000000000000000801400000000000000800000000000000000FFFFFFFFFFFF43C006000000000000F03F0B0B110D05706F696E740CFFFFFFFF04FFFFFFFF0CFFFFFFFF130000000000003540000000000000000000000000008043C0110D05706F696E740CFFFFFFFF04FFFFFFFF0CFFFFFFFF13
310
FDFFFFFFFFFF33400000000000000000FFFFFFFFFFFF43C0110E03456E640E026F660E0341534D0D0464617461
  0
ACDSRECORD
 90
        1
  2
AcDbDs::ID
280
    10
320
18D
  2
ASM_Data
280
    15
 94
     6513
310
414349532042696E61727946696C652855000000000000020000000C00000007214F70656E2044657369676E20416C6C69616E63652041434953204275696C646572070E41434953203231382E3030204E54071853756E204A756C2030392030303A33393A3039203230313706000000000000F03F068DEDB5A0F7C6B03E06
310
BBBDD7D9DF7CDB3D0D0961736D6865616465720CFFFFFFFF04FFFFFFFF070C3230382E302E342E37303039110D04626F64790C0200000004FFFFFFFF0CFFFFFFFF0C030000000CFFFFFFFF0CFFFFFFFF110E0D737472696E675F6174747269620E0B6E616D655F6174747269620E0367656E0D066174747269620CFFFFFFFF
310
04FFFFFFFF0CFFFFFFFF0CFFFFFFFF0C01000000150200000015010000001501000000150200000007114154545249425F58414349535F4E414D45070F5F37333037204245505F5041525431110D046C756D700CFFFFFFFF04FFFFFFFF0CFFFFFFFF0CFFFFFFFF0C040000000C01000000110D057368656C6C0CFFFFFFFF04
310
FFFFFFFF0CFFFFFFFF0CFFFFFFFF0CFFFFFFFF0C050000000CFFFFFFFF0C03000000110D04666163650C0E00000004FFFFFFFF0CFFFFFFFF0C060000000C070000000C040000000CFFFFFFFF0C080000000B0B110D04666163650C1700000004FFFFFFFF0CFFFFFFFF0C090000000C0A0000000C040000000CFFFFFFFF0C0B
310
0000000B0B110D046C6F6F700CFFFFFFFF04FFFFFFFF0CFFFFFFFF0C0C0000000C0D0000000C05000000110E04636F6E650D07737572666163650CFFFFFFFF04FFFFFFFF0CFFFFFFFF1300000000000035400000000000000000000000000000000014000000000000F0BF0000000000000080000000000000000014000000
310
000000008000000000000000008FC2F5285CCF35C006000000000000F03F0B0B06000000000000008006000000000000F03F068FC2F5285CCF35400B0B0B0B0B110D04666163650C2300000004FFFFFFFF0CFFFFFFFF0C0F0000000C100000000C040000000CFFFFFFFF0C110000000B0B110D046C6F6F700CFFFFFFFF04FF
310
FFFFFF0CFFFFFFFF0C120000000C130000000C06000000110E05706C616E650D07737572666163650CFFFFFFFF04FFFFFFFF0CFFFFFFFF1300000000000000008FC2F5285CCF3540000000000000000014000000000000F0BF0000000000000000000000000000000014000000000000000000000000000000000000000000
310
408F400B0B0B0B0B110D046C6F6F700CFFFFFFFF04FFFFFFFF0CFFFFFFFF0CFFFFFFFF0C140000000C05000000110D06636F656467650CFFFFFFFF04FFFFFFFF0CFFFFFFFF0C0D0000000C0D0000000C150000000C160000000B0C0700000004000000000CFFFFFFFF110E0D737472696E675F6174747269620E0B6E616D65
310
5F6174747269620E0367656E0D066174747269620CFFFFFFFF04FFFFFFFF0CFFFFFFFF0CFFFFFFFF0C050000001502000000150100000015010000001502000000070F4154545249425F58414349535F49440703383336110D04666163650C3100000004FFFFFFFF0CFFFFFFFF0C180000000C190000000C040000000CFFFF
310
FFFF0C1A0000000A0B110D046C6F6F700CFFFFFFFF04FFFFFFFF0CFFFFFFFF0C1B0000000C1C0000000C09000000110E05746F7275730D07737572666163650CFFFFFFFF04FFFFFFFF0CFFFFFFFF13EAFFFFFFFFFFF73F0000000000000000000000000000000014000000000000F03F000000000000000000000000000000
310
8006FEFFFFFFFFFF324006EAFFFFFFFFFFF73F1400000000000000800000000000000000000000000000F0BF0B0B0B0B0B110D046C6F6F700CFFFFFFFF04FFFFFFFF0CFFFFFFFF0CFFFFFFFF0C150000000C06000000110D06636F656467650CFFFFFFFF04FFFFFFFF0CFFFFFFFF0C130000000C130000000C1D0000000C1E
310
0000000B0C0A00000004000000000CFFFFFFFF110D06636F656467650CFFFFFFFF04FFFFFFFF0CFFFFFFFF0C140000000C140000000C1F0000000C200000000A0C0C00000004000000000CFFFFFFFF110D06636F656467650CFFFFFFFF04FFFFFFFF0CFFFFFFFF0C150000000C150000000C0D0000000C160000000A0C1200
310
000004000000000CFFFFFFFF110D04656467650CFFFFFFFF04FFFFFFFF0CFFFFFFFF0C210000000600000000000000000C2100000006182D4454FB2119400C0D0000000C220000000B0707756E6B6E6F776E110E0D737472696E675F6174747269620E0B6E616D655F6174747269620E0367656E0D066174747269620CFFFF
310
FFFF04FFFFFFFF0CFFFFFFFF0CFFFFFFFF0C060000001502000000150100000015010000001502000000070F4154545249425F58414349535F49440703383430110D04666163650C3E00000004FFFFFFFF0CFFFFFFFF0C240000000C250000000C040000000CFFFFFFFF0C260000000B0B110D046C6F6F700CFFFFFFFF04FF
310
FFFFFF0CFFFFFFFF0C270000000C280000000C0F000000110E04636F6E650D07737572666163650CFFFFFFFF04FFFFFFFF0CFFFFFFFF1300000000000035400000000000000000000000000000000014000000000000F0BF000000000000008000000000000000001400000000000000800000000000000000000000000080
310
31C006000000000000F03F0B0B06000000000000008006000000000000F03F0600000000008031400B0B0B0B0B110D046C6F6F700CFFFFFFFF04FFFFFFFF0CFFFFFFFF0CFFFFFFFF0C1D0000000C09000000110D06636F656467650CFFFFFFFF04FFFFFFFF0CFFFFFFFF0C1C0000000C1C0000000C290000000C2A0000000B
310
0C1000000004000000000CFFFFFFFF110D06636F656467650CFFFFFFFF04FFFFFFFF0CFFFFFFFF0C1D0000000C1D0000000C130000000C1E0000000A0C1B00000004000000000CFFFFFFFF110D04656467650CFFFFFFFF04FFFFFFFF0CFFFFFFFF0C2B0000000600000000000000000C2B00000006182D4454FB2119400C13
310
0000000C2C0000000B0707756E6B6E6F776E110D06636F656467650CFFFFFFFF04FFFFFFFF0CFFFFFFFF0C1F0000000C1F0000000C140000000C200000000B0C2D00000004000000000CFFFFFFFF110D04656467650CFFFFFFFF04FFFFFFFF0CFFFFFFFF0C2E0000000600000000000000000C2E00000006182D4454FB2119
310
400C1F0000000C2F0000000B0707756E6B6E6F776E110D067665727465780CFFFFFFFF04FFFFFFFF0CFFFFFFFF0C1600000004020000000C30000000110E07656C6C697073650D0563757276650CFFFFFFFF04FFFFFFFF0CFFFFFFFF1300000000000000000000000000000000000000000000000014000000000000F03F00
310
00000000000000000000000000008014000000000000008000000000000000008FC2F5285CCF35C006000000000000F03F0B0B110E0D737472696E675F6174747269620E0B6E616D655F6174747269620E0367656E0D066174747269620CFFFFFFFF04FFFFFFFF0CFFFFFFFF0CFFFFFFFF0C09000000150200000015010000
310
0015010000001502000000070F4154545249425F58414349535F49440703383334110D04666163650C4A00000004FFFFFFFF0CFFFFFFFF0C320000000C330000000C040000000CFFFFFFFF0C340000000B0B110D046C6F6F700CFFFFFFFF04FFFFFFFF0CFFFFFFFF0C350000000C360000000C18000000110E05746F727573
310
0D07737572666163650CFFFFFFFF04FFFFFFFF0CFFFFFFFF1302000000008033400000000000000000000000000000000014000000000000F03F0000000000000000000000000000008006FEFFFFFFFFFF324006D7FFFFFFFFFFF73F1400000000000000800000000000000000000000000000F0BF0B0B0B0B0B110D046C6F
310
6F700CFFFFFFFF04FFFFFFFF0CFFFFFFFF0CFFFFFFFF0C290000000C0F000000110D06636F656467650CFFFFFFFF04FFFFFFFF0CFFFFFFFF0C280000000C280000000C370000000C380000000B0C1900000004000000000CFFFFFFFF110D06636F656467650CFFFFFFFF04FFFFFFFF0CFFFFFFFF0C290000000C290000000C
310
1C0000000C2A0000000A0C2700000004000000000CFFFFFFFF110D04656467650CFFFFFFFF04FFFFFFFF0CFFFFFFFF0C390000000600000000000000000C3900000006182D4454FB2119400C1C0000000C3A0000000B0707756E6B6E6F776E110D067665727465780CFFFFFFFF04FFFFFFFF0CFFFFFFFF0C1E000000040200
310
00000C3B000000110E07656C6C697073650D0563757276650CFFFFFFFF04FFFFFFFF0CFFFFFFFF1300000000000000000000000000000000000000000000000014000000000000F03F00000000000000000000000000000080140000000000000080000000000000000000000000000033C006000000000000F03F0B0B110D
310
046C6F6F700CFFFFFFFF04FFFFFFFF0CFFFFFFFF0CFFFFFFFF0C1F0000000C3C000000110D067665727465780CFFFFFFFF04FFFFFFFF0CFFFFFFFF0C2000000004020000000C3D000000110E07656C6C697073650D0563757276650CFFFFFFFF04FFFFFFFF0CFFFFFFFF1380EE15AB249C2140000000000000000000000000
310
0000000014000000000000F03F0000000000000000000000000000008014000000000000008000000000000000008FC2F5285CCF35C006000000000000F03F0B0B110D05706F696E740CFFFFFFFF04FFFFFFFF0CFFFFFFFF13000000000000000000000000000000008FC2F5285CCF35C0110E0D737472696E675F61747472
310
69620E0B6E616D655F6174747269620E0367656E0D066174747269620CFFFFFFFF04FFFFFFFF0CFFFFFFFF0CFFFFFFFF0C0F0000001502000000150100000015010000001502000000070F4154545249425F58414349535F49440703383339110D04666163650C5300000004FFFFFFFF0CFFFFFFFF0C3C0000000C3F000000
310
0C040000000CFFFFFFFF0C400000000B0B110D046C6F6F700CFFFFFFFF04FFFFFFFF0CFFFFFFFF0C410000000C420000000C24000000110E05706C616E650D07737572666163650CFFFFFFFF04FFFFFFFF0CFFFFFFFF13FFFFFFFFFFFF34400000000000003340000000000000000014000000000000F03F00000000000000
310
00000000000000008014000000000000008000000000000000000000000000408FC00B0B0B0B0B110D046C6F6F700CFFFFFFFF04FFFFFFFF0CFFFFFFFF0CFFFFFFFF0C370000000C18000000110D06636F656467650CFFFFFFFF04FFFFFFFF0CFFFFFFFF0C360000000C360000000C430000000C440000000B0C2500000004
310
000000000CFFFFFFFF110D06636F656467650CFFFFFFFF04FFFFFFFF0CFFFFFFFF0C370000000C370000000C280000000C380000000A0C3500000004000000000CFFFFFFFF110D04656467650CFFFFFFFF04FFFFFFFF0CFFFFFFFF0C450000000600000000000000000C4500000006182D4454FB2119400C280000000C4600
310
00000B0707756E6B6E6F776E110D067665727465780CFFFFFFFF04FFFFFFFF0CFFFFFFFF0C2A00000004020000000C47000000110E07656C6C697073650D0563757276650CFFFFFFFF04FFFFFFFF0CFFFFFFFF13E7FFFFFFFFFFF73F0000000000000000000000000000000014000000000000F03F00000000000000000000
310
0000000000801400000000000000800000000000000000FFFFFFFFFF7F31C006000000000000F03F0B0B110D05706F696E740CFFFFFFFF04FFFFFFFF0CFFFFFFFF130000000000000000000000000000000000000000000033C0110D04666163650C5800000004FFFFFFFF0CFFFFFFFF0CFFFFFFFF0C480000000C04000000
310
0CFFFFFFFF0C490000000A0B110D05706F696E740CFFFFFFFF04FFFFFFFF0CFFFFFFFF1380EE15AB249C214000000000000000008FC2F5285CCF35C0110E0D737472696E675F6174747269620E0B6E616D655F6174747269620E0367656E0D066174747269620CFFFFFFFF04FFFFFFFF0CFFFFFFFF0CFFFFFFFF0C18000000
310
1502000000150100000015010000001502000000070F4154545249425F58414349535F49440703383335110D046C6F6F700CFFFFFFFF04FFFFFFFF0CFFFFFFFF0C4B0000000C4C0000000C32000000110E04636F6E650D07737572666163650CFFFFFFFF04FFFFFFFF0CFFFFFFFF1300000000000035400000000000000000
310
000000000000000014000000000000F0BF0000000000000080000000000000000014000000000000008000000000000000003433333333533AC006000000000000F03F0B0B06000000000000008006000000000000F03F063433333333533A400B0B0B0B0B110D046C6F6F700CFFFFFFFF04FFFFFFFF0CFFFFFFFF0CFFFFFF
310
FF0C430000000C24000000110D06636F656467650CFFFFFFFF04FFFFFFFF0CFFFFFFFF0C420000000C420000000C4D0000000C4E0000000B0C3300000004000000000CFFFFFFFF110D06636F656467650CFFFFFFFF04FFFFFFFF0CFFFFFFFF0C430000000C430000000C360000000C440000000A0C4100000004000000000C
310
FFFFFFFF110D04656467650CFFFFFFFF04FFFFFFFF0CFFFFFFFF0C4F0000000600000000000000000C4F00000006182D4454FB2119400C360000000C500000000B0707756E6B6E6F776E110D067665727465780CFFFFFFFF04FFFFFFFF0CFFFFFFFF0C3800000004020000000C51000000110E07656C6C697073650D056375
310
7276650CFFFFFFFF04FFFFFFFF0CFFFFFFFF1300000000008033400000000000000000000000000000000014000000000000F03F00000000000000000000000000000080140000000000000080000000000000000000000000008031C006000000000000F03F0B0B110D05706F696E740CFFFFFFFF04FFFFFFFF0CFFFFFFFF
310
13E7FFFFFFFFFFF73F0000000000000000FFFFFFFFFF7F31C0110D046C6F6F700CFFFFFFFF04FFFFFFFF0CFFFFFFFF0C2D0000000C520000000C3C000000110E05746F7275730D07737572666163650CFFFFFFFF04FFFFFFFF0CFFFFFFFF1301000000000025400000000000000000000000000000000014000000000000F0
310
3F00000000000000000000000000000080060000000000C03C4006FA7E6ABC74931C401400000000000000800000000000000000000000000000F0BF0B0B0B0B0B110E0D737472696E675F6174747269620E0B6E616D655F6174747269620E0367656E0D066174747269620CFFFFFFFF04FFFFFFFF0CFFFFFFFF0CFFFFFFFF
310
0C240000001502000000150100000015010000001502000000070F4154545249425F58414349535F49440703383431110D046C6F6F700CFFFFFFFF04FFFFFFFF0CFFFFFFFF0CFFFFFFFF0C4D0000000C32000000110D06636F656467650CFFFFFFFF04FFFFFFFF0CFFFFFFFF0C4C0000000C4C0000000C520000000C540000
310
000B0C3F00000004000000000CFFFFFFFF110D06636F656467650CFFFFFFFF04FFFFFFFF0CFFFFFFFF0C4D0000000C4D0000000C420000000C4E0000000A0C4B00000004000000000CFFFFFFFF110D04656467650CFFFFFFFF04FFFFFFFF0CFFFFFFFF0C550000000600000000000000000C5500000006182D4454FB211940
310
0C420000000C560000000B0707756E6B6E6F776E110D067665727465780CFFFFFFFF04FFFFFFFF0CFFFFFFFF0C4400000004020000000C57000000110E07656C6C697073650D0563757276650CFFFFFFFF04FFFFFFFF0CFFFFFFFF13FFFFFFFFFFFF34400000000000000000000000000000000014000000000000F03F0000
310
00000000000000000000000000801400000000000000800000000000000000FEFFFFFFFFFF32C006000000000000F03F0B0B110D05706F696E740CFFFFFFFF04FFFFFFFF0CFFFFFFFF130000000000803340000000000000000000000000008031C0110D06636F656467650CFFFFFFFF04FFFFFFFF0CFFFFFFFF0C52000000
310
0C520000000C4C0000000C540000000A0C4800000004000000000CFFFFFFFF110E0D737472696E675F6174747269620E0B6E616D655F6174747269620E0367656E0D066174747269620CFFFFFFFF04FFFFFFFF0CFFFFFFFF0CFFFFFFFF0C320000001502000000150100000015010000001502000000070F4154545249425F
310
58414349535F49440703383337110D04656467650CFFFFFFFF04FFFFFFFF0CFFFFFFFF0C590000000600000000000000000C5900000006182D4454FB2119400C4C0000000C5A0000000B0707756E6B6E6F776E110D067665727465780CFFFFFFFF04FFFFFFFF0CFFFFFFFF0C4E00000004020000000C5B000000110E07656C
310
6C697073650D0563757276650CFFFFFFFF04FFFFFFFF0CFFFFFFFF1300000000000035400000000000000000000000000000000014000000000000F03F0000000000000000000000000000008014000000000000008000000000000000003433333333533AC006000000000000F03F0B0B110D05706F696E740CFFFFFFFF04
310
FFFFFFFF0CFFFFFFFF13FFFFFFFFFFFF34400000000000000000FEFFFFFFFFFF32C0110E0D737472696E675F6174747269620E0B6E616D655F6174747269620E0367656E0D066174747269620CFFFFFFFF04FFFFFFFF0CFFFFFFFF0CFFFFFFFF0C3C0000001502000000150100000015010000001502000000070F41545452
310
49425F58414349535F49440703383338110D067665727465780CFFFFFFFF04FFFFFFFF0CFFFFFFFF0C5400000004020000000C5C000000110E07656C6C697073650D0563757276650CFFFFFFFF04FFFFFFFF0CFFFFFFFF13943B1DC2463831400000000000000000000000000000000014000000000000F03F000000000000
310
0000000000000000008014000000000000008000000000000000003433333333533AC006000000000000F03F0B0B110D05706F696E740CFFFFFFFF04FFFFFFFF0CFFFFFFFF13000000000000354000000000000000003433333333533AC0110D05706F696E740CFFFFFFFF04FFFFFFFF0CFFFFFFFF13943B1DC24638314000
310
000000000000003433333333533AC0110E03456E640E026F660E0341534D0D0464617461
  0
ENDSEC
  0
EOF