0
SECTION
  2
HEADER
  9
$ACADVER
  1
AC1027
  9
$ACADMAINTVER
 70
     8
  9
$DWGCODEPAGE
  3
ANSI_1252
  9
$REQUIREDVERSIONS
160
                 0
  9
$COMMENTS
  1
File was created by Cadenas
  9
$CUSTOMPROPERTYTAG
  1
NN
  9
$CUSTOMPROPERTY
  1
BA1_010
  9
$CUSTOMPROPERTYTAG
  1
NT
  9
$CUSTOMPROPERTY
  1
Angular contact ball bearings, super-precision
  9
$CUSTOMPROPERTYTAG
  1
NB
  9
$CUSTOMPROPERTY
  1
7017 ACD/P4A
  9
$CUSTOMPROPERTYTAG
  1
NBSYN
  9
$CUSTOMPROPERTY
  1
$DESIGNATION.
  9
$CUSTOMPROPERTYTAG
  1
LINA
  9
$CUSTOMPROPERTY
  1
7017 ACD/P4A
  9
$CUSTOMPROPERTYTAG
  1
DESIGNATION
  9
$CUSTOMPROPERTY
  1
7017 ACD/P4A
  9
$CUSTOMPROPERTYTAG
  1
DD
  9
$CUSTOMPROPERTY
  1
85.000
  9
$CUSTOMPROPERTYTAG
  1
D
  9
$CUSTOMPROPERTY
  1
130.000
  9
$CUSTOMPROPERTYTAG
  1
B
  9
$CUSTOMPROPERTY
  1
22.000
  9
$CUSTOMPROPERTYTAG
  1
LOAD1
  9
$CUSTOMPROPERTY
  1
63.700
  9
$CUSTOMPROPERTYTAG
  1
LOAD2
  9
$CUSTOMPROPERTY
  1
62.000
  9
$CUSTOMPROPERTYTAG
  1
LOAD3
  9
$CUSTOMPROPERTY
  1
2.500
  9
$CUSTOMPROPERTYTAG
  1
SPEED1
  9
$CUSTOMPROPERTY
  1
9000
  9
$CUSTOMPROPERTYTAG
  1
SPEED2
  9
$CUSTOMPROPERTY
  1
14000
  9
$CUSTOMPROPERTYTAG
  1
COMPANY
  9
$CUSTOMPROPERTY
  1
SKF
  9
$INSBASE
 10
0.0
 20
0.0
 30
0.0
  9
$EXTMIN
 10
1.000000000000000E+20
 20
1.000000000000000E+20
 30
1.000000000000000E+20
  9
$EXTMAX
 10
-1.000000000000000E+20
 20
-1.000000000000000E+20
 30
-1.000000000000000E+20
  9
$LIMMIN
 10
0.0
 20
0.0
  9
$LIMMAX
 10
420.0
 20
297.0
  9
$ORTHOMODE
 70
     0
  9
$REGENMODE
 70
     1
  9
$FILLMODE
 70
     1
  9
$QTEXTMODE
 70
     0
  9
$MIRRTEXT
 70
     1
  9
$LTSCALE
 40
1.0
  9
$ATTMODE
 70
     1
  9
$TEXTSIZE
 40
2.5
  9
$TRACEWID
 40
1.0
  9
$TEXTSTYLE
  7
Standard
  9
$CLAYER
  8
0
  9
$CELTYPE
  6
ByLayer
  9
$CECOLOR
 62
   256
  9
$CELTSCALE
 40
1.0
  9
$DISPSILH
 70
     0
  9
$DIMSCALE
 40
1.0
  9
$DIMASZ
 40
2.5
  9
$DIMEXO
 40
0.625
  9
$DIMDLI
 40
3.75
  9
$DIMRND
 40
0.0
  9
$DIMDLE
 40
0.0
  9
$DIMEXE
 40
1.25
  9
$DIMTP
 40
0.0
  9
$DIMTM
 40
0.0
  9
$DIMTXT
 40
2.5
  9
$DIMCEN
 40
2.5
  9
$DIMTSZ
 40
0.0
  9
$DIMTOL
 70
     0
  9
$DIMLIM
 70
     0
  9
$DIMTIH
 70
     0
  9
$DIMTOH
 70
     0
  9
$DIMSE1
 70
     0
  9
$DIMSE2
 70
     0
  9
$DIMTAD
 70
     1
  9
$DIMZIN
 70
     8
  9
$DIMBLK
  1

  9
$DIMASO
 70
     1
  9
$DIMSHO
 70
     1
  9
$DIMPOST
  1

  9
$DIMAPOST
  1

  9
$DIMALT
 70
     0
  9
$DIMALTD
 70
     3
  9
$DIMALTF
 40
0.03937007874016
  9
$DIMLFAC
 40
1.0
  9
$DIMTOFL
 70
     1
  9
$DIMTVP
 40
0.0
  9
$DIMTIX
 70
     0
  9
$DIMSOXD
 70
     0
  9
$DIMSAH
 70
     0
  9
$DIMBLK1
  1

  9
$DIMBLK2
  1

  9
$DIMSTYLE
  2
ISO-25
  9
$DIMCLRD
 70
     0
  9
$DIMCLRE
 70
     0
  9
$DIMCLRT
 70
     0
  9
$DIMTFAC
 40
1.0
  9
$DIMGAP
 40
0.625
  9
$DIMJUST
 70
     0
  9
$DIMSD1
 70
     0
  9
$DIMSD2
 70
     0
  9
$DIMTOLJ
 70
     0
  9
$DIMTZIN
 70
     8
  9
$DIMALTZ
 70
     0
  9
$DIMALTTZ
 70
     0
  9
$DIMUPT
 70
     0
  9
$DIMDEC
 70
     2
  9
$DIMTDEC
 70
     2
  9
$DIMALTU
 70
     2
  9
$DIMALTTD
 70
     3
  9
$DIMTXSTY
  7
Standard
  9
$DIMAUNIT
 70
     0
  9
$DIMADEC
 70
     0
  9
$DIMALTRND
 40
0.0
  9
$DIMAZIN
 70
     0
  9
$DIMDSEP
 70
    44
  9
$DIMATFIT
 70
     3
  9
$DIMFRAC
 70
     0
  9
$DIMLDRBLK
  1

  9
$DIMLUNIT
 70
     2
  9
$DIMLWD
 70
    -2
  9
$DIMLWE
 70
    -2
  9
$DIMTMOVE
 70
     0
  9
$DIMFXL
 40
1.0
  9
$DIMFXLON
 70
     0
  9
$DIMJOGANG
 40
0.7853981633974483
  9
$DIMTFILL
 70
     0
  9
$DIMTFILLCLR
 70
     0
  9
$DIMARCSYM
 70
     0
  9
$DIMLTYPE
  6

  9
$DIMLTEX1
  6

  9
$DIMLTEX2
  6

  9
$DIMTXTDIRECTION
 70
     0
  9
$LUNITS
 70
     2
  9
$LUPREC
 70
     4
  9
$SKETCHINC
 40
1.0
  9
$FILLETRAD
 40
10.0
  9
$AUNITS
 70
     0
  9
$AUPREC
 70
     0
  9
$MENU
  1
.
  9
$ELEVATION
 40
0.0
  9
$PELEVATION
 40
0.0
  9
$THICKNESS
 40
0.0
  9
$LIMCHECK
 70
     0
  9
$CHAMFERA
 40
0.0
  9
$CHAMFERB
 40
0.0
  9
$CHAMFERC
 40
0.0
  9
$CHAMFERD
 40
0.0
  9
$SKPOLY
 70
     0
  9
$TDCREATE
 40
2457944.042864479
  9
$TDUCREATE
 40
2457943.959531146
  9
$TDUPDATE
 40
2457944.042879676
  9
$TDUUPDATE
 40
2457943.959546342
  9
$TDINDWG
 40
0.0000000116
  9
$TDUSRTIMER
 40
0.0000000116
  9
$USRTIMER
 70
     1
  9
$ANGBASE
 50
0.0
  9
$ANGDIR
 70
     0
  9
$PDMODE
 70
     0
  9
$PDSIZE
 40
0.0
  9
$PLINEWID
 40
0.0
  9
$SPLFRAME
 70
     0
  9
$SPLINETYPE
 70
     6
  9
$SPLINESEGS
 70
     8
  9
$HANDSEED
  5
254
  9
$SURFTAB1
 70
     6
  9
$SURFTAB2
 70
     6
  9
$SURFTYPE
 70
     6
  9
$SURFU
 70
     6
  9
$SURFV
 70
     6
  9
$UCSBASE
  2

  9
$UCSNAME
  2

  9
$UCSORG
 10
0.0
 20
0.0
 30
0.0
  9
$UCSXDIR
 10
1.0
 20
0.0
 30
0.0
  9
$UCSYDIR
 10
0.0
 20
1.0
 30
0.0
  9
$UCSORTHOREF
  2

  9
$UCSORTHOVIEW
 70
     0
  9
$UCSORGTOP
 10
0.0
 20
0.0
 30
0.0
  9
$UCSORGBOTTOM
 10
0.0
 20
0.0
 30
0.0
  9
$UCSORGLEFT
 10
0.0
 20
0.0
 30
0.0
  9
$UCSORGRIGHT
 10
0.0
 20
0.0
 30
0.0
  9
$UCSORGFRONT
 10
0.0
 20
0.0
 30
0.0
  9
$UCSORGBACK
 10
0.0
 20
0.0
 30
0.0
  9
$PUCSBASE
  2

  9
$PUCSNAME
  2

  9
$PUCSORG
 10
0.0
 20
0.0
 30
0.0
  9
$PUCSXDIR
 10
1.0
 20
0.0
 30
0.0
  9
$PUCSYDIR
 10
0.0
 20
1.0
 30
0.0
  9
$PUCSORTHOREF
  2

  9
$PUCSORTHOVIEW
 70
     0
  9
$PUCSORGTOP
 10
0.0
 20
0.0
 30
0.0
  9
$PUCSORGBOTTOM
 10
0.0
 20
0.0
 30
0.0
  9
$PUCSORGLEFT
 10
0.0
 20
0.0
 30
0.0
  9
$PUCSORGRIGHT
 10
0.0
 20
0.0
 30
0.0
  9
$PUCSORGFRONT
 10
0.0
 20
0.0
 30
0.0
  9
$PUCSORGBACK
 10
0.0
 20
0.0
 30
0.0
  9
$USERI1
 70
     0
  9
$USERI2
 70
     0
  9
$USERI3
 70
     0
  9
$USERI4
 70
     0
  9
$USERI5
 70
     0
  9
$USERR1
 40
0.0
  9
$USERR2
 40
0.0
  9
$USERR3
 40
0.0
  9
$USERR4
 40
0.0
  9
$USERR5
 40
0.0
  9
$WORLDVIEW
 70
     1
  9
$SHADEDGE
 70
     3
  9
$SHADEDIF
 70
    70
  9
$TILEMODE
 70
     1
  9
$MAXACTVP
 70
    64
  9
$PINSBASE
 10
0.0
 20
0.0
 30
0.0
  9
$PLIMCHECK
 70
     0
  9
$PEXTMIN
 10
1.000000000000000E+20
 20
1.000000000000000E+20
 30
1.000000000000000E+20
  9
$PEXTMAX
 10
-1.000000000000000E+20
 20
-1.000000000000000E+20
 30
-1.000000000000000E+20
  9
$PLIMMIN
 10
0.0
 20
0.0
  9
$PLIMMAX
 10
420.0
 20
297.0
  9
$UNITMODE
 70
     0
  9
$VISRETAIN
 70
     1
  9
$PLINEGEN
 70
     0
  9
$PSLTSCALE
 70
     1
  9
$TREEDEPTH
 70
  3020
  9
$CMLSTYLE
  2
Standard
  9
$CMLJUST
 70
     0
  9
$CMLSCALE
 40
20.0
  9
$PROXYGRAPHICS
 70
     1
  9
$MEASUREMENT
 70
     1
  9
$CELWEIGHT
370
    -1
  9
$ENDCAPS
280
     0
  9
$JOINSTYLE
280
     0
  9
$LWDISPLAY
290
     0
  9
$INSUNITS
 70
     4
  9
$HYPERLINKBASE
  1

  9
$STYLESHEET
  1

  9
$XEDIT
290
     1
  9
$CEPSNTYPE
380
     0
  9
$PSTYLEMODE
290
     1
  9
$FINGERPRINTGUID
  2
{074ED604-D5E2-41A5-B06C-B4FE29808EA9}
  9
$VERSIONGUID
  2
{FAEB1C32-E019-11D5-929B-00C0DF256EC4}
  9
$EXTNAMES
290
     1
  9
$PSVPSCALE
 40
0.0
  9
$OLESTARTUP
290
     0
  9
$SORTENTS
280
   127
  9
$INDEXCTL
280
     0
  9
$HIDETEXT
280
     1
  9
$XCLIPFRAME
280
     2
  9
$HALOGAP
280
     0
  9
$OBSCOLOR
 70
   257
  9
$OBSLTYPE
280
     0
  9
$INTERSECTIONDISPLAY
280
     0
  9
$INTERSECTIONCOLOR
 70
   257
  9
$DIMASSOC
280
     2
  9
$PROJECTNAME
  1

  9
$CAMERADISPLAY
290
     0
  9
$LENSLENGTH
 40
50.0
  9
$CAMERAHEIGHT
 40
0.0
  9
$STEPSPERSEC
 40
2.0
  9
$STEPSIZE
 40
6.0
  9
$3DDWFPREC
 40
2.0
  9
$PSOLWIDTH
 40
5.0
  9
$PSOLHEIGHT
 40
80.0
  9
$LOFTANG1
 40
1.570796326794897
  9
$LOFTANG2
 40
1.570796326794897
  9
$LOFTMAG1
 40
0.0
  9
$LOFTMAG2
 40
0.0
  9
$LOFTPARAM
 70
     7
  9
$LOFTNORMALS
280
     1
  9
$LATITUDE
 40
37.795
  9
$LONGITUDE
 40
-122.394
  9
$NORTHDIRECTION
 40
0.0
  9
$TIMEZONE
 70
 -8000
  9
$LIGHTGLYPHDISPLAY
280
     1
  9
$TILEMODELIGHTSYNCH
280
     1
  9
$CMATERIAL
347
44
  9
$SOLIDHIST
280
     0
  9
$SHOWHIST
280
     1
  9
$DWFFRAME
280
     2
  9
$DGNFRAME
280
     2
  9
$REALWORLDSCALE
290
     1
  9
$INTERFERECOLOR
 62
   256
  9
$CSHADOW
280
     0
  9
$SHADOWPLANELOCATION
 40
0.0
  0
ENDSEC
  0
SECTION
  2
CLASSES
  0
CLASS
  1
ACDBDICTIONARYWDFLT
  2
AcDbDictionaryWithDefault
  3
ObjectDBX Classes
 90
        0
 91
        4
280
     0
281
     0
  0
CLASS
  1
VISUALSTYLE
  2
AcDbVisualStyle
  3
ObjectDBX Classes
 90
     4095
 91
        4
280
     0
281
     0
  0
CLASS
  1
MATERIAL
  2
AcDbMaterial
  3
ObjectDBX Classes
 90
     1153
 91
        4
280
     0
281
     0
  0
CLASS
  1
SCALE
  2
AcDbScale
  3
ObjectDBX Classes
 90
     1153
 91
        4
280
     0
281
     0
  0
CLASS
  1
TABLESTYLE
  2
AcDbTableStyle
  3
ObjectDBX Classes
 90
     4095
 91
        4
280
     0
281
     0
  0
CLASS
  1
MLEADERSTYLE
  2
AcDbMLeaderStyle
  3
ACDB_MLEADERSTYLE_CLASS
 90
     4095
 91
        4
280
     0
281
     0
  0
CLASS
  1
SUN
  2
AcDbSun
  3
SCENEOE
 90
     1153
 91
        4
280
     0
281
     0
  0
CLASS
  1
DICTIONARYVAR
  2
AcDbDictionaryVar
  3
ObjectDBX Classes
 90
        0
 91
        4
280
     0
281
     0
  0
CLASS
  1
CELLSTYLEMAP
  2
AcDbCellStyleMap
  3
ObjectDBX Classes
 90
     1152
 91
        4
280
     0
281
     0
  0
ENDSEC
  0
SECTION
  2
TABLES
  0
TABLE
  2
VPORT
  5
8
330
0
100
AcDbSymbolTable
 70
     1
  0
VPORT
  5
29
330
8
100
AcDbSymbolTableRecord
100
AcDbViewportTableRecord
  2
*Active
 70
     0
 10
0.0
 20
0.0
 11
1.0
 21
1.0
 12
15.79761904761921
 22
0.2500000000000568
 13
0.0
 23
0.0
 14
10.0
 24
10.0
 15
10.0
 25
10.0
 16
0.0
 26
0.0
 36
1.0
 17
0.0
 27
0.0
 37
0.0
 40
133.1100000000001
 41
0.2421091041780728
 42
50.0
 43
0.0
 44
0.0
 50
0.0
 51
0.0
 71
     0
 72
   100
 73
     1
 74
     3
 75
     0
 76
     0
 77
     0
 78
     0
281
     0
 65
     1
110
0.0
120
0.0
130
0.0
111
1.0
121
0.0
131
0.0
112
0.0
122
1.0
132
0.0
 79
     0
146
0.0
348
2F
 60
     3
 61
     5
292
     1
282
     1
141
0.0
142
0.0
 63
   250
361
6D
  0
ENDTAB
  0
TABLE
  2
LTYPE
  5
5
330
0
100
AcDbSymbolTable
 70
     1
  0
LTYPE
  5
14
330
5
100
AcDbSymbolTableRecord
100
AcDbLinetypeTableRecord
  2
ByBlock
 70
     0
  3

 72
    65
 73
     0
 40
0.0
  0
LTYPE
  5
15
330
5
100
AcDbSymbolTableRecord
100
AcDbLinetypeTableRecord
  2
ByLayer
 70
     0
  3

 72
    65
 73
     0
 40
0.0
  0
LTYPE
  5
16
330
5
100
AcDbSymbolTableRecord
100
AcDbLinetypeTableRecord
  2
Continuous
 70
     0
  3
Solid line
 72
    65
 73
     0
 40
0.0
  0
ENDTAB
  0
TABLE
  2
LAYER
  5
2
330
0
100
AcDbSymbolTable
 70
     3
  0
LAYER
  5
10
330
2
100
AcDbSymbolTableRecord
100
AcDbLayerTableRecord
  2
0
 70
     0
 62
     7
  6
Continuous
370
    -3
390
F
347
46
348
0
  0
LAYER
  5
6E
330
2
100
AcDbSymbolTableRecord
100
AcDbLayerTableRecord
  2
AM_6
 70
     0
 62
    -2
  6
Continuous
370
    35
390
F
347
46
348
0
  0
LAYER
  5
82
330
2
100
AcDbSymbolTableRecord
100
AcDbLayerTableRecord
  2
AM_0
 70
     0
 62
     2
  6
Continuous
370
    35
390
F
347
46
348
0
  0
ENDTAB
  0
TABLE
  2
STYLE
  5
3
330
0
100
AcDbSymbolTable
 70
     1
  0
STYLE
  5
11
330
3
100
AcDbSymbolTableRecord
100
AcDbTextStyleTableRecord
  2
Standard
 70
     0
 40
0.0
 41
1.0
 50
0.0
 71
     0
 42
2.5
  3
txt
  4

  0
ENDTAB
  0
TABLE
  2
VIEW
  5
6
330
0
100
AcDbSymbolTable
 70
     0
  0
ENDTAB
  0
TABLE
  2
UCS
  5
7
330
0
100
AcDbSymbolTable
 70
     0
  0
ENDTAB
  0
TABLE
  2
APPID
  5
9
330
0
100
AcDbSymbolTable
 70
     1
  0
APPID
  5
12
330
9
100
AcDbSymbolTableRecord
100
AcDbRegAppTableRecord
  2
ACAD
 70
     0
  0
ENDTAB
  0
TABLE
  2
DIMSTYLE
  5
A
330
0
100
AcDbSymbolTable
 70
     1
100
AcDbDimStyleTable
  0
DIMSTYLE
105
27
330
A
100
AcDbSymbolTableRecord
100
AcDbDimStyleTableRecord
  2
ISO-25
 70
     0
 41
2.5
 42
0.625
 43
3.75
 44
1.25
 73
     0
 74
     0
 77
     1
 78
     8
140
2.5
141
2.5
143
0.03937007874016
147
0.625
171
     3
172
     1
178
     0
271
     2
272
     2
274
     3
278
    44
283
     0
284
     8
340
11
  0
ENDTAB
  0
TABLE
  2
BLOCK_RECORD
  5
1
330
0
100
AcDbSymbolTable
 70
    24
  0
BLOCK_RECORD
  5
1F
330
1
100
AcDbSymbolTableRecord
100
AcDbBlockTableRecord
  2
*Model_Space
340
22
 70
     0
280
     1
281
     0
  0
BLOCK_RECORD
  5
1B
330
1
100
AcDbSymbolTableRecord
100
AcDbBlockTableRecord
  2
*Paper_Space
340
1E
 70
     0
280
     1
281
     0
  0
BLOCK_RECORD
  5
23
330
1
100
AcDbSymbolTableRecord
100
AcDbBlockTableRecord
  2
*Paper_Space0
340
26
 70
     0
280
     1
281
     0
  0
BLOCK_RECORD
  5
7E
330
1
100
AcDbSymbolTableRecord
100
AcDbBlockTableRecord
  2
1_PART_7017_ACD_P4A_PART1_in_ASM_7017_ACD_P4A
340
0
102
{BLKREFS
331
7F
102
}
 70
     0
280
     1
281
     0
  0
BLOCK_RECORD
  5
93
330
1
100
AcDbSymbolTableRecord
100
AcDbBlockTableRecord
  2
2_PART_7017_ACD_P4A_PART2_in_ASM_7017_ACD_P4A
340
0
102
{BLKREFS
331
94
102
}
 70
     0
280
     1
281
     0
  0
BLOCK_RECORD
  5
A7
330
1
100
AcDbSymbolTableRecord
100
AcDbBlockTableRecord
  2
3_PART_7017_ACD_P4A_PART3_in_ASM_7017_ACD_P4A
340
0
102
{BLKREFS
331
A8
102
}
 70
     0
280
     1
281
     0
  0
BLOCK_RECORD
  5
BB
330
1
100
AcDbSymbolTableRecord
100
AcDbBlockTableRecord
  2
4_PART_7017_ACD_P4A_PART3_in_ASM_7017_ACD_P4A
340
0
102
{BLKREFS
331
BC
102
}
 70
     0
280
     1
281
     0
  0
BLOCK_RECORD
  5
CF
330
1
100
AcDbSymbolTableRecord
100
AcDbBlockTableRecord
  2
5_PART_7017_ACD_P4A_PART3_in_ASM_7017_ACD_P4A
340
0
102
{BLKREFS
331
D0
102
}
 70
     0
280
     1
281
     0
  0
BLOCK_RECORD
  5
E3
330
1
100
AcDbSymbolTableRecord
100
AcDbBlockTableRecord
  2
6_PART_7017_ACD_P4A_PART3_in_ASM_7017_ACD_P4A
340
0
102
{BLKREFS
331
E4
102
}
 70
     0
280
     1
281
     0
  0
BLOCK_RECORD
  5
F7
330
1
100
AcDbSymbolTableRecord
100
AcDbBlockTableRecord
  2
7_PART_7017_ACD_P4A_PART3_in_ASM_7017_ACD_P4A
340
0
102
{BLKREFS
331
F8
102
}
 70
     0
280
     1
281
     0
  0
BLOCK_RECORD
  5
10B
330
1
100
AcDbSymbolTableRecord
100
AcDbBlockTableRecord
  2
8_PART_7017_ACD_P4A_PART3_in_ASM_7017_ACD_P4A
340
0
102
{BLKREFS
331
10C
102
}
 70
     0
280
     1
281
     0
  0
BLOCK_RECORD
  5
11F
330
1
100
AcDbSymbolTableRecord
100
AcDbBlockTableRecord
  2
9_PART_7017_ACD_P4A_PART3_in_ASM_7017_ACD_P4A
340
0
102
{BLKREFS
331
120
102
}
 70
     0
280
     1
281
     0
  0
BLOCK_RECORD
  5
133
330
1
100
AcDbSymbolTableRecord
100
AcDbBlockTableRecord
  2
10_PART_7017_ACD_P4A_PART3_in_ASM_7017_ACD_P4A
340
0
102
{BLKREFS
331
134
102
}
 70
     0
280
     1
281
     0
  0
BLOCK_RECORD
  5
147
330
1
100
AcDbSymbolTableRecord
100
AcDbBlockTableRecord
  2
11_PART_7017_ACD_P4A_PART3_in_ASM_7017_ACD_P4A
340
0
102
{BLKREFS
331
148
102
}
 70
     0
280
     1
281
     0
  0
BLOCK_RECORD
  5
15B
330
1
100
AcDbSymbolTableRecord
100
AcDbBlockTableRecord
  2
12_PART_7017_ACD_P4A_PART3_in_ASM_7017_ACD_P4A
340
0
102
{BLKREFS
331
15C
102
}
 70
     0
280
     1
281
     0
  0
BLOCK_RECORD
  5
16F
330
1
100
AcDbSymbolTableRecord
100
AcDbBlockTableRecord
  2
13_PART_7017_ACD_P4A_PART3_in_ASM_7017_ACD_P4A
340
0
102
{BLKREFS
331
170
102
}
 70
     0
280
     1
281
     0
  0
BLOCK_RECORD
  5
183
330
1
100
AcDbSymbolTableRecord
100
AcDbBlockTableRecord
  2
14_PART_7017_ACD_P4A_PART3_in_ASM_7017_ACD_P4A
340
0
102
{BLKREFS
331
184
102
}
 70
     0
280
     1
281
     0
  0
BLOCK_RECORD
  5
197
330
1
100
AcDbSymbolTableRecord
100
AcDbBlockTableRecord
  2
15_PART_7017_ACD_P4A_PART3_in_ASM_7017_ACD_P4A
340
0
102
{BLKREFS
331
198
102
}
 70
     0
280
     1
281
     0
  0
BLOCK_RECORD
  5
1AB
330
1
100
AcDbSymbolTableRecord
100
AcDbBlockTableRecord
  2
16_PART_7017_ACD_P4A_PART3_in_ASM_7017_ACD_P4A
340
0
102
{BLKREFS
331
1AC
102
}
 70
     0
280
     1
281
     0
  0
BLOCK_RECORD
  5
1BF
330
1
100
AcDbSymbolTableRecord
100
AcDbBlockTableRecord
  2
17_PART_7017_ACD_P4A_PART3_in_ASM_7017_ACD_P4A
340
0
102
{BLKREFS
331
1C0
102
}
 70
     0
280
     1
281
     0
  0
BLOCK_RECORD
  5
1D3
330
1
100
AcDbSymbolTableRecord
100
AcDbBlockTableRecord
  2
18_PART_7017_ACD_P4A_PART3_in_ASM_7017_ACD_P4A
340
0
102
{BLKREFS
331
1D4
102
}
 70
     0
280
     1
281
     0
  0
BLOCK_RECORD
  5
1E7
330
1
100
AcDbSymbolTableRecord
100
AcDbBlockTableRecord
  2
19_PART_7017_ACD_P4A_PART3_in_ASM_7017_ACD_P4A
340
0
102
{BLKREFS
331
1E8
102
}
 70
     0
280
     1
281
     0
  0
BLOCK_RECORD
  5
1FB
330
1
100
AcDbSymbolTableRecord
100
AcDbBlockTableRecord
  2
20_PART_7017_ACD_P4A_PART3_in_ASM_7017_ACD_P4A
340
0
102
{BLKREFS
331
1FC
102
}
 70
     0
280
     1
281
     0
  0
BLOCK_RECORD
  5
20F
330
1
100
AcDbSymbolTableRecord
100
AcDbBlockTableRecord
  2
21_PART_7017_ACD_P4A_PART3_in_ASM_7017_ACD_P4A
340
0
102
{BLKREFS
331
210
102
}
 70
     0
280
     1
281
     0
  0
BLOCK_RECORD
  5
223
330
1
100
AcDbSymbolTableRecord
100
AcDbBlockTableRecord
  2
22_PART_7017_ACD_P4A_PART3_in_ASM_7017_ACD_P4A
340
0
102
{BLKREFS
331
224
102
}
 70
     0
280
     1
281
     0
  0
BLOCK_RECORD
  5
237
330
1
100
AcDbSymbolTableRecord
100
AcDbBlockTableRecord
  2
23_PART_7017_ACD_P4A_PART3_in_ASM_7017_ACD_P4A
340
0
102
{BLKREFS
331
238
102
}
 70
     0
280
     1
281
     0
  0
ENDTAB
  0
ENDSEC
  0
SECTION
  2
BLOCKS
  0
BLOCK
  5
20
330
1F
100
AcDbEntity
  8
0
100
AcDbBlockBegin
  2
*Model_Space
 70
     0
 10
0.0
 20
0.0
 30
0.0
  3
*Model_Space
  1

  0
ENDBLK
  5
21
330
1F
100
AcDbEntity
  8
0
100
AcDbBlockEnd
  0
BLOCK
  5
1C
330
1B
100
AcDbEntity
 67
     1
  8
0
100
AcDbBlockBegin
  2
*Paper_Space
 70
     0
 10
0.0
 20
0.0
 30
0.0
  3
*Paper_Space
  1

  0
ENDBLK
  5
1D
330
1B
100
AcDbEntity
 67
     1
  8
0
100
AcDbBlockEnd
  0
BLOCK
  5
24
330
23
100
AcDbEntity
  8
0
100
AcDbBlockBegin
  2
*Paper_Space0
 70
     0
 10
0.0
 20
0.0
 30
0.0
  3
*Paper_Space0
  1

  0
ENDBLK
  5
25
330
23
100
AcDbEntity
  8
0
100
AcDbBlockEnd
  0
BLOCK
  5
80
330
7E
100
AcDbEntity
  8
0
100
AcDbBlockBegin
  2
1_PART_7017_ACD_P4A_PART1_in_ASM_7017_ACD_P4A
 70
     2
 10
0.0
 20
0.0
 30
0.0
  3
1_PART_7017_ACD_P4A_PART1_in_ASM_7017_ACD_P4A
  1

  0
3DSOLID
  5
83
330
7E
100
AcDbEntity
  8
AM_0
100
AcDbModelerGeometry
290
     0
  2
{00000000-0000-0000-0000-000000000000}
100
AcDb3dSolid
350
0
  0
ATTDEF
  5
84
330
7E
100
AcDbEntity
  8
AM_6
100
AcDbText
 10
27.00000000000006
 20
49.45000000000003
 30
0.0
 40
0.5
  1

100
AcDbAttributeDefinition
  3

  2
NN
 70
     8
280
     0
  0
ATTDEF
  5
85
330
7E
100
AcDbEntity
  8
AM_6
100
AcDbText
 10
27.00000000000006
 20
48.95000000000003
 30
0.0
 40
0.5
  1
Angular contact ball bearings, super-precision
100
AcDbAttributeDefinition
  3

  2
NT
 70
     8
280
     0
  0
ATTDEF
  5
86
330
7E
100
AcDbEntity
  8
AM_6
100
AcDbText
 10
27.00000000000006
 20
48.45000000000003
 30
0.0
 40
0.5
  1
7017 ACD/P4A_PART1
100
AcDbAttributeDefinition
  3

  2
NB
 70
     8
280
     0
  0
ATTDEF
  5
87
330
7E
100
AcDbEntity
  8
AM_6
100
AcDbText
 10
27.00000000000006
 20
47.95000000000003
 30
0.0
 40
0.5
  1
$DESIGNATION._PART1
100
AcDbAttributeDefinition
  3

  2
NBSYN
 70
     8
280
     0
  0
ATTDEF
  5
88
330
7E
100
AcDbEntity
  8
AM_6
100
AcDbText
 10
27.00000000000006
 20
47.45000000000003
 30
0.0
 40
0.5
  1
7017 ACD/P4A_PART1
100
AcDbAttributeDefinition
  3

  2
LINA
 70
     8
280
     0
  0
ATTDEF
  5
89
330
7E
100
AcDbEntity
  8
AM_6
100
AcDbText
 10
27.00000000000006
 20
46.95000000000003
 30
0.0
 40
0.5
  1
7017 ACD/P4A
100
AcDbAttributeDefinition
  3

  2
DESIGNATION
 70
     8
280
     0
  0
ATTDEF
  5
8A
330
7E
100
AcDbEntity
  8
AM_6
100
AcDbText
 10
27.00000000000006
 20
46.45000000000003
 30
0.0
 40
0.5
  1
85.000
100
AcDbAttributeDefinition
  3

  2
DD
 70
     8
280
     0
  0
ATTDEF
  5
8B
330
7E
100
AcDbEntity
  8
AM_6
100
AcDbText
 10
27.00000000000006
 20
45.95000000000003
 30
0.0
 40
0.5
  1
130.000
100
AcDbAttributeDefinition
  3

  2
D
 70
     8
280
     0
  0
ATTDEF
  5
8C
330
7E
100
AcDbEntity
  8
AM_6
100
AcDbText
 10
27.00000000000006
 20
45.45000000000003
 30
0.0
 40
0.5
  1
22.000
100
AcDbAttributeDefinition
  3

  2
B
 70
     8
280
     0
  0
ATTDEF
  5
8D
330
7E
100
AcDbEntity
  8
AM_6
100
AcDbText
 10
27.00000000000006
 20
44.95000000000003
 30
0.0
 40
0.5
  1
63.700
100
AcDbAttributeDefinition
  3

  2
LOAD1
 70
     8
280
     0
  0
ATTDEF
  5
8E
330
7E
100
AcDbEntity
  8
AM_6
100
AcDbText
 10
27.00000000000006
 20
44.45000000000003
 30
0.0
 40
0.5
  1
62.000
100
AcDbAttributeDefinition
  3

  2
LOAD2
 70
     8
280
     0
  0
ATTDEF
  5
8F
330
7E
100
AcDbEntity
  8
AM_6
100
AcDbText
 10
27.00000000000006
 20
43.95000000000003
 30
0.0
 40
0.5
  1
2.500
100
AcDbAttributeDefinition
  3

  2
LOAD3
 70
     8
280
     0
  0
ATTDEF
  5
90
330
7E
100
AcDbEntity
  8
AM_6
100
AcDbText
 10
27.00000000000006
 20
43.45000000000003
 30
0.0
 40
0.5
  1
9000
100
AcDbAttributeDefinition
  3

  2
SPEED1
 70
     8
280
     0
  0
ATTDEF
  5
91
330
7E
100
AcDbEntity
  8
AM_6
100
AcDbText
 10
27.00000000000006
 20
42.95000000000003
 30
0.0
 40
0.5
  1
14000
100
AcDbAttributeDefinition
  3

  2
SPEED2
 70
     8
280
     0
  0
ATTDEF
  5
92
330
7E
100
AcDbEntity
  8
AM_6
100
AcDbText
 10
27.00000000000006
 20
42.45000000000003
 30
0.0
 40
0.5
  1
SKF
100
AcDbAttributeDefinition
  3

  2
COMPANY
 70
     8
280
     0
  0
ENDBLK
  5
81
330
7E
100
AcDbEntity
  8
0
100
AcDbBlockEnd
  0
BLOCK
  5
95
330
93
100
AcDbEntity
  8
0
100
AcDbBlockBegin
  2
2_PART_7017_ACD_P4A_PART2_in_ASM_7017_ACD_P4A
 70
     2
 10
0.0
 20
0.0
 30
0.0
  3
2_PART_7017_ACD_P4A_PART2_in_ASM_7017_ACD_P4A
  1

  0
3DSOLID
  5
97
330
93
100
AcDbEntity
  8
AM_0
100
AcDbModelerGeometry
290
     0
  2
{00000000-0000-0000-0000-000000000000}
100
AcDb3dSolid
350
0
  0
ATTDEF
  5
98
330
93
100
AcDbEntity
  8
AM_6
100
AcDbText
 10
27.00000000000038
 20
65.00000000000011
 30
0.0
 40
0.5
  1

100
AcDbAttributeDefinition
  3

  2
NN
 70
     8
280
     0
  0
ATTDEF
  5
99
330
93
100
AcDbEntity
  8
AM_6
100
AcDbText
 10
27.00000000000038
 20
64.50000000000011
 30
0.0
 40
0.5
  1
Angular contact ball bearings, super-precision
100
AcDbAttributeDefinition
  3

  2
NT
 70
     8
280
     0
  0
ATTDEF
  5
9A
330
93
100
AcDbEntity
  8
AM_6
100
AcDbText
 10
27.00000000000038
 20
64.00000000000011
 30
0.0
 40
0.5
  1
7017 ACD/P4A_PART2
100
AcDbAttributeDefinition
  3

  2
NB
 70
     8
280
     0
  0
ATTDEF
  5
9B
330
93
100
AcDbEntity
  8
AM_6
100
AcDbText
 10
27.00000000000038
 20
63.50000000000011
 30
0.0
 40
0.5
  1
$DESIGNATION._PART2
100
AcDbAttributeDefinition
  3

  2
NBSYN
 70
     8
280
     0
  0
ATTDEF
  5
9C
330
93
100
AcDbEntity
  8
AM_6
100
AcDbText
 10
27.00000000000038
 20
63.00000000000011
 30
0.0
 40
0.5
  1
7017 ACD/P4A_PART2
100
AcDbAttributeDefinition
  3

  2
LINA
 70
     8
280
     0
  0
ATTDEF
  5
9D
330
93
100
AcDbEntity
  8
AM_6
100
AcDbText
 10
27.00000000000038
 20
62.50000000000011
 30
0.0
 40
0.5
  1
7017 ACD/P4A
100
AcDbAttributeDefinition
  3

  2
DESIGNATION
 70
     8
280
     0
  0
ATTDEF
  5
9E
330
93
100
AcDbEntity
  8
AM_6
100
AcDbText
 10
27.00000000000038
 20
62.00000000000011
 30
0.0
 40
0.5
  1
85.000
100
AcDbAttributeDefinition
  3

  2
DD
 70
     8
280
     0
  0
ATTDEF
  5
9F
330
93
100
AcDbEntity
  8
AM_6
100
AcDbText
 10
27.00000000000038
 20
61.50000000000011
 30
0.0
 40
0.5
  1
130.000
100
AcDbAttributeDefinition
  3

  2
D
 70
     8
280
     0
  0
ATTDEF
  5
A0
330
93
100
AcDbEntity
  8
AM_6
100
AcDbText
 10
27.00000000000038
 20
61.00000000000011
 30
0.0
 40
0.5
  1
22.000
100
AcDbAttributeDefinition
  3

  2
B
 70
     8
280
     0
  0
ATTDEF
  5
A1
330
93
100
AcDbEntity
  8
AM_6
100
AcDbText
 10
27.00000000000038
 20
60.50000000000011
 30
0.0
 40
0.5
  1
63.700
100
AcDbAttributeDefinition
  3

  2
LOAD1
 70
     8
280
     0
  0
ATTDEF
  5
A2
330
93
100
AcDbEntity
  8
AM_6
100
AcDbText
 10
27.00000000000038
 20
60.00000000000011
 30
0.0
 40
0.5
  1
62.000
100
AcDbAttributeDefinition
  3

  2
LOAD2
 70
     8
280
     0
  0
ATTDEF
  5
A3
330
93
100
AcDbEntity
  8
AM_6
100
AcDbText
 10
27.00000000000038
 20
59.50000000000011
 30
0.0
 40
0.5
  1
2.500
100
AcDbAttributeDefinition
  3

  2
LOAD3
 70
     8
280
     0
  0
ATTDEF
  5
A4
330
93
100
AcDbEntity
  8
AM_6
100
AcDbText
 10
27.00000000000038
 20
59.00000000000011
 30
0.0
 40
0.5
  1
9000
100
AcDbAttributeDefinition
  3

  2
SPEED1
 70
     8
280
     0
  0
ATTDEF
  5
A5
330
93
100
AcDbEntity
  8
AM_6
100
AcDbText
 10
27.00000000000038
 20
58.50000000000011
 30
0.0
 40
0.5
  1
14000
100
AcDbAttributeDefinition
  3

  2
SPEED2
 70
     8
280
     0
  0
ATTDEF
  5
A6
330
93
100
AcDbEntity
  8
AM_6
100
AcDbText
 10
27.00000000000038
 20
58.00000000000011
 30
0.0
 40
0.5
  1
SKF
100
AcDbAttributeDefinition
  3

  2
COMPANY
 70
     8
280
     0
  0
ENDBLK
  5
96
330
93
100
AcDbEntity
  8
0
100
AcDbBlockEnd
  0
BLOCK
  5
A9
330
A7
100
AcDbEntity
  8
0
100
AcDbBlockBegin
  2
3_PART_7017_ACD_P4A_PART3_in_ASM_7017_ACD_P4A
 70
     2
 10
0.0
 20
0.0
 30
0.0
  3
3_PART_7017_ACD_P4A_PART3_in_ASM_7017_ACD_P4A
  1

  0
3DSOLID
  5
AB
330
A7
100
AcDbEntity
  8
AM_0
100
AcDbModelerGeometry
290
     0
  2
{00000000-0000-0000-0000-000000000000}
100
AcDb3dSolid
350
0
  0
ATTDEF
  5
AC
330
A7
100
AcDbEntity
  8
AM_6
100
AcDbText
 10
23.14400000000021
 20
60.91150000000003
 30
0.0
 40
0.5
  1

100
AcDbAttributeDefinition
  3

  2
NN
 70
     8
280
     0
  0
ATTDEF
  5
AD
330
A7
100
AcDbEntity
  8
AM_6
100
AcDbText
 10
23.14400000000021
 20
60.41150000000003
 30
0.0
 40
0.5
  1
Angular contact ball bearings, super-precision
100
AcDbAttributeDefinition
  3

  2
NT
 70
     8
280
     0
  0
ATTDEF
  5
AE
330
A7
100
AcDbEntity
  8
AM_6
100
AcDbText
 10
23.14400000000021
 20
59.91150000000003
 30
0.0
 40
0.5
  1
7017 ACD/P4A_PART3
100
AcDbAttributeDefinition
  3

  2
NB
 70
     8
280
     0
  0
ATTDEF
  5
AF
330
A7
100
AcDbEntity
  8
AM_6
100
AcDbText
 10
23.14400000000021
 20
59.41150000000003
 30
0.0
 40
0.5
  1
$DESIGNATION._PART3
100
AcDbAttributeDefinition
  3

  2
NBSYN
 70
     8
280
     0
  0
ATTDEF
  5
B0
330
A7
100
AcDbEntity
  8
AM_6
100
AcDbText
 10
23.14400000000021
 20
58.91150000000003
 30
0.0
 40
0.5
  1
7017 ACD/P4A_PART3
100
AcDbAttributeDefinition
  3

  2
LINA
 70
     8
280
     0
  0
ATTDEF
  5
B1
330
A7
100
AcDbEntity
  8
AM_6
100
AcDbText
 10
23.14400000000021
 20
58.41150000000003
 30
0.0
 40
0.5
  1
7017 ACD/P4A
100
AcDbAttributeDefinition
  3

  2
DESIGNATION
 70
     8
280
     0
  0
ATTDEF
  5
B2
330
A7
100
AcDbEntity
  8
AM_6
100
AcDbText
 10
23.14400000000021
 20
57.91150000000003
 30
0.0
 40
0.5
  1
85.000
100
AcDbAttributeDefinition
  3

  2
DD
 70
     8
280
     0
  0
ATTDEF
  5
B3
330
A7
100
AcDbEntity
  8
AM_6
100
AcDbText
 10
23.14400000000021
 20
57.41150000000003
 30
0.0
 40
0.5
  1
130.000
100
AcDbAttributeDefinition
  3

  2
D
 70
     8
280
     0
  0
ATTDEF
  5
B4
330
A7
100
AcDbEntity
  8
AM_6
100
AcDbText
 10
23.14400000000021
 20
56.91150000000003
 30
0.0
 40
0.5
  1
22.000
100
AcDbAttributeDefinition
  3

  2
B
 70
     8
280
     0
  0
ATTDEF
  5
B5
330
A7
100
AcDbEntity
  8
AM_6
100
AcDbText
 10
23.14400000000021
 20
56.41150000000003
 30
0.0
 40
0.5
  1
63.700
100
AcDbAttributeDefinition
  3

  2
LOAD1
 70
     8
280
     0
  0
ATTDEF
  5
B6
330
A7
100
AcDbEntity
  8
AM_6
100
AcDbText
 10
23.14400000000021
 20
55.91150000000003
 30
0.0
 40
0.5
  1
62.000
100
AcDbAttributeDefinition
  3

  2
LOAD2
 70
     8
280
     0
  0
ATTDEF
  5
B7
330
A7
100
AcDbEntity
  8
AM_6
100
AcDbText
 10
23.14400000000021
 20
55.41150000000003
 30
0.0
 40
0.5
  1
2.500
100
AcDbAttributeDefinition
  3

  2
LOAD3
 70
     8
280
     0
  0
ATTDEF
  5
B8
330
A7
100
AcDbEntity
  8
AM_6
100
AcDbText
 10
23.14400000000021
 20
54.91150000000003
 30
0.0
 40
0.5
  1
9000
100
AcDbAttributeDefinition
  3

  2
SPEED1
 70
     8
280
     0
  0
ATTDEF
  5
B9
330
A7
100
AcDbEntity
  8
AM_6
100
AcDbText
 10
23.14400000000021
 20
54.41150000000003
 30
0.0
 40
0.5
  1
14000
100
AcDbAttributeDefinition
  3

  2
SPEED2
 70
     8
280
     0
  0
ATTDEF
  5
BA
330
A7
100
AcDbEntity
  8
AM_6
100
AcDbText
 10
23.14400000000021
 20
53.91150000000003
 30
0.0
 40
0.5
  1
SKF
100
AcDbAttributeDefinition
  3

  2
COMPANY
 70
     8
280
     0
  0
ENDBLK
  5
AA
330
A7
100
AcDbEntity
  8
0
100
AcDbBlockEnd
  0
BLOCK
  5
BD
330
BB
100
AcDbEntity
  8
0
100
AcDbBlockBegin
  2
4_PART_7017_ACD_P4A_PART3_in_ASM_7017_ACD_P4A
 70
     2
 10
0.0
 20
0.0
 30
0.0
  3
4_PART_7017_ACD_P4A_PART3_in_ASM_7017_ACD_P4A
  1

  0
3DSOLID
  5
BF
330
BB
100
AcDbEntity
  8
AM_0
100
AcDbModelerGeometry
290
     0
  2
{00000000-0000-0000-0000-000000000000}
100
AcDb3dSolid
350
0
  0
ATTDEF
  5
C0
330
BB
100
AcDbEntity
  8
AM_6
100
AcDbText
 10
23.14400000000021
 20
60.91150000000003
 30
0.0
 40
0.5
  1

100
AcDbAttributeDefinition
  3

  2
NN
 70
     8
280
     0
  0
ATTDEF
  5
C1
330
BB
100
AcDbEntity
  8
AM_6
100
AcDbText
 10
23.14400000000021
 20
60.41150000000003
 30
0.0
 40
0.5
  1
Angular contact ball bearings, super-precision
100
AcDbAttributeDefinition
  3

  2
NT
 70
     8
280
     0
  0
ATTDEF
  5
C2
330
BB
100
AcDbEntity
  8
AM_6
100
AcDbText
 10
23.14400000000021
 20
59.91150000000003
 30
0.0
 40
0.5
  1
7017 ACD/P4A_PART3
100
AcDbAttributeDefinition
  3

  2
NB
 70
     8
280
     0
  0
ATTDEF
  5
C3
330
BB
100
AcDbEntity
  8
AM_6
100
AcDbText
 10
23.14400000000021
 20
59.41150000000003
 30
0.0
 40
0.5
  1
$DESIGNATION._PART3
100
AcDbAttributeDefinition
  3

  2
NBSYN
 70
     8
280
     0
  0
ATTDEF
  5
C4
330
BB
100
AcDbEntity
  8
AM_6
100
AcDbText
 10
23.14400000000021
 20
58.91150000000003
 30
0.0
 40
0.5
  1
7017 ACD/P4A_PART3
100
AcDbAttributeDefinition
  3

  2
LINA
 70
     8
280
     0
  0
ATTDEF
  5
C5
330
BB
100
AcDbEntity
  8
AM_6
100
AcDbText
 10
23.14400000000021
 20
58.41150000000003
 30
0.0
 40
0.5
  1
7017 ACD/P4A
100
AcDbAttributeDefinition
  3

  2
DESIGNATION
 70
     8
280
     0
  0
ATTDEF
  5
C6
330
BB
100
AcDbEntity
  8
AM_6
100
AcDbText
 10
23.14400000000021
 20
57.91150000000003
 30
0.0
 40
0.5
  1
85.000
100
AcDbAttributeDefinition
  3

  2
DD
 70
     8
280
     0
  0
ATTDEF
  5
C7
330
BB
100
AcDbEntity
  8
AM_6
100
AcDbText
 10
23.14400000000021
 20
57.41150000000003
 30
0.0
 40
0.5
  1
130.000
100
AcDbAttributeDefinition
  3

  2
D
 70
     8
280
     0
  0
ATTDEF
  5
C8
330
BB
100
AcDbEntity
  8
AM_6
100
AcDbText
 10
23.14400000000021
 20
56.91150000000003
 30
0.0
 40
0.5
  1
22.000
100
AcDbAttributeDefinition
  3

  2
B
 70
     8
280
     0
  0
ATTDEF
  5
C9
330
BB
100
AcDbEntity
  8
AM_6
100
AcDbText
 10
23.14400000000021
 20
56.41150000000003
 30
0.0
 40
0.5
  1
63.700
100
AcDbAttributeDefinition
  3

  2
LOAD1
 70
     8
280
     0
  0
ATTDEF
  5
CA
330
BB
100
AcDbEntity
  8
AM_6
100
AcDbText
 10
23.14400000000021
 20
55.91150000000003
 30
0.0
 40
0.5
  1
62.000
100
AcDbAttributeDefinition
  3

  2
LOAD2
 70
     8
280
     0
  0
ATTDEF
  5
CB
330
BB
100
AcDbEntity
  8
AM_6
100
AcDbText
 10
23.14400000000021
 20
55.41150000000003
 30
0.0
 40
0.5
  1
2.500
100
AcDbAttributeDefinition
  3

  2
LOAD3
 70
     8
280
     0
  0
ATTDEF
  5
CC
330
BB
100
AcDbEntity
  8
AM_6
100
AcDbText
 10
23.14400000000021
 20
54.91150000000003
 30
0.0
 40
0.5
  1
9000
100
AcDbAttributeDefinition
  3

  2
SPEED1
 70
     8
280
     0
  0
ATTDEF
  5
CD
330
BB
100
AcDbEntity
  8
AM_6
100
AcDbText
 10
23.14400000000021
 20
54.41150000000003
 30
0.0
 40
0.5
  1
14000
100
AcDbAttributeDefinition
  3

  2
SPEED2
 70
     8
280
     0
  0
ATTDEF
  5
CE
330
BB
100
AcDbEntity
  8
AM_6
100
AcDbText
 10
23.14400000000021
 20
53.91150000000003
 30
0.0
 40
0.5
  1
SKF
100
AcDbAttributeDefinition
  3

  2
COMPANY
 70
     8
280
     0
  0
ENDBLK
  5
BE
330
BB
100
AcDbEntity
  8
0
100
AcDbBlockEnd
  0
BLOCK
  5
D1
330
CF
100
AcDbEntity
  8
0
100
AcDbBlockBegin
  2
5_PART_7017_ACD_P4A_PART3_in_ASM_7017_ACD_P4A
 70
     2
 10
0.0
 20
0.0
 30
0.0
  3
5_PART_7017_ACD_P4A_PART3_in_ASM_7017_ACD_P4A
  1

  0
3DSOLID
  5
D3
330
CF
100
AcDbEntity
  8
AM_0
100
AcDbModelerGeometry
290
     0
  2
{00000000-0000-0000-0000-000000000000}
100
AcDb3dSolid
350
0
  0
ATTDEF
  5
D4
330
CF
100
AcDbEntity
  8
AM_6
100
AcDbText
 10
23.14400000000021
 20
60.91150000000003
 30
0.0
 40
0.5
  1

100
AcDbAttributeDefinition
  3

  2
NN
 70
     8
280
     0
  0
ATTDEF
  5
D5
330
CF
100
AcDbEntity
  8
AM_6
100
AcDbText
 10
23.14400000000021
 20
60.41150000000003
 30
0.0
 40
0.5
  1
Angular contact ball bearings, super-precision
100
AcDbAttributeDefinition
  3

  2
NT
 70
     8
280
     0
  0
ATTDEF
  5
D6
330
CF
100
AcDbEntity
  8
AM_6
100
AcDbText
 10
23.14400000000021
 20
59.91150000000003
 30
0.0
 40
0.5
  1
7017 ACD/P4A_PART3
100
AcDbAttributeDefinition
  3

  2
NB
 70
     8
280
     0
  0
ATTDEF
  5
D7
330
CF
100
AcDbEntity
  8
AM_6
100
AcDbText
 10
23.14400000000021
 20
59.41150000000003
 30
0.0
 40
0.5
  1
$DESIGNATION._PART3
100
AcDbAttributeDefinition
  3

  2
NBSYN
 70
     8
280
     0
  0
ATTDEF
  5
D8
330
CF
100
AcDbEntity
  8
AM_6
100
AcDbText
 10
23.14400000000021
 20
58.91150000000003
 30
0.0
 40
0.5
  1
7017 ACD/P4A_PART3
100
AcDbAttributeDefinition
  3

  2
LINA
 70
     8
280
     0
  0
ATTDEF
  5
D9
330
CF
100
AcDbEntity
  8
AM_6
100
AcDbText
 10
23.14400000000021
 20
58.41150000000003
 30
0.0
 40
0.5
  1
7017 ACD/P4A
100
AcDbAttributeDefinition
  3

  2
DESIGNATION
 70
     8
280
     0
  0
ATTDEF
  5
DA
330
CF
100
AcDbEntity
  8
AM_6
100
AcDbText
 10
23.14400000000021
 20
57.91150000000003
 30
0.0
 40
0.5
  1
85.000
100
AcDbAttributeDefinition
  3

  2
DD
 70
     8
280
     0
  0
ATTDEF
  5
DB
330
CF
100
AcDbEntity
  8
AM_6
100
AcDbText
 10
23.14400000000021
 20
57.41150000000003
 30
0.0
 40
0.5
  1
130.000
100
AcDbAttributeDefinition
  3

  2
D
 70
     8
280
     0
  0
ATTDEF
  5
DC
330
CF
100
AcDbEntity
  8
AM_6
100
AcDbText
 10
23.14400000000021
 20
56.91150000000003
 30
0.0
 40
0.5
  1
22.000
100
AcDbAttributeDefinition
  3

  2
B
 70
     8
280
     0
  0
ATTDEF
  5
DD
330
CF
100
AcDbEntity
  8
AM_6
100
AcDbText
 10
23.14400000000021
 20
56.41150000000003
 30
0.0
 40
0.5
  1
63.700
100
AcDbAttributeDefinition
  3

  2
LOAD1
 70
     8
280
     0
  0
ATTDEF
  5
DE
330
CF
100
AcDbEntity
  8
AM_6
100
AcDbText
 10
23.14400000000021
 20
55.91150000000003
 30
0.0
 40
0.5
  1
62.000
100
AcDbAttributeDefinition
  3

  2
LOAD2
 70
     8
280
     0
  0
ATTDEF
  5
DF
330
CF
100
AcDbEntity
  8
AM_6
100
AcDbText
 10
23.14400000000021
 20
55.41150000000003
 30
0.0
 40
0.5
  1
2.500
100
AcDbAttributeDefinition
  3

  2
LOAD3
 70
     8
280
     0
  0
ATTDEF
  5
E0
330
CF
100
AcDbEntity
  8
AM_6
100
AcDbText
 10
23.14400000000021
 20
54.91150000000003
 30
0.0
 40
0.5
  1
9000
100
AcDbAttributeDefinition
  3

  2
SPEED1
 70
     8
280
     0
  0
ATTDEF
  5
E1
330
CF
100
AcDbEntity
  8
AM_6
100
AcDbText
 10
23.14400000000021
 20
54.41150000000003
 30
0.0
 40
0.5
  1
14000
100
AcDbAttributeDefinition
  3

  2
SPEED2
 70
     8
280
     0
  0
ATTDEF
  5
E2
330
CF
100
AcDbEntity
  8
AM_6
100
AcDbText
 10
23.14400000000021
 20
53.91150000000003
 30
0.0
 40
0.5
  1
SKF
100
AcDbAttributeDefinition
  3

  2
COMPANY
 70
     8
280
     0
  0
ENDBLK
  5
D2
330
CF
100
AcDbEntity
  8
0
100
AcDbBlockEnd
  0
BLOCK
  5
E5
330
E3
100
AcDbEntity
  8
0
100
AcDbBlockBegin
  2
6_PART_7017_ACD_P4A_PART3_in_ASM_7017_ACD_P4A
 70
     2
 10
0.0
 20
0.0
 30
0.0
  3
6_PART_7017_ACD_P4A_PART3_in_ASM_7017_ACD_P4A
  1

  0
3DSOLID
  5
E7
330
E3
100
AcDbEntity
  8
AM_0
100
AcDbModelerGeometry
290
     0
  2
{00000000-0000-0000-0000-000000000000}
100
AcDb3dSolid
350
0
  0
ATTDEF
  5
E8
330
E3
100
AcDbEntity
  8
AM_6
100
AcDbText
 10
23.14400000000021
 20
60.91150000000003
 30
0.0
 40
0.5
  1

100
AcDbAttributeDefinition
  3

  2
NN
 70
     8
280
     0
  0
ATTDEF
  5
E9
330
E3
100
AcDbEntity
  8
AM_6
100
AcDbText
 10
23.14400000000021
 20
60.41150000000003
 30
0.0
 40
0.5
  1
Angular contact ball bearings, super-precision
100
AcDbAttributeDefinition
  3

  2
NT
 70
     8
280
     0
  0
ATTDEF
  5
EA
330
E3
100
AcDbEntity
  8
AM_6
100
AcDbText
 10
23.14400000000021
 20
59.91150000000003
 30
0.0
 40
0.5
  1
7017 ACD/P4A_PART3
100
AcDbAttributeDefinition
  3

  2
NB
 70
     8
280
     0
  0
ATTDEF
  5
EB
330
E3
100
AcDbEntity
  8
AM_6
100
AcDbText
 10
23.14400000000021
 20
59.41150000000003
 30
0.0
 40
0.5
  1
$DESIGNATION._PART3
100
AcDbAttributeDefinition
  3

  2
NBSYN
 70
     8
280
     0
  0
ATTDEF
  5
EC
330
E3
100
AcDbEntity
  8
AM_6
100
AcDbText
 10
23.14400000000021
 20
58.91150000000003
 30
0.0
 40
0.5
  1
7017 ACD/P4A_PART3
100
AcDbAttributeDefinition
  3

  2
LINA
 70
     8
280
     0
  0
ATTDEF
  5
ED
330
E3
100
AcDbEntity
  8
AM_6
100
AcDbText
 10
23.14400000000021
 20
58.41150000000003
 30
0.0
 40
0.5
  1
7017 ACD/P4A
100
AcDbAttributeDefinition
  3

  2
DESIGNATION
 70
     8
280
     0
  0
ATTDEF
  5
EE
330
E3
100
AcDbEntity
  8
AM_6
100
AcDbText
 10
23.14400000000021
 20
57.91150000000003
 30
0.0
 40
0.5
  1
85.000
100
AcDbAttributeDefinition
  3

  2
DD
 70
     8
280
     0
  0
ATTDEF
  5
EF
330
E3
100
AcDbEntity
  8
AM_6
100
AcDbText
 10
23.14400000000021
 20
57.41150000000003
 30
0.0
 40
0.5
  1
130.000
100
AcDbAttributeDefinition
  3

  2
D
 70
     8
280
     0
  0
ATTDEF
  5
F0
330
E3
100
AcDbEntity
  8
AM_6
100
AcDbText
 10
23.14400000000021
 20
56.91150000000003
 30
0.0
 40
0.5
  1
22.000
100
AcDbAttributeDefinition
  3

  2
B
 70
     8
280
     0
  0
ATTDEF
  5
F1
330
E3
100
AcDbEntity
  8
AM_6
100
AcDbText
 10
23.14400000000021
 20
56.41150000000003
 30
0.0
 40
0.5
  1
63.700
100
AcDbAttributeDefinition
  3

  2
LOAD1
 70
     8
280
     0
  0
ATTDEF
  5
F2
330
E3
100
AcDbEntity
  8
AM_6
100
AcDbText
 10
23.14400000000021
 20
55.91150000000003
 30
0.0
 40
0.5
  1
62.000
100
AcDbAttributeDefinition
  3

  2
LOAD2
 70
     8
280
     0
  0
ATTDEF
  5
F3
330
E3
100
AcDbEntity
  8
AM_6
100
AcDbText
 10
23.14400000000021
 20
55.41150000000003
 30
0.0
 40
0.5
  1
2.500
100
AcDbAttributeDefinition
  3

  2
LOAD3
 70
     8
280
     0
  0
ATTDEF
  5
F4
330
E3
100
AcDbEntity
  8
AM_6
100
AcDbText
 10
23.14400000000021
 20
54.91150000000003
 30
0.0
 40
0.5
  1
9000
100
AcDbAttributeDefinition
  3

  2
SPEED1
 70
     8
280
     0
  0
ATTDEF
  5
F5
330
E3
100
AcDbEntity
  8
AM_6
100
AcDbText
 10
23.14400000000021
 20
54.41150000000003
 30
0.0
 40
0.5
  1
14000
100
AcDbAttributeDefinition
  3

  2
SPEED2
 70
     8
280
     0
  0
ATTDEF
  5
F6
330
E3
100
AcDbEntity
  8
AM_6
100
AcDbText
 10
23.14400000000021
 20
53.91150000000003
 30
0.0
 40
0.5
  1
SKF
100
AcDbAttributeDefinition
  3

  2
COMPANY
 70
     8
280
     0
  0
ENDBLK
  5
E6
330
E3
100
AcDbEntity
  8
0
100
AcDbBlockEnd
  0
BLOCK
  5
F9
330
F7
100
AcDbEntity
  8
0
100
AcDbBlockBegin
  2
7_PART_7017_ACD_P4A_PART3_in_ASM_7017_ACD_P4A
 70
     2
 10
0.0
 20
0.0
 30
0.0
  3
7_PART_7017_ACD_P4A_PART3_in_ASM_7017_ACD_P4A
  1

  0
3DSOLID
  5
FB
330
F7
100
AcDbEntity
  8
AM_0
100
AcDbModelerGeometry
290
     0
  2
{00000000-0000-0000-0000-000000000000}
100
AcDb3dSolid
350
0
  0
ATTDEF
  5
FC
330
F7
100
AcDbEntity
  8
AM_6
100
AcDbText
 10
23.14400000000021
 20
60.91150000000003
 30
0.0
 40
0.5
  1

100
AcDbAttributeDefinition
  3

  2
NN
 70
     8
280
     0
  0
ATTDEF
  5
FD
330
F7
100
AcDbEntity
  8
AM_6
100
AcDbText
 10
23.14400000000021
 20
60.41150000000003
 30
0.0
 40
0.5
  1
Angular contact ball bearings, super-precision
100
AcDbAttributeDefinition
  3

  2
NT
 70
     8
280
     0
  0
ATTDEF
  5
FE
330
F7
100
AcDbEntity
  8
AM_6
100
AcDbText
 10
23.14400000000021
 20
59.91150000000003
 30
0.0
 40
0.5
  1
7017 ACD/P4A_PART3
100
AcDbAttributeDefinition
  3

  2
NB
 70
     8
280
     0
  0
ATTDEF
  5
FF
330
F7
100
AcDbEntity
  8
AM_6
100
AcDbText
 10
23.14400000000021
 20
59.41150000000003
 30
0.0
 40
0.5
  1
$DESIGNATION._PART3
100
AcDbAttributeDefinition
  3

  2
NBSYN
 70
     8
280
     0
  0
ATTDEF
  5
100
330
F7
100
AcDbEntity
  8
AM_6
100
AcDbText
 10
23.14400000000021
 20
58.91150000000003
 30
0.0
 40
0.5
  1
7017 ACD/P4A_PART3
100
AcDbAttributeDefinition
  3

  2
LINA
 70
     8
280
     0
  0
ATTDEF
  5
101
330
F7
100
AcDbEntity
  8
AM_6
100
AcDbText
 10
23.14400000000021
 20
58.41150000000003
 30
0.0
 40
0.5
  1
7017 ACD/P4A
100
AcDbAttributeDefinition
  3

  2
DESIGNATION
 70
     8
280
     0
  0
ATTDEF
  5
102
330
F7
100
AcDbEntity
  8
AM_6
100
AcDbText
 10
23.14400000000021
 20
57.91150000000003
 30
0.0
 40
0.5
  1
85.000
100
AcDbAttributeDefinition
  3

  2
DD
 70
     8
280
     0
  0
ATTDEF
  5
103
330
F7
100
AcDbEntity
  8
AM_6
100
AcDbText
 10
23.14400000000021
 20
57.41150000000003
 30
0.0
 40
0.5
  1
130.000
100
AcDbAttributeDefinition
  3

  2
D
 70
     8
280
     0
  0
ATTDEF
  5
104
330
F7
100
AcDbEntity
  8
AM_6
100
AcDbText
 10
23.14400000000021
 20
56.91150000000003
 30
0.0
 40
0.5
  1
22.000
100
AcDbAttributeDefinition
  3

  2
B
 70
     8
280
     0
  0
ATTDEF
  5
105
330
F7
100
AcDbEntity
  8
AM_6
100
AcDbText
 10
23.14400000000021
 20
56.41150000000003
 30
0.0
 40
0.5
  1
63.700
100
AcDbAttributeDefinition
  3

  2
LOAD1
 70
     8
280
     0
  0
ATTDEF
  5
106
330
F7
100
AcDbEntity
  8
AM_6
100
AcDbText
 10
23.14400000000021
 20
55.91150000000003
 30
0.0
 40
0.5
  1
62.000
100
AcDbAttributeDefinition
  3

  2
LOAD2
 70
     8
280
     0
  0
ATTDEF
  5
107
330
F7
100
AcDbEntity
  8
AM_6
100
AcDbText
 10
23.14400000000021
 20
55.41150000000003
 30
0.0
 40
0.5
  1
2.500
100
AcDbAttributeDefinition
  3

  2
LOAD3
 70
     8
280
     0
  0
ATTDEF
  5
108
330
F7
100
AcDbEntity
  8
AM_6
100
AcDbText
 10
23.14400000000021
 20
54.91150000000003
 30
0.0
 40
0.5
  1
9000
100
AcDbAttributeDefinition
  3

  2
SPEED1
 70
     8
280
     0
  0
ATTDEF
  5
109
330
F7
100
AcDbEntity
  8
AM_6
100
AcDbText
 10
23.14400000000021
 20
54.41150000000003
 30
0.0
 40
0.5
  1
14000
100
AcDbAttributeDefinition
  3

  2
SPEED2
 70
     8
280
     0
  0
ATTDEF
  5
10A
330
F7
100
AcDbEntity
  8
AM_6
100
AcDbText
 10
23.14400000000021
 20
53.91150000000003
 30
0.0
 40
0.5
  1
SKF
100
AcDbAttributeDefinition
  3

  2
COMPANY
 70
     8
280
     0
  0
ENDBLK
  5
FA
330
F7
100
AcDbEntity
  8
0
100
AcDbBlockEnd
  0
BLOCK
  5
10D
330
10B
100
AcDbEntity
  8
0
100
AcDbBlockBegin
  2
8_PART_7017_ACD_P4A_PART3_in_ASM_7017_ACD_P4A
 70
     2
 10
0.0
 20
0.0
 30
0.0
  3
8_PART_7017_ACD_P4A_PART3_in_ASM_7017_ACD_P4A
  1

  0
3DSOLID
  5
10F
330
10B
100
AcDbEntity
  8
AM_0
100
AcDbModelerGeometry
290
     0
  2
{00000000-0000-0000-0000-000000000000}
100
AcDb3dSolid
350
0
  0
ATTDEF
  5
110
330
10B
100
AcDbEntity
  8
AM_6
100
AcDbText
 10
23.14400000000021
 20
60.91150000000003
 30
0.0
 40
0.5
  1

100
AcDbAttributeDefinition
  3

  2
NN
 70
     8
280
     0
  0
ATTDEF
  5
111
330
10B
100
AcDbEntity
  8
AM_6
100
AcDbText
 10
23.14400000000021
 20
60.41150000000003
 30
0.0
 40
0.5
  1
Angular contact ball bearings, super-precision
100
AcDbAttributeDefinition
  3

  2
NT
 70
     8
280
     0
  0
ATTDEF
  5
112
330
10B
100
AcDbEntity
  8
AM_6
100
AcDbText
 10
23.14400000000021
 20
59.91150000000003
 30
0.0
 40
0.5
  1
7017 ACD/P4A_PART3
100
AcDbAttributeDefinition
  3

  2
NB
 70
     8
280
     0
  0
ATTDEF
  5
113
330
10B
100
AcDbEntity
  8
AM_6
100
AcDbText
 10
23.14400000000021
 20
59.41150000000003
 30
0.0
 40
0.5
  1
$DESIGNATION._PART3
100
AcDbAttributeDefinition
  3

  2
NBSYN
 70
     8
280
     0
  0
ATTDEF
  5
114
330
10B
100
AcDbEntity
  8
AM_6
100
AcDbText
 10
23.14400000000021
 20
58.91150000000003
 30
0.0
 40
0.5
  1
7017 ACD/P4A_PART3
100
AcDbAttributeDefinition
  3

  2
LINA
 70
     8
280
     0
  0
ATTDEF
  5
115
330
10B
100
AcDbEntity
  8
AM_6
100
AcDbText
 10
23.14400000000021
 20
58.41150000000003
 30
0.0
 40
0.5
  1
7017 ACD/P4A
100
AcDbAttributeDefinition
  3

  2
DESIGNATION
 70
     8
280
     0
  0
ATTDEF
  5
116
330
10B
100
AcDbEntity
  8
AM_6
100
AcDbText
 10
23.14400000000021
 20
57.91150000000003
 30
0.0
 40
0.5
  1
85.000
100
AcDbAttributeDefinition
  3

  2
DD
 70
     8
280
     0
  0
ATTDEF
  5
117
330
10B
100
AcDbEntity
  8
AM_6
100
AcDbText
 10
23.14400000000021
 20
57.41150000000003
 30
0.0
 40
0.5
  1
130.000
100
AcDbAttributeDefinition
  3

  2
D
 70
     8
280
     0
  0
ATTDEF
  5
118
330
10B
100
AcDbEntity
  8
AM_6
100
AcDbText
 10
23.14400000000021
 20
56.91150000000003
 30
0.0
 40
0.5
  1
22.000
100
AcDbAttributeDefinition
  3

  2
B
 70
     8
280
     0
  0
ATTDEF
  5
119
330
10B
100
AcDbEntity
  8
AM_6
100
AcDbText
 10
23.14400000000021
 20
56.41150000000003
 30
0.0
 40
0.5
  1
63.700
100
AcDbAttributeDefinition
  3

  2
LOAD1
 70
     8
280
     0
  0
ATTDEF
  5
11A
330
10B
100
AcDbEntity
  8
AM_6
100
AcDbText
 10
23.14400000000021
 20
55.91150000000003
 30
0.0
 40
0.5
  1
62.000
100
AcDbAttributeDefinition
  3

  2
LOAD2
 70
     8
280
     0
  0
ATTDEF
  5
11B
330
10B
100
AcDbEntity
  8
AM_6
100
AcDbText
 10
23.14400000000021
 20
55.41150000000003
 30
0.0
 40
0.5
  1
2.500
100
AcDbAttributeDefinition
  3

  2
LOAD3
 70
     8
280
     0
  0
ATTDEF
  5
11C
330
10B
100
AcDbEntity
  8
AM_6
100
AcDbText
 10
23.14400000000021
 20
54.91150000000003
 30
0.0
 40
0.5
  1
9000
100
AcDbAttributeDefinition
  3

  2
SPEED1
 70
     8
280
     0
  0
ATTDEF
  5
11D
330
10B
100
AcDbEntity
  8
AM_6
100
AcDbText
 10
23.14400000000021
 20
54.41150000000003
 30
0.0
 40
0.5
  1
14000
100
AcDbAttributeDefinition
  3

  2
SPEED2
 70
     8
280
     0
  0
ATTDEF
  5
11E
330
10B
100
AcDbEntity
  8
AM_6
100
AcDbText
 10
23.14400000000021
 20
53.91150000000003
 30
0.0
 40
0.5
  1
SKF
100
AcDbAttributeDefinition
  3

  2
COMPANY
 70
     8
280
     0
  0
ENDBLK
  5
10E
330
10B
100
AcDbEntity
  8
0
100
AcDbBlockEnd
  0
BLOCK
  5
121
330
11F
100
AcDbEntity
  8
0
100
AcDbBlockBegin
  2
9_PART_7017_ACD_P4A_PART3_in_ASM_7017_ACD_P4A
 70
     2
 10
0.0
 20
0.0
 30
0.0
  3
9_PART_7017_ACD_P4A_PART3_in_ASM_7017_ACD_P4A
  1

  0
3DSOLID
  5
123
330
11F
100
AcDbEntity
  8
AM_0
100
AcDbModelerGeometry
290
     0
  2
{00000000-0000-0000-0000-000000000000}
100
AcDb3dSolid
350
0
  0
ATTDEF
  5
124
330
11F
100
AcDbEntity
  8
AM_6
100
AcDbText
 10
23.14400000000021
 20
60.91150000000003
 30
0.0
 40
0.5
  1

100
AcDbAttributeDefinition
  3

  2
NN
 70
     8
280
     0
  0
ATTDEF
  5
125
330
11F
100
AcDbEntity
  8
AM_6
100
AcDbText
 10
23.14400000000021
 20
60.41150000000003
 30
0.0
 40
0.5
  1
Angular contact ball bearings, super-precision
100
AcDbAttributeDefinition
  3

  2
NT
 70
     8
280
     0
  0
ATTDEF
  5
126
330
11F
100
AcDbEntity
  8
AM_6
100
AcDbText
 10
23.14400000000021
 20
59.91150000000003
 30
0.0
 40
0.5
  1
7017 ACD/P4A_PART3
100
AcDbAttributeDefinition
  3

  2
NB
 70
     8
280
     0
  0
ATTDEF
  5
127
330
11F
100
AcDbEntity
  8
AM_6
100
AcDbText
 10
23.14400000000021
 20
59.41150000000003
 30
0.0
 40
0.5
  1
$DESIGNATION._PART3
100
AcDbAttributeDefinition
  3

  2
NBSYN
 70
     8
280
     0
  0
ATTDEF
  5
128
330
11F
100
AcDbEntity
  8
AM_6
100
AcDbText
 10
23.14400000000021
 20
58.91150000000003
 30
0.0
 40
0.5
  1
7017 ACD/P4A_PART3
100
AcDbAttributeDefinition
  3

  2
LINA
 70
     8
280
     0
  0
ATTDEF
  5
129
330
11F
100
AcDbEntity
  8
AM_6
100
AcDbText
 10
23.14400000000021
 20
58.41150000000003
 30
0.0
 40
0.5
  1
7017 ACD/P4A
100
AcDbAttributeDefinition
  3

  2
DESIGNATION
 70
     8
280
     0
  0
ATTDEF
  5
12A
330
11F
100
AcDbEntity
  8
AM_6
100
AcDbText
 10
23.14400000000021
 20
57.91150000000003
 30
0.0
 40
0.5
  1
85.000
100
AcDbAttributeDefinition
  3

  2
DD
 70
     8
280
     0
  0
ATTDEF
  5
12B
330
11F
100
AcDbEntity
  8
AM_6
100
AcDbText
 10
23.14400000000021
 20
57.41150000000003
 30
0.0
 40
0.5
  1
130.000
100
AcDbAttributeDefinition
  3

  2
D
 70
     8
280
     0
  0
ATTDEF
  5
12C
330
11F
100
AcDbEntity
  8
AM_6
100
AcDbText
 10
23.14400000000021
 20
56.91150000000003
 30
0.0
 40
0.5
  1
22.000
100
AcDbAttributeDefinition
  3

  2
B
 70
     8
280
     0
  0
ATTDEF
  5
12D
330
11F
100
AcDbEntity
  8
AM_6
100
AcDbText
 10
23.14400000000021
 20
56.41150000000003
 30
0.0
 40
0.5
  1
63.700
100
AcDbAttributeDefinition
  3

  2
LOAD1
 70
     8
280
     0
  0
ATTDEF
  5
12E
330
11F
100
AcDbEntity
  8
AM_6
100
AcDbText
 10
23.14400000000021
 20
55.91150000000003
 30
0.0
 40
0.5
  1
62.000
100
AcDbAttributeDefinition
  3

  2
LOAD2
 70
     8
280
     0
  0
ATTDEF
  5
12F
330
11F
100
AcDbEntity
  8
AM_6
100
AcDbText
 10
23.14400000000021
 20
55.41150000000003
 30
0.0
 40
0.5
  1
2.500
100
AcDbAttributeDefinition
  3

  2
LOAD3
 70
     8
280
     0
  0
ATTDEF
  5
130
330
11F
100
AcDbEntity
  8
AM_6
100
AcDbText
 10
23.14400000000021
 20
54.91150000000003
 30
0.0
 40
0.5
  1
9000
100
AcDbAttributeDefinition
  3

  2
SPEED1
 70
     8
280
     0
  0
ATTDEF
  5
131
330
11F
100
AcDbEntity
  8
AM_6
100
AcDbText
 10
23.14400000000021
 20
54.41150000000003
 30
0.0
 40
0.5
  1
14000
100
AcDbAttributeDefinition
  3

  2
SPEED2
 70
     8
280
     0
  0
ATTDEF
  5
132
330
11F
100
AcDbEntity
  8
AM_6
100
AcDbText
 10
23.14400000000021
 20
53.91150000000003
 30
0.0
 40
0.5
  1
SKF
100
AcDbAttributeDefinition
  3

  2
COMPANY
 70
     8
280
     0
  0
ENDBLK
  5
122
330
11F
100
AcDbEntity
  8
0
100
AcDbBlockEnd
  0
BLOCK
  5
135
330
133
100
AcDbEntity
  8
0
100
AcDbBlockBegin
  2
10_PART_7017_ACD_P4A_PART3_in_ASM_7017_ACD_P4A
 70
     2
 10
0.0
 20
0.0
 30
0.0
  3
10_PART_7017_ACD_P4A_PART3_in_ASM_7017_ACD_P4A
  1

  0
3DSOLID
  5
137
330
133
100
AcDbEntity
  8
AM_0
100
AcDbModelerGeometry
290
     0
  2
{00000000-0000-0000-0000-000000000000}
100
AcDb3dSolid
350
0
  0
ATTDEF
  5
138
330
133
100
AcDbEntity
  8
AM_6
100
AcDbText
 10
23.14400000000021
 20
60.91150000000003
 30
0.0
 40
0.5
  1

100
AcDbAttributeDefinition
  3

  2
NN
 70
     8
280
     0
  0
ATTDEF
  5
139
330
133
100
AcDbEntity
  8
AM_6
100
AcDbText
 10
23.14400000000021
 20
60.41150000000003
 30
0.0
 40
0.5
  1
Angular contact ball bearings, super-precision
100
AcDbAttributeDefinition
  3

  2
NT
 70
     8
280
     0
  0
ATTDEF
  5
13A
330
133
100
AcDbEntity
  8
AM_6
100
AcDbText
 10
23.14400000000021
 20
59.91150000000003
 30
0.0
 40
0.5
  1
7017 ACD/P4A_PART3
100
AcDbAttributeDefinition
  3

  2
NB
 70
     8
280
     0
  0
ATTDEF
  5
13B
330
133
100
AcDbEntity
  8
AM_6
100
AcDbText
 10
23.14400000000021
 20
59.41150000000003
 30
0.0
 40
0.5
  1
$DESIGNATION._PART3
100
AcDbAttributeDefinition
  3

  2
NBSYN
 70
     8
280
     0
  0
ATTDEF
  5
13C
330
133
100
AcDbEntity
  8
AM_6
100
AcDbText
 10
23.14400000000021
 20
58.91150000000003
 30
0.0
 40
0.5
  1
7017 ACD/P4A_PART3
100
AcDbAttributeDefinition
  3

  2
LINA
 70
     8
280
     0
  0
ATTDEF
  5
13D
330
133
100
AcDbEntity
  8
AM_6
100
AcDbText
 10
23.14400000000021
 20
58.41150000000003
 30
0.0
 40
0.5
  1
7017 ACD/P4A
100
AcDbAttributeDefinition
  3

  2
DESIGNATION
 70
     8
280
     0
  0
ATTDEF
  5
13E
330
133
100
AcDbEntity
  8
AM_6
100
AcDbText
 10
23.14400000000021
 20
57.91150000000003
 30
0.0
 40
0.5
  1
85.000
100
AcDbAttributeDefinition
  3

  2
DD
 70
     8
280
     0
  0
ATTDEF
  5
13F
330
133
100
AcDbEntity
  8
AM_6
100
AcDbText
 10
23.14400000000021
 20
57.41150000000003
 30
0.0
 40
0.5
  1
130.000
100
AcDbAttributeDefinition
  3

  2
D
 70
     8
280
     0
  0
ATTDEF
  5
140
330
133
100
AcDbEntity
  8
AM_6
100
AcDbText
 10
23.14400000000021
 20
56.91150000000003
 30
0.0
 40
0.5
  1
22.000
100
AcDbAttributeDefinition
  3

  2
B
 70
     8
280
     0
  0
ATTDEF
  5
141
330
133
100
AcDbEntity
  8
AM_6
100
AcDbText
 10
23.14400000000021
 20
56.41150000000003
 30
0.0
 40
0.5
  1
63.700
100
AcDbAttributeDefinition
  3

  2
LOAD1
 70
     8
280
     0
  0
ATTDEF
  5
142
330
133
100
AcDbEntity
  8
AM_6
100
AcDbText
 10
23.14400000000021
 20
55.91150000000003
 30
0.0
 40
0.5
  1
62.000
100
AcDbAttributeDefinition
  3

  2
LOAD2
 70
     8
280
     0
  0
ATTDEF
  5
143
330
133
100
AcDbEntity
  8
AM_6
100
AcDbText
 10
23.14400000000021
 20
55.41150000000003
 30
0.0
 40
0.5
  1
2.500
100
AcDbAttributeDefinition
  3

  2
LOAD3
 70
     8
280
     0
  0
ATTDEF
  5
144
330
133
100
AcDbEntity
  8
AM_6
100
AcDbText
 10
23.14400000000021
 20
54.91150000000003
 30
0.0
 40
0.5
  1
9000
100
AcDbAttributeDefinition
  3

  2
SPEED1
 70
     8
280
     0
  0
ATTDEF
  5
145
330
133
100
AcDbEntity
  8
AM_6
100
AcDbText
 10
23.14400000000021
 20
54.41150000000003
 30
0.0
 40
0.5
  1
14000
100
AcDbAttributeDefinition
  3

  2
SPEED2
 70
     8
280
     0
  0
ATTDEF
  5
146
330
133
100
AcDbEntity
  8
AM_6
100
AcDbText
 10
23.14400000000021
 20
53.91150000000003
 30
0.0
 40
0.5
  1
SKF
100
AcDbAttributeDefinition
  3

  2
COMPANY
 70
     8
280
     0
  0
ENDBLK
  5
136
330
133
100
AcDbEntity
  8
0
100
AcDbBlockEnd
  0
BLOCK
  5
149
330
147
100
AcDbEntity
  8
0
100
AcDbBlockBegin
  2
11_PART_7017_ACD_P4A_PART3_in_ASM_7017_ACD_P4A
 70
     2
 10
0.0
 20
0.0
 30
0.0
  3
11_PART_7017_ACD_P4A_PART3_in_ASM_7017_ACD_P4A
  1

  0
3DSOLID
  5
14B
330
147
100
AcDbEntity
  8
AM_0
100
AcDbModelerGeometry
290
     0
  2
{00000000-0000-0000-0000-000000000000}
100
AcDb3dSolid
350
0
  0
ATTDEF
  5
14C
330
147
100
AcDbEntity
  8
AM_6
100
AcDbText
 10
23.14400000000021
 20
60.91150000000003
 30
0.0
 40
0.5
  1

100
AcDbAttributeDefinition
  3

  2
NN
 70
     8
280
     0
  0
ATTDEF
  5
14D
330
147
100
AcDbEntity
  8
AM_6
100
AcDbText
 10
23.14400000000021
 20
60.41150000000003
 30
0.0
 40
0.5
  1
Angular contact ball bearings, super-precision
100
AcDbAttributeDefinition
  3

  2
NT
 70
     8
280
     0
  0
ATTDEF
  5
14E
330
147
100
AcDbEntity
  8
AM_6
100
AcDbText
 10
23.14400000000021
 20
59.91150000000003
 30
0.0
 40
0.5
  1
7017 ACD/P4A_PART3
100
AcDbAttributeDefinition
  3

  2
NB
 70
     8
280
     0
  0
ATTDEF
  5
14F
330
147
100
AcDbEntity
  8
AM_6
100
AcDbText
 10
23.14400000000021
 20
59.41150000000003
 30
0.0
 40
0.5
  1
$DESIGNATION._PART3
100
AcDbAttributeDefinition
  3

  2
NBSYN
 70
     8
280
     0
  0
ATTDEF
  5
150
330
147
100
AcDbEntity
  8
AM_6
100
AcDbText
 10
23.14400000000021
 20
58.91150000000003
 30
0.0
 40
0.5
  1
7017 ACD/P4A_PART3
100
AcDbAttributeDefinition
  3

  2
LINA
 70
     8
280
     0
  0
ATTDEF
  5
151
330
147
100
AcDbEntity
  8
AM_6
100
AcDbText
 10
23.14400000000021
 20
58.41150000000003
 30
0.0
 40
0.5
  1
7017 ACD/P4A
100
AcDbAttributeDefinition
  3

  2
DESIGNATION
 70
     8
280
     0
  0
ATTDEF
  5
152
330
147
100
AcDbEntity
  8
AM_6
100
AcDbText
 10
23.14400000000021
 20
57.91150000000003
 30
0.0
 40
0.5
  1
85.000
100
AcDbAttributeDefinition
  3

  2
DD
 70
     8
280
     0
  0
ATTDEF
  5
153
330
147
100
AcDbEntity
  8
AM_6
100
AcDbText
 10
23.14400000000021
 20
57.41150000000003
 30
0.0
 40
0.5
  1
130.000
100
AcDbAttributeDefinition
  3

  2
D
 70
     8
280
     0
  0
ATTDEF
  5
154
330
147
100
AcDbEntity
  8
AM_6
100
AcDbText
 10
23.14400000000021
 20
56.91150000000003
 30
0.0
 40
0.5
  1
22.000
100
AcDbAttributeDefinition
  3

  2
B
 70
     8
280
     0
  0
ATTDEF
  5
155
330
147
100
AcDbEntity
  8
AM_6
100
AcDbText
 10
23.14400000000021
 20
56.41150000000003
 30
0.0
 40
0.5
  1
63.700
100
AcDbAttributeDefinition
  3

  2
LOAD1
 70
     8
280
     0
  0
ATTDEF
  5
156
330
147
100
AcDbEntity
  8
AM_6
100
AcDbText
 10
23.14400000000021
 20
55.91150000000003
 30
0.0
 40
0.5
  1
62.000
100
AcDbAttributeDefinition
  3

  2
LOAD2
 70
     8
280
     0
  0
ATTDEF
  5
157
330
147
100
AcDbEntity
  8
AM_6
100
AcDbText
 10
23.14400000000021
 20
55.41150000000003
 30
0.0
 40
0.5
  1
2.500
100
AcDbAttributeDefinition
  3

  2
LOAD3
 70
     8
280
     0
  0
ATTDEF
  5
158
330
147
100
AcDbEntity
  8
AM_6
100
AcDbText
 10
23.14400000000021
 20
54.91150000000003
 30
0.0
 40
0.5
  1
9000
100
AcDbAttributeDefinition
  3

  2
SPEED1
 70
     8
280
     0
  0
ATTDEF
  5
159
330
147
100
AcDbEntity
  8
AM_6
100
AcDbText
 10
23.14400000000021
 20
54.41150000000003
 30
0.0
 40
0.5
  1
14000
100
AcDbAttributeDefinition
  3

  2
SPEED2
 70
     8
280
     0
  0
ATTDEF
  5
15A
330
147
100
AcDbEntity
  8
AM_6
100
AcDbText
 10
23.14400000000021
 20
53.91150000000003
 30
0.0
 40
0.5
  1
SKF
100
AcDbAttributeDefinition
  3

  2
COMPANY
 70
     8
280
     0
  0
ENDBLK
  5
14A
330
147
100
AcDbEntity
  8
0
100
AcDbBlockEnd
  0
BLOCK
  5
15D
330
15B
100
AcDbEntity
  8
0
100
AcDbBlockBegin
  2
12_PART_7017_ACD_P4A_PART3_in_ASM_7017_ACD_P4A
 70
     2
 10
0.0
 20
0.0
 30
0.0
  3
12_PART_7017_ACD_P4A_PART3_in_ASM_7017_ACD_P4A
  1

  0
3DSOLID
  5
15F
330
15B
100
AcDbEntity
  8
AM_0
100
AcDbModelerGeometry
290
     0
  2
{00000000-0000-0000-0000-000000000000}
100
AcDb3dSolid
350
0
  0
ATTDEF
  5
160
330
15B
100
AcDbEntity
  8
AM_6
100
AcDbText
 10
23.14400000000021
 20
60.91150000000003
 30
0.0
 40
0.5
  1

100
AcDbAttributeDefinition
  3

  2
NN
 70
     8
280
     0
  0
ATTDEF
  5
161
330
15B
100
AcDbEntity
  8
AM_6
100
AcDbText
 10
23.14400000000021
 20
60.41150000000003
 30
0.0
 40
0.5
  1
Angular contact ball bearings, super-precision
100
AcDbAttributeDefinition
  3

  2
NT
 70
     8
280
     0
  0
ATTDEF
  5
162
330
15B
100
AcDbEntity
  8
AM_6
100
AcDbText
 10
23.14400000000021
 20
59.91150000000003
 30
0.0
 40
0.5
  1
7017 ACD/P4A_PART3
100
AcDbAttributeDefinition
  3

  2
NB
 70
     8
280
     0
  0
ATTDEF
  5
163
330
15B
100
AcDbEntity
  8
AM_6
100
AcDbText
 10
23.14400000000021
 20
59.41150000000003
 30
0.0
 40
0.5
  1
$DESIGNATION._PART3
100
AcDbAttributeDefinition
  3

  2
NBSYN
 70
     8
280
     0
  0
ATTDEF
  5
164
330
15B
100
AcDbEntity
  8
AM_6
100
AcDbText
 10
23.14400000000021
 20
58.91150000000003
 30
0.0
 40
0.5
  1
7017 ACD/P4A_PART3
100
AcDbAttributeDefinition
  3

  2
LINA
 70
     8
280
     0
  0
ATTDEF
  5
165
330
15B
100
AcDbEntity
  8
AM_6
100
AcDbText
 10
23.14400000000021
 20
58.41150000000003
 30
0.0
 40
0.5
  1
7017 ACD/P4A
100
AcDbAttributeDefinition
  3

  2
DESIGNATION
 70
     8
280
     0
  0
ATTDEF
  5
166
330
15B
100
AcDbEntity
  8
AM_6
100
AcDbText
 10
23.14400000000021
 20
57.91150000000003
 30
0.0
 40
0.5
  1
85.000
100
AcDbAttributeDefinition
  3

  2
DD
 70
     8
280
     0
  0
ATTDEF
  5
167
330
15B
100
AcDbEntity
  8
AM_6
100
AcDbText
 10
23.14400000000021
 20
57.41150000000003
 30
0.0
 40
0.5
  1
130.000
100
AcDbAttributeDefinition
  3

  2
D
 70
     8
280
     0
  0
ATTDEF
  5
168
330
15B
100
AcDbEntity
  8
AM_6
100
AcDbText
 10
23.14400000000021
 20
56.91150000000003
 30
0.0
 40
0.5
  1
22.000
100
AcDbAttributeDefinition
  3

  2
B
 70
     8
280
     0
  0
ATTDEF
  5
169
330
15B
100
AcDbEntity
  8
AM_6
100
AcDbText
 10
23.14400000000021
 20
56.41150000000003
 30
0.0
 40
0.5
  1
63.700
100
AcDbAttributeDefinition
  3

  2
LOAD1
 70
     8
280
     0
  0
ATTDEF
  5
16A
330
15B
100
AcDbEntity
  8
AM_6
100
AcDbText
 10
23.14400000000021
 20
55.91150000000003
 30
0.0
 40
0.5
  1
62.000
100
AcDbAttributeDefinition
  3

  2
LOAD2
 70
     8
280
     0
  0
ATTDEF
  5
16B
330
15B
100
AcDbEntity
  8
AM_6
100
AcDbText
 10
23.14400000000021
 20
55.41150000000003
 30
0.0
 40
0.5
  1
2.500
100
AcDbAttributeDefinition
  3

  2
LOAD3
 70
     8
280
     0
  0
ATTDEF
  5
16C
330
15B
100
AcDbEntity
  8
AM_6
100
AcDbText
 10
23.14400000000021
 20
54.91150000000003
 30
0.0
 40
0.5
  1
9000
100
AcDbAttributeDefinition
  3

  2
SPEED1
 70
     8
280
     0
  0
ATTDEF
  5
16D
330
15B
100
AcDbEntity
  8
AM_6
100
AcDbText
 10
23.14400000000021
 20
54.41150000000003
 30
0.0
 40
0.5
  1
14000
100
AcDbAttributeDefinition
  3

  2
SPEED2
 70
     8
280
     0
  0
ATTDEF
  5
16E
330
15B
100
AcDbEntity
  8
AM_6
100
AcDbText
 10
23.14400000000021
 20
53.91150000000003
 30
0.0
 40
0.5
  1
SKF
100
AcDbAttributeDefinition
  3

  2
COMPANY
 70
     8
280
     0
  0
ENDBLK
  5
15E
330
15B
100
AcDbEntity
  8
0
100
AcDbBlockEnd
  0
BLOCK
  5
171
330
16F
100
AcDbEntity
  8
0
100
AcDbBlockBegin
  2
13_PART_7017_ACD_P4A_PART3_in_ASM_7017_ACD_P4A
 70
     2
 10
0.0
 20
0.0
 30
0.0
  3
13_PART_7017_ACD_P4A_PART3_in_ASM_7017_ACD_P4A
  1

  0
3DSOLID
  5
173
330
16F
100
AcDbEntity
  8
AM_0
100
AcDbModelerGeometry
290
     0
  2
{00000000-0000-0000-0000-000000000000}
100
AcDb3dSolid
350
0
  0
ATTDEF
  5
174
330
16F
100
AcDbEntity
  8
AM_6
100
AcDbText
 10
23.14400000000021
 20
60.91150000000003
 30
0.0
 40
0.5
  1

100
AcDbAttributeDefinition
  3

  2
NN
 70
     8
280
     0
  0
ATTDEF
  5
175
330
16F
100
AcDbEntity
  8
AM_6
100
AcDbText
 10
23.14400000000021
 20
60.41150000000003
 30
0.0
 40
0.5
  1
Angular contact ball bearings, super-precision
100
AcDbAttributeDefinition
  3

  2
NT
 70
     8
280
     0
  0
ATTDEF
  5
176
330
16F
100
AcDbEntity
  8
AM_6
100
AcDbText
 10
23.14400000000021
 20
59.91150000000003
 30
0.0
 40
0.5
  1
7017 ACD/P4A_PART3
100
AcDbAttributeDefinition
  3

  2
NB
 70
     8
280
     0
  0
ATTDEF
  5
177
330
16F
100
AcDbEntity
  8
AM_6
100
AcDbText
 10
23.14400000000021
 20
59.41150000000003
 30
0.0
 40
0.5
  1
$DESIGNATION._PART3
100
AcDbAttributeDefinition
  3

  2
NBSYN
 70
     8
280
     0
  0
ATTDEF
  5
178
330
16F
100
AcDbEntity
  8
AM_6
100
AcDbText
 10
23.14400000000021
 20
58.91150000000003
 30
0.0
 40
0.5
  1
7017 ACD/P4A_PART3
100
AcDbAttributeDefinition
  3

  2
LINA
 70
     8
280
     0
  0
ATTDEF
  5
179
330
16F
100
AcDbEntity
  8
AM_6
100
AcDbText
 10
23.14400000000021
 20
58.41150000000003
 30
0.0
 40
0.5
  1
7017 ACD/P4A
100
AcDbAttributeDefinition
  3

  2
DESIGNATION
 70
     8
280
     0
  0
ATTDEF
  5
17A
330
16F
100
AcDbEntity
  8
AM_6
100
AcDbText
 10
23.14400000000021
 20
57.91150000000003
 30
0.0
 40
0.5
  1
85.000
100
AcDbAttributeDefinition
  3

  2
DD
 70
     8
280
     0
  0
ATTDEF
  5
17B
330
16F
100
AcDbEntity
  8
AM_6
100
AcDbText
 10
23.14400000000021
 20
57.41150000000003
 30
0.0
 40
0.5
  1
130.000
100
AcDbAttributeDefinition
  3

  2
D
 70
     8
280
     0
  0
ATTDEF
  5
17C
330
16F
100
AcDbEntity
  8
AM_6
100
AcDbText
 10
23.14400000000021
 20
56.91150000000003
 30
0.0
 40
0.5
  1
22.000
100
AcDbAttributeDefinition
  3

  2
B
 70
     8
280
     0
  0
ATTDEF
  5
17D
330
16F
100
AcDbEntity
  8
AM_6
100
AcDbText
 10
23.14400000000021
 20
56.41150000000003
 30
0.0
 40
0.5
  1
63.700
100
AcDbAttributeDefinition
  3

  2
LOAD1
 70
     8
280
     0
  0
ATTDEF
  5
17E
330
16F
100
AcDbEntity
  8
AM_6
100
AcDbText
 10
23.14400000000021
 20
55.91150000000003
 30
0.0
 40
0.5
  1
62.000
100
AcDbAttributeDefinition
  3

  2
LOAD2
 70
     8
280
     0
  0
ATTDEF
  5
17F
330
16F
100
AcDbEntity
  8
AM_6
100
AcDbText
 10
23.14400000000021
 20
55.41150000000003
 30
0.0
 40
0.5
  1
2.500
100
AcDbAttributeDefinition
  3

  2
LOAD3
 70
     8
280
     0
  0
ATTDEF
  5
180
330
16F
100
AcDbEntity
  8
AM_6
100
AcDbText
 10
23.14400000000021
 20
54.91150000000003
 30
0.0
 40
0.5
  1
9000
100
AcDbAttributeDefinition
  3

  2
SPEED1
 70
     8
280
     0
  0
ATTDEF
  5
181
330
16F
100
AcDbEntity
  8
AM_6
100
AcDbText
 10
23.14400000000021
 20
54.41150000000003
 30
0.0
 40
0.5
  1
14000
100
AcDbAttributeDefinition
  3

  2
SPEED2
 70
     8
280
     0
  0
ATTDEF
  5
182
330
16F
100
AcDbEntity
  8
AM_6
100
AcDbText
 10
23.14400000000021
 20
53.91150000000003
 30
0.0
 40
0.5
  1
SKF
100
AcDbAttributeDefinition
  3

  2
COMPANY
 70
     8
280
     0
  0
ENDBLK
  5
172
330
16F
100
AcDbEntity
  8
0
100
AcDbBlockEnd
  0
BLOCK
  5
185
330
183
100
AcDbEntity
  8
0
100
AcDbBlockBegin
  2
14_PART_7017_ACD_P4A_PART3_in_ASM_7017_ACD_P4A
 70
     2
 10
0.0
 20
0.0
 30
0.0
  3
14_PART_7017_ACD_P4A_PART3_in_ASM_7017_ACD_P4A
  1

  0
3DSOLID
  5
187
330
183
100
AcDbEntity
  8
AM_0
100
AcDbModelerGeometry
290
     0
  2
{00000000-0000-0000-0000-000000000000}
100
AcDb3dSolid
350
0
  0
ATTDEF
  5
188
330
183
100
AcDbEntity
  8
AM_6
100
AcDbText
 10
23.14400000000021
 20
60.91150000000003
 30
0.0
 40
0.5
  1

100
AcDbAttributeDefinition
  3

  2
NN
 70
     8
280
     0
  0
ATTDEF
  5
189
330
183
100
AcDbEntity
  8
AM_6
100
AcDbText
 10
23.14400000000021
 20
60.41150000000003
 30
0.0
 40
0.5
  1
Angular contact ball bearings, super-precision
100
AcDbAttributeDefinition
  3

  2
NT
 70
     8
280
     0
  0
ATTDEF
  5
18A
330
183
100
AcDbEntity
  8
AM_6
100
AcDbText
 10
23.14400000000021
 20
59.91150000000003
 30
0.0
 40
0.5
  1
7017 ACD/P4A_PART3
100
AcDbAttributeDefinition
  3

  2
NB
 70
     8
280
     0
  0
ATTDEF
  5
18B
330
183
100
AcDbEntity
  8
AM_6
100
AcDbText
 10
23.14400000000021
 20
59.41150000000003
 30
0.0
 40
0.5
  1
$DESIGNATION._PART3
100
AcDbAttributeDefinition
  3

  2
NBSYN
 70
     8
280
     0
  0
ATTDEF
  5
18C
330
183
100
AcDbEntity
  8
AM_6
100
AcDbText
 10
23.14400000000021
 20
58.91150000000003
 30
0.0
 40
0.5
  1
7017 ACD/P4A_PART3
100
AcDbAttributeDefinition
  3

  2
LINA
 70
     8
280
     0
  0
ATTDEF
  5
18D
330
183
100
AcDbEntity
  8
AM_6
100
AcDbText
 10
23.14400000000021
 20
58.41150000000003
 30
0.0
 40
0.5
  1
7017 ACD/P4A
100
AcDbAttributeDefinition
  3

  2
DESIGNATION
 70
     8
280
     0
  0
ATTDEF
  5
18E
330
183
100
AcDbEntity
  8
AM_6
100
AcDbText
 10
23.14400000000021
 20
57.91150000000003
 30
0.0
 40
0.5
  1
85.000
100
AcDbAttributeDefinition
  3

  2
DD
 70
     8
280
     0
  0
ATTDEF
  5
18F
330
183
100
AcDbEntity
  8
AM_6
100
AcDbText
 10
23.14400000000021
 20
57.41150000000003
 30
0.0
 40
0.5
  1
130.000
100
AcDbAttributeDefinition
  3

  2
D
 70
     8
280
     0
  0
ATTDEF
  5
190
330
183
100
AcDbEntity
  8
AM_6
100
AcDbText
 10
23.14400000000021
 20
56.91150000000003
 30
0.0
 40
0.5
  1
22.000
100
AcDbAttributeDefinition
  3

  2
B
 70
     8
280
     0
  0
ATTDEF
  5
191
330
183
100
AcDbEntity
  8
AM_6
100
AcDbText
 10
23.14400000000021
 20
56.41150000000003
 30
0.0
 40
0.5
  1
63.700
100
AcDbAttributeDefinition
  3

  2
LOAD1
 70
     8
280
     0
  0
ATTDEF
  5
192
330
183
100
AcDbEntity
  8
AM_6
100
AcDbText
 10
23.14400000000021
 20
55.91150000000003
 30
0.0
 40
0.5
  1
62.000
100
AcDbAttributeDefinition
  3

  2
LOAD2
 70
     8
280
     0
  0
ATTDEF
  5
193
330
183
100
AcDbEntity
  8
AM_6
100
AcDbText
 10
23.14400000000021
 20
55.41150000000003
 30
0.0
 40
0.5
  1
2.500
100
AcDbAttributeDefinition
  3

  2
LOAD3
 70
     8
280
     0
  0
ATTDEF
  5
194
330
183
100
AcDbEntity
  8
AM_6
100
AcDbText
 10
23.14400000000021
 20
54.91150000000003
 30
0.0
 40
0.5
  1
9000
100
AcDbAttributeDefinition
  3

  2
SPEED1
 70
     8
280
     0
  0
ATTDEF
  5
195
330
183
100
AcDbEntity
  8
AM_6
100
AcDbText
 10
23.14400000000021
 20
54.41150000000003
 30
0.0
 40
0.5
  1
14000
100
AcDbAttributeDefinition
  3

  2
SPEED2
 70
     8
280
     0
  0
ATTDEF
  5
196
330
183
100
AcDbEntity
  8
AM_6
100
AcDbText
 10
23.14400000000021
 20
53.91150000000003
 30
0.0
 40
0.5
  1
SKF
100
AcDbAttributeDefinition
  3

  2
COMPANY
 70
     8
280
     0
  0
ENDBLK
  5
186
330
183
100
AcDbEntity
  8
0
100
AcDbBlockEnd
  0
BLOCK
  5
199
330
197
100
AcDbEntity
  8
0
100
AcDbBlockBegin
  2
15_PART_7017_ACD_P4A_PART3_in_ASM_7017_ACD_P4A
 70
     2
 10
0.0
 20
0.0
 30
0.0
  3
15_PART_7017_ACD_P4A_PART3_in_ASM_7017_ACD_P4A
  1

  0
3DSOLID
  5
19B
330
197
100
AcDbEntity
  8
AM_0
100
AcDbModelerGeometry
290
     0
  2
{00000000-0000-0000-0000-000000000000}
100
AcDb3dSolid
350
0
  0
ATTDEF
  5
19C
330
197
100
AcDbEntity
  8
AM_6
100
AcDbText
 10
23.14400000000021
 20
60.91150000000003
 30
0.0
 40
0.5
  1

100
AcDbAttributeDefinition
  3

  2
NN
 70
     8
280
     0
  0
ATTDEF
  5
19D
330
197
100
AcDbEntity
  8
AM_6
100
AcDbText
 10
23.14400000000021
 20
60.41150000000003
 30
0.0
 40
0.5
  1
Angular contact ball bearings, super-precision
100
AcDbAttributeDefinition
  3

  2
NT
 70
     8
280
     0
  0
ATTDEF
  5
19E
330
197
100
AcDbEntity
  8
AM_6
100
AcDbText
 10
23.14400000000021
 20
59.91150000000003
 30
0.0
 40
0.5
  1
7017 ACD/P4A_PART3
100
AcDbAttributeDefinition
  3

  2
NB
 70
     8
280
     0
  0
ATTDEF
  5
19F
330
197
100
AcDbEntity
  8
AM_6
100
AcDbText
 10
23.14400000000021
 20
59.41150000000003
 30
0.0
 40
0.5
  1
$DESIGNATION._PART3
100
AcDbAttributeDefinition
  3

  2
NBSYN
 70
     8
280
     0
  0
ATTDEF
  5
1A0
330
197
100
AcDbEntity
  8
AM_6
100
AcDbText
 10
23.14400000000021
 20
58.91150000000003
 30
0.0
 40
0.5
  1
7017 ACD/P4A_PART3
100
AcDbAttributeDefinition
  3

  2
LINA
 70
     8
280
     0
  0
ATTDEF
  5
1A1
330
197
100
AcDbEntity
  8
AM_6
100
AcDbText
 10
23.14400000000021
 20
58.41150000000003
 30
0.0
 40
0.5
  1
7017 ACD/P4A
100
AcDbAttributeDefinition
  3

  2
DESIGNATION
 70
     8
280
     0
  0
ATTDEF
  5
1A2
330
197
100
AcDbEntity
  8
AM_6
100
AcDbText
 10
23.14400000000021
 20
57.91150000000003
 30
0.0
 40
0.5
  1
85.000
100
AcDbAttributeDefinition
  3

  2
DD
 70
     8
280
     0
  0
ATTDEF
  5
1A3
330
197
100
AcDbEntity
  8
AM_6
100
AcDbText
 10
23.14400000000021
 20
57.41150000000003
 30
0.0
 40
0.5
  1
130.000
100
AcDbAttributeDefinition
  3

  2
D
 70
     8
280
     0
  0
ATTDEF
  5
1A4
330
197
100
AcDbEntity
  8
AM_6
100
AcDbText
 10
23.14400000000021
 20
56.91150000000003
 30
0.0
 40
0.5
  1
22.000
100
AcDbAttributeDefinition
  3

  2
B
 70
     8
280
     0
  0
ATTDEF
  5
1A5
330
197
100
AcDbEntity
  8
AM_6
100
AcDbText
 10
23.14400000000021
 20
56.41150000000003
 30
0.0
 40
0.5
  1
63.700
100
AcDbAttributeDefinition
  3

  2
LOAD1
 70
     8
280
     0
  0
ATTDEF
  5
1A6
330
197
100
AcDbEntity
  8
AM_6
100
AcDbText
 10
23.14400000000021
 20
55.91150000000003
 30
0.0
 40
0.5
  1
62.000
100
AcDbAttributeDefinition
  3

  2
LOAD2
 70
     8
280
     0
  0
ATTDEF
  5
1A7
330
197
100
AcDbEntity
  8
AM_6
100
AcDbText
 10
23.14400000000021
 20
55.41150000000003
 30
0.0
 40
0.5
  1
2.500
100
AcDbAttributeDefinition
  3

  2
LOAD3
 70
     8
280
     0
  0
ATTDEF
  5
1A8
330
197
100
AcDbEntity
  8
AM_6
100
AcDbText
 10
23.14400000000021
 20
54.91150000000003
 30
0.0
 40
0.5
  1
9000
100
AcDbAttributeDefinition
  3

  2
SPEED1
 70
     8
280
     0
  0
ATTDEF
  5
1A9
330
197
100
AcDbEntity
  8
AM_6
100
AcDbText
 10
23.14400000000021
 20
54.41150000000003
 30
0.0
 40
0.5
  1
14000
100
AcDbAttributeDefinition
  3

  2
SPEED2
 70
     8
280
     0
  0
ATTDEF
  5
1AA
330
197
100
AcDbEntity
  8
AM_6
100
AcDbText
 10
23.14400000000021
 20
53.91150000000003
 30
0.0
 40
0.5
  1
SKF
100
AcDbAttributeDefinition
  3

  2
COMPANY
 70
     8
280
     0
  0
ENDBLK
  5
19A
330
197
100
AcDbEntity
  8
0
100
AcDbBlockEnd
  0
BLOCK
  5
1AD
330
1AB
100
AcDbEntity
  8
0
100
AcDbBlockBegin
  2
16_PART_7017_ACD_P4A_PART3_in_ASM_7017_ACD_P4A
 70
     2
 10
0.0
 20
0.0
 30
0.0
  3
16_PART_7017_ACD_P4A_PART3_in_ASM_7017_ACD_P4A
  1

  0
3DSOLID
  5
1AF
330
1AB
100
AcDbEntity
  8
AM_0
100
AcDbModelerGeometry
290
     0
  2
{00000000-0000-0000-0000-000000000000}
100
AcDb3dSolid
350
0
  0
ATTDEF
  5
1B0
330
1AB
100
AcDbEntity
  8
AM_6
100
AcDbText
 10
23.14400000000021
 20
60.91150000000003
 30
0.0
 40
0.5
  1

100
AcDbAttributeDefinition
  3

  2
NN
 70
     8
280
     0
  0
ATTDEF
  5
1B1
330
1AB
100
AcDbEntity
  8
AM_6
100
AcDbText
 10
23.14400000000021
 20
60.41150000000003
 30
0.0
 40
0.5
  1
Angular contact ball bearings, super-precision
100
AcDbAttributeDefinition
  3

  2
NT
 70
     8
280
     0
  0
ATTDEF
  5
1B2
330
1AB
100
AcDbEntity
  8
AM_6
100
AcDbText
 10
23.14400000000021
 20
59.91150000000003
 30
0.0
 40
0.5
  1
7017 ACD/P4A_PART3
100
AcDbAttributeDefinition
  3

  2
NB
 70
     8
280
     0
  0
ATTDEF
  5
1B3
330
1AB
100
AcDbEntity
  8
AM_6
100
AcDbText
 10
23.14400000000021
 20
59.41150000000003
 30
0.0
 40
0.5
  1
$DESIGNATION._PART3
100
AcDbAttributeDefinition
  3

  2
NBSYN
 70
     8
280
     0
  0
ATTDEF
  5
1B4
330
1AB
100
AcDbEntity
  8
AM_6
100
AcDbText
 10
23.14400000000021
 20
58.91150000000003
 30
0.0
 40
0.5
  1
7017 ACD/P4A_PART3
100
AcDbAttributeDefinition
  3

  2
LINA
 70
     8
280
     0
  0
ATTDEF
  5
1B5
330
1AB
100
AcDbEntity
  8
AM_6
100
AcDbText
 10
23.14400000000021
 20
58.41150000000003
 30
0.0
 40
0.5
  1
7017 ACD/P4A
100
AcDbAttributeDefinition
  3

  2
DESIGNATION
 70
     8
280
     0
  0
ATTDEF
  5
1B6
330
1AB
100
AcDbEntity
  8
AM_6
100
AcDbText
 10
23.14400000000021
 20
57.91150000000003
 30
0.0
 40
0.5
  1
85.000
100
AcDbAttributeDefinition
  3

  2
DD
 70
     8
280
     0
  0
ATTDEF
  5
1B7
330
1AB
100
AcDbEntity
  8
AM_6
100
AcDbText
 10
23.14400000000021
 20
57.41150000000003
 30
0.0
 40
0.5
  1
130.000
100
AcDbAttributeDefinition
  3

  2
D
 70
     8
280
     0
  0
ATTDEF
  5
1B8
330
1AB
100
AcDbEntity
  8
AM_6
100
AcDbText
 10
23.14400000000021
 20
56.91150000000003
 30
0.0
 40
0.5
  1
22.000
100
AcDbAttributeDefinition
  3

  2
B
 70
     8
280
     0
  0
ATTDEF
  5
1B9
330
1AB
100
AcDbEntity
  8
AM_6
100
AcDbText
 10
23.14400000000021
 20
56.41150000000003
 30
0.0
 40
0.5
  1
63.700
100
AcDbAttributeDefinition
  3

  2
LOAD1
 70
     8
280
     0
  0
ATTDEF
  5
1BA
330
1AB
100
AcDbEntity
  8
AM_6
100
AcDbText
 10
23.14400000000021
 20
55.91150000000003
 30
0.0
 40
0.5
  1
62.000
100
AcDbAttributeDefinition
  3

  2
LOAD2
 70
     8
280
     0
  0
ATTDEF
  5
1BB
330
1AB
100
AcDbEntity
  8
AM_6
100
AcDbText
 10
23.14400000000021
 20
55.41150000000003
 30
0.0
 40
0.5
  1
2.500
100
AcDbAttributeDefinition
  3

  2
LOAD3
 70
     8
280
     0
  0
ATTDEF
  5
1BC
330
1AB
100
AcDbEntity
  8
AM_6
100
AcDbText
 10
23.14400000000021
 20
54.91150000000003
 30
0.0
 40
0.5
  1
9000
100
AcDbAttributeDefinition
  3

  2
SPEED1
 70
     8
280
     0
  0
ATTDEF
  5
1BD
330
1AB
100
AcDbEntity
  8
AM_6
100
AcDbText
 10
23.14400000000021
 20
54.41150000000003
 30
0.0
 40
0.5
  1
14000
100
AcDbAttributeDefinition
  3

  2
SPEED2
 70
     8
280
     0
  0
ATTDEF
  5
1BE
330
1AB
100
AcDbEntity
  8
AM_6
100
AcDbText
 10
23.14400000000021
 20
53.91150000000003
 30
0.0
 40
0.5
  1
SKF
100
AcDbAttributeDefinition
  3

  2
COMPANY
 70
     8
280
     0
  0
ENDBLK
  5
1AE
330
1AB
100
AcDbEntity
  8
0
100
AcDbBlockEnd
  0
BLOCK
  5
1C1
330
1BF
100
AcDbEntity
  8
0
100
AcDbBlockBegin
  2
17_PART_7017_ACD_P4A_PART3_in_ASM_7017_ACD_P4A
 70
     2
 10
0.0
 20
0.0
 30
0.0
  3
17_PART_7017_ACD_P4A_PART3_in_ASM_7017_ACD_P4A
  1

  0
3DSOLID
  5
1C3
330
1BF
100
AcDbEntity
  8
AM_0
100
AcDbModelerGeometry
290
     0
  2
{00000000-0000-0000-0000-000000000000}
100
AcDb3dSolid
350
0
  0
ATTDEF
  5
1C4
330
1BF
100
AcDbEntity
  8
AM_6
100
AcDbText
 10
23.14400000000021
 20
60.91150000000003
 30
0.0
 40
0.5
  1

100
AcDbAttributeDefinition
  3

  2
NN
 70
     8
280
     0
  0
ATTDEF
  5
1C5
330
1BF
100
AcDbEntity
  8
AM_6
100
AcDbText
 10
23.14400000000021
 20
60.41150000000003
 30
0.0
 40
0.5
  1
Angular contact ball bearings, super-precision
100
AcDbAttributeDefinition
  3

  2
NT
 70
     8
280
     0
  0
ATTDEF
  5
1C6
330
1BF
100
AcDbEntity
  8
AM_6
100
AcDbText
 10
23.14400000000021
 20
59.91150000000003
 30
0.0
 40
0.5
  1
7017 ACD/P4A_PART3
100
AcDbAttributeDefinition
  3

  2
NB
 70
     8
280
     0
  0
ATTDEF
  5
1C7
330
1BF
100
AcDbEntity
  8
AM_6
100
AcDbText
 10
23.14400000000021
 20
59.41150000000003
 30
0.0
 40
0.5
  1
$DESIGNATION._PART3
100
AcDbAttributeDefinition
  3

  2
NBSYN
 70
     8
280
     0
  0
ATTDEF
  5
1C8
330
1BF
100
AcDbEntity
  8
AM_6
100
AcDbText
 10
23.14400000000021
 20
58.91150000000003
 30
0.0
 40
0.5
  1
7017 ACD/P4A_PART3
100
AcDbAttributeDefinition
  3

  2
LINA
 70
     8
280
     0
  0
ATTDEF
  5
1C9
330
1BF
100
AcDbEntity
  8
AM_6
100
AcDbText
 10
23.14400000000021
 20
58.41150000000003
 30
0.0
 40
0.5
  1
7017 ACD/P4A
100
AcDbAttributeDefinition
  3

  2
DESIGNATION
 70
     8
280
     0
  0
ATTDEF
  5
1CA
330
1BF
100
AcDbEntity
  8
AM_6
100
AcDbText
 10
23.14400000000021
 20
57.91150000000003
 30
0.0
 40
0.5
  1
85.000
100
AcDbAttributeDefinition
  3

  2
DD
 70
     8
280
     0
  0
ATTDEF
  5
1CB
330
1BF
100
AcDbEntity
  8
AM_6
100
AcDbText
 10
23.14400000000021
 20
57.41150000000003
 30
0.0
 40
0.5
  1
130.000
100
AcDbAttributeDefinition
  3

  2
D
 70
     8
280
     0
  0
ATTDEF
  5
1CC
330
1BF
100
AcDbEntity
  8
AM_6
100
AcDbText
 10
23.14400000000021
 20
56.91150000000003
 30
0.0
 40
0.5
  1
22.000
100
AcDbAttributeDefinition
  3

  2
B
 70
     8
280
     0
  0
ATTDEF
  5
1CD
330
1BF
100
AcDbEntity
  8
AM_6
100
AcDbText
 10
23.14400000000021
 20
56.41150000000003
 30
0.0
 40
0.5
  1
63.700
100
AcDbAttributeDefinition
  3

  2
LOAD1
 70
     8
280
     0
  0
ATTDEF
  5
1CE
330
1BF
100
AcDbEntity
  8
AM_6
100
AcDbText
 10
23.14400000000021
 20
55.91150000000003
 30
0.0
 40
0.5
  1
62.000
100
AcDbAttributeDefinition
  3

  2
LOAD2
 70
     8
280
     0
  0
ATTDEF
  5
1CF
330
1BF
100
AcDbEntity
  8
AM_6
100
AcDbText
 10
23.14400000000021
 20
55.41150000000003
 30
0.0
 40
0.5
  1
2.500
100
AcDbAttributeDefinition
  3

  2
LOAD3
 70
     8
280
     0
  0
ATTDEF
  5
1D0
330
1BF
100
AcDbEntity
  8
AM_6
100
AcDbText
 10
23.14400000000021
 20
54.91150000000003
 30
0.0
 40
0.5
  1
9000
100
AcDbAttributeDefinition
  3

  2
SPEED1
 70
     8
280
     0
  0
ATTDEF
  5
1D1
330
1BF
100
AcDbEntity
  8
AM_6
100
AcDbText
 10
23.14400000000021
 20
54.41150000000003
 30
0.0
 40
0.5
  1
14000
100
AcDbAttributeDefinition
  3

  2
SPEED2
 70
     8
280
     0
  0
ATTDEF
  5
1D2
330
1BF
100
AcDbEntity
  8
AM_6
100
AcDbText
 10
23.14400000000021
 20
53.91150000000003
 30
0.0
 40
0.5
  1
SKF
100
AcDbAttributeDefinition
  3

  2
COMPANY
 70
     8
280
     0
  0
ENDBLK
  5
1C2
330
1BF
100
AcDbEntity
  8
0
100
AcDbBlockEnd
  0
BLOCK
  5
1D5
330
1D3
100
AcDbEntity
  8
0
100
AcDbBlockBegin
  2
18_PART_7017_ACD_P4A_PART3_in_ASM_7017_ACD_P4A
 70
     2
 10
0.0
 20
0.0
 30
0.0
  3
18_PART_7017_ACD_P4A_PART3_in_ASM_7017_ACD_P4A
  1

  0
3DSOLID
  5
1D7
330
1D3
100
AcDbEntity
  8
AM_0
100
AcDbModelerGeometry
290
     0
  2
{00000000-0000-0000-0000-000000000000}
100
AcDb3dSolid
350
0
  0
ATTDEF
  5
1D8
330
1D3
100
AcDbEntity
  8
AM_6
100
AcDbText
 10
23.14400000000021
 20
60.91150000000003
 30
0.0
 40
0.5
  1

100
AcDbAttributeDefinition
  3

  2
NN
 70
     8
280
     0
  0
ATTDEF
  5
1D9
330
1D3
100
AcDbEntity
  8
AM_6
100
AcDbText
 10
23.14400000000021
 20
60.41150000000003
 30
0.0
 40
0.5
  1
Angular contact ball bearings, super-precision
100
AcDbAttributeDefinition
  3

  2
NT
 70
     8
280
     0
  0
ATTDEF
  5
1DA
330
1D3
100
AcDbEntity
  8
AM_6
100
AcDbText
 10
23.14400000000021
 20
59.91150000000003
 30
0.0
 40
0.5
  1
7017 ACD/P4A_PART3
100
AcDbAttributeDefinition
  3

  2
NB
 70
     8
280
     0
  0
ATTDEF
  5
1DB
330
1D3
100
AcDbEntity
  8
AM_6
100
AcDbText
 10
23.14400000000021
 20
59.41150000000003
 30
0.0
 40
0.5
  1
$DESIGNATION._PART3
100
AcDbAttributeDefinition
  3

  2
NBSYN
 70
     8
280
     0
  0
ATTDEF
  5
1DC
330
1D3
100
AcDbEntity
  8
AM_6
100
AcDbText
 10
23.14400000000021
 20
58.91150000000003
 30
0.0
 40
0.5
  1
7017 ACD/P4A_PART3
100
AcDbAttributeDefinition
  3

  2
LINA
 70
     8
280
     0
  0
ATTDEF
  5
1DD
330
1D3
100
AcDbEntity
  8
AM_6
100
AcDbText
 10
23.14400000000021
 20
58.41150000000003
 30
0.0
 40
0.5
  1
7017 ACD/P4A
100
AcDbAttributeDefinition
  3

  2
DESIGNATION
 70
     8
280
     0
  0
ATTDEF
  5
1DE
330
1D3
100
AcDbEntity
  8
AM_6
100
AcDbText
 10
23.14400000000021
 20
57.91150000000003
 30
0.0
 40
0.5
  1
85.000
100
AcDbAttributeDefinition
  3

  2
DD
 70
     8
280
     0
  0
ATTDEF
  5
1DF
330
1D3
100
AcDbEntity
  8
AM_6
100
AcDbText
 10
23.14400000000021
 20
57.41150000000003
 30
0.0
 40
0.5
  1
130.000
100
AcDbAttributeDefinition
  3

  2
D
 70
     8
280
     0
  0
ATTDEF
  5
1E0
330
1D3
100
AcDbEntity
  8
AM_6
100
AcDbText
 10
23.14400000000021
 20
56.91150000000003
 30
0.0
 40
0.5
  1
22.000
100
AcDbAttributeDefinition
  3

  2
B
 70
     8
280
     0
  0
ATTDEF
  5
1E1
330
1D3
100
AcDbEntity
  8
AM_6
100
AcDbText
 10
23.14400000000021
 20
56.41150000000003
 30
0.0
 40
0.5
  1
63.700
100
AcDbAttributeDefinition
  3

  2
LOAD1
 70
     8
280
     0
  0
ATTDEF
  5
1E2
330
1D3
100
AcDbEntity
  8
AM_6
100
AcDbText
 10
23.14400000000021
 20
55.91150000000003
 30
0.0
 40
0.5
  1
62.000
100
AcDbAttributeDefinition
  3

  2
LOAD2
 70
     8
280
     0
  0
ATTDEF
  5
1E3
330
1D3
100
AcDbEntity
  8
AM_6
100
AcDbText
 10
23.14400000000021
 20
55.41150000000003
 30
0.0
 40
0.5
  1
2.500
100
AcDbAttributeDefinition
  3

  2
LOAD3
 70
     8
280
     0
  0
ATTDEF
  5
1E4
330
1D3
100
AcDbEntity
  8
AM_6
100
AcDbText
 10
23.14400000000021
 20
54.91150000000003
 30
0.0
 40
0.5
  1
9000
100
AcDbAttributeDefinition
  3

  2
SPEED1
 70
     8
280
     0
  0
ATTDEF
  5
1E5
330
1D3
100
AcDbEntity
  8
AM_6
100
AcDbText
 10
23.14400000000021
 20
54.41150000000003
 30
0.0
 40
0.5
  1
14000
100
AcDbAttributeDefinition
  3

  2
SPEED2
 70
     8
280
     0
  0
ATTDEF
  5
1E6
330
1D3
100
AcDbEntity
  8
AM_6
100
AcDbText
 10
23.14400000000021
 20
53.91150000000003
 30
0.0
 40
0.5
  1
SKF
100
AcDbAttributeDefinition
  3

  2
COMPANY
 70
     8
280
     0
  0
ENDBLK
  5
1D6
330
1D3
100
AcDbEntity
  8
0
100
AcDbBlockEnd
  0
BLOCK
  5
1E9
330
1E7
100
AcDbEntity
  8
0
100
AcDbBlockBegin
  2
19_PART_7017_ACD_P4A_PART3_in_ASM_7017_ACD_P4A
 70
     2
 10
0.0
 20
0.0
 30
0.0
  3
19_PART_7017_ACD_P4A_PART3_in_ASM_7017_ACD_P4A
  1

  0
3DSOLID
  5
1EB
330
1E7
100
AcDbEntity
  8
AM_0
100
AcDbModelerGeometry
290
     0
  2
{00000000-0000-0000-0000-000000000000}
100
AcDb3dSolid
350
0
  0
ATTDEF
  5
1EC
330
1E7
100
AcDbEntity
  8
AM_6
100
AcDbText
 10
23.14400000000021
 20
60.91150000000003
 30
0.0
 40
0.5
  1

100
AcDbAttributeDefinition
  3

  2
NN
 70
     8
280
     0
  0
ATTDEF
  5
1ED
330
1E7
100
AcDbEntity
  8
AM_6
100
AcDbText
 10
23.14400000000021
 20
60.41150000000003
 30
0.0
 40
0.5
  1
Angular contact ball bearings, super-precision
100
AcDbAttributeDefinition
  3

  2
NT
 70
     8
280
     0
  0
ATTDEF
  5
1EE
330
1E7
100
AcDbEntity
  8
AM_6
100
AcDbText
 10
23.14400000000021
 20
59.91150000000003
 30
0.0
 40
0.5
  1
7017 ACD/P4A_PART3
100
AcDbAttributeDefinition
  3

  2
NB
 70
     8
280
     0
  0
ATTDEF
  5
1EF
330
1E7
100
AcDbEntity
  8
AM_6
100
AcDbText
 10
23.14400000000021
 20
59.41150000000003
 30
0.0
 40
0.5
  1
$DESIGNATION._PART3
100
AcDbAttributeDefinition
  3

  2
NBSYN
 70
     8
280
     0
  0
ATTDEF
  5
1F0
330
1E7
100
AcDbEntity
  8
AM_6
100
AcDbText
 10
23.14400000000021
 20
58.91150000000003
 30
0.0
 40
0.5
  1
7017 ACD/P4A_PART3
100
AcDbAttributeDefinition
  3

  2
LINA
 70
     8
280
     0
  0
ATTDEF
  5
1F1
330
1E7
100
AcDbEntity
  8
AM_6
100
AcDbText
 10
23.14400000000021
 20
58.41150000000003
 30
0.0
 40
0.5
  1
7017 ACD/P4A
100
AcDbAttributeDefinition
  3

  2
DESIGNATION
 70
     8
280
     0
  0
ATTDEF
  5
1F2
330
1E7
100
AcDbEntity
  8
AM_6
100
AcDbText
 10
23.14400000000021
 20
57.91150000000003
 30
0.0
 40
0.5
  1
85.000
100
AcDbAttributeDefinition
  3

  2
DD
 70
     8
280
     0
  0
ATTDEF
  5
1F3
330
1E7
100
AcDbEntity
  8
AM_6
100
AcDbText
 10
23.14400000000021
 20
57.41150000000003
 30
0.0
 40
0.5
  1
130.000
100
AcDbAttributeDefinition
  3

  2
D
 70
     8
280
     0
  0
ATTDEF
  5
1F4
330
1E7
100
AcDbEntity
  8
AM_6
100
AcDbText
 10
23.14400000000021
 20
56.91150000000003
 30
0.0
 40
0.5
  1
22.000
100
AcDbAttributeDefinition
  3

  2
B
 70
     8
280
     0
  0
ATTDEF
  5
1F5
330
1E7
100
AcDbEntity
  8
AM_6
100
AcDbText
 10
23.14400000000021
 20
56.41150000000003
 30
0.0
 40
0.5
  1
63.700
100
AcDbAttributeDefinition
  3

  2
LOAD1
 70
     8
280
     0
  0
ATTDEF
  5
1F6
330
1E7
100
AcDbEntity
  8
AM_6
100
AcDbText
 10
23.14400000000021
 20
55.91150000000003
 30
0.0
 40
0.5
  1
62.000
100
AcDbAttributeDefinition
  3

  2
LOAD2
 70
     8
280
     0
  0
ATTDEF
  5
1F7
330
1E7
100
AcDbEntity
  8
AM_6
100
AcDbText
 10
23.14400000000021
 20
55.41150000000003
 30
0.0
 40
0.5
  1
2.500
100
AcDbAttributeDefinition
  3

  2
LOAD3
 70
     8
280
     0
  0
ATTDEF
  5
1F8
330
1E7
100
AcDbEntity
  8
AM_6
100
AcDbText
 10
23.14400000000021
 20
54.91150000000003
 30
0.0
 40
0.5
  1
9000
100
AcDbAttributeDefinition
  3

  2
SPEED1
 70
     8
280
     0
  0
ATTDEF
  5
1F9
330
1E7
100
AcDbEntity
  8
AM_6
100
AcDbText
 10
23.14400000000021
 20
54.41150000000003
 30
0.0
 40
0.5
  1
14000
100
AcDbAttributeDefinition
  3

  2
SPEED2
 70
     8
280
     0
  0
ATTDEF
  5
1FA
330
1E7
100
AcDbEntity
  8
AM_6
100
AcDbText
 10
23.14400000000021
 20
53.91150000000003
 30
0.0
 40
0.5
  1
SKF
100
AcDbAttributeDefinition
  3

  2
COMPANY
 70
     8
280
     0
  0
ENDBLK
  5
1EA
330
1E7
100
AcDbEntity
  8
0
100
AcDbBlockEnd
  0
BLOCK
  5
1FD
330
1FB
100
AcDbEntity
  8
0
100
AcDbBlockBegin
  2
20_PART_7017_ACD_P4A_PART3_in_ASM_7017_ACD_P4A
 70
     2
 10
0.0
 20
0.0
 30
0.0
  3
20_PART_7017_ACD_P4A_PART3_in_ASM_7017_ACD_P4A
  1

  0
3DSOLID
  5
1FF
330
1FB
100
AcDbEntity
  8
AM_0
100
AcDbModelerGeometry
290
     0
  2
{00000000-0000-0000-0000-000000000000}
100
AcDb3dSolid
350
0
  0
ATTDEF
  5
200
330
1FB
100
AcDbEntity
  8
AM_6
100
AcDbText
 10
23.14400000000021
 20
60.91150000000003
 30
0.0
 40
0.5
  1

100
AcDbAttributeDefinition
  3

  2
NN
 70
     8
280
     0
  0
ATTDEF
  5
201
330
1FB
100
AcDbEntity
  8
AM_6
100
AcDbText
 10
23.14400000000021
 20
60.41150000000003
 30
0.0
 40
0.5
  1
Angular contact ball bearings, super-precision
100
AcDbAttributeDefinition
  3

  2
NT
 70
     8
280
     0
  0
ATTDEF
  5
202
330
1FB
100
AcDbEntity
  8
AM_6
100
AcDbText
 10
23.14400000000021
 20
59.91150000000003
 30
0.0
 40
0.5
  1
7017 ACD/P4A_PART3
100
AcDbAttributeDefinition
  3

  2
NB
 70
     8
280
     0
  0
ATTDEF
  5
203
330
1FB
100
AcDbEntity
  8
AM_6
100
AcDbText
 10
23.14400000000021
 20
59.41150000000003
 30
0.0
 40
0.5
  1
$DESIGNATION._PART3
100
AcDbAttributeDefinition
  3

  2
NBSYN
 70
     8
280
     0
  0
ATTDEF
  5
204
330
1FB
100
AcDbEntity
  8
AM_6
100
AcDbText
 10
23.14400000000021
 20
58.91150000000003
 30
0.0
 40
0.5
  1
7017 ACD/P4A_PART3
100
AcDbAttributeDefinition
  3

  2
LINA
 70
     8
280
     0
  0
ATTDEF
  5
205
330
1FB
100
AcDbEntity
  8
AM_6
100
AcDbText
 10
23.14400000000021
 20
58.41150000000003
 30
0.0
 40
0.5
  1
7017 ACD/P4A
100
AcDbAttributeDefinition
  3

  2
DESIGNATION
 70
     8
280
     0
  0
ATTDEF
  5
206
330
1FB
100
AcDbEntity
  8
AM_6
100
AcDbText
 10
23.14400000000021
 20
57.91150000000003
 30
0.0
 40
0.5
  1
85.000
100
AcDbAttributeDefinition
  3

  2
DD
 70
     8
280
     0
  0
ATTDEF
  5
207
330
1FB
100
AcDbEntity
  8
AM_6
100
AcDbText
 10
23.14400000000021
 20
57.41150000000003
 30
0.0
 40
0.5
  1
130.000
100
AcDbAttributeDefinition
  3

  2
D
 70
     8
280
     0
  0
ATTDEF
  5
208
330
1FB
100
AcDbEntity
  8
AM_6
100
AcDbText
 10
23.14400000000021
 20
56.91150000000003
 30
0.0
 40
0.5
  1
22.000
100
AcDbAttributeDefinition
  3

  2
B
 70
     8
280
     0
  0
ATTDEF
  5
209
330
1FB
100
AcDbEntity
  8
AM_6
100
AcDbText
 10
23.14400000000021
 20
56.41150000000003
 30
0.0
 40
0.5
  1
63.700
100
AcDbAttributeDefinition
  3

  2
LOAD1
 70
     8
280
     0
  0
ATTDEF
  5
20A
330
1FB
100
AcDbEntity
  8
AM_6
100
AcDbText
 10
23.14400000000021
 20
55.91150000000003
 30
0.0
 40
0.5
  1
62.000
100
AcDbAttributeDefinition
  3

  2
LOAD2
 70
     8
280
     0
  0
ATTDEF
  5
20B
330
1FB
100
AcDbEntity
  8
AM_6
100
AcDbText
 10
23.14400000000021
 20
55.41150000000003
 30
0.0
 40
0.5
  1
2.500
100
AcDbAttributeDefinition
  3

  2
LOAD3
 70
     8
280
     0
  0
ATTDEF
  5
20C
330
1FB
100
AcDbEntity
  8
AM_6
100
AcDbText
 10
23.14400000000021
 20
54.91150000000003
 30
0.0
 40
0.5
  1
9000
100
AcDbAttributeDefinition
  3

  2
SPEED1
 70
     8
280
     0
  0
ATTDEF
  5
20D
330
1FB
100
AcDbEntity
  8
AM_6
100
AcDbText
 10
23.14400000000021
 20
54.41150000000003
 30
0.0
 40
0.5
  1
14000
100
AcDbAttributeDefinition
  3

  2
SPEED2
 70
     8
280
     0
  0
ATTDEF
  5
20E
330
1FB
100
AcDbEntity
  8
AM_6
100
AcDbText
 10
23.14400000000021
 20
53.91150000000003
 30
0.0
 40
0.5
  1
SKF
100
AcDbAttributeDefinition
  3

  2
COMPANY
 70
     8
280
     0
  0
ENDBLK
  5
1FE
330
1FB
100
AcDbEntity
  8
0
100
AcDbBlockEnd
  0
BLOCK
  5
211
330
20F
100
AcDbEntity
  8
0
100
AcDbBlockBegin
  2
21_PART_7017_ACD_P4A_PART3_in_ASM_7017_ACD_P4A
 70
     2
 10
0.0
 20
0.0
 30
0.0
  3
21_PART_7017_ACD_P4A_PART3_in_ASM_7017_ACD_P4A
  1

  0
3DSOLID
  5
213
330
20F
100
AcDbEntity
  8
AM_0
100
AcDbModelerGeometry
290
     0
  2
{00000000-0000-0000-0000-000000000000}
100
AcDb3dSolid
350
0
  0
ATTDEF
  5
214
330
20F
100
AcDbEntity
  8
AM_6
100
AcDbText
 10
23.14400000000021
 20
60.91150000000003
 30
0.0
 40
0.5
  1

100
AcDbAttributeDefinition
  3

  2
NN
 70
     8
280
     0
  0
ATTDEF
  5
215
330
20F
100
AcDbEntity
  8
AM_6
100
AcDbText
 10
23.14400000000021
 20
60.41150000000003
 30
0.0
 40
0.5
  1
Angular contact ball bearings, super-precision
100
AcDbAttributeDefinition
  3

  2
NT
 70
     8
280
     0
  0
ATTDEF
  5
216
330
20F
100
AcDbEntity
  8
AM_6
100
AcDbText
 10
23.14400000000021
 20
59.91150000000003
 30
0.0
 40
0.5
  1
7017 ACD/P4A_PART3
100
AcDbAttributeDefinition
  3

  2
NB
 70
     8
280
     0
  0
ATTDEF
  5
217
330
20F
100
AcDbEntity
  8
AM_6
100
AcDbText
 10
23.14400000000021
 20
59.41150000000003
 30
0.0
 40
0.5
  1
$DESIGNATION._PART3
100
AcDbAttributeDefinition
  3

  2
NBSYN
 70
     8
280
     0
  0
ATTDEF
  5
218
330
20F
100
AcDbEntity
  8
AM_6
100
AcDbText
 10
23.14400000000021
 20
58.91150000000003
 30
0.0
 40
0.5
  1
7017 ACD/P4A_PART3
100
AcDbAttributeDefinition
  3

  2
LINA
 70
     8
280
     0
  0
ATTDEF
  5
219
330
20F
100
AcDbEntity
  8
AM_6
100
AcDbText
 10
23.14400000000021
 20
58.41150000000003
 30
0.0
 40
0.5
  1
7017 ACD/P4A
100
AcDbAttributeDefinition
  3

  2
DESIGNATION
 70
     8
280
     0
  0
ATTDEF
  5
21A
330
20F
100
AcDbEntity
  8
AM_6
100
AcDbText
 10
23.14400000000021
 20
57.91150000000003
 30
0.0
 40
0.5
  1
85.000
100
AcDbAttributeDefinition
  3

  2
DD
 70
     8
280
     0
  0
ATTDEF
  5
21B
330
20F
100
AcDbEntity
  8
AM_6
100
AcDbText
 10
23.14400000000021
 20
57.41150000000003
 30
0.0
 40
0.5
  1
130.000
100
AcDbAttributeDefinition
  3

  2
D
 70
     8
280
     0
  0
ATTDEF
  5
21C
330
20F
100
AcDbEntity
  8
AM_6
100
AcDbText
 10
23.14400000000021
 20
56.91150000000003
 30
0.0
 40
0.5
  1
22.000
100
AcDbAttributeDefinition
  3

  2
B
 70
     8
280
     0
  0
ATTDEF
  5
21D
330
20F
100
AcDbEntity
  8
AM_6
100
AcDbText
 10
23.14400000000021
 20
56.41150000000003
 30
0.0
 40
0.5
  1
63.700
100
AcDbAttributeDefinition
  3

  2
LOAD1
 70
     8
280
     0
  0
ATTDEF
  5
21E
330
20F
100
AcDbEntity
  8
AM_6
100
AcDbText
 10
23.14400000000021
 20
55.91150000000003
 30
0.0
 40
0.5
  1
62.000
100
AcDbAttributeDefinition
  3

  2
LOAD2
 70
     8
280
     0
  0
ATTDEF
  5
21F
330
20F
100
AcDbEntity
  8
AM_6
100
AcDbText
 10
23.14400000000021
 20
55.41150000000003
 30
0.0
 40
0.5
  1
2.500
100
AcDbAttributeDefinition
  3

  2
LOAD3
 70
     8
280
     0
  0
ATTDEF
  5
220
330
20F
100
AcDbEntity
  8
AM_6
100
AcDbText
 10
23.14400000000021
 20
54.91150000000003
 30
0.0
 40
0.5
  1
9000
100
AcDbAttributeDefinition
  3

  2
SPEED1
 70
     8
280
     0
  0
ATTDEF
  5
221
330
20F
100
AcDbEntity
  8
AM_6
100
AcDbText
 10
23.14400000000021
 20
54.41150000000003
 30
0.0
 40
0.5
  1
14000
100
AcDbAttributeDefinition
  3

  2
SPEED2
 70
     8
280
     0
  0
ATTDEF
  5
222
330
20F
100
AcDbEntity
  8
AM_6
100
AcDbText
 10
23.14400000000021
 20
53.91150000000003
 30
0.0
 40
0.5
  1
SKF
100
AcDbAttributeDefinition
  3

  2
COMPANY
 70
     8
280
     0
  0
ENDBLK
  5
212
330
20F
100
AcDbEntity
  8
0
100
AcDbBlockEnd
  0
BLOCK
  5
225
330
223
100
AcDbEntity
  8
0
100
AcDbBlockBegin
  2
22_PART_7017_ACD_P4A_PART3_in_ASM_7017_ACD_P4A
 70
     2
 10
0.0
 20
0.0
 30
0.0
  3
22_PART_7017_ACD_P4A_PART3_in_ASM_7017_ACD_P4A
  1

  0
3DSOLID
  5
227
330
223
100
AcDbEntity
  8
AM_0
100
AcDbModelerGeometry
290
     0
  2
{00000000-0000-0000-0000-000000000000}
100
AcDb3dSolid
350
0
  0
ATTDEF
  5
228
330
223
100
AcDbEntity
  8
AM_6
100
AcDbText
 10
23.14400000000021
 20
60.91150000000003
 30
0.0
 40
0.5
  1

100
AcDbAttributeDefinition
  3

  2
NN
 70
     8
280
     0
  0
ATTDEF
  5
229
330
223
100
AcDbEntity
  8
AM_6
100
AcDbText
 10
23.14400000000021
 20
60.41150000000003
 30
0.0
 40
0.5
  1
Angular contact ball bearings, super-precision
100
AcDbAttributeDefinition
  3

  2
NT
 70
     8
280
     0
  0
ATTDEF
  5
22A
330
223
100
AcDbEntity
  8
AM_6
100
AcDbText
 10
23.14400000000021
 20
59.91150000000003
 30
0.0
 40
0.5
  1
7017 ACD/P4A_PART3
100
AcDbAttributeDefinition
  3

  2
NB
 70
     8
280
     0
  0
ATTDEF
  5
22B
330
223
100
AcDbEntity
  8
AM_6
100
AcDbText
 10
23.14400000000021
 20
59.41150000000003
 30
0.0
 40
0.5
  1
$DESIGNATION._PART3
100
AcDbAttributeDefinition
  3

  2
NBSYN
 70
     8
280
     0
  0
ATTDEF
  5
22C
330
223
100
AcDbEntity
  8
AM_6
100
AcDbText
 10
23.14400000000021
 20
58.91150000000003
 30
0.0
 40
0.5
  1
7017 ACD/P4A_PART3
100
AcDbAttributeDefinition
  3

  2
LINA
 70
     8
280
     0
  0
ATTDEF
  5
22D
330
223
100
AcDbEntity
  8
AM_6
100
AcDbText
 10
23.14400000000021
 20
58.41150000000003
 30
0.0
 40
0.5
  1
7017 ACD/P4A
100
AcDbAttributeDefinition
  3

  2
DESIGNATION
 70
     8
280
     0
  0
ATTDEF
  5
22E
330
223
100
AcDbEntity
  8
AM_6
100
AcDbText
 10
23.14400000000021
 20
57.91150000000003
 30
0.0
 40
0.5
  1
85.000
100
AcDbAttributeDefinition
  3

  2
DD
 70
     8
280
     0
  0
ATTDEF
  5
22F
330
223
100
AcDbEntity
  8
AM_6
100
AcDbText
 10
23.14400000000021
 20
57.41150000000003
 30
0.0
 40
0.5
  1
130.000
100
AcDbAttributeDefinition
  3

  2
D
 70
     8
280
     0
  0
ATTDEF
  5
230
330
223
100
AcDbEntity
  8
AM_6
100
AcDbText
 10
23.14400000000021
 20
56.91150000000003
 30
0.0
 40
0.5
  1
22.000
100
AcDbAttributeDefinition
  3

  2
B
 70
     8
280
     0
  0
ATTDEF
  5
231
330
223
100
AcDbEntity
  8
AM_6
100
AcDbText
 10
23.14400000000021
 20
56.41150000000003
 30
0.0
 40
0.5
  1
63.700
100
AcDbAttributeDefinition
  3

  2
LOAD1
 70
     8
280
     0
  0
ATTDEF
  5
232
330
223
100
AcDbEntity
  8
AM_6
100
AcDbText
 10
23.14400000000021
 20
55.91150000000003
 30
0.0
 40
0.5
  1
62.000
100
AcDbAttributeDefinition
  3

  2
LOAD2
 70
     8
280
     0
  0
ATTDEF
  5
233
330
223
100
AcDbEntity
  8
AM_6
100
AcDbText
 10
23.14400000000021
 20
55.41150000000003
 30
0.0
 40
0.5
  1
2.500
100
AcDbAttributeDefinition
  3

  2
LOAD3
 70
     8
280
     0
  0
ATTDEF
  5
234
330
223
100
AcDbEntity
  8
AM_6
100
AcDbText
 10
23.14400000000021
 20
54.91150000000003
 30
0.0
 40
0.5
  1
9000
100
AcDbAttributeDefinition
  3

  2
SPEED1
 70
     8
280
     0
  0
ATTDEF
  5
235
330
223
100
AcDbEntity
  8
AM_6
100
AcDbText
 10
23.14400000000021
 20
54.41150000000003
 30
0.0
 40
0.5
  1
14000
100
AcDbAttributeDefinition
  3

  2
SPEED2
 70
     8
280
     0
  0
ATTDEF
  5
236
330
223
100
AcDbEntity
  8
AM_6
100
AcDbText
 10
23.14400000000021
 20
53.91150000000003
 30
0.0
 40
0.5
  1
SKF
100
AcDbAttributeDefinition
  3

  2
COMPANY
 70
     8
280
     0
  0
ENDBLK
  5
226
330
223
100
AcDbEntity
  8
0
100
AcDbBlockEnd
  0
BLOCK
  5
239
330
237
100
AcDbEntity
  8
0
100
AcDbBlockBegin
  2
23_PART_7017_ACD_P4A_PART3_in_ASM_7017_ACD_P4A
 70
     2
 10
0.0
 20
0.0
 30
0.0
  3
23_PART_7017_ACD_P4A_PART3_in_ASM_7017_ACD_P4A
  1

  0
3DSOLID
  5
23B
330
237
100
AcDbEntity
  8
AM_0
100
AcDbModelerGeometry
290
     0
  2
{00000000-0000-0000-0000-000000000000}
100
AcDb3dSolid
350
0
  0
ATTDEF
  5
23C
330
237
100
AcDbEntity
  8
AM_6
100
AcDbText
 10
23.14400000000021
 20
60.91150000000003
 30
0.0
 40
0.5
  1

100
AcDbAttributeDefinition
  3

  2
NN
 70
     8
280
     0
  0
ATTDEF
  5
23D
330
237
100
AcDbEntity
  8
AM_6
100
AcDbText
 10
23.14400000000021
 20
60.41150000000003
 30
0.0
 40
0.5
  1
Angular contact ball bearings, super-precision
100
AcDbAttributeDefinition
  3

  2
NT
 70
     8
280
     0
  0
ATTDEF
  5
23E
330
237
100
AcDbEntity
  8
AM_6
100
AcDbText
 10
23.14400000000021
 20
59.91150000000003
 30
0.0
 40
0.5
  1
7017 ACD/P4A_PART3
100
AcDbAttributeDefinition
  3

  2
NB
 70
     8
280
     0
  0
ATTDEF
  5
23F
330
237
100
AcDbEntity
  8
AM_6
100
AcDbText
 10
23.14400000000021
 20
59.41150000000003
 30
0.0
 40
0.5
  1
$DESIGNATION._PART3
100
AcDbAttributeDefinition
  3

  2
NBSYN
 70
     8
280
     0
  0
ATTDEF
  5
240
330
237
100
AcDbEntity
  8
AM_6
100
AcDbText
 10
23.14400000000021
 20
58.91150000000003
 30
0.0
 40
0.5
  1
7017 ACD/P4A_PART3
100
AcDbAttributeDefinition
  3

  2
LINA
 70
     8
280
     0
  0
ATTDEF
  5
241
330
237
100
AcDbEntity
  8
AM_6
100
AcDbText
 10
23.14400000000021
 20
58.41150000000003
 30
0.0
 40
0.5
  1
7017 ACD/P4A
100
AcDbAttributeDefinition
  3

  2
DESIGNATION
 70
     8
280
     0
  0
ATTDEF
  5
242
330
237
100
AcDbEntity
  8
AM_6
100
AcDbText
 10
23.14400000000021
 20
57.91150000000003
 30
0.0
 40
0.5
  1
85.000
100
AcDbAttributeDefinition
  3

  2
DD
 70
     8
280
     0
  0
ATTDEF
  5
243
330
237
100
AcDbEntity
  8
AM_6
100
AcDbText
 10
23.14400000000021
 20
57.41150000000003
 30
0.0
 40
0.5
  1
130.000
100
AcDbAttributeDefinition
  3

  2
D
 70
     8
280
     0
  0
ATTDEF
  5
244
330
237
100
AcDbEntity
  8
AM_6
100
AcDbText
 10
23.14400000000021
 20
56.91150000000003
 30
0.0
 40
0.5
  1
22.000
100
AcDbAttributeDefinition
  3

  2
B
 70
     8
280
     0
  0
ATTDEF
  5
245
330
237
100
AcDbEntity
  8
AM_6
100
AcDbText
 10
23.14400000000021
 20
56.41150000000003
 30
0.0
 40
0.5
  1
63.700
100
AcDbAttributeDefinition
  3

  2
LOAD1
 70
     8
280
     0
  0
ATTDEF
  5
246
330
237
100
AcDbEntity
  8
AM_6
100
AcDbText
 10
23.14400000000021
 20
55.91150000000003
 30
0.0
 40
0.5
  1
62.000
100
AcDbAttributeDefinition
  3

  2
LOAD2
 70
     8
280
     0
  0
ATTDEF
  5
247
330
237
100
AcDbEntity
  8
AM_6
100
AcDbText
 10
23.14400000000021
 20
55.41150000000003
 30
0.0
 40
0.5
  1
2.500
100
AcDbAttributeDefinition
  3

  2
LOAD3
 70
     8
280
     0
  0
ATTDEF
  5
248
330
237
100
AcDbEntity
  8
AM_6
100
AcDbText
 10
23.14400000000021
 20
54.91150000000003
 30
0.0
 40
0.5
  1
9000
100
AcDbAttributeDefinition
  3

  2
SPEED1
 70
     8
280
     0
  0
ATTDEF
  5
249
330
237
100
AcDbEntity
  8
AM_6
100
AcDbText
 10
23.14400000000021
 20
54.41150000000003
 30
0.0
 40
0.5
  1
14000
100
AcDbAttributeDefinition
  3

  2
SPEED2
 70
     8
280
     0
  0
ATTDEF
  5
24A
330
237
100
AcDbEntity
  8
AM_6
100
AcDbText
 10
23.14400000000021
 20
53.91150000000003
 30
0.0
 40
0.5
  1
SKF
100
AcDbAttributeDefinition
  3

  2
COMPANY
 70
     8
280
     0
  0
ENDBLK
  5
23A
330
237
100
AcDbEntity
  8
0
100
AcDbBlockEnd
  0
ENDSEC
  0
SECTION
  2
ENTITIES
  0
ATTDEF
  5
6F
330
1F
100
AcDbEntity
  8
AM_6
100
AcDbText
 10
27.00000000000038
 20
65.00000000000011
 30
0.0
 40
0.5
  1
BA1_010
100
AcDbAttributeDefinition
  3

  2
NN
 70
     8
280
     0
  0
ATTDEF
  5
70
330
1F
100
AcDbEntity
  8
AM_6
100
AcDbText
 10
27.00000000000038
 20
64.50000000000011
 30
0.0
 40
0.5
  1
Angular contact ball bearings, super-precision
100
AcDbAttributeDefinition
  3

  2
NT
 70
     8
280
     0
  0
ATTDEF
  5
71
330
1F
100
AcDbEntity
  8
AM_6
100
AcDbText
 10
27.00000000000038
 20
64.00000000000011
 30
0.0
 40
0.5
  1
7017 ACD/P4A
100
AcDbAttributeDefinition
  3

  2
NB
 70
     8
280
     0
  0
ATTDEF
  5
72
330
1F
100
AcDbEntity
  8
AM_6
100
AcDbText
 10
27.00000000000038
 20
63.50000000000011
 30
0.0
 40
0.5
  1
$DESIGNATION.
100
AcDbAttributeDefinition
  3

  2
NBSYN
 70
     8
280
     0
  0
ATTDEF
  5
73
330
1F
100
AcDbEntity
  8
AM_6
100
AcDbText
 10
27.00000000000038
 20
63.00000000000011
 30
0.0
 40
0.5
  1
7017 ACD/P4A
100
AcDbAttributeDefinition
  3

  2
LINA
 70
     8
280
     0
  0
ATTDEF
  5
74
330
1F
100
AcDbEntity
  8
AM_6
100
AcDbText
 10
27.00000000000038
 20
62.50000000000011
 30
0.0
 40
0.5
  1
7017 ACD/P4A
100
AcDbAttributeDefinition
  3

  2
DESIGNATION
 70
     8
280
     0
  0
ATTDEF
  5
75
330
1F
100
AcDbEntity
  8
AM_6
100
AcDbText
 10
27.00000000000038
 20
62.00000000000011
 30
0.0
 40
0.5
  1
85.000
100
AcDbAttributeDefinition
  3

  2
DD
 70
     8
280
     0
  0
ATTDEF
  5
76
330
1F
100
AcDbEntity
  8
AM_6
100
AcDbText
 10
27.00000000000038
 20
61.50000000000011
 30
0.0
 40
0.5
  1
130.000
100
AcDbAttributeDefinition
  3

  2
D
 70
     8
280
     0
  0
ATTDEF
  5
77
330
1F
100
AcDbEntity
  8
AM_6
100
AcDbText
 10
27.00000000000038
 20
61.00000000000011
 30
0.0
 40
0.5
  1
22.000
100
AcDbAttributeDefinition
  3

  2
B
 70
     8
280
     0
  0
ATTDEF
  5
78
330
1F
100
AcDbEntity
  8
AM_6
100
AcDbText
 10
27.00000000000038
 20
60.50000000000011
 30
0.0
 40
0.5
  1
63.700
100
AcDbAttributeDefinition
  3

  2
LOAD1
 70
     8
280
     0
  0
ATTDEF
  5
79
330
1F
100
AcDbEntity
  8
AM_6
100
AcDbText
 10
27.00000000000038
 20
60.00000000000011
 30
0.0
 40
0.5
  1
62.000
100
AcDbAttributeDefinition
  3

  2
LOAD2
 70
     8
280
     0
  0
ATTDEF
  5
7A
330
1F
100
AcDbEntity
  8
AM_6
100
AcDbText
 10
27.00000000000038
 20
59.50000000000011
 30
0.0
 40
0.5
  1
2.500
100
AcDbAttributeDefinition
  3

  2
LOAD3
 70
     8
280
     0
  0
ATTDEF
  5
7B
330
1F
100
AcDbEntity
  8
AM_6
100
AcDbText
 10
27.00000000000038
 20
59.00000000000011
 30
0.0
 40
0.5
  1
9000
100
AcDbAttributeDefinition
  3

  2
SPEED1
 70
     8
280
     0
  0
ATTDEF
  5
7C
330
1F
100
AcDbEntity
  8
AM_6
100
AcDbText
 10
27.00000000000038
 20
58.50000000000011
 30
0.0
 40
0.5
  1
14000
100
AcDbAttributeDefinition
  3

  2
SPEED2
 70
     8
280
     0
  0
ATTDEF
  5
7D
330
1F
100
AcDbEntity
  8
AM_6
100
AcDbText
 10
27.00000000000038
 20
58.00000000000011
 30
0.0
 40
0.5
  1
SKF
100
AcDbAttributeDefinition
  3

  2
COMPANY
 70
     8
280
     0
  0
INSERT
  5
7F
330
1F
100
AcDbEntity
  8
0
100
AcDbBlockReference
  2
1_PART_7017_ACD_P4A_PART1_in_ASM_7017_ACD_P4A
 10
0.0
 20
0.0
 30
0.0
  0
INSERT
  5
94
330
1F
100
AcDbEntity
  8
0
100
AcDbBlockReference
  2
2_PART_7017_ACD_P4A_PART2_in_ASM_7017_ACD_P4A
 10
0.0
 20
0.0
 30
0.0
  0
INSERT
  5
A8
330
1F
100
AcDbEntity
  8
0
100
AcDbBlockReference
  2
3_PART_7017_ACD_P4A_PART3_in_ASM_7017_ACD_P4A
 10
0.0
 20
0.0
 30
0.0
  0
INSERT
  5
BC
330
1F
100
AcDbEntity
  8
0
100
AcDbBlockReference
  2
4_PART_7017_ACD_P4A_PART3_in_ASM_7017_ACD_P4A
 10
0.0
 20
0.0
 30
0.0
  0
INSERT
  5
D0
330
1F
100
AcDbEntity
  8
0
100
AcDbBlockReference
  2
5_PART_7017_ACD_P4A_PART3_in_ASM_7017_ACD_P4A
 10
0.0
 20
0.0
 30
0.0
  0
INSERT
  5
E4
330
1F
100
AcDbEntity
  8
0
100
AcDbBlockReference
  2
6_PART_7017_ACD_P4A_PART3_in_ASM_7017_ACD_P4A
 10
0.0
 20
0.0
 30
0.0
  0
INSERT
  5
F8
330
1F
100
AcDbEntity
  8
0
100
AcDbBlockReference
  2
7_PART_7017_ACD_P4A_PART3_in_ASM_7017_ACD_P4A
 10
0.0
 20
0.0
 30
0.0
  0
INSERT
  5
10C
330
1F
100
AcDbEntity
  8
0
100
AcDbBlockReference
  2
8_PART_7017_ACD_P4A_PART3_in_ASM_7017_ACD_P4A
 10
0.0
 20
0.0
 30
0.0
  0
INSERT
  5
120
330
1F
100
AcDbEntity
  8
0
100
AcDbBlockReference
  2
9_PART_7017_ACD_P4A_PART3_in_ASM_7017_ACD_P4A
 10
0.0
 20
0.0
 30
0.0
  0
INSERT
  5
134
330
1F
100
AcDbEntity
  8
0
100
AcDbBlockReference
  2
10_PART_7017_ACD_P4A_PART3_in_ASM_7017_ACD_P4A
 10
0.0
 20
0.0
 30
0.0
  0
INSERT
  5
148
330
1F
100
AcDbEntity
  8
0
100
AcDbBlockReference
  2
11_PART_7017_ACD_P4A_PART3_in_ASM_7017_ACD_P4A
 10
0.0
 20
0.0
 30
0.0
  0
INSERT
  5
15C
330
1F
100
AcDbEntity
  8
0
100
AcDbBlockReference
  2
12_PART_7017_ACD_P4A_PART3_in_ASM_7017_ACD_P4A
 10
0.0
 20
0.0
 30
0.0
  0
INSERT
  5
170
330
1F
100
AcDbEntity
  8
0
100
AcDbBlockReference
  2
13_PART_7017_ACD_P4A_PART3_in_ASM_7017_ACD_P4A
 10
0.0
 20
0.0
 30
0.0
  0
INSERT
  5
184
330
1F
100
AcDbEntity
  8
0
100
AcDbBlockReference
  2
14_PART_7017_ACD_P4A_PART3_in_ASM_7017_ACD_P4A
 10
0.0
 20
0.0
 30
0.0
  0
INSERT
  5
198
330
1F
100
AcDbEntity
  8
0
100
AcDbBlockReference
  2
15_PART_7017_ACD_P4A_PART3_in_ASM_7017_ACD_P4A
 10
0.0
 20
0.0
 30
0.0
  0
INSERT
  5
1AC
330
1F
100
AcDbEntity
  8
0
100
AcDbBlockReference
  2
16_PART_7017_ACD_P4A_PART3_in_ASM_7017_ACD_P4A
 10
0.0
 20
0.0
 30
0.0
  0
INSERT
  5
1C0
330
1F
100
AcDbEntity
  8
0
100
AcDbBlockReference
  2
17_PART_7017_ACD_P4A_PART3_in_ASM_7017_ACD_P4A
 10
0.0
 20
0.0
 30
0.0
  0
INSERT
  5
1D4
330
1F
100
AcDbEntity
  8
0
100
AcDbBlockReference
  2
18_PART_7017_ACD_P4A_PART3_in_ASM_7017_ACD_P4A
 10
0.0
 20
0.0
 30
0.0
  0
INSERT
  5
1E8
330
1F
100
AcDbEntity
  8
0
100
AcDbBlockReference
  2
19_PART_7017_ACD_P4A_PART3_in_ASM_7017_ACD_P4A
 10
0.0
 20
0.0
 30
0.0
  0
INSERT
  5
1FC
330
1F
100
AcDbEntity
  8
0
100
AcDbBlockReference
  2
20_PART_7017_ACD_P4A_PART3_in_ASM_7017_ACD_P4A
 10
0.0
 20
0.0
 30
0.0
  0
INSERT
  5
210
330
1F
100
AcDbEntity
  8
0
100
AcDbBlockReference
  2
21_PART_7017_ACD_P4A_PART3_in_ASM_7017_ACD_P4A
 10
0.0
 20
0.0
 30
0.0
  0
INSERT
  5
224
330
1F
100
AcDbEntity
  8
0
100
AcDbBlockReference
  2
22_PART_7017_ACD_P4A_PART3_in_ASM_7017_ACD_P4A
 10
0.0
 20
0.0
 30
0.0
  0
INSERT
  5
238
330
1F
100
AcDbEntity
  8
0
100
AcDbBlockReference
  2
23_PART_7017_ACD_P4A_PART3_in_ASM_7017_ACD_P4A
 10
0.0
 20
0.0
 30
0.0
  0
ENDSEC
  0
SECTION
  2
OBJECTS
  0
DICTIONARY
  5
C
330
0
100
AcDbDictionary
281
     1
  3
ACAD_DETAILVIEWSTYLE
350
252
  3
ACAD_GROUP
350
D
  3
ACAD_LAYOUT
350
1A
  3
ACAD_MATERIAL
350
43
  3
ACAD_MLEADERSTYLE
350
6B
  3
ACAD_MLINESTYLE
350
17
  3
ACAD_PLOTSETTINGS
350
19
  3
ACAD_PLOTSTYLENAME
350
E
  3
ACAD_SCALELIST
350
47
  3
ACAD_SECTIONVIEWSTYLE
350
253
  3
ACAD_TABLESTYLE
350
69
  3
ACAD_VISUALSTYLE
350
2A
  3
ACDB_RECOMPOSE_DATA
350
24F
  3
AcDbVariableDictionary
350
24B
  0
SUN
  5
6D
330
29
100
AcDbSun
 90
        1
290
     0
 63
     7
421
 16777215
 40
1.0
291
     1
 91
  2455826
 92
 54000000
292
     0
 70
     2
 71
   256
280
     1
  0
DICTIONARY
  5
252
102
{ACAD_REACTORS
330
C
102
}
330
C
100
AcDbDictionary
281
     1
  0
DICTIONARY
  5
D
102
{ACAD_REACTORS
330
C
102
}
330
C
100
AcDbDictionary
281
     1
  0
DICTIONARY
  5
1A
102
{ACAD_REACTORS
330
C
102
}
330
C
100
AcDbDictionary
281
     1
  3
Layout1
350
1E
  3
Layout2
350
26
  3
Model
350
22
  0
DICTIONARY
  5
43
102
{ACAD_REACTORS
330
C
102
}
330
C
100
AcDbDictionary
281
     1
  3
ByBlock
350
45
  3
ByLayer
350
44
  3
Global
350
46
  0
DICTIONARY
  5
6B
102
{ACAD_REACTORS
330
C
102
}
330
C
100
AcDbDictionary
281
     1
  3
Standard
350
6C
  0
DICTIONARY
  5
17
102
{ACAD_REACTORS
330
C
102
}
330
C
100
AcDbDictionary
281
     1
  3
Standard
350
18
  0
DICTIONARY
  5
19
102
{ACAD_REACTORS
330
C
102
}
330
C
100
AcDbDictionary
281
     1
  0
ACDBDICTIONARYWDFLT
  5
E
102
{ACAD_REACTORS
330
C
102
}
330
C
100
AcDbDictionary
281
     1
  3
Normal
350
F
100
AcDbDictionaryWithDefault
340
F
  0
DICTIONARY
  5
47
102
{ACAD_REACTORS
330
C
102
}
330
C
100
AcDbDictionary
281
     1
  3
A0
350
48
  3
A1
350
49
  3
A2
350
4A
  3
A3
350
4B
  3
A4
350
4C
  3
A5
350
4D
  3
A6
350
4E
  3
A7
350
4F
  3
A8
350
50
  3
A9
350
51
  3
B0
350
52
  3
B1
350
53
  3
B2
350
54
  3
B3
350
55
  3
B4
350
56
  3
B5
350
57
  3
B6
350
58
  3
B7
350
59
  3
B8
350
5A
  3
B9
350
5B
  3
C0
350
5C
  3
C1
350
5D
  3
C2
350
5E
  3
C3
350
5F
  3
C4
350
60
  3
C5
350
61
  3
C6
350
62
  3
C7
350
63
  3
C8
350
64
  3
C9
350
65
  3
D0
350
66
  3
D1
350
67
  3
D2
350
68
  0
DICTIONARY
  5
253
102
{ACAD_REACTORS
330
C
102
}
330
C
100
AcDbDictionary
281
     1
  0
DICTIONARY
  5
69
102
{ACAD_REACTORS
330
C
102
}
330
C
100
AcDbDictionary
281
     1
  3
Standard
350
6A
  0
DICTIONARY
  5
2A
102
{ACAD_REACTORS
330
C
102
}
330
C
100
AcDbDictionary
281
     1
  3
2dWireframe
350
2F
  3
Basic
350
32
  3
Brighten
350
36
  3
ColorChange
350
3A
  3
Conceptual
350
34
  3
Dim
350
35
  3
EdgeColorOff
350
3D
  3
Facepattern
350
39
  3
Flat
350
2B
  3
FlatWithEdges
350
2C
  3
Gouraud
350
2D
  3
GouraudWithEdges
350
2E
  3
Hidden
350
31
  3
JitterOff
350
3B
  3
Linepattern
350
38
  3
OverhangOff
350
3C
  3
Realistic
350
33
  3
Shaded
350
42
  3
Shaded with edges
350
41
  3
Shades of Gray
350
3E
  3
Sketchy
350
3F
  3
Thicken
350
37
  3
Wireframe
350
30
  3
X-Ray
350
40
  0
XRECORD
  5
24F
102
{ACAD_REACTORS
330
C
102
}
330
C
100
AcDbXrecord
280
     1
 90
        1
330
6A
  0
DICTIONARY
  5
24B
102
{ACAD_REACTORS
330
C
102
}
330
C
100
AcDbDictionary
281
     1
  3
CANNOSCALE
350
24C
  3
CMLEADERSTYLE
350
251
  3
CTABLESTYLE
350
250
  0
LAYOUT
  5
1E
102
{ACAD_REACTORS
330
1A
102
}
330
1A
100
AcDbPlotSettings
  1

  2
none_device
  4

  6

 40
0.0
 41
0.0
 42
0.0
 43
0.0
 44
0.0
 45
0.0
 46
0.0
 47
0.0
 48
0.0
 49
0.0
140
0.0
141
0.0
142
1.0
143
1.0
 70
   688
 72
     1
 73
     0
 74
     5
  7

 75
    16
 76
     0
 77
     2
 78
   300
147
1.0
148
0.0
149
0.0
100
AcDbLayout
  1
Layout1
 70
     1
 71
     1
 10
0.0
 20
0.0
 11
420.0
 21
297.0
 12
0.0
 22
0.0
 32
0.0
 14
1.000000000000000E+20
 24
1.000000000000000E+20
 34
1.000000000000000E+20
 15
-1.000000000000000E+20
 25
-1.000000000000000E+20
 35
-1.000000000000000E+20
146
0.0
 13
0.0
 23
0.0
 33
0.0
 16
1.0
 26
0.0
 36
0.0
 17
0.0
 27
1.0
 37
0.0
 76
     0
330
1B
  0
LAYOUT
  5
26
102
{ACAD_REACTORS
330
1A
102
}
330
1A
100
AcDbPlotSettings
  1

  2
none_device
  4

  6

 40
0.0
 41
0.0
 42
0.0
 43
0.0
 44
0.0
 45
0.0
 46
0.0
 47
0.0
 48
0.0
 49
0.0
140
0.0
141
0.0
142
1.0
143
1.0
 70
   688
 72
     1
 73
     0
 74
     5
  7

 75
    16
 76
     0
 77
     2
 78
   300
147
1.0
148
0.0
149
0.0
100
AcDbLayout
  1
Layout2
 70
     1
 71
     2
 10
0.0
 20
0.0
 11
0.0
 21
0.0
 12
0.0
 22
0.0
 32
0.0
 14
0.0
 24
0.0
 34
0.0
 15
0.0
 25
0.0
 35
0.0
146
0.0
 13
0.0
 23
0.0
 33
0.0
 16
1.0
 26
0.0
 36
0.0
 17
0.0
 27
1.0
 37
0.0
 76
     0
330
23
  0
LAYOUT
  5
22
102
{ACAD_REACTORS
330
1A
102
}
330
1A
100
AcDbPlotSettings
  1

  2
none_device
  4
Letter_(8.50_x_11.00_Inches)
  6

 40
6.35
 41
6.35
 42
6.35000508
 43
6.35000508
 44
215.9
 45
279.4
 46
0.0
 47
0.0
 48
0.0
 49
0.0
140
0.0
141
0.0
142
1.0
143
1.0
 70
  1712
 72
     1
 73
     0
 74
     0
  7

 75
     0
 76
     0
 77
     2
 78
   300
147
1.0
148
0.0
149
0.0
100
AcDbLayout
  1
Model
 70
     1
 71
     0
 10
0.0
 20
0.0
 11
420.0
 21
297.0
 12
0.0
 22
0.0
 32
0.0
 14
1.000000000000000E+20
 24
1.000000000000000E+20
 34
1.000000000000000E+20
 15
-1.000000000000000E+20
 25
-1.000000000000000E+20
 35
-1.000000000000000E+20
146
0.0
 13
0.0
 23
0.0
 33
0.0
 16
1.0
 26
0.0
 36
0.0
 17
0.0
 27
1.0
 37
0.0
 76
     0
330
1F
331
29
  0
MATERIAL
  5
45
102
{ACAD_REACTORS
330
43
102
}
330
43
100
AcDbMaterial
  1
ByBlock
 72
     1
 94
      127
  0
MATERIAL
  5
44
102
{ACAD_REACTORS
330
43
102
}
330
43
100
AcDbMaterial
  1
ByLayer
 72
     1
 94
      127
  0
MATERIAL
  5
46
102
{ACAD_REACTORS
330
43
102
}
330
43
100
AcDbMaterial
  1
Global
 72
     1
 94
      127
  0
MLEADERSTYLE
  5
6C
102
{ACAD_REACTORS
330
6B
102
}
330
6B
100
AcDbMLeaderStyle
179
     2
170
     2
171
     1
172
     0
 90
        2
 40
0.0
 41
0.0
173
     1
 91
-1056964608
340
14
 92
       -2
290
     1
 42
2.0
291
     1
 43
8.0
  3
Standard
341
0
 44
4.0
300

342
11
174
     1
178
     6
175
     1
176
     0
 93
-1056964608
 45
4.0
292
     0
297
     0
 46
4.0
343
0
 94
-1056964608
 47
1.0
 49
1.0
140
1.0
293
     1
141
0.0
294
     1
177
     0
142
1.0
295
     0
296
     0
143
3.75
271
     0
272
     9
273
     9
298
     0
  0
MLINESTYLE
  5
18
102
{ACAD_REACTORS
330
17
102
}
330
17
100
AcDbMlineStyle
  2
Standard
 70
     0
  3

 62
   256
 51
90.0
 52
90.0
 71
     2
 49
0.5
 62
   256
  6
BYLAYER
 49
-0.5
 62
   256
  6
BYLAYER
  0
ACDBPLACEHOLDER
  5
F
102
{ACAD_REACTORS
330
E
102
}
330
E
  0
SCALE
  5
48
102
{ACAD_REACTORS
330
47
102
}
330
47
100
AcDbScale
 70
     0
300
1:1
140
1.0
141
1.0
290
     1
  0
SCALE
  5
49
102
{ACAD_REACTORS
330
47
102
}
330
47
100
AcDbScale
 70
     0
300
1:2
140
1.0
141
2.0
290
     0
  0
SCALE
  5
4A
102
{ACAD_REACTORS
330
47
102
}
330
47
100
AcDbScale
 70
     0
300
1:4
140
1.0
141
4.0
290
     0
  0
SCALE
  5
4B
102
{ACAD_REACTORS
330
47
102
}
330
47
100
AcDbScale
 70
     0
300
1:5
140
1.0
141
5.0
290
     0
  0
SCALE
  5
4C
102
{ACAD_REACTORS
330
47
102
}
330
47
100
AcDbScale
 70
     0
300
1:8
140
1.0
141
8.0
290
     0
  0
SCALE
  5
4D
102
{ACAD_REACTORS
330
47
102
}
330
47
100
AcDbScale
 70
     0
300
1:10
140
1.0
141
10.0
290
     0
  0
SCALE
  5
4E
102
{ACAD_REACTORS
330
47
102
}
330
47
100
AcDbScale
 70
     0
300
1:16
140
1.0
141
16.0
290
     0
  0
SCALE
  5
4F
102
{ACAD_REACTORS
330
47
102
}
330
47
100
AcDbScale
 70
     0
300
1:20
140
1.0
141
20.0
290
     0
  0
SCALE
  5
50
102
{ACAD_REACTORS
330
47
102
}
330
47
100
AcDbScale
 70
     0
300
1:30
140
1.0
141
30.0
290
     0
  0
SCALE
  5
51
102
{ACAD_REACTORS
330
47
102
}
330
47
100
AcDbScale
 70
     0
300
1:40
140
1.0
141
40.0
290
     0
  0
SCALE
  5
52
102
{ACAD_REACTORS
330
47
102
}
330
47
100
AcDbScale
 70
     0
300
1:50
140
1.0
141
50.0
290
     0
  0
SCALE
  5
53
102
{ACAD_REACTORS
330
47
102
}
330
47
100
AcDbScale
 70
     0
300
1:100
140
1.0
141
100.0
290
     0
  0
SCALE
  5
54
102
{ACAD_REACTORS
330
47
102
}
330
47
100
AcDbScale
 70
     0
300
2:1
140
2.0
141
1.0
290
     0
  0
SCALE
  5
55
102
{ACAD_REACTORS
330
47
102
}
330
47
100
AcDbScale
 70
     0
300
4:1
140
4.0
141
1.0
290
     0
  0
SCALE
  5
56
102
{ACAD_REACTORS
330
47
102
}
330
47
100
AcDbScale
 70
     0
300
8:1
140
8.0
141
1.0
290
     0
  0
SCALE
  5
57
102
{ACAD_REACTORS
330
47
102
}
330
47
100
AcDbScale
 70
     0
300
10:1
140
10.0
141
1.0
290
     0
  0
SCALE
  5
58
102
{ACAD_REACTORS
330
47
102
}
330
47
100
AcDbScale
 70
     0
300
100:1
140
100.0
141
1.0
290
     0
  0
SCALE
  5
59
102
{ACAD_REACTORS
330
47
102
}
330
47
100
AcDbScale
 70
     0
300
1/128" = 1'-0"
140
0.0078125
141
12.0
290
     0
  0
SCALE
  5
5A
102
{ACAD_REACTORS
330
47
102
}
330
47
100
AcDbScale
 70
     0
300
1/64" = 1'-0"
140
0.015625
141
12.0
290
     0
  0
SCALE
  5
5B
102
{ACAD_REACTORS
330
47
102
}
330
47
100
AcDbScale
 70
     0
300
1/32" = 1'-0"
140
0.03125
141
12.0
290
     0
  0
SCALE
  5
5C
102
{ACAD_REACTORS
330
47
102
}
330
47
100
AcDbScale
 70
     0
300
1/16" = 1'-0"
140
0.0625
141
12.0
290
     0
  0
SCALE
  5
5D
102
{ACAD_REACTORS
330
47
102
}
330
47
100
AcDbScale
 70
     0
300
3/32" = 1'-0"
140
0.09375
141
12.0
290
     0
  0
SCALE
  5
5E
102
{ACAD_REACTORS
330
47
102
}
330
47
100
AcDbScale
 70
     0
300
1/8" = 1'-0"
140
0.125
141
12.0
290
     0
  0
SCALE
  5
5F
102
{ACAD_REACTORS
330
47
102
}
330
47
100
AcDbScale
 70
     0
300
3/16" = 1'-0"
140
0.1875
141
12.0
290
     0
  0
SCALE
  5
60
102
{ACAD_REACTORS
330
47
102
}
330
47
100
AcDbScale
 70
     0
300
1/4" = 1'-0"
140
0.25
141
12.0
290
     0
  0
SCALE
  5
61
102
{ACAD_REACTORS
330
47
102
}
330
47
100
AcDbScale
 70
     0
300
3/8" = 1'-0"
140
0.375
141
12.0
290
     0
  0
SCALE
  5
62
102
{ACAD_REACTORS
330
47
102
}
330
47
100
AcDbScale
 70
     0
300
1/2" = 1'-0"
140
0.5
141
12.0
290
     0
  0
SCALE
  5
63
102
{ACAD_REACTORS
330
47
102
}
330
47
100
AcDbScale
 70
     0
300
3/4" = 1'-0"
140
0.75
141
12.0
290
     0
  0
SCALE
  5
64
102
{ACAD_REACTORS
330
47
102
}
330
47
100
AcDbScale
 70
     0
300
1" = 1'-0"
140
1.0
141
12.0
290
     0
  0
SCALE
  5
65
102
{ACAD_REACTORS
330
47
102
}
330
47
100
AcDbScale
 70
     0
300
1-1/2" = 1'-0"
140
1.5
141
12.0
290
     0
  0
SCALE
  5
66
102
{ACAD_REACTORS
330
47
102
}
330
47
100
AcDbScale
 70
     0
300
3" = 1'-0"
140
3.0
141
12.0
290
     0
  0
SCALE
  5
67
102
{ACAD_REACTORS
330
47
102
}
330
47
100
AcDbScale
 70
     0
300
6" = 1'-0"
140
6.0
141
12.0
290
     0
  0
SCALE
  5
68
102
{ACAD_REACTORS
330
47
102
}
330
47
100
AcDbScale
 70
     0
300
1'-0" = 1'-0"
140
12.0
141
12.0
290
     0
  0
TABLESTYLE
  5
6A
102
{ACAD_REACTORS
330
69
102
}
102
{ACAD_XDICTIONARY
360
24D
102
}
330
69
100
AcDbTableStyle
  3
Standard
 70
     0
 71
     0
 40
0.06
 41
0.06
280
     0
281
     0
  7
Standard
140
4.5
170
     2
 62
     0
 63
   257
283
     0
 90
        4
 91
        0
  1

274
    -2
284
     1
 64
     0
275
    -2
285
     1
 65
     0
276
    -2
286
     1
 66
     0
277
    -2
287
     1
 67
     0
278
    -2
288
     1
 68
     0
279
    -2
289
     1
 69
     0
  7
Standard
140
6.0
170
     5
 62
     0
 63
   257
283
     0
 90
        4
 91
        0
  1

274
    -2
284
     1
 64
     0
275
    -2
285
     1
 65
     0
276
    -2
286
     1
 66
     0
277
    -2
287
     1
 67
     0
278
    -2
288
     1
 68
     0
279
    -2
289
     1
 69
     0
  7
Standard
140
4.5
170
     5
 62
     0
 63
   257
283
     0
 90
        4
 91
        0
  1

274
    -2
284
     1
 64
     0
275
    -2
285
     1
 65
     0
276
    -2
286
     1
 66
     0
277
    -2
287
     1
 67
     0
278
    -2
288
     1
 68
     0
279
    -2
289
     1
 69
     0
  0
VISUALSTYLE
  5
2F
102
{ACAD_REACTORS
330
2A
102
}
330
2A
100
AcDbVisualStyle
  2
2dWireframe
 70
     4
177
     3
291
     0
 70
    58
 90
        0
176
     1
 90
        2
176
     1
 90
        0
176
     1
 90
        0
176
     1
 40
0.6
176
     1
 40
30.0
176
     1
 62
     7
420
 16777215
176
     1
 90
        1
176
     1
 90
        4
176
     1
 62
     7
176
     1
 62
   257
176
     1
 90
        1
176
     1
 90
        1
176
     1
 40
1.0
176
     1
 90
        0
176
     1
 62
   257
176
     1
 40
1.0
176
     1
 90
        1
176
     1
 90
        6
176
     1
 90
        2
176
     1
 62
     7
176
     1
 90
        5
176
     1
 90
        0
176
     1
 90
        0
176
     1
290
     0
176
     1
 90
        1
176
     1
 40
0.0
176
     1
 90
        0
176
     1
290
     1
176
     1
290
     1
176
     1
290
     0
176
     1
290
     0
176
     1
290
     0
176
     1
290
     0
176
     1
290
     0
176
     1
290
     0
176
     1
290
     0
176
     1
 90
       50
176
     1
 40
0.0
176
     1
 40
1.0
176
     1
 90
        0
176
     1
 62
    18
420
        0
176
     1
 90
       50
176
     1
 90
        3
176
     1
 62
     5
420
      255
176
     1
290
     0
176
     1
 90
       50
176
     1
 90
       50
176
     1
 90
       50
176
     1
290
     0
176
     1
 90
       50
176
     1
 62
   256
176
     0
 40
1.0
176
     0
 90
        2
176
     1
  1
strokes_ogs.tif
176
     1
290
     0
176
     1
 40
1.0
176
     1
 40
1.0
176
     1
  0
VISUALSTYLE
  5
32
102
{ACAD_REACTORS
330
2A
102
}
330
2A
100
AcDbVisualStyle
  2
Basic
 70
     7
177
     3
291
     1
 70
    58
 90
        1
176
     1
 90
        0
176
     1
 90
        1
176
     1
 90
        0
176
     1
 40
0.6
176
     1
 40
30.0
176
     1
 62
     7
420
 16777215
176
     1
 90
        0
176
     1
 90
        4
176
     1
 62
     7
176
     1
 62
   257
176
     1
 90
        1
176
     1
 90
        1
176
     1
 40
1.0
176
     1
 90
        8
176
     1
 62
     7
176
     1
 40
1.0
176
     1
 90
        1
176
     1
 90
        6
176
     1
 90
        2
176
     1
 62
     7
176
     1
 90
        5
176
     1
 90
        0
176
     1
 90
        0
176
     1
290
     0
176
     1
 90
        1
176
     1
 40
0.0
176
     1
 90
        0
176
     1
290
     0
176
     1
290
     1
176
     1
290
     1
176
     1
290
     0
176
     1
290
     0
176
     1
290
     0
176
     1
290
     0
176
     1
290
     0
176
     1
290
     0
176
     1
 90
       50
176
     1
 40
0.0
176
     1
 40
1.0
176
     1
 90
        0
176
     1
 62
    18
420
        0
176
     1
 90
       50
176
     1
 90
        3
176
     1
 62
     5
420
      255
176
     1
290
     0
176
     1
 90
       50
176
     1
 90
       50
176
     1
 90
       50
176
     1
290
     0
176
     1
 90
       50
176
     1
 62
   256
176
     0
 40
1.0
176
     0
 90
        2
176
     1
  1
strokes_ogs.tif
176
     1
290
     0
176
     1
 40
1.0
176
     1
 40
1.0
176
     1
  0
VISUALSTYLE
  5
36
102
{ACAD_REACTORS
330
2A
102
}
330
2A
100
AcDbVisualStyle
  2
Brighten
 70
    12
177
     3
291
     1
 70
    58
 90
        2
176
     1
 90
        2
176
     1
 90
        0
176
     1
 90
        0
176
     1
 40
0.6
176
     1
 40
30.0
176
     1
 62
     7
420
 16777215
176
     1
 90
        1
176
     1
 90
        4
176
     1
 62
     7
176
     1
 62
   257
176
     1
 90
        1
176
     1
 90
        1
176
     1
 40
1.0
176
     1
 90
        8
176
     1
 62
     7
176
     1
 40
1.0
176
     1
 90
        1
176
     1
 90
        6
176
     1
 90
        2
176
     1
 62
     7
176
     1
 90
        5
176
     1
 90
        0
176
     1
 90
        0
176
     1
290
     0
176
     1
 90
        1
176
     1
 40
50.0
176
     1
 90
        0
176
     1
290
     0
176
     1
290
     1
176
     1
290
     1
176
     1
290
     0
176
     1
290
     0
176
     1
290
     0
176
     1
290
     0
176
     1
290
     0
176
     1
290
     0
176
     1
 90
       50
176
     1
 40
0.0
176
     1
 40
1.0
176
     1
 90
        0
176
     1
 62
    18
420
        0
176
     1
 90
       50
176
     1
 90
        3
176
     1
 62
     5
420
      255
176
     1
290
     0
176
     1
 90
       50
176
     1
 90
       50
176
     1
 90
       50
176
     1
290
     0
176
     1
 90
       50
176
     1
 62
   256
176
     0
 40
1.0
176
     0
 90
        2
176
     1
  1
strokes_ogs.tif
176
     1
290
     0
176
     1
 40
1.0
176
     1
 40
1.0
176
     1
  0
VISUALSTYLE
  5
3A
102
{ACAD_REACTORS
330
2A
102
}
330
2A
100
AcDbVisualStyle
  2
ColorChange
 70
    16
177
     3
291
     1
 70
    58
 90
        2
176
     1
 90
        2
176
     1
 90
        3
176
     1
 90
        0
176
     1
 40
0.6
176
     1
 40
30.0
176
     1
 62
     8
420
  8421504
176
     1
 90
        1
176
     1
 90
        4
176
     1
 62
     7
176
     1
 62
   257
176
     1
 90
        1
176
     1
 90
        1
176
     1
 40
1.0
176
     1
 90
        8
176
     1
 62
     8
420
  8421504
176
     1
 40
1.0
176
     1
 90
        1
176
     1
 90
        6
176
     1
 90
        2
176
     1
 62
     7
176
     1
 90
        5
176
     1
 90
        0
176
     1
 90
        0
176
     1
290
     0
176
     1
 90
        1
176
     1
 40
0.0
176
     1
 90
        0
176
     1
290
     0
176
     1
290
     1
176
     1
290
     1
176
     1
290
     0
176
     1
290
     0
176
     1
290
     0
176
     1
290
     0
176
     1
290
     0
176
     1
290
     0
176
     1
 90
       50
176
     1
 40
0.0
176
     1
 40
1.0
176
     1
 90
        0
176
     1
 62
    18
420
        0
176
     1
 90
       50
176
     1
 90
        3
176
     1
 62
     5
420
      255
176
     1
290
     0
176
     1
 90
       50
176
     1
 90
       50
176
     1
 90
       50
176
     1
290
     0
176
     1
 90
       50
176
     1
 62
   256
176
     0
 40
1.0
176
     0
 90
        2
176
     1
  1
strokes_ogs.tif
176
     1
290
     0
176
     1
 40
1.0
176
     1
 40
1.0
176
     1
  0
VISUALSTYLE
  5
34
102
{ACAD_REACTORS
330
2A
102
}
330
2A
100
AcDbVisualStyle
  2
Conceptual
 70
     9
177
     3
291
     0
 70
    58
 90
        3
176
     1
 90
        2
176
     1
 90
        0
176
     1
 90
        0
176
     1
 40
0.6
176
     1
 40
30.0
176
     1
 62
     7
420
 16777215
176
     1
 90
        2
176
     1
 90
        2
176
     1
 62
     7
176
     1
 62
   257
176
     1
 90
        1
176
     1
 90
        1
176
     1
 40
179.0
176
     1
 90
        8
176
     1
 62
     7
176
     1
 40
1.0
176
     1
 90
        1
176
     1
 90
        6
176
     1
 90
        2
176
     1
 62
     7
176
     1
 90
        3
176
     1
 90
        0
176
     1
 90
        0
176
     1
290
     0
176
     1
 90
        1
176
     1
 40
0.0
176
     1
 90
        0
176
     1
290
     0
176
     1
290
     1
176
     1
290
     1
176
     1
290
     0
176
     1
290
     0
176
     1
290
     0
176
     1
290
     0
176
     1
290
     0
176
     1
290
     0
176
     1
 90
       50
176
     1
 40
0.0
176
     1
 40
1.0
176
     1
 90
        0
176
     1
 62
    18
420
        0
176
     1
 90
       50
176
     1
 90
        3
176
     1
 62
     5
420
      255
176
     1
290
     0
176
     1
 90
       50
176
     1
 90
       50
176
     1
 90
       50
176
     1
290
     0
176
     1
 90
       50
176
     1
 62
   256
176
     0
 40
1.0
176
     0
 90
        2
176
     1
  1
strokes_ogs.tif
176
     1
290
     0
176
     1
 40
1.0
176
     1
 40
1.0
176
     1
  0
VISUALSTYLE
  5
35
102
{ACAD_REACTORS
330
2A
102
}
330
2A
100
AcDbVisualStyle
  2
Dim
 70
    11
177
     3
291
     1
 70
    58
 90
        2
176
     1
 90
        2
176
     1
 90
        0
176
     1
 90
        0
176
     1
 40
0.6
176
     1
 40
30.0
176
     1
 62
     7
420
 16777215
176
     1
 90
        1
176
     1
 90
        4
176
     1
 62
     7
176
     1
 62
   257
176
     1
 90
        1
176
     1
 90
        1
176
     1
 40
1.0
176
     1
 90
        8
176
     1
 62
     7
176
     1
 40
1.0
176
     1
 90
        1
176
     1
 90
        6
176
     1
 90
        2
176
     1
 62
     7
176
     1
 90
        5
176
     1
 90
        0
176
     1
 90
        0
176
     1
290
     0
176
     1
 90
        1
176
     1
 40
-50.0
176
     1
 90
        0
176
     1
290
     0
176
     1
290
     1
176
     1
290
     1
176
     1
290
     0
176
     1
290
     0
176
     1
290
     0
176
     1
290
     0
176
     1
290
     0
176
     1
290
     0
176
     1
 90
       50
176
     1
 40
0.0
176
     1
 40
1.0
176
     1
 90
        0
176
     1
 62
    18
420
        0
176
     1
 90
       50
176
     1
 90
        3
176
     1
 62
     5
420
      255
176
     1
290
     0
176
     1
 90
       50
176
     1
 90
       50
176
     1
 90
       50
176
     1
290
     0
176
     1
 90
       50
176
     1
 62
   256
176
     0
 40
1.0
176
     0
 90
        2
176
     1
  1
strokes_ogs.tif
176
     1
290
     0
176
     1
 40
1.0
176
     1
 40
1.0
176
     1
  0
VISUALSTYLE
  5
3D
102
{ACAD_REACTORS
330
2A
102
}
330
2A
100
AcDbVisualStyle
  2
EdgeColorOff
 70
    22
177
     3
291
     1
 70
    58
 90
        2
176
     0
 90
        2
176
     0
 90
        0
176
     0
 90
        0
176
     0
 40
0.6
176
     0
 40
30.0
176
     0
 62
     7
420
 16777215
176
     0
 90
        1
176
     0
 90
        4
176
     0
 62
     7
176
     0
 62
   257
176
     0
 90
        1
176
     0
 90
        1
176
     0
 40
1.0
176
     0
 90
        8
176
     2
 62
     7
176
     0
 40
1.0
176
     0
 90
        1
176
     0
 90
        6
176
     0
 90
        2
176
     0
 62
     7
176
     0
 90
        5
176
     0
 90
        0
176
     0
 90
        0
176
     0
290
     0
176
     0
 90
        1
176
     0
 40
0.0
176
     0
 90
        0
176
     0
290
     0
176
     0
290
     1
176
     0
290
     1
176
     0
290
     0
176
     0
290
     0
176
     0
290
     0
176
     0
290
     0
176
     0
290
     0
176
     0
290
     0
176
     0
 90
       50
176
     0
 40
0.0
176
     0
 40
1.0
176
     0
 90
        0
176
     0
 62
    18
420
        0
176
     0
 90
       50
176
     0
 90
        3
176
     0
 62
     5
420
      255
176
     0
290
     0
176
     0
 90
       50
176
     0
 90
       50
176
     0
 90
       50
176
     0
290
     0
176
     0
 90
       50
176
     0
 62
   256
176
     0
 40
1.0
176
     0
 90
        2
176
     0
  1
strokes_ogs.tif
176
     0
290
     0
176
     0
 40
1.0
176
     0
 40
1.0
176
     0
  0
VISUALSTYLE
  5
39
102
{ACAD_REACTORS
330
2A
102
}
330
2A
100
AcDbVisualStyle
  2
Facepattern
 70
    15
177
     3
291
     1
 70
    58
 90
        2
176
     1
 90
        2
176
     1
 90
        0
176
     1
 90
        0
176
     1
 40
0.6
176
     1
 40
30.0
176
     1
 62
     7
420
 16777215
176
     1
 90
        1
176
     1
 90
        4
176
     1
 62
     7
176
     1
 62
   257
176
     1
 90
        1
176
     1
 90
        1
176
     1
 40
1.0
176
     1
 90
        8
176
     1
 62
     7
176
     1
 40
1.0
176
     1
 90
        1
176
     1
 90
        6
176
     1
 90
        2
176
     1
 62
     7
176
     1
 90
        5
176
     1
 90
        0
176
     1
 90
        0
176
     1
290
     0
176
     1
 90
        1
176
     1
 40
0.0
176
     1
 90
        0
176
     1
290
     0
176
     1
290
     1
176
     1
290
     1
176
     1
290
     0
176
     1
290
     0
176
     1
290
     0
176
     1
290
     0
176
     1
290
     0
176
     1
290
     0
176
     1
 90
       50
176
     1
 40
0.0
176
     1
 40
1.0
176
     1
 90
        0
176
     1
 62
    18
420
        0
176
     1
 90
       50
176
     1
 90
        3
176
     1
 62
     5
420
      255
176
     1
290
     0
176
     1
 90
       50
176
     1
 90
       50
176
     1
 90
       50
176
     1
290
     0
176
     1
 90
       50
176
     1
 62
   256
176
     0
 40
1.0
176
     0
 90
        2
176
     1
  1
strokes_ogs.tif
176
     1
290
     0
176
     1
 40
1.0
176
     1
 40
1.0
176
     1
  0
VISUALSTYLE
  5
2B
102
{ACAD_REACTORS
330
2A
102
}
330
2A
100
AcDbVisualStyle
  2
Flat
 70
     0
177
     3
291
     1
 70
    58
 90
        2
176
     1
 90
        1
176
     1
 90
        1
176
     1
 90
        2
176
     1
 40
0.6
176
     1
 40
30.0
176
     1
 62
     7
420
 16777215
176
     1
 90
        0
176
     1
 90
        0
176
     1
 62
     7
176
     1
 62
   257
176
     1
 90
        1
176
     1
 90
        1
176
     1
 40
1.0
176
     1
 90
        8
176
     1
 62
     7
176
     1
 40
1.0
176
     1
 90
        1
176
     1
 90
        6
176
     1
 90
        2
176
     1
 62
     7
176
     1
 90
        5
176
     1
 90
        0
176
     1
 90
        0
176
     1
290
     0
176
     1
 90
       13
176
     1
 40
0.0
176
     1
 90
        0
176
     1
290
     0
176
     1
290
     1
176
     1
290
     1
176
     1
290
     0
176
     1
290
     0
176
     1
290
     0
176
     1
290
     0
176
     1
290
     0
176
     1
290
     0
176
     1
 90
       50
176
     1
 40
0.0
176
     1
 40
1.0
176
     1
 90
        0
176
     1
 62
    18
420
        0
176
     1
 90
       50
176
     1
 90
        3
176
     1
 62
     5
420
      255
176
     1
290
     0
176
     1
 90
       50
176
     1
 90
       50
176
     1
 90
       50
176
     1
290
     0
176
     1
 90
       50
176
     1
 62
   256
176
     0
 40
1.0
176
     0
 90
        2
176
     1
  1
strokes_ogs.tif
176
     1
290
     0
176
     1
 40
1.0
176
     1
 40
1.0
176
     1
  0
VISUALSTYLE
  5
2C
102
{ACAD_REACTORS
330
2A
102
}
330
2A
100
AcDbVisualStyle
  2
FlatWithEdges
 70
     1
177
     3
291
     1
 70
    58
 90
        2
176
     1
 90
        1
176
     1
 90
        1
176
     1
 90
        2
176
     1
 40
0.6
176
     1
 40
30.0
176
     1
 62
     7
420
 16777215
176
     1
 90
        1
176
     1
 90
        0
176
     1
 62
     7
176
     1
 62
   257
176
     1
 90
        1
176
     1
 90
        1
176
     1
 40
1.0
176
     1
 90
        0
176
     1
 62
   257
176
     1
 40
1.0
176
     1
 90
        1
176
     1
 90
        6
176
     1
 90
        2
176
     1
 62
     7
176
     1
 90
        5
176
     1
 90
        0
176
     1
 90
        0
176
     1
290
     0
176
     1
 90
       13
176
     1
 40
0.0
176
     1
 90
        0
176
     1
290
     0
176
     1
290
     1
176
     1
290
     1
176
     1
290
     0
176
     1
290
     0
176
     1
290
     0
176
     1
290
     0
176
     1
290
     0
176
     1
290
     0
176
     1
 90
       50
176
     1
 40
0.0
176
     1
 40
1.0
176
     1
 90
        0
176
     1
 62
    18
420
        0
176
     1
 90
       50
176
     1
 90
        3
176
     1
 62
     5
420
      255
176
     1
290
     0
176
     1
 90
       50
176
     1
 90
       50
176
     1
 90
       50
176
     1
290
     0
176
     1
 90
       50
176
     1
 62
   256
176
     0
 40
1.0
176
     0
 90
        2
176
     1
  1
strokes_ogs.tif
176
     1
290
     0
176
     1
 40
1.0
176
     1
 40
1.0
176
     1
  0
VISUALSTYLE
  5
2D
102
{ACAD_REACTORS
330
2A
102
}
330
2A
100
AcDbVisualStyle
  2
Gouraud
 70
     2
177
     3
291
     1
 70
    58
 90
        2
176
     1
 90
        2
176
     1
 90
        1
176
     1
 90
        2
176
     1
 40
0.6
176
     1
 40
30.0
176
     1
 62
     7
420
 16777215
176
     1
 90
        0
176
     1
 90
        0
176
     1
 62
     7
176
     1
 62
   257
176
     1
 90
        1
176
     1
 90
        1
176
     1
 40
1.0
176
     1
 90
        0
176
     1
 62
     7
176
     1
 40
1.0
176
     1
 90
        1
176
     1
 90
        6
176
     1
 90
        2
176
     1
 62
     7
176
     1
 90
        5
176
     1
 90
        0
176
     1
 90
        0
176
     1
290
     0
176
     1
 90
       13
176
     1
 40
0.0
176
     1
 90
        0
176
     1
290
     0
176
     1
290
     1
176
     1
290
     1
176
     1
290
     0
176
     1
290
     0
176
     1
290
     0
176
     1
290
     0
176
     1
290
     0
176
     1
290
     0
176
     1
 90
       50
176
     1
 40
0.0
176
     1
 40
1.0
176
     1
 90
        0
176
     1
 62
    18
420
        0
176
     1
 90
       50
176
     1
 90
        3
176
     1
 62
     5
420
      255
176
     1
290
     0
176
     1
 90
       50
176
     1
 90
       50
176
     1
 90
       50
176
     1
290
     0
176
     1
 90
       50
176
     1
 62
   256
176
     0
 40
1.0
176
     0
 90
        2
176
     1
  1
strokes_ogs.tif
176
     1
290
     0
176
     1
 40
1.0
176
     1
 40
1.0
176
     1
  0
VISUALSTYLE
  5
2E
102
{ACAD_REACTORS
330
2A
102
}
330
2A
100
AcDbVisualStyle
  2
GouraudWithEdges
 70
     3
177
     3
291
     1
 70
    58
 90
        2
176
     1
 90
        2
176
     1
 90
        1
176
     1
 90
        2
176
     1
 40
0.6
176
     1
 40
30.0
176
     1
 62
     7
420
 16777215
176
     1
 90
        1
176
     1
 90
        0
176
     1
 62
     7
176
     1
 62
   257
176
     1
 90
        1
176
     1
 90
        1
176
     1
 40
1.0
176
     1
 90
        0
176
     1
 62
   257
176
     1
 40
1.0
176
     1
 90
        1
176
     1
 90
        6
176
     1
 90
        2
176
     1
 62
     7
176
     1
 90
        5
176
     1
 90
        0
176
     1
 90
        0
176
     1
290
     0
176
     1
 90
       13
176
     1
 40
0.0
176
     1
 90
        0
176
     1
290
     0
176
     1
290
     1
176
     1
290
     1
176
     1
290
     0
176
     1
290
     0
176
     1
290
     0
176
     1
290
     0
176
     1
290
     0
176
     1
290
     0
176
     1
 90
       50
176
     1
 40
0.0
176
     1
 40
1.0
176
     1
 90
        0
176
     1
 62
    18
420
        0
176
     1
 90
       50
176
     1
 90
        3
176
     1
 62
     5
420
      255
176
     1
290
     0
176
     1
 90
       50
176
     1
 90
       50
176
     1
 90
       50
176
     1
290
     0
176
     1
 90
       50
176
     1
 62
   256
176
     0
 40
1.0
176
     0
 90
        2
176
     1
  1
strokes_ogs.tif
176
     1
290
     0
176
     1
 40
1.0
176
     1
 40
1.0
176
     1
  0
VISUALSTYLE
  5
31
102
{ACAD_REACTORS
330
2A
102
}
330
2A
100
AcDbVisualStyle
  2
Hidden
 70
     6
177
     3
291
     0
 70
    58
 90
        1
176
     1
 90
        2
176
     1
 90
        2
176
     1
 90
        0
176
     1
 40
0.6
176
     1
 40
30.0
176
     1
 62
     7
420
 16777215
176
     1
 90
        2
176
     1
 90
        2
176
     1
 62
     7
176
     1
 62
   257
176
     1
 90
        2
176
     1
 90
        1
176
     1
 40
40.0
176
     1
 90
        0
176
     1
 62
   257
176
     1
 40
1.0
176
     1
 90
        1
176
     1
 90
        6
176
     1
 90
        2
176
     1
 62
     7
176
     1
 90
        3
176
     1
 90
        0
176
     1
 90
        0
176
     1
290
     0
176
     1
 90
        1
176
     1
 40
0.0
176
     1
 90
        0
176
     1
290
     0
176
     1
290
     1
176
     1
290
     1
176
     1
290
     0
176
     1
290
     0
176
     1
290
     0
176
     1
290
     0
176
     1
290
     0
176
     1
290
     0
176
     1
 90
       50
176
     1
 40
0.0
176
     1
 40
1.0
176
     1
 90
        0
176
     1
 62
    18
420
        0
176
     1
 90
       50
176
     1
 90
        3
176
     1
 62
     5
420
      255
176
     1
290
     0
176
     1
 90
       50
176
     1
 90
       50
176
     1
 90
       50
176
     1
290
     0
176
     1
 90
       50
176
     1
 62
   256
176
     0
 40
1.0
176
     0
 90
        2
176
     1
  1
strokes_ogs.tif
176
     1
290
     0
176
     1
 40
1.0
176
     1
 40
1.0
176
     1
  0
VISUALSTYLE
  5
3B
102
{ACAD_REACTORS
330
2A
102
}
330
2A
100
AcDbVisualStyle
  2
JitterOff
 70
    20
177
     3
291
     1
 70
    58
 90
        2
176
     0
 90
        2
176
     0
 90
        0
176
     0
 90
        0
176
     0
 40
0.6
176
     0
 40
30.0
176
     0
 62
     7
420
 16777215
176
     0
 90
        1
176
     0
 90
        4
176
     0
 62
     7
176
     0
 62
   257
176
     0
 90
        1
176
     0
 90
        1
176
     0
 40
1.0
176
     0
 90
       10
176
     2
 62
     7
176
     0
 40
1.0
176
     0
 90
        1
176
     0
 90
        6
176
     0
 90
        2
176
     0
 62
     7
176
     0
 90
        5
176
     0
 90
        0
176
     0
 90
        0
176
     0
290
     0
176
     0
 90
        1
176
     0
 40
0.0
176
     0
 90
        0
176
     0
290
     0
176
     0
290
     1
176
     0
290
     1
176
     0
290
     0
176
     0
290
     0
176
     0
290
     0
176
     0
290
     0
176
     0
290
     0
176
     0
290
     0
176
     0
 90
       50
176
     0
 40
0.0
176
     0
 40
1.0
176
     0
 90
        0
176
     0
 62
    18
420
        0
176
     0
 90
       50
176
     0
 90
        3
176
     0
 62
     5
420
      255
176
     0
290
     0
176
     0
 90
       50
176
     0
 90
       50
176
     0
 90
       50
176
     0
290
     0
176
     0
 90
       50
176
     0
 62
   256
176
     0
 40
1.0
176
     0
 90
        2
176
     0
  1
strokes_ogs.tif
176
     0
290
     0
176
     0
 40
1.0
176
     0
 40
1.0
176
     0
  0
VISUALSTYLE
  5
38
102
{ACAD_REACTORS
330
2A
102
}
330
2A
100
AcDbVisualStyle
  2
Linepattern
 70
    14
177
     3
291
     1
 70
    58
 90
        2
176
     1
 90
        2
176
     1
 90
        0
176
     1
 90
        0
176
     1
 40
0.6
176
     1
 40
30.0
176
     1
 62
     7
420
 16777215
176
     1
 90
        1
176
     1
 90
        4
176
     1
 62
     7
176
     1
 62
   257
176
     1
 90
        7
176
     1
 90
        7
176
     1
 40
1.0
176
     1
 90
        8
176
     1
 62
     7
176
     1
 40
1.0
176
     1
 90
        1
176
     1
 90
        6
176
     1
 90
        2
176
     1
 62
     7
176
     1
 90
        5
176
     1
 90
        0
176
     1
 90
        0
176
     1
290
     0
176
     1
 90
        1
176
     1
 40
0.0
176
     1
 90
        0
176
     1
290
     0
176
     1
290
     1
176
     1
290
     1
176
     1
290
     0
176
     1
290
     0
176
     1
290
     0
176
     1
290
     0
176
     1
290
     0
176
     1
290
     0
176
     1
 90
       50
176
     1
 40
0.0
176
     1
 40
1.0
176
     1
 90
        0
176
     1
 62
    18
420
        0
176
     1
 90
       50
176
     1
 90
        3
176
     1
 62
     5
420
      255
176
     1
290
     0
176
     1
 90
       50
176
     1
 90
       50
176
     1
 90
       50
176
     1
290
     0
176
     1
 90
       50
176
     1
 62
   256
176
     0
 40
1.0
176
     0
 90
        2
176
     1
  1
strokes_ogs.tif
176
     1
290
     0
176
     1
 40
1.0
176
     1
 40
1.0
176
     1
  0
VISUALSTYLE
  5
3C
102
{ACAD_REACTORS
330
2A
102
}
330
2A
100
AcDbVisualStyle
  2
OverhangOff
 70
    21
177
     3
291
     1
 70
    58
 90
        2
176
     0
 90
        2
176
     0
 90
        0
176
     0
 90
        0
176
     0
 40
0.6
176
     0
 40
30.0
176
     0
 62
     7
420
 16777215
176
     0
 90
        1
176
     0
 90
        4
176
     0
 62
     7
176
     0
 62
   257
176
     0
 90
        1
176
     0
 90
        1
176
     0
 40
1.0
176
     0
 90
        9
176
     2
 62
     7
176
     0
 40
1.0
176
     0
 90
        1
176
     0
 90
        6
176
     0
 90
        2
176
     0
 62
     7
176
     0
 90
        5
176
     0
 90
        0
176
     0
 90
        0
176
     0
290
     0
176
     0
 90
        1
176
     0
 40
0.0
176
     0
 90
        0
176
     0
290
     0
176
     0
290
     1
176
     0
290
     1
176
     0
290
     0
176
     0
290
     0
176
     0
290
     0
176
     0
290
     0
176
     0
290
     0
176
     0
290
     0
176
     0
 90
       50
176
     0
 40
0.0
176
     0
 40
1.0
176
     0
 90
        0
176
     0
 62
    18
420
        0
176
     0
 90
       50
176
     0
 90
        3
176
     0
 62
     5
420
      255
176
     0
290
     0
176
     0
 90
       50
176
     0
 90
       50
176
     0
 90
       50
176
     0
290
     0
176
     0
 90
       50
176
     0
 62
   256
176
     0
 40
1.0
176
     0
 90
        2
176
     0
  1
strokes_ogs.tif
176
     0
290
     0
176
     0
 40
1.0
176
     0
 40
1.0
176
     0
  0
VISUALSTYLE
  5
33
102
{ACAD_REACTORS
330
2A
102
}
330
2A
100
AcDbVisualStyle
  2
Realistic
 70
     8
177
     3
291
     0
 70
    58
 90
        2
176
     1
 90
        3
176
     1
 90
        0
176
     1
 90
        2
176
     1
 40
0.6
176
     1
 40
30.0
176
     1
 62
     7
420
 16777215
176
     1
 90
        0
176
     1
 90
        0
176
     1
 62
     7
176
     1
 62
   257
176
     1
 90
        1
176
     1
 90
        1
176
     1
 40
1.0
176
     1
 90
        8
176
     1
 62
   257
176
     1
 40
1.0
176
     1
 90
        1
176
     1
 90
        6
176
     1
 90
        2
176
     1
 62
     7
176
     1
 90
        3
176
     1
 90
        0
176
     1
 90
        0
176
     1
290
     0
176
     1
 90
       13
176
     1
 40
0.0
176
     1
 90
        0
176
     1
290
     0
176
     1
290
     1
176
     1
290
     1
176
     1
290
     0
176
     1
290
     0
176
     1
290
     0
176
     1
290
     0
176
     1
290
     0
176
     1
290
     0
176
     1
 90
       50
176
     1
 40
0.0
176
     1
 40
1.0
176
     1
 90
        0
176
     1
 62
    18
420
        0
176
     1
 90
       50
176
     1
 90
        3
176
     1
 62
     5
420
      255
176
     1
290
     0
176
     1
 90
       50
176
     1
 90
       50
176
     1
 90
       50
176
     1
290
     0
176
     1
 90
       50
176
     1
 62
   256
176
     0
 40
1.0
176
     0
 90
        2
176
     1
  1
strokes_ogs.tif
176
     1
290
     0
176
     1
 40
1.0
176
     1
 40
1.0
176
     1
  0
VISUALSTYLE
  5
42
102
{ACAD_REACTORS
330
2A
102
}
330
2A
100
AcDbVisualStyle
  2
Shaded
 70
    27
177
     3
291
     0
 70
    58
 90
        2
176
     1
 90
        2
176
     1
 90
        1
176
     1
 90
        2
176
     1
 40
0.6
176
     1
 40
30.0
176
     1
 62
     7
420
 16777215
176
     1
 90
        0
176
     1
 90
        4
176
     1
 62
     7
176
     1
 62
   257
176
     1
 90
        1
176
     1
 90
        1
176
     1
 40
1.0
176
     1
 90
        8
176
     1
 62
   257
176
     1
 40
1.0
176
     1
 90
        1
176
     1
 90
        6
176
     1
 90
        2
176
     1
 62
     8
420
  7895160
176
     1
 90
        3
176
     1
 90
        0
176
     1
 90
        0
176
     1
290
     0
176
     1
 90
        5
176
     1
 40
0.0
176
     1
 90
        0
176
     1
290
     0
176
     1
290
     1
176
     1
290
     1
176
     1
290
     0
176
     1
290
     0
176
     1
290
     0
176
     1
290
     0
176
     1
290
     0
176
     1
290
     0
176
     1
 90
       50
176
     1
 40
0.0
176
     1
 40
1.0
176
     1
 90
        0
176
     1
 62
    18
420
        0
176
     1
 90
       50
176
     1
 90
        3
176
     1
 62
     5
420
      255
176
     1
290
     0
176
     1
 90
       50
176
     1
 90
       50
176
     1
 90
       50
176
     1
290
     0
176
     1
 90
       50
176
     1
 62
   256
176
     0
 40
1.0
176
     0
 90
        2
176
     1
  1
strokes_ogs.tif
176
     1
290
     0
176
     1
 40
1.0
176
     1
 40
1.0
176
     1
  0
VISUALSTYLE
  5
41
102
{ACAD_REACTORS
330
2A
102
}
330
2A
100
AcDbVisualStyle
  2
Shaded with edges
 70
    26
177
     3
291
     0
 70
    58
 90
        2
176
     1
 90
        2
176
     1
 90
        1
176
     1
 90
        2
176
     1
 40
0.6
176
     1
 40
30.0
176
     1
 62
     7
420
 16777215
176
     1
 90
        1
176
     1
 90
       10
176
     1
 62
     7
176
     1
 62
   257
176
     1
 90
        2
176
     1
 90
        1
176
     1
 40
1.0
176
     1
 90
        8
176
     1
 62
   257
176
     1
 40
1.0
176
     1
 90
        1
176
     1
 90
        6
176
     1
 90
        2
176
     1
 62
     7
176
     1
 90
        3
176
     1
 90
        0
176
     1
 90
        0
176
     1
290
     0
176
     1
 90
        5
176
     1
 40
0.0
176
     1
 90
        0
176
     1
290
     0
176
     1
290
     1
176
     1
290
     1
176
     1
290
     0
176
     1
290
     0
176
     1
290
     0
176
     1
290
     0
176
     1
290
     0
176
     1
290
     0
176
     1
 90
       50
176
     1
 40
0.0
176
     1
 40
1.0
176
     1
 90
        0
176
     1
 62
    18
420
        0
176
     1
 90
       50
176
     1
 90
        3
176
     1
 62
     5
420
      255
176
     1
290
     0
176
     1
 90
       50
176
     1
 90
       50
176
     1
 90
       50
176
     1
290
     0
176
     1
 90
       50
176
     1
 62
   256
176
     0
 40
1.0
176
     0
 90
        2
176
     1
  1
strokes_ogs.tif
176
     1
290
     0
176
     1
 40
1.0
176
     1
 40
1.0
176
     1
  0
VISUALSTYLE
  5
3E
102
{ACAD_REACTORS
330
2A
102
}
330
2A
100
AcDbVisualStyle
  2
Shades of Gray
 70
    23
177
     3
291
     0
 70
    58
 90
        2
176
     1
 90
        2
176
     1
 90
        3
176
     1
 90
        0
176
     1
 40
0.6
176
     1
 40
30.0
176
     1
 62
     7
420
 16777215
176
     1
 90
        2
176
     1
 90
        2
176
     1
 62
     7
176
     1
 62
     7
176
     1
 90
        1
176
     1
 90
        1
176
     1
 40
40.0
176
     1
 90
        8
176
     1
 62
     7
176
     1
 40
1.0
176
     1
 90
        1
176
     1
 90
        6
176
     1
 90
        2
176
     1
 62
     7
176
     1
 90
        3
176
     1
 90
        0
176
     1
 90
        0
176
     1
290
     0
176
     1
 90
        1
176
     1
 40
0.0
176
     1
 90
        0
176
     1
290
     0
176
     1
290
     1
176
     1
290
     1
176
     1
290
     0
176
     1
290
     0
176
     1
290
     0
176
     1
290
     0
176
     1
290
     0
176
     1
290
     0
176
     1
 90
       50
176
     1
 40
0.0
176
     1
 40
1.0
176
     1
 90
        0
176
     1
 62
    18
420
        0
176
     1
 90
       50
176
     1
 90
        3
176
     1
 62
     5
420
      255
176
     1
290
     0
176
     1
 90
       50
176
     1
 90
       50
176
     1
 90
       50
176
     1
290
     0
176
     1
 90
       50
176
     1
 62
   256
176
     0
 40
1.0
176
     0
 90
        2
176
     1
  1
strokes_ogs.tif
176
     1
290
     0
176
     1
 40
1.0
176
     1
 40
1.0
176
     1
  0
VISUALSTYLE
  5
3F
102
{ACAD_REACTORS
330
2A
102
}
330
2A
100
AcDbVisualStyle
  2
Sketchy
 70
    24
177
     3
291
     0
 70
    58
 90
        1
176
     1
 90
        2
176
     1
 90
        2
176
     1
 90
        0
176
     1
 40
0.6
176
     1
 40
30.0
176
     1
 62
     7
420
 16777215
176
     1
 90
        2
176
     1
 90
        2
176
     1
 62
     7
176
     1
 62
     7
176
     1
 90
        1
176
     1
 90
        1
176
     1
 40
40.0
176
     1
 90
       11
176
     1
 62
     7
176
     1
 40
1.0
176
     1
 90
        1
176
     1
 90
        6
176
     1
 90
        2
176
     1
 62
     7
176
     1
 90
        6
176
     1
 90
        0
176
     1
 90
        0
176
     1
290
     0
176
     1
 90
        1
176
     1
 40
0.0
176
     1
 90
        0
176
     1
290
     0
176
     1
290
     1
176
     1
290
     1
176
     1
290
     0
176
     1
290
     0
176
     1
290
     0
176
     1
290
     0
176
     1
290
     0
176
     1
290
     0
176
     1
 90
       50
176
     1
 40
0.0
176
     1
 40
1.0
176
     1
 90
        0
176
     1
 62
    18
420
        0
176
     1
 90
       50
176
     1
 90
        3
176
     1
 62
     5
420
      255
176
     1
290
     0
176
     1
 90
       50
176
     1
 90
       50
176
     1
 90
       50
176
     1
290
     0
176
     1
 90
       50
176
     1
 62
   256
176
     0
 40
1.0
176
     0
 90
        2
176
     1
  1
strokes_ogs.tif
176
     1
290
     0
176
     1
 40
1.0
176
     1
 40
1.0
176
     1
  0
VISUALSTYLE
  5
37
102
{ACAD_REACTORS
330
2A
102
}
330
2A
100
AcDbVisualStyle
  2
Thicken
 70
    13
177
     3
291
     1
 70
    58
 90
        2
176
     1
 90
        2
176
     1
 90
        0
176
     1
 90
        0
176
     1
 40
0.6
176
     1
 40
30.0
176
     1
 62
     7
420
 16777215
176
     1
 90
        1
176
     1
 90
        4
176
     1
 62
     7
176
     1
 62
   257
176
     1
 90
        1
176
     1
 90
        1
176
     1
 40
1.0
176
     1
 90
       12
176
     1
 62
     7
176
     1
 40
1.0
176
     1
 90
        1
176
     1
 90
        6
176
     1
 90
        2
176
     1
 62
     7
176
     1
 90
        5
176
     1
 90
        0
176
     1
 90
        0
176
     1
290
     0
176
     1
 90
        1
176
     1
 40
0.0
176
     1
 90
        0
176
     1
290
     0
176
     1
290
     1
176
     1
290
     1
176
     1
290
     0
176
     1
290
     0
176
     1
290
     0
176
     1
290
     0
176
     1
290
     0
176
     1
290
     0
176
     1
 90
       50
176
     1
 40
0.0
176
     1
 40
1.0
176
     1
 90
        0
176
     1
 62
    18
420
        0
176
     1
 90
       50
176
     1
 90
        3
176
     1
 62
     5
420
      255
176
     1
290
     0
176
     1
 90
       50
176
     1
 90
       50
176
     1
 90
       50
176
     1
290
     0
176
     1
 90
       50
176
     1
 62
   256
176
     0
 40
1.0
176
     0
 90
        2
176
     1
  1
strokes_ogs.tif
176
     1
290
     0
176
     1
 40
1.0
176
     1
 40
1.0
176
     1
  0
VISUALSTYLE
  5
30
102
{ACAD_REACTORS
330
2A
102
}
330
2A
100
AcDbVisualStyle
  2
Wireframe
 70
     5
177
     3
291
     0
 70
    58
 90
        0
176
     1
 90
        2
176
     1
 90
        0
176
     1
 90
        0
176
     1
 40
0.6
176
     1
 40
30.0
176
     1
 62
     7
420
 16777215
176
     1
 90
        1
176
     1
 90
        4
176
     1
 62
     7
176
     1
 62
   257
176
     1
 90
        1
176
     1
 90
        1
176
     1
 40
1.0
176
     1
 90
        0
176
     1
 62
   257
176
     1
 40
1.0
176
     1
 90
        1
176
     1
 90
        6
176
     1
 90
        2
176
     1
 62
     7
176
     1
 90
        3
176
     1
 90
        0
176
     1
 90
        0
176
     1
290
     0
176
     1
 90
        1
176
     1
 40
0.0
176
     1
 90
        0
176
     1
290
     0
176
     1
290
     1
176
     1
290
     1
176
     1
290
     0
176
     1
290
     0
176
     1
290
     0
176
     1
290
     0
176
     1
290
     0
176
     1
290
     0
176
     1
 90
       50
176
     1
 40
0.0
176
     1
 40
1.0
176
     1
 90
        0
176
     1
 62
    18
420
        0
176
     1
 90
       50
176
     1
 90
        3
176
     1
 62
     5
420
      255
176
     1
290
     0
176
     1
 90
       50
176
     1
 90
       50
176
     1
 90
       50
176
     1
290
     0
176
     1
 90
       50
176
     1
 62
   256
176
     0
 40
1.0
176
     0
 90
        2
176
     1
  1
strokes_ogs.tif
176
     1
290
     0
176
     1
 40
1.0
176
     1
 40
1.0
176
     1
  0
VISUALSTYLE
  5
40
102
{ACAD_REACTORS
330
2A
102
}
330
2A
100
AcDbVisualStyle
  2
X-Ray
 70
    25
177
     3
291
     0
 70
    58
 90
        2
176
     1
 90
        2
176
     1
 90
        1
176
     1
 90
        1
176
     1
 40
0.5
176
     1
 40
30.0
176
     1
 62
     7
420
 16777215
176
     1
 90
        1
176
     1
 90
        0
176
     1
 62
     7
176
     1
 62
   257
176
     1
 90
        1
176
     1
 90
        1
176
     1
 40
1.0
176
     1
 90
        8
176
     1
 62
     7
176
     1
 40
1.0
176
     1
 90
        1
176
     1
 90
        6
176
     1
 90
        2
176
     1
 62
     7
176
     1
 90
        3
176
     1
 90
        0
176
     1
 90
        0
176
     1
290
     0
176
     1
 90
       13
176
     1
 40
0.0
176
     1
 90
        0
176
     1
290
     0
176
     1
290
     1
176
     1
290
     1
176
     1
290
     0
176
     1
290
     0
176
     1
290
     0
176
     1
290
     0
176
     1
290
     0
176
     1
290
     0
176
     1
 90
       50
176
     1
 40
0.0
176
     1
 40
1.0
176
     1
 90
        0
176
     1
 62
    18
420
        0
176
     1
 90
       50
176
     1
 90
        3
176
     1
 62
     5
420
      255
176
     1
290
     0
176
     1
 90
       50
176
     1
 90
       50
176
     1
 90
       50
176
     1
290
     0
176
     1
 90
       50
176
     1
 62
   256
176
     0
 40
1.0
176
     0
 90
        2
176
     1
  1
strokes_ogs.tif
176
     1
290
     0
176
     1
 40
1.0
176
     1
 40
1.0
176
     1
  0
DICTIONARYVAR
  5
24C
102
{ACAD_REACTORS
330
24B
102
}
330
24B
100
DictionaryVariables
280
     0
  1
1:1
  0
DICTIONARYVAR
  5
251
102
{ACAD_REACTORS
330
24B
102
}
330
24B
100
DictionaryVariables
280
     0
  1
Standard
  0
DICTIONARYVAR
  5
250
102
{ACAD_REACTORS
330
24B
102
}
330
24B
100
DictionaryVariables
280
     0
  1
Standard
  0
DICTIONARY
  5
24D
330
6A
100
AcDbDictionary
280
     1
281
     1
  3
ACAD_ROUNDTRIP_2008_TABLESTYLE_CELLSTYLEMAP
360
24E
  0
CELLSTYLEMAP
  5
24E
102
{ACAD_REACTORS
330
24D
102
}
330
24D
100
AcDbCellStyleMap
 90
        3
300
CELLSTYLE
  1
TABLEFORMAT_BEGIN
 90
        5
170
     1
 91
        0
 92
    32768
 62
   257
 93
        1
300
CONTENTFORMAT
  1
CONTENTFORMAT_BEGIN
 90
        0
 91
        0
 92
        4
 93
        0
300

 40
0.0
140
1.0
 94
        5
 62
     0
340
11
144
6.0
309
CONTENTFORMAT_END
171
     1
301
MARGIN
  1
CELLMARGIN_BEGIN
 40
1.5
 40
1.5
 40
1.5
 40
1.5
 40
1.5
 40
1.5
309
CELLMARGIN_END
 94
        6
 95
        1
302
GRIDFORMAT
  1
GRIDFORMAT_BEGIN
 90
        0
 91
        1
 62
     0
 92
       -2
340
14
 93
        0
 40
0.045
309
GRIDFORMAT_END
 95
        2
302
GRIDFORMAT
  1
GRIDFORMAT_BEGIN
 90
        0
 91
        1
 62
     0
 92
       -2
340
14
 93
        0
 40
0.045
309
GRIDFORMAT_END
 95
        4
302
GRIDFORMAT
  1
GRIDFORMAT_BEGIN
 90
        0
 91
        1
 62
     0
 92
       -2
340
14
 93
        0
 40
0.045
309
GRIDFORMAT_END
 95
        8
302
GRIDFORMAT
  1
GRIDFORMAT_BEGIN
 90
        0
 91
        1
 62
     0
 92
       -2
340
14
 93
        0
 40
0.045
309
GRIDFORMAT_END
 95
       16
302
GRIDFORMAT
  1
GRIDFORMAT_BEGIN
 90
        0
 91
        1
 62
     0
 92
       -2
340
14
 93
        0
 40
0.045
309
GRIDFORMAT_END
 95
       32
302
GRIDFORMAT
  1
GRIDFORMAT_BEGIN
 90
        0
 91
        1
 62
     0
 92
       -2
340
14
 93
        0
 40
0.045
309
GRIDFORMAT_END
309
TABLEFORMAT_END
  1
CELLSTYLE_BEGIN
 90
        1
 91
        1
300
_TITLE
309
CELLSTYLE_END
300
CELLSTYLE
  1
TABLEFORMAT_BEGIN
 90
        5
170
     1
 91
        0
 92
        0
 62
   257
 93
        1
300
CONTENTFORMAT
  1
CONTENTFORMAT_BEGIN
 90
        0
 91
        0
 92
        4
 93
        0
300

 40
0.0
140
1.0
 94
        5
 62
     0
340
11
144
4.5
309
CONTENTFORMAT_END
171
     1
301
MARGIN
  1
CELLMARGIN_BEGIN
 40
1.5
 40
1.5
 40
1.5
 40
1.5
 40
1.5
 40
1.5
309
CELLMARGIN_END
 94
        6
 95
        1
302
GRIDFORMAT
  1
GRIDFORMAT_BEGIN
 90
        0
 91
        1
 62
     0
 92
       -2
340
14
 93
        0
 40
0.045
309
GRIDFORMAT_END
 95
        2
302
GRIDFORMAT
  1
GRIDFORMAT_BEGIN
 90
        0
 91
        1
 62
     0
 92
       -2
340
14
 93
        0
 40
0.045
309
GRIDFORMAT_END
 95
        4
302
GRIDFORMAT
  1
GRIDFORMAT_BEGIN
 90
        0
 91
        1
 62
     0
 92
       -2
340
14
 93
        0
 40
0.045
309
GRIDFORMAT_END
 95
        8
302
GRIDFORMAT
  1
GRIDFORMAT_BEGIN
 90
        0
 91
        1
 62
     0
 92
       -2
340
14
 93
        0
 40
0.045
309
GRIDFORMAT_END
 95
       16
302
GRIDFORMAT
  1
GRIDFORMAT_BEGIN
 90
        0
 91
        1
 62
     0
 92
       -2
340
14
 93
        0
 40
0.045
309
GRIDFORMAT_END
 95
       32
302
GRIDFORMAT
  1
GRIDFORMAT_BEGIN
 90
        0
 91
        1
 62
     0
 92
       -2
340
14
 93
        0
 40
0.045
309
GRIDFORMAT_END
309
TABLEFORMAT_END
  1
CELLSTYLE_BEGIN
 90
        2
 91
        1
300
_HEADER
309
CELLSTYLE_END
300
CELLSTYLE
  1
TABLEFORMAT_BEGIN
 90
        5
170
     1
 91
        0
 92
        0
 62
   257
 93
        1
300
CONTENTFORMAT
  1
CONTENTFORMAT_BEGIN
 90
        0
 91
        0
 92
        4
 93
        0
300

 40
0.0
140
1.0
 94
        2
 62
     0
340
11
144
4.5
309
CONTENTFORMAT_END
171
     1
301
MARGIN
  1
CELLMARGIN_BEGIN
 40
1.5
 40
1.5
 40
1.5
 40
1.5
 40
1.5
 40
1.5
309
CELLMARGIN_END
 94
        6
 95
        1
302
GRIDFORMAT
  1
GRIDFORMAT_BEGIN
 90
        0
 91
        1
 62
     0
 92
       -2
340
14
 93
        0
 40
0.045
309
GRIDFORMAT_END
 95
        2
302
GRIDFORMAT
  1
GRIDFORMAT_BEGIN
 90
        0
 91
        1
 62
     0
 92
       -2
340
14
 93
        0
 40
0.045
309
GRIDFORMAT_END
 95
        4
302
GRIDFORMAT
  1
GRIDFORMAT_BEGIN
 90
        0
 91
        1
 62
     0
 92
       -2
340
14
 93
        0
 40
0.045
309
GRIDFORMAT_END
 95
        8
302
GRIDFORMAT
  1
GRIDFORMAT_BEGIN
 90
        0
 91
        1
 62
     0
 92
       -2
340
14
 93
        0
 40
0.045
309
GRIDFORMAT_END
 95
       16
302
GRIDFORMAT
  1
GRIDFORMAT_BEGIN
 90
        0
 91
        1
 62
     0
 92
       -2
340
14
 93
        0
 40
0.045
309
GRIDFORMAT_END
 95
       32
302
GRIDFORMAT
  1
GRIDFORMAT_BEGIN
 90
        0
 91
        1
 62
     0
 92
       -2
340
14
 93
        0
 40
0.045
309
GRIDFORMAT_END
309
TABLEFORMAT_END
  1
CELLSTYLE_BEGIN
 90
        3
 91
        2
300
_DATA
309
CELLSTYLE_END
  0
ENDSEC
  0
SECTION
  2
ACDSDATA
 70
     2
 71
     2
  0
ACDSSCHEMA
 90
        0
  1
AcDb_Thumbnail_Schema
  2
AcDbDs::ID
280
    10
 91
        8
  2
Thumbnail_Data
280
    15
 91
        0
101
ACDSRECORD
 95
        0
 90
        2
  2
AcDbDs::TreatedAsObjectData
280
     1
291
     1
101
ACDSRECORD
 95
        0
 90
        3
  2
AcDbDs::Legacy
280
     1
291
     1
101
ACDSRECORD
  1
AcDbDs::ID
 90
        4
  2
AcDs:Indexable
280
     1
291
     1
101
ACDSRECORD
  1
AcDbDs::ID
 90
        5
  2
AcDbDs::HandleAttribute
280
     7
282
     1
  0
ACDSSCHEMA
 90
        1
  1
AcDb3DSolid_ASM_Data
  2
AcDbDs::ID
280
    10
 91
        8
  2
ASM_Data
280
    15
 91
        0
101
ACDSRECORD
 95
        1
 90
        2
  2
AcDbDs::TreatedAsObjectData
280
     1
291
     1
101
ACDSRECORD
 95
        1
 90
        3
  2
AcDbDs::Legacy
280
     1
291
     1
101
ACDSRECORD
  1
AcDbDs::ID
 90
        4
  2
AcDs:Indexable
280
     1
291
     1
101
ACDSRECORD
  1
AcDbDs::ID
 90
        5
  2
AcDbDs::HandleAttribute
280
     7
282
     1
  0
ACDSSCHEMA
 90
        2
  1
AcDbDs::TreatedAsObjectDataSchema
  2
AcDbDs::TreatedAsObjectData
280
     1
 91
        0
  0
ACDSSCHEMA
 90
        3
  1
AcDbDs::LegacySchema
  2
AcDbDs::Legacy
280
     1
 91
        0
  0
ACDSSCHEMA
 90
        4
  1
AcDbDs::IndexedPropertySchema
  2
AcDs:Indexable
280
     1
 91
        0
  0
ACDSSCHEMA
 90
        5
  1
AcDbDs::HandleAttributeSchema
  2
AcDbDs::HandleAttribute
280
     7
 91
        1
284
     1
  0
ACDSRECORD
 90
        1
  2
AcDbDs::ID
280
    10
320
83
  2
ASM_Data
280
    15
 94
      720
310
414349532042696E61727946696C652855000000000000020000000C00000007214F70656E2044657369676E20416C6C69616E63652041434953204275696C646572070E41434953203231382E3030204E54071853756E204A756C2030392030313A30313A3434203230313706000000000000F03F068DEDB5A0F7C6B03E06
310
BBBDD7D9DF7CDB3D0D0961736D6865616465720CFFFFFFFF04FFFFFFFF070C3230382E302E342E37303039110D04626F64790C0200000004FFFFFFFF0CFFFFFFFF0C030000000CFFFFFFFF0CFFFFFFFF110E0D737472696E675F6174747269620E0B6E616D655F6174747269620E0367656E0D066174747269620CFFFFFFFF
310
04FFFFFFFF0CFFFFFFFF0CFFFFFFFF0C01000000150200000015010000001501000000150200000007114154545249425F58414349535F4E414D4507135F37303137204143442F5034415F5041525433110D046C756D700CFFFFFFFF04FFFFFFFF0CFFFFFFFF0CFFFFFFFF0C040000000C01000000110D057368656C6C0CFF
310
FFFFFF04FFFFFFFF0CFFFFFFFF0CFFFFFFFF0CFFFFFFFF0C050000000CFFFFFFFF0C03000000110D04666163650C0700000004FFFFFFFF0CFFFFFFFF0CFFFFFFFF0CFFFFFFFF0C040000000CFFFFFFFF0C060000000B0B110E067370686572650D07737572666163650CFFFFFFFF04FFFFFFFF0CFFFFFFFF13020000000000
310
2640C5E42B3C7BB049402D8706AC4DB22F4006FD7E6ABC74931C40140000000000000000C48CB96B0D94EEBFB0FB9ACE44DDD2BF14000000000000F03F000000000000000000000000000000000B0B0B0B0B110E0D737472696E675F6174747269620E0B6E616D655F6174747269620E0367656E0D066174747269620CFFFF
310
FFFF04FFFFFFFF0CFFFFFFFF0CFFFFFFFF0C050000001502000000150100000015010000001502000000070F4154545249425F58414349535F49440703313132110E03456E640E026F660E0341534D0D0464617461
  0
ACDSRECORD
 90
        1
  2
AcDbDs::ID
280
    10
320
97
  2
ASM_Data
280
    15
 94
      720
310
414349532042696E61727946696C652855000000000000020000000C00000007214F70656E2044657369676E20416C6C69616E63652041434953204275696C646572070E41434953203231382E3030204E54071853756E204A756C2030392030313A30313A3434203230313706000000000000F03F068DEDB5A0F7C6B03E06
310
BBBDD7D9DF7CDB3D0D0961736D6865616465720CFFFFFFFF04FFFFFFFF070C3230382E302E342E37303039110D04626F64790C0200000004FFFFFFFF0CFFFFFFFF0C030000000CFFFFFFFF0CFFFFFFFF110E0D737472696E675F6174747269620E0B6E616D655F6174747269620E0367656E0D066174747269620CFFFFFFFF
310
04FFFFFFFF0CFFFFFFFF0CFFFFFFFF0C01000000150200000015010000001501000000150200000007114154545249425F58414349535F4E414D4507135F37303137204143442F5034415F5041525433110D046C756D700CFFFFFFFF04FFFFFFFF0CFFFFFFFF0CFFFFFFFF0C040000000C01000000110D057368656C6C0CFF
310
FFFFFF04FFFFFFFF0CFFFFFFFF0CFFFFFFFF0CFFFFFFFF0C050000000CFFFFFFFF0C03000000110D04666163650C0700000004FFFFFFFF0CFFFFFFFF0CFFFFFFFF0CFFFFFFFF0C040000000CFFFFFFFF0C060000000B0B110E067370686572650D07737572666163650CFFFFFFFF04FFFFFFFF0CFFFFFFFF13020000000000
310
26408B4F75A05F364640B748A5C3CE493E4006FD7E6ABC74931C4014000000000000000074FA4B4C8C70EABFEC0C52C9B706E2BF14000000000000F03F000000000000000000000000000000000B0B0B0B0B110E0D737472696E675F6174747269620E0B6E616D655F6174747269620E0367656E0D066174747269620CFFFF
310
FFFF04FFFFFFFF0CFFFFFFFF0CFFFFFFFF0C050000001502000000150100000015010000001502000000070F4154545249425F58414349535F49440703313133110E03456E640E026F660E0341534D0D0464617461
  0
ACDSRECORD
 90
        1
  2
AcDbDs::ID
280
    10
320
AB
  2
ASM_Data
280
    15
 94
      720
310
414349532042696E61727946696C652855000000000000020000000C00000007214F70656E2044657369676E20416C6C69616E63652041434953204275696C646572070E41434953203231382E3030204E54071853756E204A756C2030392030313A30313A3434203230313706000000000000F03F068DEDB5A0F7C6B03E06
310
BBBDD7D9DF7CDB3D0D0961736D6865616465720CFFFFFFFF04FFFFFFFF070C3230382E302E342E37303039110D04626F64790C0200000004FFFFFFFF0CFFFFFFFF0C030000000CFFFFFFFF0CFFFFFFFF110E0D737472696E675F6174747269620E0B6E616D655F6174747269620E0367656E0D066174747269620CFFFFFFFF
310
04FFFFFFFF0CFFFFFFFF0CFFFFFFFF0C01000000150200000015010000001501000000150200000007114154545249425F58414349535F4E414D4507135F37303137204143442F5034415F5041525433110D046C756D700CFFFFFFFF04FFFFFFFF0CFFFFFFFF0CFFFFFFFF0C040000000C01000000110D057368656C6C0CFF
310
FFFFFF04FFFFFFFF0CFFFFFFFF0CFFFFFFFF0CFFFFFFFF0C050000000CFFFFFFFF0C03000000110D04666163650C0700000004FFFFFFFF0CFFFFFFFF0CFFFFFFFF0CFFFFFFFF0C040000000CFFFFFFFF0C060000000B0B110E067370686572650D07737572666163650CFFFFFFFF04FFFFFFFF0CFFFFFFFF13020000000000
310
26407B37F7A601C34040A199A47CC004454006FD7E6ABC74931C40140000000000000000D0ED8BE2A0F3E3BF4CDE0575C304E9BF14000000000000F03F000000000000000000000000000000000B0B0B0B0B110E0D737472696E675F6174747269620E0B6E616D655F6174747269620E0367656E0D066174747269620CFFFF
310
FFFF04FFFFFFFF0CFFFFFFFF0CFFFFFFFF0C050000001502000000150100000015010000001502000000070F4154545249425F58414349535F49440703313134110E03456E640E026F660E0341534D0D0464617461
  0
ACDSRECORD
 90
        1
  2
AcDbDs::ID
280
    10
320
BF
  2
ASM_Data
280
    15
 94
      720
310
414349532042696E61727946696C652855000000000000020000000C00000007214F70656E2044657369676E20416C6C69616E63652041434953204275696C646572070E41434953203231382E3030204E54071853756E204A756C2030392030313A30313A3434203230313706000000000000F03F068DEDB5A0F7C6B03E06
310
BBBDD7D9DF7CDB3D0D0961736D6865616465720CFFFFFFFF04FFFFFFFF070C3230382E302E342E37303039110D04626F64790C0200000004FFFFFFFF0CFFFFFFFF0C030000000CFFFFFFFF0CFFFFFFFF110E0D737472696E675F6174747269620E0B6E616D655F6174747269620E0367656E0D066174747269620CFFFFFFFF
310
04FFFFFFFF0CFFFFFFFF0CFFFFFFFF0C01000000150200000015010000001501000000150200000007114154545249425F58414349535F4E414D4507135F37303137204143442F5034415F5041525433110D046C756D700CFFFFFFFF04FFFFFFFF0CFFFFFFFF0CFFFFFFFF0C040000000C01000000110D057368656C6C0CFF
310
FFFFFF04FFFFFFFF0CFFFFFFFF0CFFFFFFFF0CFFFFFFFF0C050000000CFFFFFFFF0C03000000110D04666163650C0700000004FFFFFFFF0CFFFFFFFF0CFFFFFFFF0CFFFFFFFF0C040000000CFFFFFFFF0C060000000B0B110E067370686572650D07737572666163650CFFFFFFFF04FFFFFFFF0CFFFFFFFF13020000000000
310
264069F85CAEBAA43340A1DAC21D7F06494006FD7E6ABC74931C40140000000000000000979CE251BF61D7BF8D3764BEB7C9EDBF14000000000000F03F000000000000000000000000000000000B0B0B0B0B110E0D737472696E675F6174747269620E0B6E616D655F6174747269620E0367656E0D066174747269620CFFFF
310
FFFF04FFFFFFFF0CFFFFFFFF0CFFFFFFFF0C050000001502000000150100000015010000001502000000070F4154545249425F58414349535F49440703313135110E03456E640E026F660E0341534D0D0464617461
  0
ACDSRECORD
 90
        1
  2
AcDbDs::ID
280
    10
320
D3
  2
ASM_Data
280
    15
 94
      720
310
414349532042696E61727946696C652855000000000000020000000C00000007214F70656E2044657369676E20416C6C69616E63652041434953204275696C646572070E41434953203231382E3030204E54071853756E204A756C2030392030313A30313A3434203230313706000000000000F03F068DEDB5A0F7C6B03E06
310
BBBDD7D9DF7CDB3D0D0961736D6865616465720CFFFFFFFF04FFFFFFFF070C3230382E302E342E37303039110D04626F64790C0200000004FFFFFFFF0CFFFFFFFF0C030000000CFFFFFFFF0CFFFFFFFF110E0D737472696E675F6174747269620E0B6E616D655F6174747269620E0367656E0D066174747269620CFFFFFFFF
310
04FFFFFFFF0CFFFFFFFF0CFFFFFFFF0C01000000150200000015010000001501000000150200000007114154545249425F58414349535F4E414D4507135F37303137204143442F5034415F5041525433110D046C756D700CFFFFFFFF04FFFFFFFF0CFFFFFFFF0CFFFFFFFF0C040000000C01000000110D057368656C6C0CFF
310
FFFFFF04FFFFFFFF0CFFFFFFFF0CFFFFFFFF0CFFFFFFFF0C050000000CFFFFFFFF0C03000000110D04666163650C0700000004FFFFFFFF0CFFFFFFFF0CFFFFFFFF0CFFFFFFFF0C040000000CFFFFFFFF0C060000000B0B110E067370686572650D07737572666163650CFFFFFFFF04FFFFFFFF0CFFFFFFFF13020000000000
310
2640676997C77B12104048FCC0F0FECE4A4006FD7E6ABC74931C40140000000000000000F20FFBEB8221B3BFCEE20AF017E9EFBF14000000000000F03F000000000000000000000000000000000B0B0B0B0B110E0D737472696E675F6174747269620E0B6E616D655F6174747269620E0367656E0D066174747269620CFFFF
310
FFFF04FFFFFFFF0CFFFFFFFF0CFFFFFFFF0C050000001502000000150100000015010000001502000000070F4154545249425F58414349535F49440703313136110E03456E640E026F660E0341534D0D0464617461
  0
ACDSRECORD
 90
        1
  2
AcDbDs::ID
280
    10
320
E7
  2
ASM_Data
280
    15
 94
      720
310
414349532042696E61727946696C652855000000000000020000000C00000007214F70656E2044657369676E20416C6C69616E63652041434953204275696C646572070E41434953203231382E3030204E54071853756E204A756C2030392030313A30313A3434203230313706000000000000F03F068DEDB5A0F7C6B03E06
310
BBBDD7D9DF7CDB3D0D0961736D6865616465720CFFFFFFFF04FFFFFFFF070C3230382E302E342E37303039110D04626F64790C0200000004FFFFFFFF0CFFFFFFFF0C030000000CFFFFFFFF0CFFFFFFFF110E0D737472696E675F6174747269620E0B6E616D655F6174747269620E0367656E0D066174747269620CFFFFFFFF
310
04FFFFFFFF0CFFFFFFFF0CFFFFFFFF0C01000000150200000015010000001501000000150200000007114154545249425F58414349535F4E414D4507135F37303137204143442F5034415F5041525433110D046C756D700CFFFFFFFF04FFFFFFFF0CFFFFFFFF0CFFFFFFFF0C040000000C01000000110D057368656C6C0CFF
310
FFFFFF04FFFFFFFF0CFFFFFFFF0CFFFFFFFF0CFFFFFFFF0C050000000CFFFFFFFF0C03000000110D04666163650C0700000004FFFFFFFF0CFFFFFFFF0CFFFFFFFF0CFFFFFFFF0C040000000CFFFFFFFF0C060000000B0B110E067370686572650D07737572666163650CFFFFFFFF04FFFFFFFF0CFFFFFFFF13020000000000
310
26404D998317C5ED27C049498818B0354A4006FD7E6ABC74931C40140000000000000000A84502E3907BCC3F66E958059C32EFBF14000000000000F03F000000000000000000000000000000000B0B0B0B0B110E0D737472696E675F6174747269620E0B6E616D655F6174747269620E0367656E0D066174747269620CFFFF
310
FFFF04FFFFFFFF0CFFFFFFFF0CFFFFFFFF0C050000001502000000150100000015010000001502000000070F4154545249425F58414349535F49440703313137110E03456E640E026F660E0341534D0D0464617461
  0
ACDSRECORD
 90
        1
  2
AcDbDs::ID
280
    10
320
FB
  2
ASM_Data
280
    15
 94
      720
310
414349532042696E61727946696C652855000000000000020000000C00000007214F70656E2044657369676E20416C6C69616E63652041434953204275696C646572070E41434953203231382E3030204E54071853756E204A756C2030392030313A30313A3434203230313706000000000000F03F068DEDB5A0F7C6B03E06
310
BBBDD7D9DF7CDB3D0D0961736D6865616465720CFFFFFFFF04FFFFFFFF070C3230382E302E342E37303039110D04626F64790C0200000004FFFFFFFF0CFFFFFFFF0C030000000CFFFFFFFF0CFFFFFFFF110E0D737472696E675F6174747269620E0B6E616D655F6174747269620E0367656E0D066174747269620CFFFFFFFF
310
04FFFFFFFF0CFFFFFFFF0CFFFFFFFF0C01000000150200000015010000001501000000150200000007114154545249425F58414349535F4E414D4507135F37303137204143442F5034415F5041525433110D046C756D700CFFFFFFFF04FFFFFFFF0CFFFFFFFF0CFFFFFFFF0C040000000C01000000110D057368656C6C0CFF
310
FFFFFF04FFFFFFFF0CFFFFFFFF0CFFFFFFFF0CFFFFFFFF0C050000000CFFFFFFFF0C03000000110D04666163650C0700000004FFFFFFFF0CFFFFFFFF0CFFFFFFFF0CFFFFFFFF0C040000000CFFFFFFFF0C060000000B0B110E067370686572650D07737572666163650CFFFFFFFF04FFFFFFFF0CFFFFFFFF13020000000000
310
264011D7A3703DE23AC0B98A37D63148474006FD7E6ABC74931C40140000000000000000040000000000E03FA94C58E87AB6EBBF14000000000000F03F000000000000000000000000000000000B0B0B0B0B110E0D737472696E675F6174747269620E0B6E616D655F6174747269620E0367656E0D066174747269620CFFFF
310
FFFF04FFFFFFFF0CFFFFFFFF0CFFFFFFFF0C050000001502000000150100000015010000001502000000070F4154545249425F58414349535F49440703313138110E03456E640E026F660E0341534D0D0464617461
  0
ACDSRECORD
 90
        1
  2
AcDbDs::ID
280
    10
320
10F
  2
ASM_Data
280
    15
 94
      720
310
414349532042696E61727946696C652855000000000000020000000C00000007214F70656E2044657369676E20416C6C69616E63652041434953204275696C646572070E41434953203231382E3030204E54071853756E204A756C2030392030313A30313A3434203230313706000000000000F03F068DEDB5A0F7C6B03E06
310
BBBDD7D9DF7CDB3D0D0961736D6865616465720CFFFFFFFF04FFFFFFFF070C3230382E302E342E37303039110D04626F64790C0200000004FFFFFFFF0CFFFFFFFF0C030000000CFFFFFFFF0CFFFFFFFF110E0D737472696E675F6174747269620E0B6E616D655F6174747269620E0367656E0D066174747269620CFFFFFFFF
310
04FFFFFFFF0CFFFFFFFF0CFFFFFFFF0C01000000150200000015010000001501000000150200000007114154545249425F58414349535F4E414D4507135F37303137204143442F5034415F5041525433110D046C756D700CFFFFFFFF04FFFFFFFF0CFFFFFFFF0CFFFFFFFF0C040000000C01000000110D057368656C6C0CFF
310
FFFFFF04FFFFFFFF0CFFFFFFFF0CFFFFFFFF0CFFFFFFFF0C050000000CFFFFFFFF0C03000000110D04666163650C0700000004FFFFFFFF0CFFFFFFFF0CFFFFFFFF0CFFFFFFFF0C040000000CFFFFFFFF0C060000000B0B110E067370686572650D07737572666163650CFFFFFFFF04FFFFFFFF0CFFFFFFFF13020000000000
310
26407AFE4AF609B543C084A786AD1C49424006FD7E6ABC74931C4014000000000000000064FBF8322975E73F966B0B9EF9C3E5BF14000000000000F03F000000000000000000000000000000000B0B0B0B0B110E0D737472696E675F6174747269620E0B6E616D655F6174747269620E0367656E0D066174747269620CFFFF
310
FFFF04FFFFFFFF0CFFFFFFFF0CFFFFFFFF0C050000001502000000150100000015010000001502000000070F4154545249425F58414349535F49440703313139110E03456E640E026F660E0341534D0D0464617461
  0
ACDSRECORD
 90
        1
  2
AcDbDs::ID
280
    10
320
123
  2
ASM_Data
280
    15
 94
      720
310
414349532042696E61727946696C652855000000000000020000000C00000007214F70656E2044657369676E20416C6C69616E63652041434953204275696C646572070E41434953203231382E3030204E54071853756E204A756C2030392030313A30313A3434203230313706000000000000F03F068DEDB5A0F7C6B03E06
310
BBBDD7D9DF7CDB3D0D0961736D6865616465720CFFFFFFFF04FFFFFFFF070C3230382E302E342E37303039110D04626F64790C0200000004FFFFFFFF0CFFFFFFFF0C030000000CFFFFFFFF0CFFFFFFFF110E0D737472696E675F6174747269620E0B6E616D655F6174747269620E0367656E0D066174747269620CFFFFFFFF
310
04FFFFFFFF0CFFFFFFFF0CFFFFFFFF0C01000000150200000015010000001501000000150200000007114154545249425F58414349535F4E414D4507135F37303137204143442F5034415F5041525433110D046C756D700CFFFFFFFF04FFFFFFFF0CFFFFFFFF0CFFFFFFFF0C040000000C01000000110D057368656C6C0CFF
310
FFFFFF04FFFFFFFF0CFFFFFFFF0CFFFFFFFF0CFFFFFFFF0C050000000CFFFFFFFF0C03000000110D04666163650C0700000004FFFFFFFF0CFFFFFFFF0CFFFFFFFF0CFFFFFFFF0C040000000CFFFFFFFF0C060000000B0B110E067370686572650D07737572666163650CFFFFFFFF04FFFFFFFF0CFFFFFFFF13020000000000
310
2640B73C6819AF3848C0D7AFDC1D2F54374006FC7E6ABC74931C40140000000000000000725CCBA9BCD4EC3FBFAB714DC0C4DBBF14000000000000F03F000000000000000000000000000000000B0B0B0B0B110E0D737472696E675F6174747269620E0B6E616D655F6174747269620E0367656E0D066174747269620CFFFF
310
FFFF04FFFFFFFF0CFFFFFFFF0CFFFFFFFF0C050000001502000000150100000015010000001502000000070F4154545249425F58414349535F49440703313230110E03456E640E026F660E0341534D0D0464617461
  0
ACDSRECORD
 90
        1
  2
AcDbDs::ID
280
    10
320
137
  2
ASM_Data
280
    15
 94
      720
310
414349532042696E61727946696C652855000000000000020000000C00000007214F70656E2044657369676E20416C6C69616E63652041434953204275696C646572070E41434953203231382E3030204E54071853756E204A756C2030392030313A30313A3434203230313706000000000000F03F068DEDB5A0F7C6B03E06
310
BBBDD7D9DF7CDB3D0D0961736D6865616465720CFFFFFFFF04FFFFFFFF070C3230382E302E342E37303039110D04626F64790C0200000004FFFFFFFF0CFFFFFFFF0C030000000CFFFFFFFF0CFFFFFFFF110E0D737472696E675F6174747269620E0B6E616D655F6174747269620E0367656E0D066174747269620CFFFFFFFF
310
04FFFFFFFF0CFFFFFFFF0CFFFFFFFF0C01000000150200000015010000001501000000150200000007114154545249425F58414349535F4E414D4507135F37303137204143442F5034415F5041525433110D046C756D700CFFFFFFFF04FFFFFFFF0CFFFFFFFF0CFFFFFFFF0C040000000C01000000110D057368656C6C0CFF
310
FFFFFF04FFFFFFFF0CFFFFFFFF0CFFFFFFFF0CFFFFFFFF0C050000000CFFFFFFFF0C03000000110D04666163650C0700000004FFFFFFFF0CFFFFFFFF0CFFFFFFFF0CFFFFFFFF0C040000000CFFFFFFFF0C060000000B0B110E067370686572650D07737572666163650CFFFFFFFF04FFFFFFFF0CFFFFFFFF13020000000000
310
2640AFB325FE5E954AC0FE037984FA06204006FD7E6ABC74931C401400000000000000001A3C7D8B80A4EF3FFD647925D113C3BF14000000000000F03F000000000000000000000000000000000B0B0B0B0B110E0D737472696E675F6174747269620E0B6E616D655F6174747269620E0367656E0D066174747269620CFFFF
310
FFFF04FFFFFFFF0CFFFFFFFF0CFFFFFFFF0C050000001502000000150100000015010000001502000000070F4154545249425F58414349535F49440703313231110E03456E640E026F660E0341534D0D0464617461
  0
ACDSRECORD
 90
        1
  2
AcDbDs::ID
280
    10
320
14B
  2
ASM_Data
280
    15
 94
      720
310
414349532042696E61727946696C652855000000000000020000000C00000007214F70656E2044657369676E20416C6C69616E63652041434953204275696C646572070E41434953203231382E3030204E54071853756E204A756C2030392030313A30313A3434203230313706000000000000F03F068DEDB5A0F7C6B03E06
310
BBBDD7D9DF7CDB3D0D0961736D6865616465720CFFFFFFFF04FFFFFFFF070C3230382E302E342E37303039110D04626F64790C0200000004FFFFFFFF0CFFFFFFFF0C030000000CFFFFFFFF0CFFFFFFFF110E0D737472696E675F6174747269620E0B6E616D655F6174747269620E0367656E0D066174747269620CFFFFFFFF
310
04FFFFFFFF0CFFFFFFFF0CFFFFFFFF0C01000000150200000015010000001501000000150200000007114154545249425F58414349535F4E414D4507135F37303137204143442F5034415F5041525433110D046C756D700CFFFFFFFF04FFFFFFFF0CFFFFFFFF0CFFFFFFFF0C040000000C01000000110D057368656C6C0CFF
310
FFFFFF04FFFFFFFF0CFFFFFFFF0CFFFFFFFF0CFFFFFFFF0C050000000CFFFFFFFF0C03000000110D04666163650C0700000004FFFFFFFF0CFFFFFFFF0CFFFFFFFF0CFFFFFFFF0C040000000CFFFFFFFF0C060000000B0B110E067370686572650D07737572666163650CFFFFFFFF04FFFFFFFF0CFFFFFFFF13020000000000
310
2640AEB325FE5E954AC013047984FA0620C006FD7E6ABC74931C401400000000000000001A3C7D8B80A4EF3F17657925D113C33F14000000000000F03F000000000000000000000000000000000B0B0B0B0B110E0D737472696E675F6174747269620E0B6E616D655F6174747269620E0367656E0D066174747269620CFFFF
310
FFFF04FFFFFFFF0CFFFFFFFF0CFFFFFFFF0C050000001502000000150100000015010000001502000000070F4154545249425F58414349535F49440703313232110E03456E640E026F660E0341534D0D0464617461
  0
ACDSRECORD
 90
        1
  2
AcDbDs::ID
280
    10
320
15F
  2
ASM_Data
280
    15
 94
      720
310
414349532042696E61727946696C652855000000000000020000000C00000007214F70656E2044657369676E20416C6C69616E63652041434953204275696C646572070E41434953203231382E3030204E54071853756E204A756C2030392030313A30313A3434203230313706000000000000F03F068DEDB5A0F7C6B03E06
310
BBBDD7D9DF7CDB3D0D0961736D6865616465720CFFFFFFFF04FFFFFFFF070C3230382E302E342E37303039110D04626F64790C0200000004FFFFFFFF0CFFFFFFFF0C030000000CFFFFFFFF0CFFFFFFFF110E0D737472696E675F6174747269620E0B6E616D655F6174747269620E0367656E0D066174747269620CFFFFFFFF
310
04FFFFFFFF0CFFFFFFFF0CFFFFFFFF0C01000000150200000015010000001501000000150200000007114154545249425F58414349535F4E414D4507135F37303137204143442F5034415F5041525433110D046C756D700CFFFFFFFF04FFFFFFFF0CFFFFFFFF0CFFFFFFFF0C040000000C01000000110D057368656C6C0CFF
310
FFFFFF04FFFFFFFF0CFFFFFFFF0CFFFFFFFF0CFFFFFFFF0C050000000CFFFFFFFF0C03000000110D04666163650C0700000004FFFFFFFF0CFFFFFFFF0CFFFFFFFF0CFFFFFFFF0C040000000CFFFFFFFF0C060000000B0B110E067370686572650D07737572666163650CFFFFFFFF04FFFFFFFF0CFFFFFFFF13020000000000
310
2640B73C6819AF3848C0DBAFDC1D2F5437C006FD7E6ABC74931C40140000000000000000715CCBA9BCD4EC3FC4AB714DC0C4DB3F14000000000000F03F000000000000000000000000000000000B0B0B0B0B110E0D737472696E675F6174747269620E0B6E616D655F6174747269620E0367656E0D066174747269620CFFFF
310
FFFF04FFFFFFFF0CFFFFFFFF0CFFFFFFFF0C050000001502000000150100000015010000001502000000070F4154545249425F58414349535F49440703313233110E03456E640E026F660E0341534D0D0464617461
  0
ACDSRECORD
 90
        1
  2
AcDbDs::ID
280
    10
320
173
  2
ASM_Data
280
    15
 94
      720
310
414349532042696E61727946696C652855000000000000020000000C00000007214F70656E2044657369676E20416C6C69616E63652041434953204275696C646572070E41434953203231382E3030204E54071853756E204A756C2030392030313A30313A3434203230313706000000000000F03F068DEDB5A0F7C6B03E06
310
BBBDD7D9DF7CDB3D0D0961736D6865616465720CFFFFFFFF04FFFFFFFF070C3230382E302E342E37303039110D04626F64790C0200000004FFFFFFFF0CFFFFFFFF0C030000000CFFFFFFFF0CFFFFFFFF110E0D737472696E675F6174747269620E0B6E616D655F6174747269620E0367656E0D066174747269620CFFFFFFFF
310
04FFFFFFFF0CFFFFFFFF0CFFFFFFFF0C01000000150200000015010000001501000000150200000007114154545249425F58414349535F4E414D4507135F37303137204143442F5034415F5041525433110D046C756D700CFFFFFFFF04FFFFFFFF0CFFFFFFFF0CFFFFFFFF0C040000000C01000000110D057368656C6C0CFF
310
FFFFFF04FFFFFFFF0CFFFFFFFF0CFFFFFFFF0CFFFFFFFF0C050000000CFFFFFFFF0C03000000110D04666163650C0700000004FFFFFFFF0CFFFFFFFF0CFFFFFFFF0CFFFFFFFF0C040000000CFFFFFFFF0C060000000B0B110E067370686572650D07737572666163650CFFFFFFFF04FFFFFFFF0CFFFFFFFF13020000000000
310
26407BFE4AF609B543C083A786AD1C4942C006FD7E6ABC74931C4014000000000000000066FBF8322975E73F966B0B9EF9C3E53F14000000000000F03F000000000000000000000000000000000B0B0B0B0B110E0D737472696E675F6174747269620E0B6E616D655F6174747269620E0367656E0D066174747269620CFFFF
310
FFFF04FFFFFFFF0CFFFFFFFF0CFFFFFFFF0C050000001502000000150100000015010000001502000000070F4154545249425F58414349535F49440703313234110E03456E640E026F660E0341534D0D0464617461
  0
ACDSRECORD
 90
        1
  2
AcDbDs::ID
280
    10
320
187
  2
ASM_Data
280
    15
 94
      720
310
414349532042696E61727946696C652855000000000000020000000C00000007214F70656E2044657369676E20416C6C69616E63652041434953204275696C646572070E41434953203231382E3030204E54071853756E204A756C2030392030313A30313A3434203230313706000000000000F03F068DEDB5A0F7C6B03E06
310
BBBDD7D9DF7CDB3D0D0961736D6865616465720CFFFFFFFF04FFFFFFFF070C3230382E302E342E37303039110D04626F64790C0200000004FFFFFFFF0CFFFFFFFF0C030000000CFFFFFFFF0CFFFFFFFF110E0D737472696E675F6174747269620E0B6E616D655F6174747269620E0367656E0D066174747269620CFFFFFFFF
310
04FFFFFFFF0CFFFFFFFF0CFFFFFFFF0C01000000150200000015010000001501000000150200000007114154545249425F58414349535F4E414D4507135F37303137204143442F5034415F5041525433110D046C756D700CFFFFFFFF04FFFFFFFF0CFFFFFFFF0CFFFFFFFF0C040000000C01000000110D057368656C6C0CFF
310
FFFFFF04FFFFFFFF0CFFFFFFFF0CFFFFFFFF0CFFFFFFFF0C050000000CFFFFFFFF0C03000000110D04666163650C0700000004FFFFFFFF0CFFFFFFFF0CFFFFFFFF0CFFFFFFFF0C040000000CFFFFFFFF0C060000000B0B110E067370686572650D07737572666163650CFFFFFFFF04FFFFFFFF0CFFFFFFFF13020000000000
310
264008D7A3703DE23AC0BC8A37D6314847C006FD7E6ABC74931C40140000000000000000FCFFFFFFFFFFDF3FAB4C58E87AB6EB3F14000000000000F03F000000000000000000000000000000000B0B0B0B0B110E0D737472696E675F6174747269620E0B6E616D655F6174747269620E0367656E0D066174747269620CFFFF
310
FFFF04FFFFFFFF0CFFFFFFFF0CFFFFFFFF0C050000001502000000150100000015010000001502000000070F4154545249425F58414349535F49440703313235110E03456E640E026F660E0341534D0D0464617461
  0
ACDSRECORD
 90
        1
  2
AcDbDs::ID
280
    10
320
19B
  2
ASM_Data
280
    15
 94
      720
310
414349532042696E61727946696C652855000000000000020000000C00000007214F70656E2044657369676E20416C6C69616E63652041434953204275696C646572070E41434953203231382E3030204E54071853756E204A756C2030392030313A30313A3434203230313706000000000000F03F068DEDB5A0F7C6B03E06
310
BBBDD7D9DF7CDB3D0D0961736D6865616465720CFFFFFFFF04FFFFFFFF070C3230382E302E342E37303039110D04626F64790C0200000004FFFFFFFF0CFFFFFFFF0C030000000CFFFFFFFF0CFFFFFFFF110E0D737472696E675F6174747269620E0B6E616D655F6174747269620E0367656E0D066174747269620CFFFFFFFF
310
04FFFFFFFF0CFFFFFFFF0CFFFFFFFF0C01000000150200000015010000001501000000150200000007114154545249425F58414349535F4E414D4507135F37303137204143442F5034415F5041525433110D046C756D700CFFFFFFFF04FFFFFFFF0CFFFFFFFF0CFFFFFFFF0C040000000C01000000110D057368656C6C0CFF
310
FFFFFF04FFFFFFFF0CFFFFFFFF0CFFFFFFFF0CFFFFFFFF0C050000000CFFFFFFFF0C03000000110D04666163650C0700000004FFFFFFFF0CFFFFFFFF0CFFFFFFFF0CFFFFFFFF0C040000000CFFFFFFFF0C060000000B0B110E067370686572650D07737572666163650CFFFFFFFF04FFFFFFFF0CFFFFFFFF13020000000000
310
26402B998317C5ED27C04B498818B0354AC006FC7E6ABC74931C40140000000000000000814502E3907BCC3F6AE958059C32EF3F14000000000000F03F000000000000000000000000000000000B0B0B0B0B110E0D737472696E675F6174747269620E0B6E616D655F6174747269620E0367656E0D066174747269620CFFFF
310
FFFF04FFFFFFFF0CFFFFFFFF0CFFFFFFFF0C050000001502000000150100000015010000001502000000070F4154545249425F58414349535F49440703313236110E03456E640E026F660E0341534D0D0464617461
  0
ACDSRECORD
 90
        1
  2
AcDbDs::ID
280
    10
320
1AF
  2
ASM_Data
280
    15
 94
      720
310
414349532042696E61727946696C652855000000000000020000000C00000007214F70656E2044657369676E20416C6C69616E63652041434953204275696C646572070E41434953203231382E3030204E54071853756E204A756C2030392030313A30313A3434203230313706000000000000F03F068DEDB5A0F7C6B03E06
310
BBBDD7D9DF7CDB3D0D0961736D6865616465720CFFFFFFFF04FFFFFFFF070C3230382E302E342E37303039110D04626F64790C0200000004FFFFFFFF0CFFFFFFFF0C030000000CFFFFFFFF0CFFFFFFFF110E0D737472696E675F6174747269620E0B6E616D655F6174747269620E0367656E0D066174747269620CFFFFFFFF
310
04FFFFFFFF0CFFFFFFFF0CFFFFFFFF0C01000000150200000015010000001501000000150200000007114154545249425F58414349535F4E414D4507135F37303137204143442F5034415F5041525433110D046C756D700CFFFFFFFF04FFFFFFFF0CFFFFFFFF0CFFFFFFFF0C040000000C01000000110D057368656C6C0CFF
310
FFFFFF04FFFFFFFF0CFFFFFFFF0CFFFFFFFF0CFFFFFFFF0C050000000CFFFFFFFF0C03000000110D04666163650C0700000004FFFFFFFF0CFFFFFFFF0CFFFFFFFF0CFFFFFFFF0C040000000CFFFFFFFF0C060000000B0B110E067370686572650D07737572666163650CFFFFFFFF04FFFFFFFF0CFFFFFFFF13020000000000
310
2640696997C77B12104048FCC0F0FECE4AC006FD7E6ABC74931C40140000000000000000F40FFBEB8221B3BFCEE20AF017E9EF3F14000000000000F03F000000000000000000000000000000000B0B0B0B0B110E0D737472696E675F6174747269620E0B6E616D655F6174747269620E0367656E0D066174747269620CFFFF
310
FFFF04FFFFFFFF0CFFFFFFFF0CFFFFFFFF0C050000001502000000150100000015010000001502000000070F4154545249425F58414349535F49440703313237110E03456E640E026F660E0341534D0D0464617461
  0
ACDSRECORD
 90
        1
  2
AcDbDs::ID
280
    10
320
1C3
  2
ASM_Data
280
    15
 94
      720
310
414349532042696E61727946696C652855000000000000020000000C00000007214F70656E2044657369676E20416C6C69616E63652041434953204275696C646572070E41434953203231382E3030204E54071853756E204A756C2030392030313A30313A3434203230313706000000000000F03F068DEDB5A0F7C6B03E06
310
BBBDD7D9DF7CDB3D0D0961736D6865616465720CFFFFFFFF04FFFFFFFF070C3230382E302E342E37303039110D04626F64790C0200000004FFFFFFFF0CFFFFFFFF0C030000000CFFFFFFFF0CFFFFFFFF110E0D737472696E675F6174747269620E0B6E616D655F6174747269620E0367656E0D066174747269620CFFFFFFFF
310
04FFFFFFFF0CFFFFFFFF0CFFFFFFFF0C01000000150200000015010000001501000000150200000007114154545249425F58414349535F4E414D4507135F37303137204143442F5034415F5041525433110D046C756D700CFFFFFFFF04FFFFFFFF0CFFFFFFFF0CFFFFFFFF0C040000000C01000000110D057368656C6C0CFF
310
FFFFFF04FFFFFFFF0CFFFFFFFF0CFFFFFFFF0CFFFFFFFF0C050000000CFFFFFFFF0C03000000110D04666163650C0700000004FFFFFFFF0CFFFFFFFF0CFFFFFFFF0CFFFFFFFF0C040000000CFFFFFFFF0C060000000B0B110E067370686572650D07737572666163650CFFFFFFFF04FFFFFFFF0CFFFFFFFF13020000000000
310
264065F85CAEBAA43340A3DAC21D7F0649C006FE7E6ABC74931C401400000000000000008F9CE251BF61D7BF8E3764BEB7C9ED3F14000000000000F03F000000000000000000000000000000000B0B0B0B0B110E0D737472696E675F6174747269620E0B6E616D655F6174747269620E0367656E0D066174747269620CFFFF
310
FFFF04FFFFFFFF0CFFFFFFFF0CFFFFFFFF0C050000001502000000150100000015010000001502000000070F4154545249425F58414349535F49440703313238110E03456E640E026F660E0341534D0D0464617461
  0
ACDSRECORD
 90
        1
  2
AcDbDs::ID
280
    10
320
1D7
  2
ASM_Data
280
    15
 94
      720
310
414349532042696E61727946696C652855000000000000020000000C00000007214F70656E2044657369676E20416C6C69616E63652041434953204275696C646572070E41434953203231382E3030204E54071853756E204A756C2030392030313A30313A3434203230313706000000000000F03F068DEDB5A0F7C6B03E06
310
BBBDD7D9DF7CDB3D0D0961736D6865616465720CFFFFFFFF04FFFFFFFF070C3230382E302E342E37303039110D04626F64790C0200000004FFFFFFFF0CFFFFFFFF0C030000000CFFFFFFFF0CFFFFFFFF110E0D737472696E675F6174747269620E0B6E616D655F6174747269620E0367656E0D066174747269620CFFFFFFFF
310
04FFFFFFFF0CFFFFFFFF0CFFFFFFFF0C01000000150200000015010000001501000000150200000007114154545249425F58414349535F4E414D4507135F37303137204143442F5034415F5041525433110D046C756D700CFFFFFFFF04FFFFFFFF0CFFFFFFFF0CFFFFFFFF0C040000000C01000000110D057368656C6C0CFF
310
FFFFFF04FFFFFFFF0CFFFFFFFF0CFFFFFFFF0CFFFFFFFF0C050000000CFFFFFFFF0C03000000110D04666163650C0700000004FFFFFFFF0CFFFFFFFF0CFFFFFFFF0CFFFFFFFF0C040000000CFFFFFFFF0C060000000B0B110E067370686572650D07737572666163650CFFFFFFFF04FFFFFFFF0CFFFFFFFF13020000000000
310
26407C37F7A601C34040A099A47CC00445C006FD7E6ABC74931C40140000000000000000D2ED8BE2A0F3E3BF4BDE0575C304E93F14000000000000F03F000000000000000000000000000000000B0B0B0B0B110E0D737472696E675F6174747269620E0B6E616D655F6174747269620E0367656E0D066174747269620CFFFF
310
FFFF04FFFFFFFF0CFFFFFFFF0CFFFFFFFF0C050000001502000000150100000015010000001502000000070F4154545249425F58414349535F49440703313239110E03456E640E026F660E0341534D0D0464617461
  0
ACDSRECORD
 90
        1
  2
AcDbDs::ID
280
    10
320
1EB
  2
ASM_Data
280
    15
 94
      720
310
414349532042696E61727946696C652855000000000000020000000C00000007214F70656E2044657369676E20416C6C69616E63652041434953204275696C646572070E41434953203231382E3030204E54071853756E204A756C2030392030313A30313A3434203230313706000000000000F03F068DEDB5A0F7C6B03E06
310
BBBDD7D9DF7CDB3D0D0961736D6865616465720CFFFFFFFF04FFFFFFFF070C3230382E302E342E37303039110D04626F64790C0200000004FFFFFFFF0CFFFFFFFF0C030000000CFFFFFFFF0CFFFFFFFF110E0D737472696E675F6174747269620E0B6E616D655F6174747269620E0367656E0D066174747269620CFFFFFFFF
310
04FFFFFFFF0CFFFFFFFF0CFFFFFFFF0C01000000150200000015010000001501000000150200000007114154545249425F58414349535F4E414D4507135F37303137204143442F5034415F5041525433110D046C756D700CFFFFFFFF04FFFFFFFF0CFFFFFFFF0CFFFFFFFF0C040000000C01000000110D057368656C6C0CFF
310
FFFFFF04FFFFFFFF0CFFFFFFFF0CFFFFFFFF0CFFFFFFFF0C050000000CFFFFFFFF0C03000000110D04666163650C0700000004FFFFFFFF0CFFFFFFFF0CFFFFFFFF0CFFFFFFFF0C040000000CFFFFFFFF0C060000000B0B110E067370686572650D07737572666163650CFFFFFFFF04FFFFFFFF0CFFFFFFFF13020000000000
310
26408B4F75A05F364640B848A5C3CE493EC006FD7E6ABC74931C4014000000000000000074FA4B4C8C70EABFED0C52C9B706E23F14000000000000F03F000000000000000000000000000000000B0B0B0B0B110E0D737472696E675F6174747269620E0B6E616D655F6174747269620E0367656E0D066174747269620CFFFF
310
FFFF04FFFFFFFF0CFFFFFFFF0CFFFFFFFF0C050000001502000000150100000015010000001502000000070F4154545249425F58414349535F49440703313330110E03456E640E026F660E0341534D0D0464617461
  0
ACDSRECORD
 90
        1
  2
AcDbDs::ID
280
    10
320
1FF
  2
ASM_Data
280
    15
 94
      720
310
414349532042696E61727946696C652855000000000000020000000C00000007214F70656E2044657369676E20416C6C69616E63652041434953204275696C646572070E41434953203231382E3030204E54071853756E204A756C2030392030313A30313A3434203230313706000000000000F03F068DEDB5A0F7C6B03E06
310
BBBDD7D9DF7CDB3D0D0961736D6865616465720CFFFFFFFF04FFFFFFFF070C3230382E302E342E37303039110D04626F64790C0200000004FFFFFFFF0CFFFFFFFF0C030000000CFFFFFFFF0CFFFFFFFF110E0D737472696E675F6174747269620E0B6E616D655F6174747269620E0367656E0D066174747269620CFFFFFFFF
310
04FFFFFFFF0CFFFFFFFF0CFFFFFFFF0C01000000150200000015010000001501000000150200000007114154545249425F58414349535F4E414D4507135F37303137204143442F5034415F5041525433110D046C756D700CFFFFFFFF04FFFFFFFF0CFFFFFFFF0CFFFFFFFF0C040000000C01000000110D057368656C6C0CFF
310
FFFFFF04FFFFFFFF0CFFFFFFFF0CFFFFFFFF0CFFFFFFFF0C050000000CFFFFFFFF0C03000000110D04666163650C0700000004FFFFFFFF0CFFFFFFFF0CFFFFFFFF0CFFFFFFFF0C040000000CFFFFFFFF0C060000000B0B110E067370686572650D07737572666163650CFFFFFFFF04FFFFFFFF0CFFFFFFFF13020000000000
310
2640C7E42B3C7BB049401F8706AC4DB22FC006FD7E6ABC74931C40140000000000000000C68CB96B0D94EEBFA8FB9ACE44DDD23F14000000000000F03F000000000000000000000000000000000B0B0B0B0B110E0D737472696E675F6174747269620E0B6E616D655F6174747269620E0367656E0D066174747269620CFFFF
310
FFFF04FFFFFFFF0CFFFFFFFF0CFFFFFFFF0C050000001502000000150100000015010000001502000000070F4154545249425F58414349535F49440703313331110E03456E640E026F660E0341534D0D0464617461
  0
ACDSRECORD
 90
        1
  2
AcDbDs::ID
280
    10
320
213
  2
ASM_Data
280
    15
 94
      720
310
414349532042696E61727946696C652855000000000000020000000C00000007214F70656E2044657369676E20416C6C69616E63652041434953204275696C646572070E41434953203231382E3030204E54071853756E204A756C2030392030313A30313A3434203230313706000000000000F03F068DEDB5A0F7C6B03E06
310
BBBDD7D9DF7CDB3D0D0961736D6865616465720CFFFFFFFF04FFFFFFFF070C3230382E302E342E37303039110D04626F64790C0200000004FFFFFFFF0CFFFFFFFF0C030000000CFFFFFFFF0CFFFFFFFF110E0D737472696E675F6174747269620E0B6E616D655F6174747269620E0367656E0D066174747269620CFFFFFFFF
310
04FFFFFFFF0CFFFFFFFF0CFFFFFFFF0C01000000150200000015010000001501000000150200000007114154545249425F58414349535F4E414D4507135F37303137204143442F5034415F5041525433110D046C756D700CFFFFFFFF04FFFFFFFF0CFFFFFFFF0CFFFFFFFF0C040000000C01000000110D057368656C6C0CFF
310
FFFFFF04FFFFFFFF0CFFFFFFFF0CFFFFFFFF0CFFFFFFFF0C050000000CFFFFFFFF0C03000000110D04666163650C0700000004FFFFFFFF0CFFFFFFFF0CFFFFFFFF0CFFFFFFFF0C040000000CFFFFFFFF0C060000000B0B110E067370686572650D07737572666163650CFFFFFFFF04FFFFFFFF0CFFFFFFFF13020000000000
310
26400BD7A3703DE24A40000000000000000006FD7E6ABC74931C40140000000000000080000000000000F0BF000000000000000014000000000000F03F000000000000008000000000000000800B0B0B0B0B110E0D737472696E675F6174747269620E0B6E616D655F6174747269620E0367656E0D066174747269620CFFFF
310
FFFF04FFFFFFFF0CFFFFFFFF0CFFFFFFFF0C050000001502000000150100000015010000001502000000070F4154545249425F58414349535F49440703313332110E03456E640E026F660E0341534D0D0464617461
  0
ACDSRECORD
 90
        1
  2
AcDbDs::ID
280
    10
320
227
  2
ASM_Data
280
    15
 94
     7293
310
414349532042696E61727946696C652855000000000000020000000C00000007214F70656E2044657369676E20416C6C69616E63652041434953204275696C646572070E41434953203231382E3030204E54071853756E204A756C2030392030313A30313A3434203230313706000000000000F03F068DEDB5A0F7C6B03E06
310
BBBDD7D9DF7CDB3D0D0961736D6865616465720CFFFFFFFF04FFFFFFFF070C3230382E302E342E37303039110D04626F64790C0200000004FFFFFFFF0CFFFFFFFF0C030000000CFFFFFFFF0CFFFFFFFF110E0D737472696E675F6174747269620E0B6E616D655F6174747269620E0367656E0D066174747269620CFFFFFFFF
310
04FFFFFFFF0CFFFFFFFF0CFFFFFFFF0C01000000150200000015010000001501000000150200000007114154545249425F58414349535F4E414D4507135F37303137204143442F5034415F5041525432110D046C756D700CFFFFFFFF04FFFFFFFF0CFFFFFFFF0CFFFFFFFF0C040000000C01000000110D057368656C6C0CFF
310
FFFFFF04FFFFFFFF0CFFFFFFFF0CFFFFFFFF0CFFFFFFFF0C050000000CFFFFFFFF0C03000000110D04666163650C0E00000004FFFFFFFF0CFFFFFFFF0C060000000C070000000C040000000CFFFFFFFF0C080000000B0B110D04666163650C1700000004FFFFFFFF0CFFFFFFFF0C090000000C0A0000000C040000000CFFFF
310
FFFF0C0B0000000A0B110D046C6F6F700CFFFFFFFF04FFFFFFFF0CFFFFFFFF0C0C0000000C0D0000000C05000000110E05706C616E650D07737572666163650CFFFFFFFF04FFFFFFFF0CFFFFFFFF130000000000D5FBBC3333333333F34F40000000000000000014000000000000F0BF000000000000000000000000000000
310
0014000000000000000000000000000000000000000000408F400B0B0B0B0B110D04666163650C2300000004FFFFFFFF0CFFFFFFFF0C0F0000000C100000000C040000000CFFFFFFFF0C110000000A0B110D046C6F6F700CFFFFFFFF04FFFFFFFF0CFFFFFFFF0C120000000C130000000C06000000110E04636F6E650D0773
310
7572666163650CFFFFFFFF04FFFFFFFF0CFFFFFFFF1300000000000000000000000000000000000000000000000014000000000000F03F000000000000008000000000000000001400000000000000000000000000000000CDCCCCCCCC4C4D4006000000000000F03F0B0B06E13B7F669EA0E6BF06B83B7F669EA0E63F06CD
310
CCCCCCCC4C4D400B0B0B0B0B110D046C6F6F700CFFFFFFFF04FFFFFFFF0CFFFFFFFF0CFFFFFFFF0C140000000C05000000110D06636F656467650CFFFFFFFF04FFFFFFFF0CFFFFFFFF0C0D0000000C0D0000000C150000000C160000000B0C0700000004000000000CFFFFFFFF110E0D737472696E675F6174747269620E0B
310
6E616D655F6174747269620E0367656E0D066174747269620CFFFFFFFF04FFFFFFFF0CFFFFFFFF0CFFFFFFFF0C050000001502000000150100000015010000001502000000070F4154545249425F58414349535F49440703313337110D04666163650C3000000004FFFFFFFF0CFFFFFFFF0C180000000C190000000C040000
310
000CFFFFFFFF0C1A0000000A0B110D046C6F6F700CFFFFFFFF04FFFFFFFF0CFFFFFFFF0C1B0000000C1C0000000C09000000110E04636F6E650D07737572666163650CFFFFFFFF04FFFFFFFF0CFFFFFFFF1300000000000036400000000000000000000000000000000014000000000000F0BF000000000000008000000000
310
0000000014000000000000008000000000000000006666666666064DC006000000000000F03F0B0B06000000000000008006000000000000F03F066666666666064D400B0B0B0B0B110D046C6F6F700CFFFFFFFF04FFFFFFFF0CFFFFFFFF0CFFFFFFFF0C150000000C06000000110D06636F656467650CFFFFFFFF04FFFFFF
310
FF0CFFFFFFFF0C130000000C130000000C1D0000000C1E0000000B0C0A00000004000000000CFFFFFFFF110D06636F656467650CFFFFFFFF04FFFFFFFF0CFFFFFFFF0C140000000C140000000C1F0000000C200000000A0C0C00000004000000000CFFFFFFFF110D06636F656467650CFFFFFFFF04FFFFFFFF0CFFFFFFFF0C
310
150000000C150000000C0D0000000C160000000A0C1200000004000000000CFFFFFFFF110D04656467650CFFFFFFFF04FFFFFFFF0CFFFFFFFF0C210000000600000000000000000C2100000006182D4454FB2119400C0D0000000C220000000B0707756E6B6E6F776E110E0D737472696E675F6174747269620E0B6E616D65
310
5F6174747269620E0367656E0D066174747269620CFFFFFFFF04FFFFFFFF0CFFFFFFFF0CFFFFFFFF0C060000001502000000150100000015010000001502000000070F4154545249425F58414349535F49440703313430110D04666163650C3D00000004FFFFFFFF0CFFFFFFFF0C240000000C250000000C040000000CFFFF
310
FFFF0C260000000A0B110D046C6F6F700CFFFFFFFF04FFFFFFFF0CFFFFFFFF0C270000000C280000000C0F000000110E05746F7275730D07737572666163650CFFFFFFFF04FFFFFFFF0CFFFFFFFF130B000000000026400000000000000000000000000000000014000000000000F03F000000000000000000000000000000
310
800604D7A3703DE24A40062A7F6ABC74931C401400000000000000800000000000000000000000000000F0BF0B0B0B0B0B110D046C6F6F700CFFFFFFFF04FFFFFFFF0CFFFFFFFF0CFFFFFFFF0C1D0000000C09000000110D06636F656467650CFFFFFFFF04FFFFFFFF0CFFFFFFFF0C1C0000000C1C0000000C280000000C29
310
0000000B0C1000000004000000000CFFFFFFFF110D06636F656467650CFFFFFFFF04FFFFFFFF0CFFFFFFFF0C1D0000000C1D0000000C130000000C1E0000000A0C1B00000004000000000CFFFFFFFF110D04656467650CFFFFFFFF04FFFFFFFF0CFFFFFFFF0C2A0000000600000000000000000C2A00000006182D4454FB21
310
19400C130000000C2B0000000B0707756E6B6E6F776E110D06636F656467650CFFFFFFFF04FFFFFFFF0CFFFFFFFF0C1F0000000C1F0000000C140000000C200000000B0C2C00000004000000000CFFFFFFFF110D04656467650CFFFFFFFF04FFFFFFFF0CFFFFFFFF0C2D0000000600000000000000000C2D00000006182D44
310
54FB2119400C1F0000000C2E0000000B0707756E6B6E6F776E110D067665727465780CFFFFFFFF04FFFFFFFF0CFFFFFFFF0C1600000004020000000C2F000000110E07656C6C697073650D0563757276650CFFFFFFFF04FFFFFFFF0CFFFFFFFF13000000000000000000000000000000000000000000000000140000000000
310
00F03F000000000000000000000000000000801400000000000000800000000000000000CDCCCCCCCC4C4DC006000000000000F03F0B0B110E0D737472696E675F6174747269620E0B6E616D655F6174747269620E0367656E0D066174747269620CFFFFFFFF04FFFFFFFF0CFFFFFFFF0CFFFFFFFF0C090000001502000000
310
150100000015010000001502000000070F4154545249425F58414349535F49440703313333110D04666163650C4A00000004FFFFFFFF0CFFFFFFFF0C310000000C320000000C040000000CFFFFFFFF0C330000000B0B110D046C6F6F700CFFFFFFFF04FFFFFFFF0CFFFFFFFF0C340000000C350000000C18000000110E0463
310
6F6E650D07737572666163650CFFFFFFFF04FFFFFFFF0CFFFFFFFF1340924780ACC125400000000000000000000000000000000014000000000000F0BF000000000000000000000000000000001400000000000000800000000000000000F9CA8E0B8A744EC006000000000000F03F0B0B06FE585833D37291BF06E4E5C986
310
CFFEEF3F06F9CA8E0B8A744E400B0B0B0B0B110D046C6F6F700CFFFFFFFF04FFFFFFFF0CFFFFFFFF0CFFFFFFFF0C360000000C0F000000110D06636F656467650CFFFFFFFF04FFFFFFFF0CFFFFFFFF0C280000000C280000000C1C0000000C290000000A0C1900000004000000000CFFFFFFFF110D04656467650CFFFFFFFF
310
04FFFFFFFF0CFFFFFFFF0C370000000600000000000000000C3700000006182D4454FB2119400C1C0000000C380000000B0707756E6B6E6F776E110D067665727465780CFFFFFFFF04FFFFFFFF0CFFFFFFFF0C1E00000004020000000C39000000110E07656C6C697073650D0563757276650CFFFFFFFF04FFFFFFFF0CFFFF
310
FFFF138B9999999999E13F0000000000000000000000000000000014000000000000F03F0000000000000000000000000000008014000000000000008000000000000000006666666666064DC006000000000000F03F0B0B110D046C6F6F700CFFFFFFFF04FFFFFFFF0CFFFFFFFF0C3A0000000C1F0000000C3B000000110D
310
067665727465780CFFFFFFFF04FFFFFFFF0CFFFFFFFF0C2000000004020000000C3C000000110E07656C6C697073650D0563757276650CFFFFFFFF04FFFFFFFF0CFFFFFFFF130000000000400FBD0000000000000000000000000000000014000000000000F03F000000000000000000000000000000801400000000000000
310
8000000000000000003133333333F34FC006000000000000F03F0B0B110D05706F696E740CFFFFFFFF04FFFFFFFF0CFFFFFFFF1300000000000000000000000000000000CDCCCCCCCC4C4DC0110E0D737472696E675F6174747269620E0B6E616D655F6174747269620E0367656E0D066174747269620CFFFFFFFF04FFFFFF
310
FF0CFFFFFFFF0CFFFFFFFF0C0F0000001502000000150100000015010000001502000000070F4154545249425F58414349535F49440703313336110D04666163650C5700000004FFFFFFFF0CFFFFFFFF0C3E0000000C3F0000000C040000000CFFFFFFFF0C400000000B0B110D046C6F6F700CFFFFFFFF04FFFFFFFF0CFFFF
310
FFFF0C410000000C420000000C24000000110E05706C616E650D07737572666163650CFFFFFFFF04FFFFFFFF0CFFFFFFFF130000000000003640CDCCCCCCCC8C4E40000000000000000014000000000000F03F0000000000000000000000000000008014000000000000008000000000000000000000000000408FC00B0B0B
310
0B0B110D046C6F6F700CFFFFFFFF04FFFFFFFF0CFFFFFFFF0CFFFFFFFF0C430000000C18000000110D06636F656467650CFFFFFFFF04FFFFFFFF0CFFFFFFFF0C350000000C350000000C440000000C450000000B0C2500000004000000000CFFFFFFFF110D06636F656467650CFFFFFFFF04FFFFFFFF0CFFFFFFFF0C360000
310
000C360000000C430000000C460000000B0C2700000004000000000CFFFFFFFF110D067665727465780CFFFFFFFF04FFFFFFFF0CFFFFFFFF0C2900000004020000000C47000000110E07656C6C697073650D0563757276650CFFFFFFFF04FFFFFFFF0CFFFFFFFF13CFA97F62A4201540000000000000000000000000000000
310
0014000000000000F03F0000000000000000000000000000008014000000000000008000000000000000006666666666064DC006000000000000F03F0B0B110D05706F696E740CFFFFFFFF04FFFFFFFF0CFFFFFFFF138B9999999999E13F00000000000000006666666666064DC0110D046C6F6F700CFFFFFFFF04FFFFFFFF
310
0CFFFFFFFF0CFFFFFFFF0C480000000C3B000000110D04666163650C6100000004FFFFFFFF0CFFFFFFFF0CFFFFFFFF0C2C0000000C040000000CFFFFFFFF0C490000000B0B110D05706F696E740CFFFFFFFF04FFFFFFFF0CFFFFFFFF130000000000400FBD00000000000000003133333333F34FC0110E0D737472696E675F
310
6174747269620E0B6E616D655F6174747269620E0367656E0D066174747269620CFFFFFFFF04FFFFFFFF0CFFFFFFFF0CFFFFFFFF0C180000001502000000150100000015010000001502000000070F4154545249425F58414349535F49440703313338110D04666163650C6200000004FFFFFFFF0CFFFFFFFF0C3B0000000C
310
4B0000000C040000000CFFFFFFFF0C4C0000000B0B110D046C6F6F700CFFFFFFFF04FFFFFFFF0CFFFFFFFF0C4D0000000C4E0000000C31000000110E05746F7275730D07737572666163650CFFFFFFFF04FFFFFFFF0CFFFFFFFF136E666666666635400000000000000000000000000000000014000000000000F03F000000
310
00000000000000000000000080069B9999999919504006383233333333E33F1400000000000000800000000000000000000000000000F0BF0B0B0B0B0B110D046C6F6F700CFFFFFFFF04FFFFFFFF0CFFFFFFFF0CFFFFFFFF0C440000000C24000000110D06636F656467650CFFFFFFFF04FFFFFFFF0CFFFFFFFF0C42000000
310
0C420000000C4F0000000C500000000B0C3200000004000000000CFFFFFFFF110D06636F656467650CFFFFFFFF04FFFFFFFF0CFFFFFFFF0C430000000C430000000C360000000C460000000A0C3400000004000000000CFFFFFFFF110D06636F656467650CFFFFFFFF04FFFFFFFF0CFFFFFFFF0C440000000C440000000C35
310
0000000C450000000A0C4100000004000000000CFFFFFFFF110D04656467650CFFFFFFFF04FFFFFFFF0CFFFFFFFF0C510000000600000000000000000C5100000006182D4454FB2119400C350000000C520000000B0707756E6B6E6F776E110D04656467650CFFFFFFFF04FFFFFFFF0CFFFFFFFF0C53000000060000000000
310
0000000C5300000006182D4454FB2119400C360000000C540000000B0707756E6B6E6F776E110D05706F696E740CFFFFFFFF04FFFFFFFF0CFFFFFFFF13CFA97F62A420154000000000000000006666666666064DC0110D06636F656467650CFFFFFFFF04FFFFFFFF0CFFFFFFFF0C480000000C480000000C550000000C5600
310
00000A0C3A00000004000000000CFFFFFFFF110E05746F7275730D07737572666163650CFFFFFFFF04FFFFFFFF0CFFFFFFFF13B19999999999F13F0000000000000000000000000000000014000000000000F03F00000000000000000000000000000080063133333333F34F4006E99999999999F13F140000000000000080
310
0000000000000000000000000000F0BF0B0B0B0B0B110E0D737472696E675F6174747269620E0B6E616D655F6174747269620E0367656E0D066174747269620CFFFFFFFF04FFFFFFFF0CFFFFFFFF0CFFFFFFFF0C240000001502000000150100000015010000001502000000070F4154545249425F58414349535F49440703
310
313339110D046C6F6F700CFFFFFFFF04FFFFFFFF0CFFFFFFFF0C580000000C550000000C3E000000110E04636F6E650D07737572666163650CFFFFFFFF04FFFFFFFF0CFFFFFFFF1300000000000036400000000000000000000000000000000014000000000000F0BF00000000000000800000000000000000140000000000
310
000080000000000000000000000000004050C006000000000000F03F0B0B06000000000000008006000000000000F03F0600000000004050400B0B0B0B0B110D046C6F6F700CFFFFFFFF04FFFFFFFF0CFFFFFFFF0CFFFFFFFF0C4F0000000C31000000110D06636F656467650CFFFFFFFF04FFFFFFFF0CFFFFFFFF0C4E0000
310
000C4E0000000C590000000C5A0000000B0C3F00000004000000000CFFFFFFFF110D06636F656467650CFFFFFFFF04FFFFFFFF0CFFFFFFFF0C4F0000000C4F0000000C420000000C500000000A0C4D00000004000000000CFFFFFFFF110D04656467650CFFFFFFFF04FFFFFFFF0CFFFFFFFF0C5B0000000600000000000000
310
000C5B00000006182D4454FB2119400C420000000C5C0000000B0707756E6B6E6F776E110D067665727465780CFFFFFFFF04FFFFFFFF0CFFFFFFFF0C4500000004020000000C5D000000110E07656C6C697073650D0563757276650CFFFFFFFF04FFFFFFFF0CFFFFFFFF130000000000003640000000000000000000000000
310
0000000014000000000000F03F000000000000000000000000000000801400000000000000800000000000000000CDCCCCCCCC8C4EC006000000000000F03F0B0B110D067665727465780CFFFFFFFF04FFFFFFFF0CFFFFFFFF0C4600000004020000000C5E000000110E07656C6C697073650D0563757276650CFFFFFFFF04
310
FFFFFFFF0CFFFFFFFF1340924780ACC125400000000000000000000000000000000014000000000000F03F000000000000000000000000000000801400000000000000800000000000000000F9CA8E0B8A744EC006000000000000F03F0B0B110D06636F656467650CFFFFFFFF04FFFFFFFF0CFFFFFFFF0C550000000C5500
310
00000C480000000C560000000B0C4B00000004000000000CFFFFFFFF110D04656467650CFFFFFFFF04FFFFFFFF0CFFFFFFFF0C5F0000000600000000000000000C5F00000006182D4454FB2119400C550000000C600000000B0707756E6B6E6F776E110E0D737472696E675F6174747269620E0B6E616D655F617474726962
310
0E0367656E0D066174747269620CFFFFFFFF04FFFFFFFF0CFFFFFFFF0CFFFFFFFF0C310000001502000000150100000015010000001502000000070F4154545249425F58414349535F49440703313334110D046C6F6F700CFFFFFFFF04FFFFFFFF0CFFFFFFFF0CFFFFFFFF0C590000000C3E000000110D06636F656467650C
310
FFFFFFFF04FFFFFFFF0CFFFFFFFF0C590000000C590000000C4E0000000C5A0000000A0C5800000004000000000CFFFFFFFF110D04656467650CFFFFFFFF04FFFFFFFF0CFFFFFFFF0C630000000600000000000000000C6300000006182D4454FB2119400C4E0000000C640000000B0707756E6B6E6F776E110D0676657274
310
65780CFFFFFFFF04FFFFFFFF0CFFFFFFFF0C5000000004020000000C65000000110E07656C6C697073650D0563757276650CFFFFFFFF04FFFFFFFF0CFFFFFFFF1300000000000036400000000000000000000000000000000014000000000000F03F0000000000000000000000000000008014000000000000008000000000
310
000000009A999999991950C006000000000000F03F0B0B110D05706F696E740CFFFFFFFF04FFFFFFFF0CFFFFFFFF1300000000000036400000000000000000CDCCCCCCCC8C4EC0110D05706F696E740CFFFFFFFF04FFFFFFFF0CFFFFFFFF1340924780ACC125400000000000000000F9CA8E0B8A744EC0110D067665727465
310
780CFFFFFFFF04FFFFFFFF0CFFFFFFFF0C5600000004020000000C66000000110E07656C6C697073650D0563757276650CFFFFFFFF04FFFFFFFF0CFFFFFFFF139B9999999999F13F0000000000000000000000000000000014000000000000F03F000000000000000000000000000000801400000000000000800000000000
310
00000000000000004050C006000000000000F03F0B0B110E0D737472696E675F6174747269620E0B6E616D655F6174747269620E0367656E0D066174747269620CFFFFFFFF04FFFFFFFF0CFFFFFFFF0CFFFFFFFF0C3B0000001502000000150100000015010000001502000000070F4154545249425F58414349535F494407
310
03313431110E0D737472696E675F6174747269620E0B6E616D655F6174747269620E0367656E0D066174747269620CFFFFFFFF04FFFFFFFF0CFFFFFFFF0CFFFFFFFF0C3E0000001502000000150100000015010000001502000000070F4154545249425F58414349535F49440703313335110D067665727465780CFFFFFFFF
310
04FFFFFFFF0CFFFFFFFF0C5A00000004020000000C67000000110E07656C6C697073650D0563757276650CFFFFFFFF04FFFFFFFF0CFFFFFFFF136E666666666635400000000000000000000000000000000014000000000000F03F000000000000000000000000000000801400000000000000800000000000000000000000
310
00004050C006000000000000F03F0B0B110D05706F696E740CFFFFFFFF04FFFFFFFF0CFFFFFFFF13000000000000364000000000000000009A999999991950C0110D05706F696E740CFFFFFFFF04FFFFFFFF0CFFFFFFFF139B9999999999F13F000000000000000000000000004050C0110D05706F696E740CFFFFFFFF04FF
310
FFFFFF0CFFFFFFFF136E66666666663540000000000000000000000000004050C0110E03456E640E026F660E0341534D0D0464617461
  0
ACDSRECORD
 90
        1
  2
AcDbDs::ID
280
    10
320
23B
  2
ASM_Data
280
    15
 94
     6517
310
414349532042696E61727946696C652855000000000000020000000C00000007214F70656E2044657369676E20416C6C69616E63652041434953204275696C646572070E41434953203231382E3030204E54071853756E204A756C2030392030313A30313A3434203230313706000000000000F03F068DEDB5A0F7C6B03E06
310
BBBDD7D9DF7CDB3D0D0961736D6865616465720CFFFFFFFF04FFFFFFFF070C3230382E302E342E37303039110D04626F64790C0200000004FFFFFFFF0CFFFFFFFF0C030000000CFFFFFFFF0CFFFFFFFF110E0D737472696E675F6174747269620E0B6E616D655F6174747269620E0367656E0D066174747269620CFFFFFFFF
310
04FFFFFFFF0CFFFFFFFF0CFFFFFFFF0C01000000150200000015010000001501000000150200000007114154545249425F58414349535F4E414D4507135F37303137204143442F5034415F5041525431110D046C756D700CFFFFFFFF04FFFFFFFF0CFFFFFFFF0CFFFFFFFF0C040000000C01000000110D057368656C6C0CFF
310
FFFFFF04FFFFFFFF0CFFFFFFFF0CFFFFFFFF0CFFFFFFFF0C050000000CFFFFFFFF0C03000000110D04666163650C0E00000004FFFFFFFF0CFFFFFFFF0C060000000C070000000C040000000CFFFFFFFF0C080000000B0B110D04666163650C1700000004FFFFFFFF0CFFFFFFFF0C090000000C0A0000000C040000000CFFFF
310
FFFF0C0B0000000B0B110D046C6F6F700CFFFFFFFF04FFFFFFFF0CFFFFFFFF0C0C0000000C0D0000000C05000000110E04636F6E650D07737572666163650CFFFFFFFF04FFFFFFFF0CFFFFFFFF1300000000000036400000000000000000000000000000000014000000000000F0BF00000000000000800000000000000000
310
14000000000000008000000000000000009A99999999B948C006000000000000F03F0B0B06000000000000008006000000000000F03F069A99999999B948400B0B0B0B0B110D04666163650C2300000004FFFFFFFF0CFFFFFFFF0C0F0000000C100000000C040000000CFFFFFFFF0C110000000B0B110D046C6F6F700CFFFF
310
FFFF04FFFFFFFF0CFFFFFFFF0C120000000C130000000C06000000110E05706C616E650D07737572666163650CFFFFFFFF04FFFFFFFF0CFFFFFFFF1300000000000000009A99999999B94840000000000000000014000000000000F0BF00000000000000000000000000000000140000000000000000000000000000000000
310
00000000408F400B0B0B0B0B110D046C6F6F700CFFFFFFFF04FFFFFFFF0CFFFFFFFF0CFFFFFFFF0C140000000C05000000110D06636F656467650CFFFFFFFF04FFFFFFFF0CFFFFFFFF0C0D0000000C0D0000000C150000000C160000000B0C0700000004000000000CFFFFFFFF110E0D737472696E675F6174747269620E0B
310
6E616D655F6174747269620E0367656E0D066174747269620CFFFFFFFF04FFFFFFFF0CFFFFFFFF0CFFFFFFFF0C050000001502000000150100000015010000001502000000070F4154545249425F58414349535F49440703313434110D04666163650C3100000004FFFFFFFF0CFFFFFFFF0C180000000C190000000C040000
310
000CFFFFFFFF0C1A0000000A0B110D046C6F6F700CFFFFFFFF04FFFFFFFF0CFFFFFFFF0C1B0000000C1C0000000C09000000110E05746F7275730D07737572666163650CFFFFFFFF04FFFFFFFF0CFFFFFFFF132B9999999999F13F0000000000000000000000000000000014000000000000F03F0000000000000000000000
310
000000008006CACCCCCCCCCC4540062B9999999999F13F1400000000000000800000000000000000000000000000F0BF0B0B0B0B0B110D046C6F6F700CFFFFFFFF04FFFFFFFF0CFFFFFFFF0CFFFFFFFF0C150000000C06000000110D06636F656467650CFFFFFFFF04FFFFFFFF0CFFFFFFFF0C130000000C130000000C1D00
310
00000C1E0000000B0C0A00000004000000000CFFFFFFFF110D06636F656467650CFFFFFFFF04FFFFFFFF0CFFFFFFFF0C140000000C140000000C1F0000000C200000000A0C0C00000004000000000CFFFFFFFF110D06636F656467650CFFFFFFFF04FFFFFFFF0CFFFFFFFF0C150000000C150000000C0D0000000C16000000
310
0A0C1200000004000000000CFFFFFFFF110D04656467650CFFFFFFFF04FFFFFFFF0CFFFFFFFF0C210000000600000000000000000C2100000006182D4454FB2119400C0D0000000C220000000B0707756E6B6E6F776E110E0D737472696E675F6174747269620E0B6E616D655F6174747269620E0367656E0D066174747269
310
620CFFFFFFFF04FFFFFFFF0CFFFFFFFF0CFFFFFFFF0C060000001502000000150100000015010000001502000000070F4154545249425F58414349535F49440703313437110D04666163650C3E00000004FFFFFFFF0CFFFFFFFF0C240000000C250000000C040000000CFFFFFFFF0C260000000B0B110D046C6F6F700CFFFF
310
FFFF04FFFFFFFF0CFFFFFFFF0C270000000C280000000C0F000000110E04636F6E650D07737572666163650CFFFFFFFF04FFFFFFFF0CFFFFFFFF1300000000000036400000000000000000000000000000000014000000000000F0BF0000000000000080000000000000000014000000000000008000000000000000000000
310
0000004045C006000000000000F03F0B0B06000000000000008006000000000000F03F0600000000004045400B0B0B0B0B110D046C6F6F700CFFFFFFFF04FFFFFFFF0CFFFFFFFF0CFFFFFFFF0C1D0000000C09000000110D06636F656467650CFFFFFFFF04FFFFFFFF0CFFFFFFFF0C1C0000000C1C0000000C290000000C2A
310
0000000B0C1000000004000000000CFFFFFFFF110D06636F656467650CFFFFFFFF04FFFFFFFF0CFFFFFFFF0C1D0000000C1D0000000C130000000C1E0000000A0C1B00000004000000000CFFFFFFFF110D04656467650CFFFFFFFF04FFFFFFFF0CFFFFFFFF0C2B0000000600000000000000000C2B00000006182D4454FB21
310
19400C130000000C2C0000000B0707756E6B6E6F776E110D06636F656467650CFFFFFFFF04FFFFFFFF0CFFFFFFFF0C1F0000000C1F0000000C140000000C200000000B0C2D00000004000000000CFFFFFFFF110D04656467650CFFFFFFFF04FFFFFFFF0CFFFFFFFF0C2E0000000600000000000000000C2E00000006182D44
310
54FB2119400C1F0000000C2F0000000B0707756E6B6E6F776E110D067665727465780CFFFFFFFF04FFFFFFFF0CFFFFFFFF0C1600000004020000000C30000000110E07656C6C697073650D0563757276650CFFFFFFFF04FFFFFFFF0CFFFFFFFF13000000000000000000000000000000000000000000000000140000000000
310
00F03F0000000000000000000000000000008014000000000000008000000000000000009A99999999B948C006000000000000F03F0B0B110E0D737472696E675F6174747269620E0B6E616D655F6174747269620E0367656E0D066174747269620CFFFFFFFF04FFFFFFFF0CFFFFFFFF0CFFFFFFFF0C090000001502000000
310
150100000015010000001502000000070F4154545249425F58414349535F49440703313436110D04666163650C4A00000004FFFFFFFF0CFFFFFFFF0C320000000C330000000C040000000CFFFFFFFF0C340000000B0B110D046C6F6F700CFFFFFFFF04FFFFFFFF0CFFFFFFFF0C350000000C360000000C18000000110E0574
310
6F7275730D07737572666163650CFFFFFFFF04FFFFFFFF0CFFFFFFFF136C66666666E634400000000000000000000000000000000014000000000000F03F0000000000000000000000000000008006CACCCCCCCCCC4540062E9999999999F13F1400000000000000800000000000000000000000000000F0BF0B0B0B0B0B11
310
0D046C6F6F700CFFFFFFFF04FFFFFFFF0CFFFFFFFF0CFFFFFFFF0C290000000C0F000000110D06636F656467650CFFFFFFFF04FFFFFFFF0CFFFFFFFF0C280000000C280000000C370000000C380000000B0C1900000004000000000CFFFFFFFF110D06636F656467650CFFFFFFFF04FFFFFFFF0CFFFFFFFF0C290000000C29
310
0000000C1C0000000C2A0000000A0C2700000004000000000CFFFFFFFF110D04656467650CFFFFFFFF04FFFFFFFF0CFFFFFFFF0C390000000600000000000000000C3900000006182D4454FB2119400C1C0000000C3A0000000B0707756E6B6E6F776E110D067665727465780CFFFFFFFF04FFFFFFFF0CFFFFFFFF0C1E0000
310
0004020000000C3B000000110E07656C6C697073650D0563757276650CFFFFFFFF04FFFFFFFF0CFFFFFFFF1300000000000000000000000000000000000000000000000014000000000000F03F000000000000000000000000000000801400000000000000800000000000000000CDCCCCCCCCCC45C006000000000000F03F
310
0B0B110D046C6F6F700CFFFFFFFF04FFFFFFFF0CFFFFFFFF0CFFFFFFFF0C1F0000000C3C000000110D067665727465780CFFFFFFFF04FFFFFFFF0CFFFFFFFF0C2000000004020000000C3D000000110E07656C6C697073650D0563757276650CFFFFFFFF04FFFFFFFF0CFFFFFFFF132270F4EBA73B15400000000000000000
310
000000000000000014000000000000F03F0000000000000000000000000000008014000000000000008000000000000000009A99999999B948C006000000000000F03F0B0B110D05706F696E740CFFFFFFFF04FFFFFFFF0CFFFFFFFF13000000000000000000000000000000009A99999999B948C0110E0D737472696E675F
310
6174747269620E0B6E616D655F6174747269620E0367656E0D066174747269620CFFFFFFFF04FFFFFFFF0CFFFFFFFF0CFFFFFFFF0C0F0000001502000000150100000015010000001502000000070F4154545249425F58414349535F49440703313435110D04666163650C5300000004FFFFFFFF0CFFFFFFFF0C3C0000000C
310
3F0000000C040000000CFFFFFFFF0C400000000B0B110D046C6F6F700CFFFFFFFF04FFFFFFFF0CFFFFFFFF0C410000000C420000000C24000000110E05706C616E650D07737572666163650CFFFFFFFF04FFFFFFFF0CFFFFFFFF130000000000003640CDCCCCCCCCCC4540000000000000000014000000000000F03F000000
310
0000000000000000000000008014000000000000008000000000000000000000000000408FC00B0B0B0B0B110D046C6F6F700CFFFFFFFF04FFFFFFFF0CFFFFFFFF0CFFFFFFFF0C370000000C18000000110D06636F656467650CFFFFFFFF04FFFFFFFF0CFFFFFFFF0C360000000C360000000C430000000C440000000B0C25
310
00000004000000000CFFFFFFFF110D06636F656467650CFFFFFFFF04FFFFFFFF0CFFFFFFFF0C370000000C370000000C280000000C380000000A0C3500000004000000000CFFFFFFFF110D04656467650CFFFFFFFF04FFFFFFFF0CFFFFFFFF0C450000000600000000000000000C4500000006182D4454FB2119400C280000
310
000C460000000B0707756E6B6E6F776E110D067665727465780CFFFFFFFF04FFFFFFFF0CFFFFFFFF0C2A00000004020000000C47000000110E07656C6C697073650D0563757276650CFFFFFFFF04FFFFFFFF0CFFFFFFFF132E9999999999F13F0000000000000000000000000000000014000000000000F03F000000000000
310
00000000000000000080140000000000000080000000000000000000000000004045C006000000000000F03F0B0B110D05706F696E740CFFFFFFFF04FFFFFFFF0CFFFFFFFF1300000000000000000000000000000000CDCCCCCCCCCC45C0110D04666163650C5800000004FFFFFFFF0CFFFFFFFF0CFFFFFFFF0C480000000C
310
040000000CFFFFFFFF0C490000000A0B110D05706F696E740CFFFFFFFF04FFFFFFFF0CFFFFFFFF132270F4EBA73B154000000000000000009A99999999B948C0110E0D737472696E675F6174747269620E0B6E616D655F6174747269620E0367656E0D066174747269620CFFFFFFFF04FFFFFFFF0CFFFFFFFF0CFFFFFFFF0C
310
180000001502000000150100000015010000001502000000070F4154545249425F58414349535F49440703313438110D046C6F6F700CFFFFFFFF04FFFFFFFF0CFFFFFFFF0C4B0000000C4C0000000C32000000110E04636F6E650D07737572666163650CFFFFFFFF04FFFFFFFF0CFFFFFFFF13000000000000364000000000
310
00000000000000000000000014000000000000F0BF0000000000000080000000000000000014000000000000008000000000000000009A99999999B948C006000000000000F03F0B0B06000000000000008006000000000000F03F069A99999999B948400B0B0B0B0B110D046C6F6F700CFFFFFFFF04FFFFFFFF0CFFFFFFFF
310
0CFFFFFFFF0C430000000C24000000110D06636F656467650CFFFFFFFF04FFFFFFFF0CFFFFFFFF0C420000000C420000000C4D0000000C4E0000000B0C3300000004000000000CFFFFFFFF110D06636F656467650CFFFFFFFF04FFFFFFFF0CFFFFFFFF0C430000000C430000000C360000000C440000000A0C410000000400
310
0000000CFFFFFFFF110D04656467650CFFFFFFFF04FFFFFFFF0CFFFFFFFF0C4F0000000600000000000000000C4F00000006182D4454FB2119400C360000000C500000000B0707756E6B6E6F776E110D067665727465780CFFFFFFFF04FFFFFFFF0CFFFFFFFF0C3800000004020000000C51000000110E07656C6C69707365
310
0D0563757276650CFFFFFFFF04FFFFFFFF0CFFFFFFFF136666666666E634400000000000000000000000000000000014000000000000F03F00000000000000000000000000000080140000000000000080000000000000000000000000004045C006000000000000F03F0B0B110D05706F696E740CFFFFFFFF04FFFFFFFF0C
310
FFFFFFFF132E9999999999F13F000000000000000000000000004045C0110D046C6F6F700CFFFFFFFF04FFFFFFFF0CFFFFFFFF0C2D0000000C520000000C3C000000110E05746F7275730D07737572666163650CFFFFFFFF04FFFFFFFF0CFFFFFFFF1300000000000026400000000000000000000000000000000014000000
310
000000F03F00000000000000000000000000000080060BD7A3703DE24A4006FE7E6ABC74931C401400000000000000800000000000000000000000000000F0BF0B0B0B0B0B110E0D737472696E675F6174747269620E0B6E616D655F6174747269620E0367656E0D066174747269620CFFFFFFFF04FFFFFFFF0CFFFFFFFF0C
310
FFFFFFFF0C240000001502000000150100000015010000001502000000070F4154545249425F58414349535F49440703313433110D046C6F6F700CFFFFFFFF04FFFFFFFF0CFFFFFFFF0CFFFFFFFF0C4D0000000C32000000110D06636F656467650CFFFFFFFF04FFFFFFFF0CFFFFFFFF0C4C0000000C4C0000000C52000000
310
0C540000000B0C3F00000004000000000CFFFFFFFF110D06636F656467650CFFFFFFFF04FFFFFFFF0CFFFFFFFF0C4D0000000C4D0000000C420000000C4E0000000A0C4B00000004000000000CFFFFFFFF110D04656467650CFFFFFFFF04FFFFFFFF0CFFFFFFFF0C550000000600000000000000000C5500000006182D4454
310
FB2119400C420000000C560000000B0707756E6B6E6F776E110D067665727465780CFFFFFFFF04FFFFFFFF0CFFFFFFFF0C4400000004020000000C57000000110E07656C6C697073650D0563757276650CFFFFFFFF04FFFFFFFF0CFFFFFFFF13FFFFFFFFFFFF35400000000000000000000000000000000014000000000000
310
F03F000000000000000000000000000000801400000000000000800000000000000000CACCCCCCCCCC45C006000000000000F03F0B0B110D05706F696E740CFFFFFFFF04FFFFFFFF0CFFFFFFFF136666666666E63440000000000000000000000000004045C0110D06636F656467650CFFFFFFFF04FFFFFFFF0CFFFFFFFF0C
310
520000000C520000000C4C0000000C540000000A0C4800000004000000000CFFFFFFFF110E0D737472696E675F6174747269620E0B6E616D655F6174747269620E0367656E0D066174747269620CFFFFFFFF04FFFFFFFF0CFFFFFFFF0CFFFFFFFF0C320000001502000000150100000015010000001502000000070F415454
310
5249425F58414349535F49440703313439110D04656467650CFFFFFFFF04FFFFFFFF0CFFFFFFFF0C590000000600000000000000000C5900000006182D4454FB2119400C4C0000000C5A0000000B0707756E6B6E6F776E110D067665727465780CFFFFFFFF04FFFFFFFF0CFFFFFFFF0C4E00000004020000000C5B00000011
310
0E07656C6C697073650D0563757276650CFFFFFFFF04FFFFFFFF0CFFFFFFFF1300000000000036400000000000000000000000000000000014000000000000F03F0000000000000000000000000000008014000000000000008000000000000000009A99999999B948C006000000000000F03F0B0B110D05706F696E740CFF
310
FFFFFF04FFFFFFFF0CFFFFFFFF13FFFFFFFFFFFF35400000000000000000CACCCCCCCCCC45C0110E0D737472696E675F6174747269620E0B6E616D655F6174747269620E0367656E0D066174747269620CFFFFFFFF04FFFFFFFF0CFFFFFFFF0CFFFFFFFF0C3C0000001502000000150100000015010000001502000000070F
310
4154545249425F58414349535F49440703313432110D067665727465780CFFFFFFFF04FFFFFFFF0CFFFFFFFF0C5400000004020000000C5C000000110E07656C6C697073650D0563757276650CFFFFFFFF04FFFFFFFF0CFFFFFFFF13F7E3020516B130400000000000000000000000000000000014000000000000F03F0000
310
000000000000000000000000008014000000000000008000000000000000009A99999999B948C006000000000000F03F0B0B110D05706F696E740CFFFFFFFF04FFFFFFFF0CFFFFFFFF13000000000000364000000000000000009A99999999B948C0110D05706F696E740CFFFFFFFF04FFFFFFFF0CFFFFFFFF13F7E3020516
310
B1304000000000000000009A99999999B948C0110E03456E640E026F660E0341534D0D0464617461
  0
ENDSEC
  0
EOF