999
DXF file: _cgs_temp_output.dxf
999
Pro/ENGINEER 2015110 by Parametric Technology Corporation
  0
SECTION
  2
HEADER
  9
$ACADVER
  1
AC1021
  9
$DWGCODEPAGE
  3
ANSI_1252
  9
$EXTMAX
 10
22.0
 20
17.0
 30
0.0
  9
$EXTMIN
 10
0.0
 20
0.0
 30
0.0
  9
$LIMMIN
 10
0.0
 20
0.0
  9
$LIMMAX
 10
22.0
 20
17.0
  9
$VIEWCTR
 10
11.0
 20
8.5
  9
$VIEWSIZE
 40
17.0
  9
$CLAYER
  8
0
  9
$LTSCALE
 40
1.21
  9
$CELTYPE
  6
BYLAYER
  9
$DIMSCALE
 40
1.0
  9
$DIMASZ
 40
0.1875
  9
$DIMEXO
 40
0.0625
  9
$DIMDLI
 40
0.836
  9
$DIMEXE
 40
0.125
  9
$DIMCEN
 40
0.198
  9
$DIMLFAC
 40
1.0
  9
$DIMBLK
  1
_CLOSED
  9
$DIMALT
 70
0
  9
$DIMALTF
 40
25.4
  9
$DIMTXT
 40
0.15625
  9
$DIMTOL
 70
0
  9
$DIMLIM
 70
0
  9
$DIMTFAC
 40
1.0
  9
$DIMGAP
 40
0.09
  9
$DIMDSEP
 70
46
  9
$AUNITS
 70
0
  9
$PDMODE
 70
3
  9
$PDSIZE
 40
0.3125
  9
$HANDSEED
  5
2C2
  9
$TILEMODE
 70
1
  9
$MEASUREMENT
 70
0
  9
$INSUNITS
 70
1
  0
ENDSEC
  0
SECTION
  2
CLASSES
  0
CLASS
  1
ACDBDICTIONARYWDFLT
  2
AcDbDictionaryWithDefault
  3
AutoCAD 2000
 90
0
 91
1
280
0
281
0
  0
CLASS
  1
ACDBPLACEHOLDER
  2
AcDbPlaceHolder
  3
AutoCAD 2000
 90
0
 91
1
280
0
281
0
  0
CLASS
  1
LAYOUT
  2
AcDbLayout
  3
AutoCAD 2000
 90
0
 91
0
280
0
281
0
  0
ENDSEC
  0
SECTION
  2
TABLES
  0
TABLE
  2
VPORT
  5
8
100
AcDbSymbolTable
 70
2
  0
VPORT
  5
1F4
100
AcDbSymbolTableRecord
100
AcDbViewportTableRecord
  2
*ACTIVE
 70
0
 10
0.0
 20
0.0
 11
1.0
 21
1.0
 12
11.0
 22
8.5
 13
0.0
 23
0.0
 14
1.0
 24
1.0
 15
0.0
 25
0.0
 16
0.0
 26
0.0
 36
1.0
 17
0.0
 27
0.0
 37
0.0
 40
17.0
 41
1.2941176471
 42
50.0
 43
0.0
 44
0.0
 50
0.0
 51
0.0
 71
0
 72
100
 73
1
 74
1
 75
0
 76
0
 77
0
 78
0
  0
ENDTAB
  0
TABLE
  2
LTYPE
  5
5
100
AcDbSymbolTable
 70
6
  0
LTYPE
  5
14
100
AcDbSymbolTableRecord
100
AcDbLinetypeTableRecord
  2
BYBLOCK
 70
0
  3

 72
65
 73
0
 40
0.0
  0
LTYPE
  5
15
100
AcDbSymbolTableRecord
100
AcDbLinetypeTableRecord
  2
BYLAYER
 70
0
  3

 72
65
 73
0
 40
0.0
  0
LTYPE
  5
16
100
AcDbSymbolTableRecord
100
AcDbLinetypeTableRecord
  2
CONTINUOUS
 70
64
  3
Solid line
 72
65
 73
0
 40
0.0
  0
LTYPE
  5
1F5
100
AcDbSymbolTableRecord
100
AcDbLinetypeTableRecord
  2
CENTER
 70
64
  3
____ _ ____ _ ____ _ ____ _ ____ _ ____ _ ____
 72
65
 73
4
 40
0.6
 49
0.375
 74
0
 49
-0.075
 74
0
 49
0.075
 74
0
 49
-0.075
 74
0
  0
LTYPE
  5
1F6
100
AcDbSymbolTableRecord
100
AcDbLinetypeTableRecord
  2
HIDDEN
 70
64
  3
- - - - - - - - - - - - - - - - - - - -
 72
65
 73
2
 40
0.2
 49
0.1
 74
0
 49
-0.1
 74
0
  0
LTYPE
  5
1F7
100
AcDbSymbolTableRecord
100
AcDbLinetypeTableRecord
  2
PHANTOM
 70
64
  3
_____ _ _ _____ _ _ _____ _ _ _____
 72
65
 73
6
 40
0.8
 49
0.45
 74
0
 49
-0.05
 74
0
 49
0.1
 74
0
 49
-0.05
 74
0
 49
0.1
 74
0
 49
-0.05
 74
0
  0
LTYPE
  5
1F8
100
AcDbSymbolTableRecord
100
AcDbLinetypeTableRecord
  2
DOT
 70
64
  3
. . . . . . . . . . . . . . . . . . . .
 72
65
 73
2
 40
0.2
 49
0.1
 74
0
 49
-0.1
 74
0
  0
LTYPE
  5
1F9
100
AcDbSymbolTableRecord
100
AcDbLinetypeTableRecord
  2
DASHED
 70
64
  3
- - - - - - - - - - - - - - - - - - - -
 72
65
 73
2
 40
0.2
 49
0.1
 74
0
 49
-0.1
 74
0
  0
ENDTAB
  0
TABLE
  2
LAYER
  5
2
100
AcDbSymbolTable
 70
36
  0
LAYER
  5
10
100
AcDbSymbolTableRecord
100
AcDbLayerTableRecord
  2
0
 70
0
 62
7
  6
CONTINUOUS
370
-3
390
F
  0
LAYER
  5
1FA
100
AcDbSymbolTableRecord
100
AcDbLayerTableRecord
  2
DEFAULT_1
 70
0
 62
7
  6
CENTER
370
-3
390
F
  0
LAYER
  5
1FB
100
AcDbSymbolTableRecord
100
AcDbLayerTableRecord
  2
DEFAULT_2
 70
0
 62
8
  6
HIDDEN
370
-3
390
F
  0
LAYER
  5
1FC
100
AcDbSymbolTableRecord
100
AcDbLayerTableRecord
  2
DEFAULT_3
 70
0
 62
7
  6
PHANTOM
370
-3
390
F
  0
LAYER
  5
1FD
100
AcDbSymbolTableRecord
100
AcDbLayerTableRecord
  2
01_ALL_DTM_PLN
 70
0
 62
7
  6
CONTINUOUS
370
-3
390
F
  0
LAYER
  5
1FE
100
AcDbSymbolTableRecord
100
AcDbLayerTableRecord
  2
01__ASM_ALL_DTM_PLN
 70
0
 62
7
  6
CONTINUOUS
370
-3
390
F
  0
LAYER
  5
1FF
100
AcDbSymbolTableRecord
100
AcDbLayerTableRecord
  2
01__ASM_DEF_DTM_PLN
 70
0
 62
7
  6
CONTINUOUS
370
-3
390
F
  0
LAYER
  5
200
100
AcDbSymbolTableRecord
100
AcDbLayerTableRecord
  2
01___PRT_ALL_DTM_PLN
 70
0
 62
7
  6
CONTINUOUS
370
-3
390
F
  0
LAYER
  5
201
100
AcDbSymbolTableRecord
100
AcDbLayerTableRecord
  2
01___PRT_DEF_DTM_PLN
 70
0
 62
7
  6
CONTINUOUS
370
-3
390
F
  0
LAYER
  5
202
100
AcDbSymbolTableRecord
100
AcDbLayerTableRecord
  2
02_ALL_AXES
 70
0
 62
7
  6
CONTINUOUS
370
-3
390
F
  0
LAYER
  5
203
100
AcDbSymbolTableRecord
100
AcDbLayerTableRecord
  2
02__ASM_ALL_AXES
 70
0
 62
7
  6
CONTINUOUS
370
-3
390
F
  0
LAYER
  5
204
100
AcDbSymbolTableRecord
100
AcDbLayerTableRecord
  2
02___PRT_ALL_AXES
 70
0
 62
7
  6
CONTINUOUS
370
-3
390
F
  0
LAYER
  5
205
100
AcDbSymbolTableRecord
100
AcDbLayerTableRecord
  2
03_ALL_CURVES
 70
0
 62
7
  6
CONTINUOUS
370
-3
390
F
  0
LAYER
  5
206
100
AcDbSymbolTableRecord
100
AcDbLayerTableRecord
  2
03__ASM_ALL_CURVES
 70
0
 62
7
  6
CONTINUOUS
370
-3
390
F
  0
LAYER
  5
207
100
AcDbSymbolTableRecord
100
AcDbLayerTableRecord
  2
03___PRT_ALL_CURVES
 70
0
 62
7
  6
CONTINUOUS
370
-3
390
F
  0
LAYER
  5
208
100
AcDbSymbolTableRecord
100
AcDbLayerTableRecord
  2
04_ALL_DTM_PNT
 70
0
 62
7
  6
CONTINUOUS
370
-3
390
F
  0
LAYER
  5
209
100
AcDbSymbolTableRecord
100
AcDbLayerTableRecord
  2
04__ASM_ALL_DTM_PNT
 70
0
 62
7
  6
CONTINUOUS
370
-3
390
F
  0
LAYER
  5
20A
100
AcDbSymbolTableRecord
100
AcDbLayerTableRecord
  2
04___PRT_ALL_DTM_PNT
 70
0
 62
7
  6
CONTINUOUS
370
-3
390
F
  0
LAYER
  5
20B
100
AcDbSymbolTableRecord
100
AcDbLayerTableRecord
  2
05_ALL_DTM_CSYS
 70
0
 62
7
  6
CONTINUOUS
370
-3
390
F
  0
LAYER
  5
20C
100
AcDbSymbolTableRecord
100
AcDbLayerTableRecord
  2
05__ASM_ALL_DTM_CSYS
 70
0
 62
7
  6
CONTINUOUS
370
-3
390
F
  0
LAYER
  5
20D
100
AcDbSymbolTableRecord
100
AcDbLayerTableRecord
  2
05__ASM_DEF_DTM_CSYS
 70
0
 62
7
  6
CONTINUOUS
370
-3
390
F
  0
LAYER
  5
20E
100
AcDbSymbolTableRecord
100
AcDbLayerTableRecord
  2
05___PRT_ALL_DTM_CSYS
 70
0
 62
7
  6
CONTINUOUS
370
-3
390
F
  0
LAYER
  5
20F
100
AcDbSymbolTableRecord
100
AcDbLayerTableRecord
  2
05___PRT_DEF_DTM_CSYS
 70
0
 62
7
  6
CONTINUOUS
370
-3
390
F
  0
LAYER
  5
210
100
AcDbSymbolTableRecord
100
AcDbLayerTableRecord
  2
06_ALL_SURFS
 70
0
 62
7
  6
CONTINUOUS
370
-3
390
F
  0
LAYER
  5
211
100
AcDbSymbolTableRecord
100
AcDbLayerTableRecord
  2
06__ASM_ALL_SURFS
 70
0
 62
7
  6
CONTINUOUS
370
-3
390
F
  0
LAYER
  5
212
100
AcDbSymbolTableRecord
100
AcDbLayerTableRecord
  2
06___PRT_ALL_SURFS
 70
0
 62
7
  6
CONTINUOUS
370
-3
390
F
  0
LAYER
  5
213
100
AcDbSymbolTableRecord
100
AcDbLayerTableRecord
  2
07__ASM_ALL_SKELETONS
 70
0
 62
7
  6
CONTINUOUS
370
-3
390
F
  0
LAYER
  5
214
100
AcDbSymbolTableRecord
100
AcDbLayerTableRecord
  2
LAYER_DIM
 70
0
 62
7
  6
CONTINUOUS
370
-3
390
F
  0
LAYER
  5
215
100
AcDbSymbolTableRecord
100
AcDbLayerTableRecord
  2
LAYER_FEATURE
 70
0
 62
7
  6
CONTINUOUS
370
-3
390
F
  0
LAYER
  5
216
100
AcDbSymbolTableRecord
100
AcDbLayerTableRecord
  2
LAYER_GEOM_FEAT
 70
0
 62
7
  6
CONTINUOUS
370
-3
390
F
  0
LAYER
  5
217
100
AcDbSymbolTableRecord
100
AcDbLayerTableRecord
  2
LAYER_PARAMETER_DIM
 70
0
 62
7
  6
CONTINUOUS
370
-3
390
F
  0
LAYER
  5
218
100
AcDbSymbolTableRecord
100
AcDbLayerTableRecord
  2
LAYER_PROTRUSION_FEAT
 70
0
 62
7
  6
CONTINUOUS
370
-3
390
F
  0
LAYER
  5
219
100
AcDbSymbolTableRecord
100
AcDbLayerTableRecord
  2
LAYER_ROUND_FEAT
 70
0
 62
7
  6
CONTINUOUS
370
-3
390
F
  0
ENDTAB
  0
TABLE
  2
STYLE
  5
3
100
AcDbSymbolTable
 70
1
  0
STYLE
  5
11
100
AcDbSymbolTableRecord
100
AcDbTextStyleTableRecord
  2
STANDARD
 70
0
 40
0.0
 41
0.8
 50
0.0
 71
0
 42
0.2
  3
txt
  4

  0
STYLE
  5
21A
100
AcDbSymbolTableRecord
100
AcDbTextStyleTableRecord
  2
TEXTSTYLE_1
 70
0
 40
0.0
 41
0.8
 50
0.0
 71
0
 42
0.2
  3
gdt
  4

  0
ENDTAB
  0
TABLE
  2
VIEW
  5
6
100
AcDbSymbolTable
 70
0
  0
ENDTAB
  0
TABLE
  2
UCS
  5
7
100
AcDbSymbolTable
 70
0
  0
ENDTAB
  0
TABLE
  2
APPID
  5
9
100
AcDbSymbolTable
 70
1
  0
APPID
  5
21B
100
AcDbSymbolTableRecord
100
AcDbRegAppTableRecord
  2
ACAD
 70
0
  0
ENDTAB
  0
TABLE
  2
BLOCK_RECORD
  5
1
100
AcDbSymbolTable
 70
0
  0
BLOCK_RECORD
  5
21C
100
AcDbSymbolTableRecord
100
AcDbBlockTableRecord
  2
*Model_Space
  0
BLOCK_RECORD
  5
21D
100
AcDbSymbolTableRecord
100
AcDbBlockTableRecord
  2
*Paper_Space
  0
ENDTAB
  0
TABLE
  2
DIMSTYLE
  5
A
100
AcDbSymbolTable
 70
1
100
AcDbDimStyleTable
 71
0
  0
DIMSTYLE
105
21E
100
AcDbSymbolTableRecord
100
AcDbDimStyleTableRecord
  2
STANDARD
 70
0
  3

  4

 40
1.0
 41
0.1875
 42
0.0625
 43
0.38
 44
0.125
 45
0.0
 46
0.0
 47
0.0001
 48
0.0001
140
0.15625
141
0.09
142
0.0
143
25.4
144
1.0
145
0.0
146
1.0
147
0.09
 71
0.0
 72
0.0
 73
1
 74
1
 75
0
 76
0
 77
0
 78
4
170
0
171
2
172
0
173
0
174
0
175
0
176
0
177
0
178
0
270
2
271
4
272
4
273
2
274
2
275
0
280
0
281
0
282
0
283
1
284
4
285
0
286
0
287
3
288
0
340
11
278
46
  0
ENDTAB
  0
ENDSEC
  0
SECTION
  2
BLOCKS
  0
BLOCK
  5
20
100
AcDbEntity
  8
0
100
AcDbBlockBegin
  2
*Model_Space
 70
0
 10
0.0
 20
0.0
 30
0.0
  3
*Model_Space
  1

  0
ENDBLK
  5
21
100
AcDbEntity
  8
0
100
AcDbBlockEnd
  0
BLOCK
  5
1C
100
AcDbEntity
  8
0
100
AcDbBlockBegin
  2
*Paper_Space
 70
0
 10
0.0
 20
0.0
 30
0.0
  3
*Paper_Space
  1

  0
ENDBLK
  5
1D
100
AcDbEntity
  8
0
100
AcDbBlockEnd
  0
ENDSEC
  0
SECTION
  2
ENTITIES
  0
MTEXT
  5
21F
100
AcDbEntity
  8
0
100
AcDbMText
 62
7
  6
CONTINUOUS
  7
STANDARD
 71
1
 72
1
 10
15.9560215477
 20
0.9479130325
 30
0.0
 11
1.0
 21
0.0
 31
0.0
 44
0.9
  1
SCALE: 1:0.500
 40
0.3
 41
3.36
  0
LINE
  5
220
100
AcDbEntity
  8
0
100
AcDbLine
 62
7
  6
CONTINUOUS
 10
0.0
 20
0.0
 11
0.0
 21
17.0
  0
LINE
  5
221
100
AcDbEntity
  8
0
100
AcDbLine
 62
7
  6
CONTINUOUS
 10
0.0
 20
0.0
 11
22.0
 21
0.0
  0
LINE
  5
222
100
AcDbEntity
  8
0
100
AcDbLine
 62
7
  6
CONTINUOUS
 10
0.0
 20
17.0
 11
22.0
 21
17.0
  0
LINE
  5
223
100
AcDbEntity
  8
0
100
AcDbLine
 62
7
  6
CONTINUOUS
 10
22.0
 20
0.0
 11
22.0
 21
17.0
  0
LINE
  5
224
100
AcDbEntity
  8
0
100
AcDbLine
 62
7
  6
CONTINUOUS
 10
3.6608672762
 20
5.7226198968
 11
3.6608672762
 21
5.6851198968
  0
LINE
  5
225
100
AcDbEntity
  8
0
100
AcDbLine
 62
7
  6
CONTINUOUS
 10
3.6608672762
 20
5.6851198968
 11
3.7723441234
 21
5.3283939855
  0
LINE
  5
226
100
AcDbEntity
  8
0
100
AcDbLine
 62
7
  6
CONTINUOUS
 10
4.2858672762
 20
5.6851198968
 11
4.2858672762
 21
5.7076198968
  0
LINE
  5
227
100
AcDbEntity
  8
0
100
AcDbLine
 62
7
  6
CONTINUOUS
 10
4.1743904289
 20
5.3283939855
 11
4.2858672762
 21
5.6851198968
  0
LINE
  5
228
100
AcDbEntity
  8
LAYER_FEATURE
100
AcDbLine
 62
7
  6
CONTINUOUS
 10
4.3798672762
 20
5.7076198968
 11
4.3798672762
 21
5.6851198968
  0
LINE
  5
229
100
AcDbEntity
  8
LAYER_FEATURE
100
AcDbLine
 62
7
  6
CONTINUOUS
 10
4.3798672762
 20
5.6851198968
 11
4.4913441234
 21
5.3283939855
  0
LINE
  5
22A
100
AcDbEntity
  8
LAYER_FEATURE
100
AcDbLine
 62
7
  6
CONTINUOUS
 10
5.0048672762
 20
5.6851198968
 11
5.0048672762
 21
5.7076198968
  0
LINE
  5
22B
100
AcDbEntity
  8
LAYER_FEATURE
100
AcDbLine
 62
7
  6
CONTINUOUS
 10
5.0988672762
 20
5.7076198968
 11
5.0988672762
 21
5.6851198968
  0
LINE
  5
22C
100
AcDbEntity
  8
LAYER_FEATURE
100
AcDbLine
 62
7
  6
CONTINUOUS
 10
4.8933904289
 20
5.3283939855
 11
5.0048672762
 21
5.6851198968
  0
LINE
  5
22D
100
AcDbEntity
  8
LAYER_FEATURE
100
AcDbLine
 62
7
  6
CONTINUOUS
 10
5.0988672762
 20
5.6851198968
 11
5.2103441234
 21
5.3283939855
  0
LINE
  5
22E
100
AcDbEntity
  8
LAYER_FEATURE
100
AcDbLine
 62
7
  6
CONTINUOUS
 10
5.7238672762
 20
5.6851198968
 11
5.7238672762
 21
5.7076198968
  0
LINE
  5
22F
100
AcDbEntity
  8
LAYER_FEATURE
100
AcDbLine
 62
7
  6
CONTINUOUS
 10
5.8178672762
 20
5.7076198968
 11
5.8178672762
 21
5.6851198968
  0
LINE
  5
230
100
AcDbEntity
  8
LAYER_FEATURE
100
AcDbLine
 62
7
  6
CONTINUOUS
 10
5.6123904289
 20
5.3283939855
 11
5.7238672762
 21
5.6851198968
  0
LINE
  5
231
100
AcDbEntity
  8
0
100
AcDbLine
 62
7
  6
CONTINUOUS
 10
3.7972003729
 20
5.3101198968
 11
4.1495341795
 21
5.3101198968
  0
LINE
  5
232
100
AcDbEntity
  8
LAYER_FEATURE
100
AcDbLine
 62
7
  6
CONTINUOUS
 10
4.5162003729
 20
5.3101198968
 11
4.8685341795
 21
5.3101198968
  0
LINE
  5
233
100
AcDbEntity
  8
LAYER_FEATURE
100
AcDbLine
 62
7
  6
CONTINUOUS
 10
5.2352003729
 20
5.3101198968
 11
5.5875341795
 21
5.3101198968
  0
LINE
  5
234
100
AcDbEntity
  8
LAYER_FEATURE
100
AcDbLine
 62
7
  6
CONTINUOUS
 10
5.9542003729
 20
5.3101198968
 11
6.3065341795
 21
5.3101198968
  0
LINE
  5
235
100
AcDbEntity
  8
LAYER_FEATURE
100
AcDbLine
 62
7
  6
CONTINUOUS
 10
6.6732003729
 20
5.3101198968
 11
7.0255341795
 21
5.3101198968
  0
LINE
  5
236
100
AcDbEntity
  8
LAYER_FEATURE
100
AcDbLine
 62
7
  6
CONTINUOUS
 10
7.3922003729
 20
5.3101198968
 11
7.7445341795
 21
5.3101198968
  0
LINE
  5
237
100
AcDbEntity
  8
LAYER_FEATURE
100
AcDbLine
 62
7
  6
CONTINUOUS
 10
8.1112003729
 20
5.3101198968
 11
8.4635341795
 21
5.3101198968
  0
LINE
  5
238
100
AcDbEntity
  8
LAYER_FEATURE
100
AcDbLine
 62
7
  6
CONTINUOUS
 10
5.8178672762
 20
5.6851198968
 11
5.9293441234
 21
5.3283939855
  0
LINE
  5
239
100
AcDbEntity
  8
LAYER_FEATURE
100
AcDbLine
 62
7
  6
CONTINUOUS
 10
6.4428672762
 20
5.6851198968
 11
6.4428672762
 21
5.7076198968
  0
LINE
  5
23A
100
AcDbEntity
  8
LAYER_FEATURE
100
AcDbLine
 62
7
  6
CONTINUOUS
 10
6.3313904289
 20
5.3283939855
 11
6.4428672762
 21
5.6851198968
  0
LINE
  5
23B
100
AcDbEntity
  8
LAYER_FEATURE
100
AcDbLine
 62
7
  6
CONTINUOUS
 10
4.2858672762
 20
5.7076198968
 11
4.3798672762
 21
5.7076198968
  0
LINE
  5
23C
100
AcDbEntity
  8
LAYER_FEATURE
100
AcDbLine
 62
7
  6
CONTINUOUS
 10
5.0048672762
 20
5.7076198968
 11
5.0988672762
 21
5.7076198968
  0
LINE
  5
23D
100
AcDbEntity
  8
LAYER_FEATURE
100
AcDbLine
 62
7
  6
CONTINUOUS
 10
5.7238672762
 20
5.7076198968
 11
5.8178672762
 21
5.7076198968
  0
LINE
  5
23E
100
AcDbEntity
  8
LAYER_FEATURE
100
AcDbLine
 62
7
  6
CONTINUOUS
 10
6.4428672762
 20
5.7076198968
 11
6.5368672762
 21
5.7076198968
  0
LINE
  5
23F
100
AcDbEntity
  8
LAYER_FEATURE
100
AcDbLine
 62
7
  6
CONTINUOUS
 10
7.1618672762
 20
5.7076198968
 11
7.2558672762
 21
5.7076198968
  0
LINE
  5
240
100
AcDbEntity
  8
LAYER_FEATURE
100
AcDbLine
 62
7
  6
CONTINUOUS
 10
7.8808672762
 20
5.7076198968
 11
7.9748672762
 21
5.7076198968
  0
LINE
  5
241
100
AcDbEntity
  8
0
100
AcDbLine
 62
7
  6
CONTINUOUS
 10
8.5923672762
 20
5.7301198968
 11
3.6683672762
 21
5.7301198968
  0
LINE
  5
242
100
AcDbEntity
  8
LAYER_FEATURE
100
AcDbLine
 62
7
  6
CONTINUOUS
 10
6.5368672762
 20
5.7076198968
 11
6.5368672762
 21
5.6851198968
  0
LINE
  5
243
100
AcDbEntity
  8
LAYER_FEATURE
100
AcDbLine
 62
7
  6
CONTINUOUS
 10
6.5368672762
 20
5.6851198968
 11
6.6483441234
 21
5.3283939855
  0
LINE
  5
244
100
AcDbEntity
  8
LAYER_FEATURE
100
AcDbLine
 62
7
  6
CONTINUOUS
 10
7.0503904289
 20
5.3283939855
 11
7.1618672762
 21
5.6851198968
  0
LINE
  5
245
100
AcDbEntity
  8
LAYER_FEATURE
100
AcDbLine
 62
7
  6
CONTINUOUS
 10
7.1618672762
 20
5.6851198968
 11
7.1618672762
 21
5.7076198968
  0
LINE
  5
246
100
AcDbEntity
  8
LAYER_FEATURE
100
AcDbLine
 62
7
  6
CONTINUOUS
 10
7.2558672762
 20
5.7076198968
 11
7.2558672762
 21
5.6851198968
  0
LINE
  5
247
100
AcDbEntity
  8
LAYER_FEATURE
100
AcDbLine
 62
7
  6
CONTINUOUS
 10
7.2558672762
 20
5.6851198968
 11
7.3673441234
 21
5.3283939855
  0
LINE
  5
248
100
AcDbEntity
  8
LAYER_FEATURE
100
AcDbLine
 62
7
  6
CONTINUOUS
 10
7.7693904289
 20
5.3283939855
 11
7.8808672762
 21
5.6851198968
  0
LINE
  5
249
100
AcDbEntity
  8
LAYER_FEATURE
100
AcDbLine
 62
7
  6
CONTINUOUS
 10
7.8808672762
 20
5.6851198968
 11
7.8808672762
 21
5.7076198968
  0
LINE
  5
24A
100
AcDbEntity
  8
LAYER_FEATURE
100
AcDbLine
 62
7
  6
CONTINUOUS
 10
7.9748672762
 20
5.6851198968
 11
8.0863441234
 21
5.3283939855
  0
LINE
  5
24B
100
AcDbEntity
  8
LAYER_FEATURE
100
AcDbLine
 62
7
  6
CONTINUOUS
 10
7.9748672762
 20
5.7076198968
 11
7.9748672762
 21
5.6851198968
  0
LINE
  5
24C
100
AcDbEntity
  8
0
100
AcDbLine
 62
7
  6
CONTINUOUS
 10
8.5998672762
 20
5.6851198968
 11
8.5998672762
 21
5.7226198968
  0
LINE
  5
24D
100
AcDbEntity
  8
LAYER_FEATURE
100
AcDbLine
 62
7
  6
CONTINUOUS
 10
8.4883904289
 20
5.3283939855
 11
8.5998672762
 21
5.6851198968
  0
LINE
  5
24E
100
AcDbEntity
  8
0
100
AcDbLine
 62
7
  6
CONTINUOUS
 10
3.6013720839
 20
13.6000477814
 11
3.6013720839
 21
11.6000477814
  0
LINE
  5
24F
100
AcDbEntity
  8
0
100
AcDbLine
 62
7
  6
CONTINUOUS
 10
8.5403720839
 20
11.6000477814
 11
3.6013720839
 21
11.6000477814
  0
LINE
  5
250
100
AcDbEntity
  8
0
100
AcDbLine
 62
7
  6
CONTINUOUS
 10
3.6013720839
 20
13.6000477814
 11
8.5403720839
 21
13.6000477814
  0
LINE
  5
251
100
AcDbEntity
  8
0
100
AcDbLine
 62
7
  6
CONTINUOUS
 10
8.5403720839
 20
11.6000477814
 11
8.5403720839
 21
13.6000477814
  0
LINE
  5
252
100
AcDbEntity
  8
LAYER_FEATURE
100
AcDbLine
 62
7
  6
CONTINUOUS
 10
14.5603552569
 20
5.2506247044
 11
14.5603552569
 21
5.6256247044
  0
LINE
  5
253
100
AcDbEntity
  8
0
100
AcDbLine
 62
7
  6
CONTINUOUS
 10
14.5603552569
 20
5.6256247044
 11
14.5603552569
 21
5.6706247044
  0
LINE
  5
254
100
AcDbEntity
  8
LAYER_FEATURE
100
AcDbLine
 62
7
  6
CONTINUOUS
 10
14.5603552569
 20
5.2506247044
 11
16.5603552569
 21
5.2506247044
  0
LINE
  5
255
100
AcDbEntity
  8
LAYER_FEATURE
100
AcDbLine
 62
7
  6
CONTINUOUS
 10
16.5603552569
 20
5.6256247044
 11
14.5603552569
 21
5.6256247044
  0
LINE
  5
256
100
AcDbEntity
  8
0
100
AcDbLine
 62
7
  6
CONTINUOUS
 10
14.5603552569
 20
5.6706247044
 11
16.5603552569
 21
5.6706247044
  0
LINE
  5
257
100
AcDbEntity
  8
0
100
AcDbLine
 62
7
  6
CONTINUOUS
 10
16.5603552569
 20
5.6706247044
 11
16.5603552569
 21
5.6256247044
  0
LINE
  5
258
100
AcDbEntity
  8
LAYER_FEATURE
100
AcDbLine
 62
7
  6
CONTINUOUS
 10
16.5603552569
 20
5.2506247044
 11
16.5603552569
 21
5.6256247044
  0
LINE
  5
259
100
AcDbEntity
  8
0
100
AcDbLine
 62
7
  6
CONTINUOUS
 10
12.9458038225
 20
11.8533541019
 11
12.9572428925
 21
11.830043728
  0
LINE
  5
25A
100
AcDbEntity
  8
0
100
AcDbLine
 62
7
  6
CONTINUOUS
 10
12.9455469321
 20
11.8555682097
 11
12.9458038225
 21
11.8533541019
  0
LINE
  5
25B
100
AcDbEntity
  8
0
100
AcDbLine
 62
7
  6
CONTINUOUS
 10
13.4296787704
 20
13.4222222764
 11
12.9455461236
 21
11.8555684571
  0
LINE
  5
25C
100
AcDbEntity
  8
0
100
AcDbLine
 62
7
  6
CONTINUOUS
 10
12.9572428925
 20
11.830043728
 11
13.1687362061
 21
11.6082993457
  0
LINE
  5
25D
100
AcDbEntity
  8
0
100
AcDbLine
 62
7
  6
CONTINUOUS
 10
13.5390453758
 20
11.6082993457
 11
13.5329060137
 21
11.830043728
  0
LINE
  5
25E
100
AcDbEntity
  8
0
100
AcDbLine
 62
7
  6
CONTINUOUS
 10
13.5329060137
 20
11.830043728
 11
13.5260425717
 21
11.8440299523
  0
LINE
  5
25F
100
AcDbEntity
  8
LAYER_FEATURE
100
AcDbLine
 62
7
  6
CONTINUOUS
 10
13.6126223052
 20
11.8440299523
 11
13.6194857472
 21
11.830043728
  0
LINE
  5
260
100
AcDbEntity
  8
0
100
AcDbLine
 62
7
  6
CONTINUOUS
 10
13.5386559964
 20
11.6054410361
 11
13.5390453758
 21
11.6082993457
  0
LINE
  5
261
100
AcDbEntity
  8
LAYER_FEATURE
100
AcDbLine
 62
7
  6
CONTINUOUS
 10
13.6194857472
 20
11.830043728
 11
13.8309790608
 21
11.6082993457
  0
LINE
  5
262
100
AcDbEntity
  8
0
100
AcDbLine
 62
7
  6
CONTINUOUS
 10
13.5372280839
 20
11.8440299523
 11
13.5329060137
 21
11.830043728
  0
LINE
  5
263
100
AcDbEntity
  8
0
100
AcDbLine
 62
7
  6
CONTINUOUS
 10
13.5395027959
 20
11.6081579922
 11
13.6124127555
 21
11.8440947081
  0
LINE
  5
264
100
AcDbEntity
  8
LAYER_FEATURE
100
AcDbLine
 62
7
  6
CONTINUOUS
 10
14.1951488684
 20
11.830043728
 11
14.1882854264
 21
11.8440299523
  0
LINE
  5
265
100
AcDbEntity
  8
LAYER_FEATURE
100
AcDbLine
 62
7
  6
CONTINUOUS
 10
14.2012882305
 20
11.6082993457
 11
14.1951488684
 21
11.830043728
  0
LINE
  5
266
100
AcDbEntity
  8
LAYER_FEATURE
100
AcDbLine
 62
7
  6
CONTINUOUS
 10
14.2817286018
 20
11.830043728
 11
14.4932219155
 21
11.6082993457
  0
LINE
  5
267
100
AcDbEntity
  8
LAYER_FEATURE
100
AcDbLine
 62
7
  6
CONTINUOUS
 10
14.2748651598
 20
11.8440299523
 11
14.2817286018
 21
11.830043728
  0
LINE
  5
268
100
AcDbEntity
  8
LAYER_FEATURE
100
AcDbLine
 62
7
  6
CONTINUOUS
 10
14.2008988511
 20
11.6054410361
 11
14.2012882305
 21
11.6082993457
  0
LINE
  5
269
100
AcDbEntity
  8
LAYER_FEATURE
100
AcDbLine
 62
7
  6
CONTINUOUS
 10
14.1994709386
 20
11.8440299523
 11
14.1951488684
 21
11.830043728
  0
LINE
  5
26A
100
AcDbEntity
  8
LAYER_FEATURE
100
AcDbLine
 62
7
  6
CONTINUOUS
 10
14.2017456506
 20
11.6081579922
 11
14.2746556102
 21
11.8440947081
  0
LINE
  5
26B
100
AcDbEntity
  8
0
100
AcDbLine
 62
7
  6
CONTINUOUS
 10
13.19720469
 20
11.5969399899
 11
13.5217256161
 21
11.5969399899
  0
LINE
  5
26C
100
AcDbEntity
  8
LAYER_FEATURE
100
AcDbLine
 62
7
  6
CONTINUOUS
 10
13.8594475447
 20
11.5969399899
 11
14.1839684708
 21
11.5969399899
  0
LINE
  5
26D
100
AcDbEntity
  8
LAYER_FEATURE
100
AcDbLine
 62
7
  6
CONTINUOUS
 10
14.5216903994
 20
11.5969399899
 11
14.8462113255
 21
11.5969399899
  0
LINE
  5
26E
100
AcDbEntity
  8
LAYER_FEATURE
100
AcDbLine
 62
7
  6
CONTINUOUS
 10
15.1839332541
 20
11.5969399899
 11
15.5084541802
 21
11.5969399899
  0
LINE
  5
26F
100
AcDbEntity
  8
LAYER_FEATURE
100
AcDbLine
 62
7
  6
CONTINUOUS
 10
15.8461761088
 20
11.5969399899
 11
16.1706970349
 21
11.5969399899
  0
LINE
  5
270
100
AcDbEntity
  8
LAYER_FEATURE
100
AcDbLine
 62
7
  6
CONTINUOUS
 10
16.5084189635
 20
11.5969399899
 11
16.8329398896
 21
11.5969399899
  0
LINE
  5
271
100
AcDbEntity
  8
LAYER_FEATURE
100
AcDbLine
 62
7
  6
CONTINUOUS
 10
17.1706618181
 20
11.5969399899
 11
17.4951827443
 21
11.5969399899
  0
LINE
  5
272
100
AcDbEntity
  8
LAYER_FEATURE
100
AcDbLine
 62
7
  6
CONTINUOUS
 10
14.9439714565
 20
11.830043728
 11
15.1554647701
 21
11.6082993457
  0
LINE
  5
273
100
AcDbEntity
  8
LAYER_FEATURE
100
AcDbLine
 62
7
  6
CONTINUOUS
 10
14.8573917231
 20
11.830043728
 11
14.8505282811
 21
11.8440299523
  0
LINE
  5
274
100
AcDbEntity
  8
LAYER_FEATURE
100
AcDbLine
 62
7
  6
CONTINUOUS
 10
14.9371080145
 20
11.8440299523
 11
14.9439714565
 21
11.830043728
  0
LINE
  5
275
100
AcDbEntity
  8
LAYER_FEATURE
100
AcDbLine
 62
7
  6
CONTINUOUS
 10
14.8635310852
 20
11.6082993457
 11
14.8573917231
 21
11.830043728
  0
LINE
  5
276
100
AcDbEntity
  8
LAYER_FEATURE
100
AcDbLine
 62
7
  6
CONTINUOUS
 10
13.5260425717
 20
11.8440299523
 11
13.6126223052
 21
11.8440299523
  0
LINE
  5
277
100
AcDbEntity
  8
LAYER_FEATURE
100
AcDbLine
 62
7
  6
CONTINUOUS
 10
14.1882854264
 20
11.8440299523
 11
14.2748651598
 21
11.8440299523
  0
LINE
  5
278
100
AcDbEntity
  8
LAYER_FEATURE
100
AcDbLine
 62
7
  6
CONTINUOUS
 10
14.8505282811
 20
11.8440299523
 11
14.9371080145
 21
11.8440299523
  0
LINE
  5
279
100
AcDbEntity
  8
LAYER_FEATURE
100
AcDbLine
 62
7
  6
CONTINUOUS
 10
15.5127711358
 20
11.8440299523
 11
15.5993508692
 21
11.8440299523
  0
LINE
  5
27A
100
AcDbEntity
  8
LAYER_FEATURE
100
AcDbLine
 62
7
  6
CONTINUOUS
 10
16.1750139905
 20
11.8440299523
 11
16.2615937239
 21
11.8440299523
  0
LINE
  5
27B
100
AcDbEntity
  8
LAYER_FEATURE
100
AcDbLine
 62
7
  6
CONTINUOUS
 10
16.8372568452
 20
11.8440299523
 11
16.9238365786
 21
11.8440299523
  0
LINE
  5
27C
100
AcDbEntity
  8
0
100
AcDbLine
 62
7
  6
CONTINUOUS
 10
17.4857283004
 20
11.8580161766
 11
12.9504239659
 21
11.8580161766
  0
LINE
  5
27D
100
AcDbEntity
  8
LAYER_FEATURE
100
AcDbLine
 62
7
  6
CONTINUOUS
 10
14.8631417057
 20
11.6054410361
 11
14.8635310852
 21
11.6082993457
  0
LINE
  5
27E
100
AcDbEntity
  8
LAYER_FEATURE
100
AcDbLine
 62
7
  6
CONTINUOUS
 10
14.8617137933
 20
11.8440299523
 11
14.8573917231
 21
11.830043728
  0
LINE
  5
27F
100
AcDbEntity
  8
LAYER_FEATURE
100
AcDbLine
 62
7
  6
CONTINUOUS
 10
15.6062143112
 20
11.830043728
 11
15.8177076248
 21
11.6082993457
  0
LINE
  5
280
100
AcDbEntity
  8
LAYER_FEATURE
100
AcDbLine
 62
7
  6
CONTINUOUS
 10
14.8639885053
 20
11.6081579922
 11
14.9368984649
 21
11.8440947081
  0
LINE
  5
281
100
AcDbEntity
  8
LAYER_FEATURE
100
AcDbLine
 62
7
  6
CONTINUOUS
 10
15.5196345778
 20
11.830043728
 11
15.5127711358
 21
11.8440299523
  0
LINE
  5
282
100
AcDbEntity
  8
LAYER_FEATURE
100
AcDbLine
 62
7
  6
CONTINUOUS
 10
15.5993508692
 20
11.8440299523
 11
15.6062143112
 21
11.830043728
  0
LINE
  5
283
100
AcDbEntity
  8
LAYER_FEATURE
100
AcDbLine
 62
7
  6
CONTINUOUS
 10
15.5257739399
 20
11.6082993457
 11
15.5196345778
 21
11.830043728
  0
LINE
  5
284
100
AcDbEntity
  8
LAYER_FEATURE
100
AcDbLine
 62
7
  6
CONTINUOUS
 10
15.5253845604
 20
11.6054410361
 11
15.5257739399
 21
11.6082993457
  0
LINE
  5
285
100
AcDbEntity
  8
LAYER_FEATURE
100
AcDbLine
 62
7
  6
CONTINUOUS
 10
16.2684571659
 20
11.830043728
 11
16.4799504795
 21
11.6082993457
  0
LINE
  5
286
100
AcDbEntity
  8
LAYER_FEATURE
100
AcDbLine
 62
7
  6
CONTINUOUS
 10
15.523956648
 20
11.8440299523
 11
15.5196345778
 21
11.830043728
  0
LINE
  5
287
100
AcDbEntity
  8
LAYER_FEATURE
100
AcDbLine
 62
7
  6
CONTINUOUS
 10
15.52623136
 20
11.6081579922
 11
15.5991413196
 21
11.8440947081
  0
LINE
  5
288
100
AcDbEntity
  8
LAYER_FEATURE
100
AcDbLine
 62
7
  6
CONTINUOUS
 10
16.1818774325
 20
11.830043728
 11
16.1750139905
 21
11.8440299523
  0
LINE
  5
289
100
AcDbEntity
  8
LAYER_FEATURE
100
AcDbLine
 62
7
  6
CONTINUOUS
 10
16.2615937239
 20
11.8440299523
 11
16.2684571659
 21
11.830043728
  0
LINE
  5
28A
100
AcDbEntity
  8
LAYER_FEATURE
100
AcDbLine
 62
7
  6
CONTINUOUS
 10
16.1880167946
 20
11.6082993457
 11
16.1818774325
 21
11.830043728
  0
LINE
  5
28B
100
AcDbEntity
  8
LAYER_FEATURE
100
AcDbLine
 62
7
  6
CONTINUOUS
 10
16.9307000206
 20
11.830043728
 11
17.1421933342
 21
11.6082993457
  0
LINE
  5
28C
100
AcDbEntity
  8
LAYER_FEATURE
100
AcDbLine
 62
7
  6
CONTINUOUS
 10
16.1876274151
 20
11.6054410361
 11
16.1880167946
 21
11.6082993457
  0
LINE
  5
28D
100
AcDbEntity
  8
LAYER_FEATURE
100
AcDbLine
 62
7
  6
CONTINUOUS
 10
16.1861995027
 20
11.8440299523
 11
16.1818774325
 21
11.830043728
  0
LINE
  5
28E
100
AcDbEntity
  8
0
100
AcDbLine
 62
7
  6
CONTINUOUS
 10
13.4345566127
 20
13.4246699959
 11
17.9698609472
 21
13.4246699959
  0
LINE
  5
28F
100
AcDbEntity
  8
LAYER_FEATURE
100
AcDbLine
 62
7
  6
CONTINUOUS
 10
16.1884742146
 20
11.6081579922
 11
16.2613841743
 21
11.8440947081
  0
LINE
  5
290
100
AcDbEntity
  8
LAYER_FEATURE
100
AcDbLine
 62
7
  6
CONTINUOUS
 10
16.8441202872
 20
11.830043728
 11
16.8372568452
 21
11.8440299523
  0
LINE
  5
291
100
AcDbEntity
  8
LAYER_FEATURE
100
AcDbLine
 62
7
  6
CONTINUOUS
 10
16.9238365786
 20
11.8440299523
 11
16.9307000206
 21
11.830043728
  0
LINE
  5
292
100
AcDbEntity
  8
LAYER_FEATURE
100
AcDbLine
 62
7
  6
CONTINUOUS
 10
16.8502596492
 20
11.6082993457
 11
16.8441202872
 21
11.830043728
  0
LINE
  5
293
100
AcDbEntity
  8
LAYER_FEATURE
100
AcDbLine
 62
7
  6
CONTINUOUS
 10
16.8498702698
 20
11.6054410361
 11
16.8502596492
 21
11.6082993457
  0
LINE
  5
294
100
AcDbEntity
  8
LAYER_FEATURE
100
AcDbLine
 62
7
  6
CONTINUOUS
 10
16.8484423574
 20
11.8440299523
 11
16.8441202872
 21
11.830043728
  0
LINE
  5
295
100
AcDbEntity
  8
LAYER_FEATURE
100
AcDbLine
 62
7
  6
CONTINUOUS
 10
16.8507170693
 20
11.6081579922
 11
16.923627029
 21
11.8440947081
  0
LINE
  5
296
100
AcDbEntity
  8
0
100
AcDbLine
 62
7
  6
CONTINUOUS
 10
17.5063631418
 20
11.830043728
 11
17.4949240718
 21
11.8533541019
  0
LINE
  5
297
100
AcDbEntity
  8
LAYER_FEATURE
100
AcDbLine
 62
7
  6
CONTINUOUS
 10
17.5125025039
 20
11.6082993457
 11
17.5063631418
 21
11.830043728
  0
LINE
  5
298
100
AcDbEntity
  8
LAYER_FEATURE
100
AcDbLine
 62
7
  6
CONTINUOUS
 10
17.5121131245
 20
11.6054410361
 11
17.5125025039
 21
11.6082993457
  0
LINE
  5
299
100
AcDbEntity
  8
LAYER_FEATURE
100
AcDbLine
 62
7
  6
CONTINUOUS
 10
17.9904957887
 20
13.3966975473
 11
17.5063631418
 21
11.830043728
  0
LINE
  5
29A
100
AcDbEntity
  8
LAYER_FEATURE
100
AcDbLine
 62
7
  6
CONTINUOUS
 10
17.512959924
 20
11.6081579922
 11
17.9962523436
 21
13.1720928352
  0
LINE
  5
29B
100
AcDbEntity
  8
LAYER_FEATURE
100
AcDbLine
 62
7
  6
CONTINUOUS
 10
17.9966351507
 20
13.1749531649
 11
17.9904957887
 21
13.3966975473
  0
LINE
  5
29C
100
AcDbEntity
  8
LAYER_FEATURE
100
AcDbLine
 62
7
  6
CONTINUOUS
 10
17.9966351507
 20
13.1749531649
 11
17.9962457713
 21
13.1720948554
  0
LINE
  5
29D
100
AcDbEntity
  8
0
100
AcDbLine
 62
7
  6
CONTINUOUS
 10
17.9790567187
 20
13.4200079211
 11
17.9904957887
 21
13.3966975473
  0
ARC
  5
29E
100
AcDbEntity
  8
0
100
AcDbCircle
 62
7
  6
CONTINUOUS
 10
3.7972003729
 20
5.3361615634
 40
0.0260416667
100
AcDbArc
 50
197.3540246363
 51
270.0
  0
ARC
  5
29F
100
AcDbEntity
  8
0
100
AcDbCircle
 62
7
  6
CONTINUOUS
 10
4.1495341795
 20
5.3361615634
 40
0.0260416667
100
AcDbArc
 50
270.0
 51
342.6459753637
  0
ARC
  5
2A0
100
AcDbEntity
  8
LAYER_FEATURE
100
AcDbCircle
 62
7
  6
CONTINUOUS
 10
4.5162003729
 20
5.3361615634
 40
0.0260416667
100
AcDbArc
 50
197.3540246363
 51
270.0
  0
ARC
  5
2A1
100
AcDbEntity
  8
LAYER_FEATURE
100
AcDbCircle
 62
7
  6
CONTINUOUS
 10
4.8685341795
 20
5.3361615634
 40
0.0260416667
100
AcDbArc
 50
270.0
 51
342.6459753637
  0
ARC
  5
2A2
100
AcDbEntity
  8
LAYER_FEATURE
100
AcDbCircle
 62
7
  6
CONTINUOUS
 10
5.2352003729
 20
5.3361615634
 40
0.0260416667
100
AcDbArc
 50
197.3540246363
 51
270.0
  0
ARC
  5
2A3
100
AcDbEntity
  8
LAYER_FEATURE
100
AcDbCircle
 62
7
  6
CONTINUOUS
 10
5.5875341795
 20
5.3361615634
 40
0.0260416667
100
AcDbArc
 50
270.0
 51
342.6459753637
  0
ARC
  5
2A4
100
AcDbEntity
  8
LAYER_FEATURE
100
AcDbCircle
 62
7
  6
CONTINUOUS
 10
5.9542003729
 20
5.3361615634
 40
0.0260416667
100
AcDbArc
 50
197.3540246363
 51
270.0
  0
ARC
  5
2A5
100
AcDbEntity
  8
LAYER_FEATURE
100
AcDbCircle
 62
7
  6
CONTINUOUS
 10
6.3065341795
 20
5.3361615634
 40
0.0260416667
100
AcDbArc
 50
270.0
 51
342.6459753637
  0
ARC
  5
2A6
100
AcDbEntity
  8
LAYER_FEATURE
100
AcDbCircle
 62
7
  6
CONTINUOUS
 10
6.6732003729
 20
5.3361615634
 40
0.0260416667
100
AcDbArc
 50
197.3540246363
 51
270.0
  0
ARC
  5
2A7
100
AcDbEntity
  8
LAYER_FEATURE
100
AcDbCircle
 62
7
  6
CONTINUOUS
 10
7.0255341795
 20
5.3361615634
 40
0.0260416667
100
AcDbArc
 50
270.0
 51
342.6459753637
  0
ARC
  5
2A8
100
AcDbEntity
  8
LAYER_FEATURE
100
AcDbCircle
 62
7
  6
CONTINUOUS
 10
7.3922003729
 20
5.3361615634
 40
0.0260416667
100
AcDbArc
 50
197.3540246363
 51
270.0
  0
ARC
  5
2A9
100
AcDbEntity
  8
LAYER_FEATURE
100
AcDbCircle
 62
7
  6
CONTINUOUS
 10
7.7445341795
 20
5.3361615634
 40
0.0260416667
100
AcDbArc
 50
270.0
 51
342.6459753637
  0
ARC
  5
2AA
100
AcDbEntity
  8
LAYER_FEATURE
100
AcDbCircle
 62
7
  6
CONTINUOUS
 10
8.4635341795
 20
5.3361615634
 40
0.0260416667
100
AcDbArc
 50
270.0
 51
342.6459753637
  0
ARC
  5
2AB
100
AcDbEntity
  8
LAYER_FEATURE
100
AcDbCircle
 62
7
  6
CONTINUOUS
 10
8.1112003729
 20
5.3361615634
 40
0.0260416667
100
AcDbArc
 50
197.3540246363
 51
270.0
  0
ARC
  5
2AC
100
AcDbEntity
  8
0
100
AcDbCircle
 62
7
  6
CONTINUOUS
 10
3.6683672762
 20
5.7226198968
 40
0.0075
100
AcDbArc
 50
90.0
 51
180.0
  0
ARC
  5
2AD
100
AcDbEntity
  8
0
100
AcDbCircle
 62
7
  6
CONTINUOUS
 10
8.5923672762
 20
5.7226198968
 40
0.0075
100
AcDbArc
 50
0.0
 51
90.0
  0
SPLINE
  5
2AE
100
AcDbEntity
  8
0
100
AcDbSpline
 62
7
  6
CONTINUOUS
 70
0
 71
3
 72
12
 73
8
 74
0
 42
0.0000001
 43
0.0000001
 44
0.0000000001
 40
0.0
 40
0.0
 40
0.0
 40
0.0
 40
0.2642051881
 40
0.53615925
 40
0.7879547432
 40
0.9000009334
 40
1.0
 40
1.0
 40
1.0
 40
1.0
 10
17.9698609472
 20
13.4246699959
 30
0.0
 10
17.970806606
 20
13.4246699959
 30
0.0
 10
17.9727296317
 20
13.4244070906
 30
0.0
 10
17.9753965981
 20
13.4234362832
 30
0.0
 10
17.977327804
 20
13.4221743209
 30
0.0
 10
17.9784777371
 20
13.4209686206
 30
0.0
 10
17.9788990385
 20
13.4203292395
 30
0.0
 10
17.9790567187
 20
13.4200079211
 30
0.0
  0
SPLINE
  5
2AF
100
AcDbEntity
  8
0
100
AcDbSpline
 62
7
  6
CONTINUOUS
 70
0
 71
3
 72
11
 73
7
 74
0
 42
0.0000001
 43
0.0000001
 44
0.0000000001
 40
0.0
 40
0.0
 40
0.0
 40
0.0
 40
0.2022595964
 40
0.4301234434
 40
0.6973865799
 40
1.0
 40
1.0
 40
1.0
 40
1.0
 10
13.4296793359
 20
13.4222221036
 30
0.0
 10
13.4297929441
 20
13.4225961023
 30
0.0
 10
13.4302446107
 20
13.4233349936
 30
0.0
 10
13.4313793935
 20
13.4241118198
 30
0.0
 10
13.4328669622
 20
13.424572609
 30
0.0
 10
13.4339718025
 20
13.4246699959
 30
0.0
 10
13.4345566127
 20
13.4246699959
 30
0.0
  0
SPLINE
  5
2B0
100
AcDbEntity
  8
LAYER_FEATURE
100
AcDbSpline
 62
7
  6
CONTINUOUS
 70
0
 71
3
 72
13
 73
9
 74
0
 42
0.0000001
 43
0.0000001
 44
0.0000000001
 40
0.0
 40
0.0
 40
0.0
 40
0.0
 40
0.3030219738
 40
0.5686427806
 40
0.6869868372
 40
0.7967724078
 40
0.9001197115
 40
1.0
 40
1.0
 40
1.0
 40
1.0
 10
17.4951827443
 20
11.5969399899
 30
0.0
 10
17.4972206242
 20
11.5969399899
 30
0.0
 10
17.5010562823
 20
11.5972626827
 30
0.0
 10
17.5055202907
 20
11.5986651298
 30
0.0
 10
17.508385311
 20
11.6003724079
 30
0.0
 10
17.5100770424
 20
11.6018453647
 30
0.0
 10
17.5113599097
 20
11.60353463
 30
0.0
 10
17.5119202055
 20
11.6047975979
 30
0.0
 10
17.5121183017
 20
11.6054394369
 30
0.0
  0
SPLINE
  5
2B1
100
AcDbEntity
  8
LAYER_FEATURE
100
AcDbSpline
 62
7
  6
CONTINUOUS
 70
0
 71
3
 72
11
 73
7
 74
0
 42
0.0000001
 43
0.0000001
 44
0.0000000001
 40
0.0
 40
0.0
 40
0.0
 40
0.0
 40
0.2310250174
 40
0.4854994292
 40
0.747620267
 40
1.0
 40
1.0
 40
1.0
 40
1.0
 10
17.1421933342
 20
11.6082993457
 30
0.0
 10
17.1438598631
 20
11.6065520402
 30
0.0
 10
17.1478835613
 20
11.6033700036
 30
0.0
 10
17.1548959421
 20
11.5998312628
 30
0.0
 10
17.1626380551
 20
11.5975284845
 30
0.0
 10
17.1680240025
 20
11.5969399899
 30
0.0
 10
17.1706618181
 20
11.5969399899
 30
0.0
  0
SPLINE
  5
2B2
100
AcDbEntity
  8
LAYER_FEATURE
100
AcDbSpline
 62
7
  6
CONTINUOUS
 70
0
 71
3
 72
13
 73
9
 74
0
 42
0.0000001
 43
0.0000001
 44
0.0000000001
 40
0.0
 40
0.0
 40
0.0
 40
0.0
 40
0.3030219738
 40
0.5686427806
 40
0.6869868372
 40
0.7967724078
 40
0.9001197115
 40
1.0
 40
1.0
 40
1.0
 40
1.0
 10
16.8329398896
 20
11.5969399899
 30
0.0
 10
16.8349777695
 20
11.5969399899
 30
0.0
 10
16.8388134276
 20
11.5972626827
 30
0.0
 10
16.843277436
 20
11.5986651298
 30
0.0
 10
16.8461424563
 20
11.6003724079
 30
0.0
 10
16.8478341877
 20
11.6018453647
 30
0.0
 10
16.849117055
 20
11.60353463
 30
0.0
 10
16.8496773508
 20
11.6047975979
 30
0.0
 10
16.849875447
 20
11.6054394369
 30
0.0
  0
SPLINE
  5
2B3
100
AcDbEntity
  8
LAYER_FEATURE
100
AcDbSpline
 62
7
  6
CONTINUOUS
 70
0
 71
3
 72
11
 73
7
 74
0
 42
0.0000001
 43
0.0000001
 44
0.0000000001
 40
0.0
 40
0.0
 40
0.0
 40
0.0
 40
0.2310250174
 40
0.4854994292
 40
0.747620267
 40
1.0
 40
1.0
 40
1.0
 40
1.0
 10
16.4799504795
 20
11.6082993457
 30
0.0
 10
16.4816170084
 20
11.6065520402
 30
0.0
 10
16.4856407066
 20
11.6033700036
 30
0.0
 10
16.4926530874
 20
11.5998312628
 30
0.0
 10
16.5003952004
 20
11.5975284845
 30
0.0
 10
16.5057811478
 20
11.5969399899
 30
0.0
 10
16.5084189635
 20
11.5969399899
 30
0.0
  0
SPLINE
  5
2B4
100
AcDbEntity
  8
LAYER_FEATURE
100
AcDbSpline
 62
7
  6
CONTINUOUS
 70
0
 71
3
 72
13
 73
9
 74
0
 42
0.0000001
 43
0.0000001
 44
0.0000000001
 40
0.0
 40
0.0
 40
0.0
 40
0.0
 40
0.3030219738
 40
0.5686427806
 40
0.6869868372
 40
0.7967724078
 40
0.9001197115
 40
1.0
 40
1.0
 40
1.0
 40
1.0
 10
16.1706970349
 20
11.5969399899
 30
0.0
 10
16.1727349148
 20
11.5969399899
 30
0.0
 10
16.1765705729
 20
11.5972626827
 30
0.0
 10
16.1810345813
 20
11.5986651298
 30
0.0
 10
16.1838996016
 20
11.6003724079
 30
0.0
 10
16.185591333
 20
11.6018453647
 30
0.0
 10
16.1868742003
 20
11.60353463
 30
0.0
 10
16.1874344961
 20
11.6047975979
 30
0.0
 10
16.1876325923
 20
11.6054394369
 30
0.0
  0
SPLINE
  5
2B5
100
AcDbEntity
  8
LAYER_FEATURE
100
AcDbSpline
 62
7
  6
CONTINUOUS
 70
0
 71
3
 72
11
 73
7
 74
0
 42
0.0000001
 43
0.0000001
 44
0.0000000001
 40
0.0
 40
0.0
 40
0.0
 40
0.0
 40
0.2310250174
 40
0.4854994292
 40
0.747620267
 40
1.0
 40
1.0
 40
1.0
 40
1.0
 10
15.8177076248
 20
11.6082993457
 30
0.0
 10
15.8193741537
 20
11.6065520402
 30
0.0
 10
15.8233978519
 20
11.6033700036
 30
0.0
 10
15.8304102327
 20
11.5998312628
 30
0.0
 10
15.8381523457
 20
11.5975284845
 30
0.0
 10
15.8435382931
 20
11.5969399899
 30
0.0
 10
15.8461761088
 20
11.5969399899
 30
0.0
  0
SPLINE
  5
2B6
100
AcDbEntity
  8
LAYER_FEATURE
100
AcDbSpline
 62
7
  6
CONTINUOUS
 70
0
 71
3
 72
13
 73
9
 74
0
 42
0.0000001
 43
0.0000001
 44
0.0000000001
 40
0.0
 40
0.0
 40
0.0
 40
0.0
 40
0.3030219738
 40
0.5686427806
 40
0.6869868372
 40
0.7967724078
 40
0.9001197115
 40
1.0
 40
1.0
 40
1.0
 40
1.0
 10
15.5084541802
 20
11.5969399899
 30
0.0
 10
15.5104920601
 20
11.5969399899
 30
0.0
 10
15.5143277182
 20
11.5972626827
 30
0.0
 10
15.5187917266
 20
11.5986651298
 30
0.0
 10
15.5216567469
 20
11.6003724079
 30
0.0
 10
15.5233484783
 20
11.6018453647
 30
0.0
 10
15.5246313457
 20
11.60353463
 30
0.0
 10
15.5251916414
 20
11.6047975979
 30
0.0
 10
15.5253897376
 20
11.6054394369
 30
0.0
  0
SPLINE
  5
2B7
100
AcDbEntity
  8
LAYER_FEATURE
100
AcDbSpline
 62
7
  6
CONTINUOUS
 70
0
 71
3
 72
11
 73
7
 74
0
 42
0.0000001
 43
0.0000001
 44
0.0000000001
 40
0.0
 40
0.0
 40
0.0
 40
0.0
 40
0.2310250174
 40
0.4854994292
 40
0.747620267
 40
1.0
 40
1.0
 40
1.0
 40
1.0
 10
15.1554647701
 20
11.6082993457
 30
0.0
 10
15.157131299
 20
11.6065520402
 30
0.0
 10
15.1611549972
 20
11.6033700036
 30
0.0
 10
15.168167378
 20
11.5998312628
 30
0.0
 10
15.175909491
 20
11.5975284845
 30
0.0
 10
15.1812954384
 20
11.5969399899
 30
0.0
 10
15.1839332541
 20
11.5969399899
 30
0.0
  0
SPLINE
  5
2B8
100
AcDbEntity
  8
LAYER_FEATURE
100
AcDbSpline
 62
7
  6
CONTINUOUS
 70
0
 71
3
 72
13
 73
9
 74
0
 42
0.0000001
 43
0.0000001
 44
0.0000000001
 40
0.0
 40
0.0
 40
0.0
 40
0.0
 40
0.3030219738
 40
0.5686427806
 40
0.6869868372
 40
0.7967724078
 40
0.9001197115
 40
1.0
 40
1.0
 40
1.0
 40
1.0
 10
14.8462113255
 20
11.5969399899
 30
0.0
 10
14.8482492054
 20
11.5969399899
 30
0.0
 10
14.8520848635
 20
11.5972626827
 30
0.0
 10
14.8565488719
 20
11.5986651298
 30
0.0
 10
14.8594138922
 20
11.6003724079
 30
0.0
 10
14.8611056236
 20
11.6018453647
 30
0.0
 10
14.862388491
 20
11.60353463
 30
0.0
 10
14.8629487868
 20
11.6047975979
 30
0.0
 10
14.863146883
 20
11.6054394369
 30
0.0
  0
SPLINE
  5
2B9
100
AcDbEntity
  8
LAYER_FEATURE
100
AcDbSpline
 62
7
  6
CONTINUOUS
 70
0
 71
3
 72
11
 73
7
 74
0
 42
0.0000001
 43
0.0000001
 44
0.0000000001
 40
0.0
 40
0.0
 40
0.0
 40
0.0
 40
0.2310250174
 40
0.4854994292
 40
0.747620267
 40
1.0
 40
1.0
 40
1.0
 40
1.0
 10
14.4932219155
 20
11.6082993457
 30
0.0
 10
14.4948884443
 20
11.6065520402
 30
0.0
 10
14.4989121425
 20
11.6033700036
 30
0.0
 10
14.5059245233
 20
11.5998312628
 30
0.0
 10
14.5136666364
 20
11.5975284845
 30
0.0
 10
14.5190525837
 20
11.5969399899
 30
0.0
 10
14.5216903994
 20
11.5969399899
 30
0.0
  0
SPLINE
  5
2BA
100
AcDbEntity
  8
LAYER_FEATURE
100
AcDbSpline
 62
7
  6
CONTINUOUS
 70
0
 71
3
 72
13
 73
9
 74
0
 42
0.0000001
 43
0.0000001
 44
0.0000000001
 40
0.0
 40
0.0
 40
0.0
 40
0.0
 40
0.3030219738
 40
0.5686427806
 40
0.6869868372
 40
0.7967724078
 40
0.9001197115
 40
1.0
 40
1.0
 40
1.0
 40
1.0
 10
14.1839684708
 20
11.5969399899
 30
0.0
 10
14.1860063507
 20
11.5969399899
 30
0.0
 10
14.1898420088
 20
11.5972626827
 30
0.0
 10
14.1943060172
 20
11.5986651298
 30
0.0
 10
14.1971710375
 20
11.6003724079
 30
0.0
 10
14.1988627689
 20
11.6018453647
 30
0.0
 10
14.2001456363
 20
11.60353463
 30
0.0
 10
14.2007059321
 20
11.6047975979
 30
0.0
 10
14.2009040283
 20
11.6054394369
 30
0.0
  0
SPLINE
  5
2BB
100
AcDbEntity
  8
LAYER_FEATURE
100
AcDbSpline
 62
7
  6
CONTINUOUS
 70
0
 71
3
 72
11
 73
7
 74
0
 42
0.0000001
 43
0.0000001
 44
0.0000000001
 40
0.0
 40
0.0
 40
0.0
 40
0.0
 40
0.2310250174
 40
0.4854994292
 40
0.747620267
 40
1.0
 40
1.0
 40
1.0
 40
1.0
 10
13.8309790608
 20
11.6082993457
 30
0.0
 10
13.8326455896
 20
11.6065520402
 30
0.0
 10
13.8366692878
 20
11.6033700036
 30
0.0
 10
13.8436816686
 20
11.5998312628
 30
0.0
 10
13.8514237817
 20
11.5975284845
 30
0.0
 10
13.8568097291
 20
11.5969399899
 30
0.0
 10
13.8594475447
 20
11.5969399899
 30
0.0
  0
SPLINE
  5
2BC
100
AcDbEntity
  8
0
100
AcDbSpline
 62
7
  6
CONTINUOUS
 70
0
 71
3
 72
13
 73
9
 74
0
 42
0.0000001
 43
0.0000001
 44
0.0000000001
 40
0.0
 40
0.0
 40
0.0
 40
0.0
 40
0.3030219738
 40
0.5686427806
 40
0.6869868372
 40
0.7967724078
 40
0.9001197115
 40
1.0
 40
1.0
 40
1.0
 40
1.0
 10
13.5217256161
 20
11.5969399899
 30
0.0
 10
13.523763496
 20
11.5969399899
 30
0.0
 10
13.5275991541
 20
11.5972626827
 30
0.0
 10
13.5320631625
 20
11.5986651298
 30
0.0
 10
13.5349281828
 20
11.6003724079
 30
0.0
 10
13.5366199142
 20
11.6018453647
 30
0.0
 10
13.5379027816
 20
11.60353463
 30
0.0
 10
13.5384630774
 20
11.6047975979
 30
0.0
 10
13.5386611736
 20
11.6054394369
 30
0.0
  0
SPLINE
  5
2BD
100
AcDbEntity
  8
0
100
AcDbSpline
 62
7
  6
CONTINUOUS
 70
0
 71
3
 72
11
 73
7
 74
0
 42
0.0000001
 43
0.0000001
 44
0.0000000001
 40
0.0
 40
0.0
 40
0.0
 40
0.0
 40
0.2310250174
 40
0.4854994292
 40
0.747620267
 40
1.0
 40
1.0
 40
1.0
 40
1.0
 10
13.1687362061
 20
11.6082993457
 30
0.0
 10
13.1704027349
 20
11.6065520402
 30
0.0
 10
13.1744264331
 20
11.6033700036
 30
0.0
 10
13.1814388139
 20
11.5998312628
 30
0.0
 10
13.189180927
 20
11.5975284845
 30
0.0
 10
13.1945668744
 20
11.5969399899
 30
0.0
 10
13.19720469
 20
11.5969399899
 30
0.0
  0
SPLINE
  5
2BE
100
AcDbEntity
  8
0
100
AcDbSpline
 62
7
  6
CONTINUOUS
 70
0
 71
3
 72
11
 73
7
 74
0
 42
0.0000001
 43
0.0000001
 44
0.0000000001
 40
0.0
 40
0.0
 40
0.0
 40
0.0
 40
0.3026134201
 40
0.5698765566
 40
0.7977404036
 40
1.0
 40
1.0
 40
1.0
 40
1.0
 10
12.9504239659
 20
11.8580161766
 30
0.0
 10
12.9498391557
 20
11.8580161766
 30
0.0
 10
12.9487343154
 20
11.8579187897
 30
0.0
 10
12.9472467467
 20
11.8574580005
 30
0.0
 10
12.9461119639
 20
11.8566811743
 30
0.0
 10
12.9456602973
 20
11.8559422831
 30
0.0
 10
12.945546689
 20
11.8555682843
 30
0.0
  0
SPLINE
  5
2BF
100
AcDbEntity
  8
0
100
AcDbSpline
 62
7
  6
CONTINUOUS
 70
0
 71
3
 72
12
 73
8
 74
0
 42
0.0000001
 43
0.0000001
 44
0.0000000001
 40
0.0
 40
0.0
 40
0.0
 40
0.0
 40
0.0999990666
 40
0.2120452568
 40
0.46384075
 40
0.7357948119
 40
1.0
 40
1.0
 40
1.0
 40
1.0
 10
17.4949240718
 20
11.8533541019
 30
0.0
 10
17.4947663917
 20
11.8536754203
 30
0.0
 10
17.4943450903
 20
11.8543148013
 30
0.0
 10
17.4931951572
 20
11.8555205017
 30
0.0
 10
17.4912639513
 20
11.8567824639
 30
0.0
 10
17.4885969849
 20
11.8577532713
 30
0.0
 10
17.4866739592
 20
11.8580161766
 30
0.0
 10
17.4857283004
 20
11.8580161766
 30
0.0
  0
ENDSEC
  0
SECTION
  2
OBJECTS
  0
DICTIONARY
  5
C
100
AcDbDictionary
280
0
281
1
  3
ACAD_GROUP
350
D
  3
ACAD_MLINESTYLE
350
17
  3
ACAD_LAYOUT
350
1A
  3
ACAD_PLOTSETTINGS
350
19
  3
ACAD_PLOTSTYLENAME
350
E
  0
DICTIONARY
  5
D
102
{ACAD_REACTORS
330
C
102
}
100
AcDbDictionary
280
0
281
1
  0
ACDBDICTIONARYWDFLT
  5
E
102
{ACAD_REACTORS
330
C
102
}
100
AcDbDictionary
281
1
  3
Normal
350
F
100
AcDbDictionaryWithDefault
340
F
  0
DICTIONARY
  5
17
102
{ACAD_REACTORS
330
C
102
}
100
AcDbDictionary
280
0
281
1
  3
Standard
350
18
  0
DICTIONARY
  5
19
102
{ACAD_REACTORS
330
C
102
}
100
AcDbDictionary
281
1
  0
DICTIONARY
  5
1A
102
{ACAD_REACTORS
330
C
102
}
100
AcDbDictionary
281
1
  3
Model
350
2C0
  3
Layout1
350
2C1
  0
ACDBPLACEHOLDER
  5
F
102
{ACAD_REACTORS
330
E
102
}
  0
MLINESTYLE
  5
18
102
{ACAD_REACTORS
330
17
102
}
100
AcDbMlineStyle
  2
STANDARD
 70
0
  3

 62
256
 51
90.0
 52
90.0
 71
2
 49
0.5
 62
256
  6
BYLAYER
 49
-0.5
 62
256
  6
BYLAYER
  0
LAYOUT
  5
2C0
102
{ACAD_REACTORS
330
1A
102
}
100
AcDbPlotSettings
  1

  2
none_device
  4
ANSI_C_(22.00_x_17.00_Inches)
  6

 40
0.0
 41
0.0
 42
0.0
 43
0.0
 44
558.8
 45
431.8
 46
0.0
 47
0.0
 48
0.0
 49
0.0
140
0.0
141
0.0
142
1.0
143
1.0
 70
1024
 72
0
 73
0
 74
0
  7

 75
0
147
1.0
148
0.0
149
0.0
100
AcDbLayout
  1
Model
 70
0
 71
0
 10
0.0
 20
0.0
 11
22.0
 21
17.0
 12
0.0
 22
0.0
 32
0.0
 14
0.0
 24
0.0
 34
0.0
 15
0.0
 25
0.0
 35
0.0
146
0.0
 13
0.0
 23
0.0
 33
0.0
 16
1.0
 26
0.0
 36
0.0
 17
0.0
 27
1.0
 37
0.0
 76
0
330
21C
345
0
346
0
  0
LAYOUT
  5
2C1
102
{ACAD_REACTORS
330
1A
102
}
100
AcDbPlotSettings
  1

  2
none_device
  4
ANSI_C_(22.00_x_17.00_Inches)
  6

 40
0.0
 41
0.0
 42
0.0
 43
0.0
 44
558.8
 45
431.8
 46
0.0
 47
0.0
 48
0.0
 49
0.0
140
0.0
141
0.0
142
1.0
143
1.0
 70
0
 72
0
 73
0
 74
0
  7

 75
0
147
1.0
148
0.0
149
0.0
100
AcDbLayout
  1
Layout1
 70
0
 71
1
 10
0.0
 20
0.0
 11
22.0
 21
17.0
 12
0.0
 22
0.0
 32
0.0
 14
0.0
 24
0.0
 34
0.0
 15
0.0
 25
0.0
 35
0.0
146
0.0
 13
0.0
 23
0.0
 33
0.0
 16
1.0
 26
0.0
 36
0.0
 17
0.0
 27
1.0
 37
0.0
 76
0
330
21D
345
0
346
0
  0
ENDSEC
  0
EOF