999
DXF file: _cgs_temp_output.dxf
999
Pro/ENGINEER 2015110 by Parametric Technology Corporation
  0
SECTION
  2
HEADER
  9
$ACADVER
  1
AC1021
  9
$DWGCODEPAGE
  3
ANSI_1252
  9
$EXTMAX
 10
22.0
 20
17.0
 30
0.0
  9
$EXTMIN
 10
0.0
 20
0.0
 30
0.0
  9
$LIMMIN
 10
0.0
 20
0.0
  9
$LIMMAX
 10
22.0
 20
17.0
  9
$VIEWCTR
 10
11.0
 20
8.5
  9
$VIEWSIZE
 40
17.0
  9
$CLAYER
  8
0
  9
$LTSCALE
 40
1.21
  9
$CELTYPE
  6
BYLAYER
  9
$DIMSCALE
 40
1.0
  9
$DIMASZ
 40
0.1875
  9
$DIMEXO
 40
0.0625
  9
$DIMDLI
 40
0.836
  9
$DIMEXE
 40
0.125
  9
$DIMCEN
 40
0.198
  9
$DIMLFAC
 40
1.0
  9
$DIMBLK
  1
_CLOSED
  9
$DIMALT
 70
0
  9
$DIMALTF
 40
25.4
  9
$DIMTXT
 40
0.15625
  9
$DIMTOL
 70
0
  9
$DIMLIM
 70
0
  9
$DIMTFAC
 40
1.0
  9
$DIMGAP
 40
0.09
  9
$DIMDSEP
 70
46
  9
$AUNITS
 70
0
  9
$PDMODE
 70
3
  9
$PDSIZE
 40
0.3125
  9
$HANDSEED
  5
290
  9
$TILEMODE
 70
1
  9
$MEASUREMENT
 70
0
  9
$INSUNITS
 70
1
  0
ENDSEC
  0
SECTION
  2
CLASSES
  0
CLASS
  1
ACDBDICTIONARYWDFLT
  2
AcDbDictionaryWithDefault
  3
AutoCAD 2000
 90
0
 91
1
280
0
281
0
  0
CLASS
  1
ACDBPLACEHOLDER
  2
AcDbPlaceHolder
  3
AutoCAD 2000
 90
0
 91
1
280
0
281
0
  0
CLASS
  1
LAYOUT
  2
AcDbLayout
  3
AutoCAD 2000
 90
0
 91
0
280
0
281
0
  0
ENDSEC
  0
SECTION
  2
TABLES
  0
TABLE
  2
VPORT
  5
8
100
AcDbSymbolTable
 70
2
  0
VPORT
  5
1F4
100
AcDbSymbolTableRecord
100
AcDbViewportTableRecord
  2
*ACTIVE
 70
0
 10
0.0
 20
0.0
 11
1.0
 21
1.0
 12
11.0
 22
8.5
 13
0.0
 23
0.0
 14
1.0
 24
1.0
 15
0.0
 25
0.0
 16
0.0
 26
0.0
 36
1.0
 17
0.0
 27
0.0
 37
0.0
 40
17.0
 41
1.2941176471
 42
50.0
 43
0.0
 44
0.0
 50
0.0
 51
0.0
 71
0
 72
100
 73
1
 74
1
 75
0
 76
0
 77
0
 78
0
  0
ENDTAB
  0
TABLE
  2
LTYPE
  5
5
100
AcDbSymbolTable
 70
6
  0
LTYPE
  5
14
100
AcDbSymbolTableRecord
100
AcDbLinetypeTableRecord
  2
BYBLOCK
 70
0
  3

 72
65
 73
0
 40
0.0
  0
LTYPE
  5
15
100
AcDbSymbolTableRecord
100
AcDbLinetypeTableRecord
  2
BYLAYER
 70
0
  3

 72
65
 73
0
 40
0.0
  0
LTYPE
  5
16
100
AcDbSymbolTableRecord
100
AcDbLinetypeTableRecord
  2
CONTINUOUS
 70
64
  3
Solid line
 72
65
 73
0
 40
0.0
  0
LTYPE
  5
1F5
100
AcDbSymbolTableRecord
100
AcDbLinetypeTableRecord
  2
CENTER
 70
64
  3
____ _ ____ _ ____ _ ____ _ ____ _ ____ _ ____
 72
65
 73
4
 40
0.6
 49
0.375
 74
0
 49
-0.075
 74
0
 49
0.075
 74
0
 49
-0.075
 74
0
  0
LTYPE
  5
1F6
100
AcDbSymbolTableRecord
100
AcDbLinetypeTableRecord
  2
HIDDEN
 70
64
  3
- - - - - - - - - - - - - - - - - - - -
 72
65
 73
2
 40
0.2
 49
0.1
 74
0
 49
-0.1
 74
0
  0
LTYPE
  5
1F7
100
AcDbSymbolTableRecord
100
AcDbLinetypeTableRecord
  2
PHANTOM
 70
64
  3
_____ _ _ _____ _ _ _____ _ _ _____
 72
65
 73
6
 40
0.8
 49
0.45
 74
0
 49
-0.05
 74
0
 49
0.1
 74
0
 49
-0.05
 74
0
 49
0.1
 74
0
 49
-0.05
 74
0
  0
LTYPE
  5
1F8
100
AcDbSymbolTableRecord
100
AcDbLinetypeTableRecord
  2
DOT
 70
64
  3
. . . . . . . . . . . . . . . . . . . .
 72
65
 73
2
 40
0.2
 49
0.1
 74
0
 49
-0.1
 74
0
  0
LTYPE
  5
1F9
100
AcDbSymbolTableRecord
100
AcDbLinetypeTableRecord
  2
DASHED
 70
64
  3
- - - - - - - - - - - - - - - - - - - -
 72
65
 73
2
 40
0.2
 49
0.1
 74
0
 49
-0.1
 74
0
  0
ENDTAB
  0
TABLE
  2
LAYER
  5
2
100
AcDbSymbolTable
 70
36
  0
LAYER
  5
10
100
AcDbSymbolTableRecord
100
AcDbLayerTableRecord
  2
0
 70
0
 62
7
  6
CONTINUOUS
370
-3
390
F
  0
LAYER
  5
1FA
100
AcDbSymbolTableRecord
100
AcDbLayerTableRecord
  2
DEFAULT_1
 70
0
 62
7
  6
CENTER
370
-3
390
F
  0
LAYER
  5
1FB
100
AcDbSymbolTableRecord
100
AcDbLayerTableRecord
  2
DEFAULT_2
 70
0
 62
8
  6
HIDDEN
370
-3
390
F
  0
LAYER
  5
1FC
100
AcDbSymbolTableRecord
100
AcDbLayerTableRecord
  2
DEFAULT_3
 70
0
 62
7
  6
PHANTOM
370
-3
390
F
  0
LAYER
  5
1FD
100
AcDbSymbolTableRecord
100
AcDbLayerTableRecord
  2
01_ALL_DTM_PLN
 70
0
 62
7
  6
CONTINUOUS
370
-3
390
F
  0
LAYER
  5
1FE
100
AcDbSymbolTableRecord
100
AcDbLayerTableRecord
  2
01__ASM_ALL_DTM_PLN
 70
0
 62
7
  6
CONTINUOUS
370
-3
390
F
  0
LAYER
  5
1FF
100
AcDbSymbolTableRecord
100
AcDbLayerTableRecord
  2
01__ASM_DEF_DTM_PLN
 70
0
 62
7
  6
CONTINUOUS
370
-3
390
F
  0
LAYER
  5
200
100
AcDbSymbolTableRecord
100
AcDbLayerTableRecord
  2
01___PRT_ALL_DTM_PLN
 70
0
 62
7
  6
CONTINUOUS
370
-3
390
F
  0
LAYER
  5
201
100
AcDbSymbolTableRecord
100
AcDbLayerTableRecord
  2
01___PRT_DEF_DTM_PLN
 70
0
 62
7
  6
CONTINUOUS
370
-3
390
F
  0
LAYER
  5
202
100
AcDbSymbolTableRecord
100
AcDbLayerTableRecord
  2
02_ALL_AXES
 70
0
 62
7
  6
CONTINUOUS
370
-3
390
F
  0
LAYER
  5
203
100
AcDbSymbolTableRecord
100
AcDbLayerTableRecord
  2
02__ASM_ALL_AXES
 70
0
 62
7
  6
CONTINUOUS
370
-3
390
F
  0
LAYER
  5
204
100
AcDbSymbolTableRecord
100
AcDbLayerTableRecord
  2
02___PRT_ALL_AXES
 70
0
 62
7
  6
CONTINUOUS
370
-3
390
F
  0
LAYER
  5
205
100
AcDbSymbolTableRecord
100
AcDbLayerTableRecord
  2
03_ALL_CURVES
 70
0
 62
7
  6
CONTINUOUS
370
-3
390
F
  0
LAYER
  5
206
100
AcDbSymbolTableRecord
100
AcDbLayerTableRecord
  2
03__ASM_ALL_CURVES
 70
0
 62
7
  6
CONTINUOUS
370
-3
390
F
  0
LAYER
  5
207
100
AcDbSymbolTableRecord
100
AcDbLayerTableRecord
  2
03___PRT_ALL_CURVES
 70
0
 62
7
  6
CONTINUOUS
370
-3
390
F
  0
LAYER
  5
208
100
AcDbSymbolTableRecord
100
AcDbLayerTableRecord
  2
04_ALL_DTM_PNT
 70
0
 62
7
  6
CONTINUOUS
370
-3
390
F
  0
LAYER
  5
209
100
AcDbSymbolTableRecord
100
AcDbLayerTableRecord
  2
04__ASM_ALL_DTM_PNT
 70
0
 62
7
  6
CONTINUOUS
370
-3
390
F
  0
LAYER
  5
20A
100
AcDbSymbolTableRecord
100
AcDbLayerTableRecord
  2
04___PRT_ALL_DTM_PNT
 70
0
 62
7
  6
CONTINUOUS
370
-3
390
F
  0
LAYER
  5
20B
100
AcDbSymbolTableRecord
100
AcDbLayerTableRecord
  2
05_ALL_DTM_CSYS
 70
0
 62
7
  6
CONTINUOUS
370
-3
390
F
  0
LAYER
  5
20C
100
AcDbSymbolTableRecord
100
AcDbLayerTableRecord
  2
05__ASM_ALL_DTM_CSYS
 70
0
 62
7
  6
CONTINUOUS
370
-3
390
F
  0
LAYER
  5
20D
100
AcDbSymbolTableRecord
100
AcDbLayerTableRecord
  2
05__ASM_DEF_DTM_CSYS
 70
0
 62
7
  6
CONTINUOUS
370
-3
390
F
  0
LAYER
  5
20E
100
AcDbSymbolTableRecord
100
AcDbLayerTableRecord
  2
05___PRT_ALL_DTM_CSYS
 70
0
 62
7
  6
CONTINUOUS
370
-3
390
F
  0
LAYER
  5
20F
100
AcDbSymbolTableRecord
100
AcDbLayerTableRecord
  2
05___PRT_DEF_DTM_CSYS
 70
0
 62
7
  6
CONTINUOUS
370
-3
390
F
  0
LAYER
  5
210
100
AcDbSymbolTableRecord
100
AcDbLayerTableRecord
  2
06_ALL_SURFS
 70
0
 62
7
  6
CONTINUOUS
370
-3
390
F
  0
LAYER
  5
211
100
AcDbSymbolTableRecord
100
AcDbLayerTableRecord
  2
06__ASM_ALL_SURFS
 70
0
 62
7
  6
CONTINUOUS
370
-3
390
F
  0
LAYER
  5
212
100
AcDbSymbolTableRecord
100
AcDbLayerTableRecord
  2
06___PRT_ALL_SURFS
 70
0
 62
7
  6
CONTINUOUS
370
-3
390
F
  0
LAYER
  5
213
100
AcDbSymbolTableRecord
100
AcDbLayerTableRecord
  2
07__ASM_ALL_SKELETONS
 70
0
 62
7
  6
CONTINUOUS
370
-3
390
F
  0
ENDTAB
  0
TABLE
  2
STYLE
  5
3
100
AcDbSymbolTable
 70
1
  0
STYLE
  5
11
100
AcDbSymbolTableRecord
100
AcDbTextStyleTableRecord
  2
STANDARD
 70
0
 40
0.0
 41
0.8
 50
0.0
 71
0
 42
0.2
  3
txt
  4

  0
STYLE
  5
214
100
AcDbSymbolTableRecord
100
AcDbTextStyleTableRecord
  2
TEXTSTYLE_1
 70
0
 40
0.0
 41
0.8
 50
0.0
 71
0
 42
0.2
  3
gdt
  4

  0
ENDTAB
  0
TABLE
  2
VIEW
  5
6
100
AcDbSymbolTable
 70
0
  0
ENDTAB
  0
TABLE
  2
UCS
  5
7
100
AcDbSymbolTable
 70
0
  0
ENDTAB
  0
TABLE
  2
APPID
  5
9
100
AcDbSymbolTable
 70
1
  0
APPID
  5
215
100
AcDbSymbolTableRecord
100
AcDbRegAppTableRecord
  2
ACAD
 70
0
  0
ENDTAB
  0
TABLE
  2
BLOCK_RECORD
  5
1
100
AcDbSymbolTable
 70
0
  0
BLOCK_RECORD
  5
216
100
AcDbSymbolTableRecord
100
AcDbBlockTableRecord
  2
*Model_Space
  0
BLOCK_RECORD
  5
217
100
AcDbSymbolTableRecord
100
AcDbBlockTableRecord
  2
*Paper_Space
  0
ENDTAB
  0
TABLE
  2
DIMSTYLE
  5
A
100
AcDbSymbolTable
 70
1
100
AcDbDimStyleTable
 71
0
  0
DIMSTYLE
105
218
100
AcDbSymbolTableRecord
100
AcDbDimStyleTableRecord
  2
STANDARD
 70
0
  3

  4

 40
1.0
 41
0.1875
 42
0.0625
 43
0.38
 44
0.125
 45
0.0
 46
0.0
 47
0.0001
 48
0.0001
140
0.15625
141
0.09
142
0.0
143
25.4
144
1.0
145
0.0
146
1.0
147
0.09
 71
0.0
 72
0.0
 73
1
 74
1
 75
0
 76
0
 77
0
 78
4
170
0
171
2
172
0
173
0
174
0
175
0
176
0
177
0
178
0
270
2
271
4
272
4
273
2
274
2
275
0
280
0
281
0
282
0
283
1
284
4
285
0
286
0
287
3
288
0
340
11
278
46
  0
ENDTAB
  0
ENDSEC
  0
SECTION
  2
BLOCKS
  0
BLOCK
  5
20
100
AcDbEntity
  8
0
100
AcDbBlockBegin
  2
*Model_Space
 70
0
 10
0.0
 20
0.0
 30
0.0
  3
*Model_Space
  1

  0
ENDBLK
  5
21
100
AcDbEntity
  8
0
100
AcDbBlockEnd
  0
BLOCK
  5
1C
100
AcDbEntity
  8
0
100
AcDbBlockBegin
  2
*Paper_Space
 70
0
 10
0.0
 20
0.0
 30
0.0
  3
*Paper_Space
  1

  0
ENDBLK
  5
1D
100
AcDbEntity
  8
0
100
AcDbBlockEnd
  0
ENDSEC
  0
SECTION
  2
ENTITIES
  0
MTEXT
  5
219
100
AcDbEntity
  8
0
100
AcDbMText
 62
7
  6
CONTINUOUS
  7
STANDARD
 71
1
 72
1
 10
15.9560215477
 20
0.9479130325
 30
0.0
 11
1.0
 21
0.0
 31
0.0
 44
0.9
  1
SCALE: 1:1.000
 40
0.3
 41
3.36
  0
LINE
  5
21A
100
AcDbEntity
  8
0
100
AcDbLine
 62
7
  6
CONTINUOUS
 10
0.0
 20
0.0
 11
0.0
 21
17.0
  0
LINE
  5
21B
100
AcDbEntity
  8
0
100
AcDbLine
 62
7
  6
CONTINUOUS
 10
0.0
 20
0.0
 11
22.0
 21
0.0
  0
LINE
  5
21C
100
AcDbEntity
  8
0
100
AcDbLine
 62
7
  6
CONTINUOUS
 10
0.0
 20
17.0
 11
22.0
 21
17.0
  0
LINE
  5
21D
100
AcDbEntity
  8
0
100
AcDbLine
 62
7
  6
CONTINUOUS
 10
22.0
 20
0.0
 11
22.0
 21
17.0
  0
LINE
  5
21E
100
AcDbEntity
  8
0
100
AcDbLine
 62
7
  6
CONTINUOUS
 10
3.7681625518
 20
5.7799624164
 11
3.7681625518
 21
5.5909860385
  0
LINE
  5
21F
100
AcDbEntity
  8
0
100
AcDbLine
 62
7
  6
CONTINUOUS
 10
3.915800347
 20
5.5253692406
 11
3.915800347
 21
5.5063403692
  0
LINE
  5
220
100
AcDbEntity
  8
0
100
AcDbLine
 62
7
  6
CONTINUOUS
 10
4.4079263313
 20
5.5063403692
 11
4.4079263313
 21
5.5253692406
  0
LINE
  5
221
100
AcDbEntity
  8
0
100
AcDbLine
 62
7
  6
CONTINUOUS
 10
4.7032019218
 20
5.5253692406
 11
4.7032019218
 21
5.5063403692
  0
LINE
  5
222
100
AcDbEntity
  8
0
100
AcDbLine
 62
7
  6
CONTINUOUS
 10
5.1953279061
 20
5.5063403692
 11
5.1953279061
 21
5.5253692406
  0
LINE
  5
223
100
AcDbEntity
  8
0
100
AcDbLine
 62
7
  6
CONTINUOUS
 10
5.4906034966
 20
5.5253692406
 11
5.4906034966
 21
5.5063403692
  0
LINE
  5
224
100
AcDbEntity
  8
0
100
AcDbLine
 62
7
  6
CONTINUOUS
 10
5.9827294809
 20
5.5063403692
 11
5.9827294809
 21
5.5253692406
  0
LINE
  5
225
100
AcDbEntity
  8
0
100
AcDbLine
 62
7
  6
CONTINUOUS
 10
6.2780050714
 20
5.5253692406
 11
6.2780050714
 21
5.5063403692
  0
LINE
  5
226
100
AcDbEntity
  8
0
100
AcDbLine
 62
7
  6
CONTINUOUS
 10
3.7681625518
 20
5.5909860385
 11
3.8501835491
 21
5.5909860385
  0
LINE
  5
227
100
AcDbEntity
  8
0
100
AcDbLine
 62
7
  6
CONTINUOUS
 10
4.4735431292
 20
5.5909860385
 11
4.6375851239
 21
5.5909860385
  0
LINE
  5
228
100
AcDbEntity
  8
0
100
AcDbLine
 62
7
  6
CONTINUOUS
 10
5.260944704
 20
5.5909860385
 11
5.4249866987
 21
5.5909860385
  0
LINE
  5
229
100
AcDbEntity
  8
0
100
AcDbLine
 62
7
  6
CONTINUOUS
 10
6.0483462788
 20
5.5909860385
 11
6.2123882735
 21
5.5909860385
  0
LINE
  5
22A
100
AcDbEntity
  8
0
100
AcDbLine
 62
7
  6
CONTINUOUS
 10
6.8357478536
 20
5.5909860385
 11
6.9997898483
 21
5.5909860385
  0
LINE
  5
22B
100
AcDbEntity
  8
0
100
AcDbLine
 62
7
  6
CONTINUOUS
 10
7.6231494284
 20
5.5909860385
 11
7.7871914231
 21
5.5909860385
  0
LINE
  5
22C
100
AcDbEntity
  8
0
100
AcDbLine
 62
7
  6
CONTINUOUS
 10
8.4105510032
 20
5.5909860385
 11
8.4925720006
 21
5.5909860385
  0
LINE
  5
22D
100
AcDbEntity
  8
0
100
AcDbLine
 62
7
  6
CONTINUOUS
 10
8.4925720006
 20
5.7799624164
 11
3.7681625518
 21
5.7799624164
  0
LINE
  5
22E
100
AcDbEntity
  8
0
100
AcDbLine
 62
7
  6
CONTINUOUS
 10
6.7701310557
 20
5.5063403692
 11
6.7701310557
 21
5.5253692406
  0
LINE
  5
22F
100
AcDbEntity
  8
0
100
AcDbLine
 62
7
  6
CONTINUOUS
 10
7.0654066462
 20
5.5253692406
 11
7.0654066462
 21
5.5063403692
  0
LINE
  5
230
100
AcDbEntity
  8
0
100
AcDbLine
 62
7
  6
CONTINUOUS
 10
7.5575326305
 20
5.5063403692
 11
7.5575326305
 21
5.5253692406
  0
LINE
  5
231
100
AcDbEntity
  8
0
100
AcDbLine
 62
7
  6
CONTINUOUS
 10
7.852808221
 20
5.5253692406
 11
7.852808221
 21
5.5063403692
  0
LINE
  5
232
100
AcDbEntity
  8
0
100
AcDbLine
 62
7
  6
CONTINUOUS
 10
8.3449342053
 20
5.5063403692
 11
8.3449342053
 21
5.5253692406
  0
LINE
  5
233
100
AcDbEntity
  8
0
100
AcDbLine
 62
7
  6
CONTINUOUS
 10
8.4925720006
 20
5.5909860385
 11
8.4925720006
 21
5.7799624164
  0
LINE
  5
234
100
AcDbEntity
  8
0
100
AcDbLine
 62
7
  6
CONTINUOUS
 10
8.4330768083
 20
8.0724887263
 11
3.7086673594
 21
8.0724887263
  0
LINE
  5
235
100
AcDbEntity
  8
0
100
AcDbLine
 62
7
  6
CONTINUOUS
 10
3.7086673594
 20
17.1276068365
 11
3.7086673594
 21
8.0724887263
  0
LINE
  5
236
100
AcDbEntity
  8
0
100
AcDbLine
 62
7
  6
CONTINUOUS
 10
8.4330768083
 20
17.1276068365
 11
8.4330768083
 21
8.0724887263
  0
LINE
  5
237
100
AcDbEntity
  8
0
100
AcDbLine
 62
7
  6
CONTINUOUS
 10
3.7086673594
 20
17.1276068365
 11
8.4330768083
 21
17.1276068365
  0
LINE
  5
238
100
AcDbEntity
  8
0
100
AcDbLine
 62
7
  6
CONTINUOUS
 10
11.0327962018
 20
5.2007821848
 11
11.0327962018
 21
5.7204672241
  0
LINE
  5
239
100
AcDbEntity
  8
0
100
AcDbLine
 62
7
  6
CONTINUOUS
 10
20.0879143121
 20
5.2007821848
 11
11.0327962018
 21
5.2007821848
  0
LINE
  5
23A
100
AcDbEntity
  8
0
100
AcDbLine
 62
7
  6
CONTINUOUS
 10
20.0879143121
 20
5.5314908462
 11
11.0327962018
 21
5.5314908462
  0
LINE
  5
23B
100
AcDbEntity
  8
0
100
AcDbLine
 62
7
  6
CONTINUOUS
 10
20.0879143121
 20
5.7204672241
 11
11.0327962018
 21
5.7204672241
  0
LINE
  5
23C
100
AcDbEntity
  8
0
100
AcDbLine
 62
7
  6
CONTINUOUS
 10
20.0879143121
 20
5.2007821848
 11
20.0879143121
 21
5.7204672241
  0
LINE
  5
23D
100
AcDbEntity
  8
0
100
AcDbLine
 62
7
  6
CONTINUOUS
 10
12.170585409
 20
9.1257668505
 11
12.228231116
 21
9.0082972502
  0
LINE
  5
23E
100
AcDbEntity
  8
0
100
AcDbLine
 62
7
  6
CONTINUOUS
 10
12.384230401
 20
8.9675091946
 11
12.3900350035
 21
8.9556806584
  0
LINE
  5
23F
100
AcDbEntity
  8
0
100
AcDbLine
 62
7
  6
CONTINUOUS
 10
12.8433130517
 20
8.9556806584
 11
12.8375084492
 21
8.9675091946
  0
LINE
  5
240
100
AcDbEntity
  8
0
100
AcDbLine
 62
7
  6
CONTINUOUS
 10
13.1094752782
 20
8.9675091946
 11
13.1152798806
 21
8.9556806584
  0
LINE
  5
241
100
AcDbEntity
  8
0
100
AcDbLine
 62
7
  6
CONTINUOUS
 10
12.228231116
 20
9.0082972502
 11
12.3037774574
 21
9.0082972502
  0
LINE
  5
242
100
AcDbEntity
  8
0
100
AcDbLine
 62
7
  6
CONTINUOUS
 10
12.8779296518
 20
9.0082972502
 11
13.0290223346
 21
9.0082972502
  0
LINE
  5
243
100
AcDbEntity
  8
0
100
AcDbLine
 62
7
  6
CONTINUOUS
 10
13.603174529
 20
9.0082972502
 11
13.7542672117
 21
9.0082972502
  0
LINE
  5
244
100
AcDbEntity
  8
0
100
AcDbLine
 62
7
  6
CONTINUOUS
 10
14.3284194062
 20
9.0082972502
 11
14.4795120889
 21
9.0082972502
  0
LINE
  5
245
100
AcDbEntity
  8
0
100
AcDbLine
 62
7
  6
CONTINUOUS
 10
15.0536642833
 20
9.0082972502
 11
15.2047569661
 21
9.0082972502
  0
LINE
  5
246
100
AcDbEntity
  8
0
100
AcDbLine
 62
7
  6
CONTINUOUS
 10
15.7789091605
 20
9.0082972502
 11
15.9300018432
 21
9.0082972502
  0
LINE
  5
247
100
AcDbEntity
  8
0
100
AcDbLine
 62
7
  6
CONTINUOUS
 10
16.5041540377
 20
9.0082972502
 11
16.579700379
 21
9.0082972502
  0
LINE
  5
248
100
AcDbEntity
  8
0
100
AcDbLine
 62
7
  6
CONTINUOUS
 10
16.522054672
 20
9.1257668505
 11
12.170585409
 21
9.1257668505
  0
LINE
  5
249
100
AcDbEntity
  8
0
100
AcDbLine
 62
7
  6
CONTINUOUS
 10
13.5685579289
 20
8.9556806584
 11
13.5627533264
 21
8.9675091946
  0
LINE
  5
24A
100
AcDbEntity
  8
0
100
AcDbLine
 62
7
  6
CONTINUOUS
 10
13.8347201554
 20
8.9675091946
 11
13.8405247578
 21
8.9556806584
  0
LINE
  5
24B
100
AcDbEntity
  8
0
100
AcDbLine
 62
7
  6
CONTINUOUS
 10
14.293802806
 20
8.9556806584
 11
14.2879982036
 21
8.9675091946
  0
LINE
  5
24C
100
AcDbEntity
  8
0
100
AcDbLine
 62
7
  6
CONTINUOUS
 10
14.5599650325
 20
8.9675091946
 11
14.565769635
 21
8.9556806584
  0
LINE
  5
24D
100
AcDbEntity
  8
0
100
AcDbLine
 62
7
  6
CONTINUOUS
 10
14.3625245579
 20
16.2188845361
 11
12.170585409
 21
9.1257668505
  0
LINE
  5
24E
100
AcDbEntity
  8
0
100
AcDbLine
 62
7
  6
CONTINUOUS
 10
15.0190476832
 20
8.9556806584
 11
15.0132430807
 21
8.9675091946
  0
LINE
  5
24F
100
AcDbEntity
  8
0
100
AcDbLine
 62
7
  6
CONTINUOUS
 10
15.2852099097
 20
8.9675091946
 11
15.2910145121
 21
8.9556806584
  0
LINE
  5
250
100
AcDbEntity
  8
0
100
AcDbLine
 62
7
  6
CONTINUOUS
 10
12.8904778745
 20
9.0082972502
 11
12.8517677393
 21
8.8830312068
  0
LINE
  5
251
100
AcDbEntity
  8
0
100
AcDbLine
 62
7
  6
CONTINUOUS
 10
15.7442925604
 20
8.9556806584
 11
15.7384879579
 21
8.9675091946
  0
LINE
  5
252
100
AcDbEntity
  8
0
100
AcDbLine
 62
7
  6
CONTINUOUS
 10
16.0104547869
 20
8.9675091946
 11
16.0162593893
 21
8.9556806584
  0
LINE
  5
253
100
AcDbEntity
  8
0
100
AcDbLine
 62
7
  6
CONTINUOUS
 10
13.6157227516
 20
9.0082972502
 11
13.5770126164
 21
8.8830312068
  0
LINE
  5
254
100
AcDbEntity
  8
0
100
AcDbLine
 62
7
  6
CONTINUOUS
 10
16.4695374375
 20
8.9556806584
 11
16.4637328351
 21
8.9675091946
  0
LINE
  5
255
100
AcDbEntity
  8
0
100
AcDbLine
 62
7
  6
CONTINUOUS
 10
16.579700379
 20
9.0082972502
 11
16.522054672
 21
9.1257668505
  0
LINE
  5
256
100
AcDbEntity
  8
0
100
AcDbLine
 62
7
  6
CONTINUOUS
 10
14.3409676288
 20
9.0082972502
 11
14.3022574936
 21
8.8830312068
  0
LINE
  5
257
100
AcDbEntity
  8
0
100
AcDbLine
 62
7
  6
CONTINUOUS
 10
15.066212506
 20
9.0082972502
 11
15.0275023708
 21
8.8830312068
  0
LINE
  5
258
100
AcDbEntity
  8
0
100
AcDbLine
 62
7
  6
CONTINUOUS
 10
15.7914573831
 20
9.0082972502
 11
15.7527472479
 21
8.8830312068
  0
LINE
  5
259
100
AcDbEntity
  8
0
100
AcDbLine
 62
7
  6
CONTINUOUS
 10
18.7139938209
 20
16.2188845361
 11
16.522054672
 21
9.1257668505
  0
LINE
  5
25A
100
AcDbEntity
  8
0
100
AcDbLine
 62
7
  6
CONTINUOUS
 10
16.5167022603
 20
9.0082972502
 11
16.4779921251
 21
8.8830312068
  0
LINE
  5
25B
100
AcDbEntity
  8
0
100
AcDbLine
 62
7
  6
CONTINUOUS
 10
18.771639528
 20
16.1014149358
 11
16.579700379
 21
9.0082972502
  0
LINE
  5
25C
100
AcDbEntity
  8
0
100
AcDbLine
 62
7
  6
CONTINUOUS
 10
14.3625245579
 20
16.2188845361
 11
18.7139938209
 21
16.2188845361
  0
LINE
  5
25D
100
AcDbEntity
  8
0
100
AcDbLine
 62
7
  6
CONTINUOUS
 10
18.771639528
 20
16.1014149358
 11
18.7139938209
 21
16.2188845361
  0
ARC
  5
25E
100
AcDbEntity
  8
0
100
AcDbCircle
 62
7
  6
CONTINUOUS
 10
4.1618633392
 20
5.5063403692
 40
0.2460629921
100
AcDbArc
 50
180.0
 51
360.0
  0
ARC
  5
25F
100
AcDbEntity
  8
0
100
AcDbCircle
 62
7
  6
CONTINUOUS
 10
4.949264914
 20
5.5063403692
 40
0.2460629921
100
AcDbArc
 50
180.0
 51
360.0
  0
ARC
  5
260
100
AcDbEntity
  8
0
100
AcDbCircle
 62
7
  6
CONTINUOUS
 10
8.0988712132
 20
5.5063403692
 40
0.2460629921
100
AcDbArc
 50
180.0
 51
360.0
  0
ARC
  5
261
100
AcDbEntity
  8
0
100
AcDbCircle
 62
7
  6
CONTINUOUS
 10
7.3114696384
 20
5.5063403692
 40
0.2460629921
100
AcDbArc
 50
180.0
 51
360.0
  0
ARC
  5
262
100
AcDbEntity
  8
0
100
AcDbCircle
 62
7
  6
CONTINUOUS
 10
6.5240680636
 20
5.5063403692
 40
0.2460629921
100
AcDbArc
 50
180.0
 51
360.0
  0
ARC
  5
263
100
AcDbEntity
  8
0
100
AcDbCircle
 62
7
  6
CONTINUOUS
 10
5.7366664888
 20
5.5063403692
 40
0.2460629921
100
AcDbArc
 50
180.0
 51
360.0
  0
ARC
  5
264
100
AcDbEntity
  8
0
100
AcDbCircle
 62
7
  6
CONTINUOUS
 10
3.8501835491
 20
5.5253692406
 40
0.0656167979
100
AcDbArc
 50
0.0
 51
90.0
  0
ARC
  5
265
100
AcDbEntity
  8
0
100
AcDbCircle
 62
7
  6
CONTINUOUS
 10
4.4735431292
 20
5.5253692406
 40
0.0656167979
100
AcDbArc
 50
90.0
 51
180.0
  0
ARC
  5
266
100
AcDbEntity
  8
0
100
AcDbCircle
 62
7
  6
CONTINUOUS
 10
4.6375851239
 20
5.5253692406
 40
0.0656167979
100
AcDbArc
 50
0.0
 51
90.0
  0
ARC
  5
267
100
AcDbEntity
  8
0
100
AcDbCircle
 62
7
  6
CONTINUOUS
 10
5.260944704
 20
5.5253692406
 40
0.0656167979
100
AcDbArc
 50
90.0
 51
180.0
  0
ARC
  5
268
100
AcDbEntity
  8
0
100
AcDbCircle
 62
7
  6
CONTINUOUS
 10
5.4249866987
 20
5.5253692406
 40
0.0656167979
100
AcDbArc
 50
0.0
 51
90.0
  0
ARC
  5
269
100
AcDbEntity
  8
0
100
AcDbCircle
 62
7
  6
CONTINUOUS
 10
6.0483462788
 20
5.5253692406
 40
0.0656167979
100
AcDbArc
 50
90.0
 51
180.0
  0
ARC
  5
26A
100
AcDbEntity
  8
0
100
AcDbCircle
 62
7
  6
CONTINUOUS
 10
6.2123882735
 20
5.5253692406
 40
0.0656167979
100
AcDbArc
 50
0.0
 51
90.0
  0
ARC
  5
26B
100
AcDbEntity
  8
0
100
AcDbCircle
 62
7
  6
CONTINUOUS
 10
6.8357478536
 20
5.5253692406
 40
0.0656167979
100
AcDbArc
 50
90.0
 51
180.0
  0
ARC
  5
26C
100
AcDbEntity
  8
0
100
AcDbCircle
 62
7
  6
CONTINUOUS
 10
6.9997898483
 20
5.5253692406
 40
0.0656167979
100
AcDbArc
 50
0.0
 51
90.0
  0
ARC
  5
26D
100
AcDbEntity
  8
0
100
AcDbCircle
 62
7
  6
CONTINUOUS
 10
7.6231494284
 20
5.5253692406
 40
0.0656167979
100
AcDbArc
 50
90.0
 51
180.0
  0
ARC
  5
26E
100
AcDbEntity
  8
0
100
AcDbCircle
 62
7
  6
CONTINUOUS
 10
7.7871914231
 20
5.5253692406
 40
0.0656167979
100
AcDbArc
 50
0.0
 51
90.0
  0
ARC
  5
26F
100
AcDbEntity
  8
0
100
AcDbCircle
 62
7
  6
CONTINUOUS
 10
8.4105510032
 20
5.5253692406
 40
0.0656167979
100
AcDbArc
 50
90.0
 51
180.0
  0
SPLINE
  5
270
100
AcDbEntity
  8
0
100
AcDbSpline
 62
7
  6
CONTINUOUS
 70
0
 71
3
 72
11
 73
7
 74
0
 42
0.0000001
 43
0.0000001
 44
0.0000000001
 40
0.0
 40
0.0
 40
0.0
 40
0.0
 40
0.202215763
 40
0.4300112309
 40
0.6962511595
 40
1.0
 40
1.0
 40
1.0
 40
1.0
 10
12.8352538974
 20
8.9868823877
 30
0.0
 10
12.8362633004
 20
8.9901490379
 30
0.0
 10
12.8402122063
 20
8.9966064694
 30
0.0
 10
12.8501184493
 20
9.0033977238
 30
0.0
 10
12.8631194617
 20
9.007480696
 30
0.0
 10
12.8727938887
 20
9.0082972502
 30
0.0
 10
12.8779296518
 20
9.0082972502
 30
0.0
  0
SPLINE
  5
271
100
AcDbEntity
  8
0
100
AcDbSpline
 62
7
  6
CONTINUOUS
 70
0
 71
3
 72
11
 73
7
 74
0
 42
0.0000001
 43
0.0000001
 44
0.0000000001
 40
0.0
 40
0.0
 40
0.0
 40
0.0
 40
0.202215763
 40
0.4300112309
 40
0.6962511595
 40
1.0
 40
1.0
 40
1.0
 40
1.0
 10
13.5604987746
 20
8.9868823877
 30
0.0
 10
13.5615081776
 20
8.9901490379
 30
0.0
 10
13.5654570835
 20
8.9966064694
 30
0.0
 10
13.5753633265
 20
9.0033977238
 30
0.0
 10
13.5883643389
 20
9.007480696
 30
0.0
 10
13.5980387659
 20
9.0082972502
 30
0.0
 10
13.603174529
 20
9.0082972502
 30
0.0
  0
SPLINE
  5
272
100
AcDbEntity
  8
0
100
AcDbSpline
 62
7
  6
CONTINUOUS
 70
0
 71
3
 72
11
 73
7
 74
0
 42
0.0000001
 43
0.0000001
 44
0.0000000001
 40
0.0
 40
0.0
 40
0.0
 40
0.0
 40
0.202215763
 40
0.4300112309
 40
0.6962511595
 40
1.0
 40
1.0
 40
1.0
 40
1.0
 10
14.2857436517
 20
8.9868823877
 30
0.0
 10
14.2867530547
 20
8.9901490379
 30
0.0
 10
14.2907019606
 20
8.9966064694
 30
0.0
 10
14.3006082037
 20
9.0033977238
 30
0.0
 10
14.3136092161
 20
9.007480696
 30
0.0
 10
14.323283643
 20
9.0082972502
 30
0.0
 10
14.3284194062
 20
9.0082972502
 30
0.0
  0
SPLINE
  5
273
100
AcDbEntity
  8
0
100
AcDbSpline
 62
7
  6
CONTINUOUS
 70
0
 71
3
 72
11
 73
7
 74
0
 42
0.0000001
 43
0.0000001
 44
0.0000000001
 40
0.0
 40
0.0
 40
0.0
 40
0.0
 40
0.202215763
 40
0.4300112309
 40
0.6962511595
 40
1.0
 40
1.0
 40
1.0
 40
1.0
 10
15.0109885289
 20
8.9868823877
 30
0.0
 10
15.0119979319
 20
8.9901490379
 30
0.0
 10
15.0159468378
 20
8.9966064694
 30
0.0
 10
15.0258530808
 20
9.0033977238
 30
0.0
 10
15.0388540932
 20
9.007480696
 30
0.0
 10
15.0485285202
 20
9.0082972502
 30
0.0
 10
15.0536642833
 20
9.0082972502
 30
0.0
  0
SPLINE
  5
274
100
AcDbEntity
  8
0
100
AcDbSpline
 62
7
  6
CONTINUOUS
 70
0
 71
3
 72
11
 73
7
 74
0
 42
0.0000001
 43
0.0000001
 44
0.0000000001
 40
0.0
 40
0.0
 40
0.0
 40
0.0
 40
0.202215763
 40
0.4300112309
 40
0.6962511595
 40
1.0
 40
1.0
 40
1.0
 40
1.0
 10
15.7362334061
 20
8.9868823877
 30
0.0
 10
15.7372428091
 20
8.9901490379
 30
0.0
 10
15.741191715
 20
8.9966064694
 30
0.0
 10
15.751097958
 20
9.0033977238
 30
0.0
 10
15.7640989704
 20
9.007480696
 30
0.0
 10
15.7737733974
 20
9.0082972502
 30
0.0
 10
15.7789091605
 20
9.0082972502
 30
0.0
  0
SPLINE
  5
275
100
AcDbEntity
  8
0
100
AcDbSpline
 62
7
  6
CONTINUOUS
 70
0
 71
3
 72
11
 73
7
 74
0
 42
0.0000001
 43
0.0000001
 44
0.0000000001
 40
0.0
 40
0.0
 40
0.0
 40
0.0
 40
0.202215763
 40
0.4300112309
 40
0.6962511595
 40
1.0
 40
1.0
 40
1.0
 40
1.0
 10
16.4614782832
 20
8.9868823877
 30
0.0
 10
16.4624876862
 20
8.9901490379
 30
0.0
 10
16.4664365922
 20
8.9966064694
 30
0.0
 10
16.4763428352
 20
9.0033977238
 30
0.0
 10
16.4893438476
 20
9.007480696
 30
0.0
 10
16.4990182745
 20
9.0082972502
 30
0.0
 10
16.5041540377
 20
9.0082972502
 30
0.0
  0
SPLINE
  5
276
100
AcDbEntity
  8
0
100
AcDbSpline
 62
7
  6
CONTINUOUS
 70
0
 71
3
 72
17
 73
13
 74
0
 42
0.0000001
 43
0.0000001
 44
0.0000000001
 40
0.0
 40
0.0
 40
0.0
 40
0.0
 40
0.1137563052
 40
0.2471371484
 40
0.3933411901
 40
0.542281105
 40
0.6832493338
 40
0.8074179548
 40
0.8618928065
 40
0.9113660806
 40
0.9568207822
 40
1.0
 40
1.0
 40
1.0
 40
1.0
 10
16.0162593893
 20
8.9556806584
 30
0.0
 10
16.0253275682
 20
8.9372016526
 30
0.0
 10
16.0535005185
 20
8.901241076
 30
0.0
 10
16.1108683298
 20
8.8582770556
 30
0.0
 10
16.1815019657
 20
8.8250907528
 30
0.0
 10
16.2583296532
 20
8.8051331146
 30
0.0
 10
16.3335620794
 20
8.800345603
 30
0.0
 10
16.3914394669
 20
8.8098932909
 30
0.0
 10
16.4294787162
 20
8.8264463322
 30
0.0
 10
16.4518615305
 20
8.8419871848
 30
0.0
 10
16.4686341088
 20
8.8608702644
 30
0.0
 10
16.4756849162
 20
8.8755663854
 30
0.0
 10
16.4779920662
 20
8.8830312251
 30
0.0
  0
SPLINE
  5
277
100
AcDbEntity
  8
0
100
AcDbSpline
 62
7
  6
CONTINUOUS
 70
0
 71
3
 72
17
 73
13
 74
0
 42
0.0000001
 43
0.0000001
 44
0.0000000001
 40
0.0
 40
0.0
 40
0.0
 40
0.0
 40
0.1137678392
 40
0.2471387606
 40
0.3933472506
 40
0.5422868728
 40
0.6832563897
 40
0.8074262937
 40
0.8618976337
 40
0.9113730299
 40
0.9568281715
 40
1.0
 40
1.0
 40
1.0
 40
1.0
 10
15.2910145121
 20
8.9556806584
 30
0.0
 10
15.3000835542
 20
8.9371998938
 30
0.0
 10
15.3282553221
 20
8.901237795
 30
0.0
 10
15.3856285831
 20
8.8582798998
 30
0.0
 10
15.4562588049
 20
8.8250912321
 30
0.0
 10
15.5330880388
 20
8.8051349008
 30
0.0
 10
15.6083191436
 20
8.8003478688
 30
0.0
 10
15.6661988068
 20
8.8098906456
 30
0.0
 10
15.7042331386
 20
8.8264518391
 30
0.0
 10
15.726620456
 20
8.841987218
 30
0.0
 10
15.743382777
 20
8.8608769355
 30
0.0
 10
15.7504414921
 20
8.875567365
 30
0.0
 10
15.7527473002
 20
8.8830311691
 30
0.0
  0
SPLINE
  5
278
100
AcDbEntity
  8
0
100
AcDbSpline
 62
7
  6
CONTINUOUS
 70
0
 71
3
 72
17
 73
13
 74
0
 42
0.0000001
 43
0.0000001
 44
0.0000000001
 40
0.0
 40
0.0
 40
0.0
 40
0.0
 40
0.1137678392
 40
0.2471387606
 40
0.3933472506
 40
0.5422868728
 40
0.6832563897
 40
0.8074262937
 40
0.8618976337
 40
0.9113730299
 40
0.9568281715
 40
1.0
 40
1.0
 40
1.0
 40
1.0
 10
14.565769635
 20
8.9556806584
 30
0.0
 10
14.574838677
 20
8.9371998938
 30
0.0
 10
14.603010445
 20
8.901237795
 30
0.0
 10
14.6603837059
 20
8.8582798998
 30
0.0
 10
14.7310139277
 20
8.8250912321
 30
0.0
 10
14.8078431616
 20
8.8051349008
 30
0.0
 10
14.8830742665
 20
8.8003478688
 30
0.0
 10
14.9409539296
 20
8.8098906456
 30
0.0
 10
14.9789882614
 20
8.8264518391
 30
0.0
 10
15.0013755788
 20
8.841987218
 30
0.0
 10
15.0181378999
 20
8.8608769355
 30
0.0
 10
15.0251966149
 20
8.875567365
 30
0.0
 10
15.0275024231
 20
8.8830311691
 30
0.0
  0
SPLINE
  5
279
100
AcDbEntity
  8
0
100
AcDbSpline
 62
7
  6
CONTINUOUS
 70
0
 71
3
 72
17
 73
13
 74
0
 42
0.0000001
 43
0.0000001
 44
0.0000000001
 40
0.0
 40
0.0
 40
0.0
 40
0.0
 40
0.1137678392
 40
0.2471387606
 40
0.3933472506
 40
0.5422868728
 40
0.6832563897
 40
0.8074262937
 40
0.8618976337
 40
0.9113730299
 40
0.9568281715
 40
1.0
 40
1.0
 40
1.0
 40
1.0
 10
13.8405247578
 20
8.9556806584
 30
0.0
 10
13.8495937998
 20
8.9371998938
 30
0.0
 10
13.8777655678
 20
8.901237795
 30
0.0
 10
13.9351388288
 20
8.8582798998
 30
0.0
 10
14.0057690506
 20
8.8250912321
 30
0.0
 10
14.0825982845
 20
8.8051349008
 30
0.0
 10
14.1578293893
 20
8.8003478688
 30
0.0
 10
14.2157090524
 20
8.8098906456
 30
0.0
 10
14.2537433842
 20
8.8264518391
 30
0.0
 10
14.2761307016
 20
8.841987218
 30
0.0
 10
14.2928930227
 20
8.8608769355
 30
0.0
 10
14.2999517378
 20
8.875567365
 30
0.0
 10
14.3022575459
 20
8.8830311691
 30
0.0
  0
SPLINE
  5
27A
100
AcDbEntity
  8
0
100
AcDbSpline
 62
7
  6
CONTINUOUS
 70
0
 71
3
 72
17
 73
13
 74
0
 42
0.0000001
 43
0.0000001
 44
0.0000000001
 40
0.0
 40
0.0
 40
0.0
 40
0.0
 40
0.1137678392
 40
0.2471387606
 40
0.3933472506
 40
0.5422868728
 40
0.6832563897
 40
0.8074262937
 40
0.8618976337
 40
0.9113730299
 40
0.9568281715
 40
1.0
 40
1.0
 40
1.0
 40
1.0
 10
13.1152798806
 20
8.9556806584
 30
0.0
 10
13.1243489227
 20
8.9371998938
 30
0.0
 10
13.1525206906
 20
8.901237795
 30
0.0
 10
13.2098939516
 20
8.8582798998
 30
0.0
 10
13.2805241734
 20
8.8250912321
 30
0.0
 10
13.3573534073
 20
8.8051349008
 30
0.0
 10
13.4325845121
 20
8.8003478688
 30
0.0
 10
13.4904641753
 20
8.8098906456
 30
0.0
 10
13.5284985071
 20
8.8264518391
 30
0.0
 10
13.5508858245
 20
8.841987218
 30
0.0
 10
13.5676481455
 20
8.8608769355
 30
0.0
 10
13.5747068606
 20
8.875567365
 30
0.0
 10
13.5770126687
 20
8.8830311691
 30
0.0
  0
SPLINE
  5
27B
100
AcDbEntity
  8
0
100
AcDbSpline
 62
7
  6
CONTINUOUS
 70
0
 71
3
 72
17
 73
13
 74
0
 42
0.0000001
 43
0.0000001
 44
0.0000000001
 40
0.0
 40
0.0
 40
0.0
 40
0.0
 40
0.1137678392
 40
0.2471387606
 40
0.3933472506
 40
0.5422868728
 40
0.6832563897
 40
0.8074262937
 40
0.8618976337
 40
0.9113730299
 40
0.9568281715
 40
1.0
 40
1.0
 40
1.0
 40
1.0
 10
12.3900350035
 20
8.9556806584
 30
0.0
 10
12.3991040455
 20
8.9371998938
 30
0.0
 10
12.4272758135
 20
8.901237795
 30
0.0
 10
12.4846490744
 20
8.8582798998
 30
0.0
 10
12.5552792962
 20
8.8250912321
 30
0.0
 10
12.6321085301
 20
8.8051349008
 30
0.0
 10
12.707339635
 20
8.8003478688
 30
0.0
 10
12.7652192981
 20
8.8098906456
 30
0.0
 10
12.8032536299
 20
8.8264518391
 30
0.0
 10
12.8256409473
 20
8.841987218
 30
0.0
 10
12.8424032683
 20
8.8608769355
 30
0.0
 10
12.8494619834
 20
8.875567365
 30
0.0
 10
12.8517677916
 20
8.8830311691
 30
0.0
  0
SPLINE
  5
27C
100
AcDbEntity
  8
0
100
AcDbSpline
 62
7
  6
CONTINUOUS
 70
0
 71
3
 72
11
 73
7
 74
0
 42
0.0000001
 43
0.0000001
 44
0.0000000001
 40
0.0
 40
0.0
 40
0.0
 40
0.0
 40
0.2647334416
 40
0.5366462194
 40
0.7885221416
 40
1.0
 40
1.0
 40
1.0
 40
1.0
 10
12.3037774574
 20
9.0082972502
 30
0.0
 10
12.3120605432
 20
9.0082972502
 30
0.0
 10
12.3288858904
 20
9.0060290244
 30
0.0
 10
12.3522263908
 20
8.9974593272
 30
0.0
 10
12.3716717005
 20
8.9848209603
 30
0.0
 10
12.3813154163
 20
8.9734493088
 30
0.0
 10
12.384230401
 20
8.9675091946
 30
0.0
  0
SPLINE
  5
27D
100
AcDbEntity
  8
0
100
AcDbSpline
 62
7
  6
CONTINUOUS
 70
0
 71
3
 72
11
 73
7
 74
0
 42
0.0000001
 43
0.0000001
 44
0.0000000001
 40
0.0
 40
0.0
 40
0.0
 40
0.0
 40
0.2647334416
 40
0.5366462194
 40
0.7885221416
 40
1.0
 40
1.0
 40
1.0
 40
1.0
 10
13.0290223346
 20
9.0082972502
 30
0.0
 10
13.0373054203
 20
9.0082972502
 30
0.0
 10
13.0541307675
 20
9.0060290244
 30
0.0
 10
13.077471268
 20
8.9974593272
 30
0.0
 10
13.0969165777
 20
8.9848209603
 30
0.0
 10
13.1065602935
 20
8.9734493088
 30
0.0
 10
13.1094752782
 20
8.9675091946
 30
0.0
  0
SPLINE
  5
27E
100
AcDbEntity
  8
0
100
AcDbSpline
 62
7
  6
CONTINUOUS
 70
0
 71
3
 72
11
 73
7
 74
0
 42
0.0000001
 43
0.0000001
 44
0.0000000001
 40
0.0
 40
0.0
 40
0.0
 40
0.0
 40
0.2647334416
 40
0.5366462194
 40
0.7885221416
 40
1.0
 40
1.0
 40
1.0
 40
1.0
 10
13.7542672117
 20
9.0082972502
 30
0.0
 10
13.7625502975
 20
9.0082972502
 30
0.0
 10
13.7793756447
 20
9.0060290244
 30
0.0
 10
13.8027161451
 20
8.9974593272
 30
0.0
 10
13.8221614548
 20
8.9848209603
 30
0.0
 10
13.8318051707
 20
8.9734493088
 30
0.0
 10
13.8347201554
 20
8.9675091946
 30
0.0
  0
SPLINE
  5
27F
100
AcDbEntity
  8
0
100
AcDbSpline
 62
7
  6
CONTINUOUS
 70
0
 71
3
 72
11
 73
7
 74
0
 42
0.0000001
 43
0.0000001
 44
0.0000000001
 40
0.0
 40
0.0
 40
0.0
 40
0.0
 40
0.2647334416
 40
0.5366462194
 40
0.7885221416
 40
1.0
 40
1.0
 40
1.0
 40
1.0
 10
14.4795120889
 20
9.0082972502
 30
0.0
 10
14.4877951747
 20
9.0082972502
 30
0.0
 10
14.5046205219
 20
9.0060290244
 30
0.0
 10
14.5279610223
 20
8.9974593272
 30
0.0
 10
14.547406332
 20
8.9848209603
 30
0.0
 10
14.5570500479
 20
8.9734493088
 30
0.0
 10
14.5599650325
 20
8.9675091946
 30
0.0
  0
SPLINE
  5
280
100
AcDbEntity
  8
0
100
AcDbSpline
 62
7
  6
CONTINUOUS
 70
0
 71
3
 72
11
 73
7
 74
0
 42
0.0000001
 43
0.0000001
 44
0.0000000001
 40
0.0
 40
0.0
 40
0.0
 40
0.0
 40
0.2647334416
 40
0.5366462194
 40
0.7885221416
 40
1.0
 40
1.0
 40
1.0
 40
1.0
 10
15.2047569661
 20
9.0082972502
 30
0.0
 10
15.2130400519
 20
9.0082972502
 30
0.0
 10
15.229865399
 20
9.0060290244
 30
0.0
 10
15.2532058995
 20
8.9974593272
 30
0.0
 10
15.2726512092
 20
8.9848209603
 30
0.0
 10
15.282294925
 20
8.9734493088
 30
0.0
 10
15.2852099097
 20
8.9675091946
 30
0.0
  0
SPLINE
  5
281
100
AcDbEntity
  8
0
100
AcDbSpline
 62
7
  6
CONTINUOUS
 70
0
 71
3
 72
11
 73
7
 74
0
 42
0.0000001
 43
0.0000001
 44
0.0000000001
 40
0.0
 40
0.0
 40
0.0
 40
0.0
 40
0.2647334416
 40
0.5366462194
 40
0.7885221416
 40
1.0
 40
1.0
 40
1.0
 40
1.0
 10
15.9300018432
 20
9.0082972502
 30
0.0
 10
15.938284929
 20
9.0082972502
 30
0.0
 10
15.9551102762
 20
9.0060290244
 30
0.0
 10
15.9784507766
 20
8.9974593272
 30
0.0
 10
15.9978960863
 20
8.9848209603
 30
0.0
 10
16.0075398022
 20
8.9734493088
 30
0.0
 10
16.0104547869
 20
8.9675091946
 30
0.0
  0
SPLINE
  5
282
100
AcDbEntity
  8
0
100
AcDbSpline
 62
7
  6
CONTINUOUS
 70
0
 71
3
 72
9
 73
5
 74
0
 42
0.0000001
 43
0.0000001
 44
0.0000000001
 40
0.0
 40
0.0
 40
0.0
 40
0.0
 40
0.4741172612
 40
1.0
 40
1.0
 40
1.0
 40
1.0
 10
15.7527473002
 20
8.8830311691
 30
0.0
 10
15.7562224829
 20
8.8942801894
 30
0.0
 10
15.7580991878
 20
8.9198997193
 30
0.0
 10
15.7500456345
 20
8.943957126
 30
0.0
 10
15.7442925604
 20
8.9556806584
 30
0.0
  0
SPLINE
  5
283
100
AcDbEntity
  8
0
100
AcDbSpline
 62
7
  6
CONTINUOUS
 70
0
 71
3
 72
9
 73
5
 74
0
 42
0.0000001
 43
0.0000001
 44
0.0000000001
 40
0.0
 40
0.0
 40
0.0
 40
0.0
 40
0.4739980869
 40
1.0
 40
1.0
 40
1.0
 40
1.0
 10
16.4779920662
 20
8.8830312251
 30
0.0
 10
16.4814678365
 20
8.8942771645
 30
0.0
 10
16.4833502545
 20
8.9198972127
 30
0.0
 10
16.4752919079
 20
8.9439542806
 30
0.0
 10
16.4695374375
 20
8.9556806584
 30
0.0
  0
SPLINE
  5
284
100
AcDbEntity
  8
0
100
AcDbSpline
 62
7
  6
CONTINUOUS
 70
0
 71
3
 72
9
 73
5
 74
0
 42
0.0000001
 43
0.0000001
 44
0.0000000001
 40
0.0
 40
0.0
 40
0.0
 40
0.0
 40
0.4741172612
 40
1.0
 40
1.0
 40
1.0
 40
1.0
 10
14.3022575459
 20
8.8830311691
 30
0.0
 10
14.3057327286
 20
8.8942801894
 30
0.0
 10
14.3076094335
 20
8.9198997193
 30
0.0
 10
14.2995558801
 20
8.943957126
 30
0.0
 10
14.293802806
 20
8.9556806584
 30
0.0
  0
SPLINE
  5
285
100
AcDbEntity
  8
0
100
AcDbSpline
 62
7
  6
CONTINUOUS
 70
0
 71
3
 72
9
 73
5
 74
0
 42
0.0000001
 43
0.0000001
 44
0.0000000001
 40
0.0
 40
0.0
 40
0.0
 40
0.0
 40
0.5257459442
 40
1.0
 40
1.0
 40
1.0
 40
1.0
 10
12.8375084492
 20
8.9675091946
 30
0.0
 10
12.8359747312
 20
8.9706345833
 30
0.0
 10
12.8338293191
 20
8.9770499428
 30
0.0
 10
12.8343267434
 20
8.9838819134
 30
0.0
 10
12.8352538974
 20
8.9868823877
 30
0.0
  0
SPLINE
  5
286
100
AcDbEntity
  8
0
100
AcDbSpline
 62
7
  6
CONTINUOUS
 70
0
 71
3
 72
9
 73
5
 74
0
 42
0.0000001
 43
0.0000001
 44
0.0000000001
 40
0.0
 40
0.0
 40
0.0
 40
0.0
 40
0.4741172612
 40
1.0
 40
1.0
 40
1.0
 40
1.0
 10
12.8517677916
 20
8.8830311691
 30
0.0
 10
12.8552429742
 20
8.8942801894
 30
0.0
 10
12.8571196791
 20
8.9198997193
 30
0.0
 10
12.8490661258
 20
8.943957126
 30
0.0
 10
12.8433130517
 20
8.9556806584
 30
0.0
  0
SPLINE
  5
287
100
AcDbEntity
  8
0
100
AcDbSpline
 62
7
  6
CONTINUOUS
 70
0
 71
3
 72
9
 73
5
 74
0
 42
0.0000001
 43
0.0000001
 44
0.0000000001
 40
0.0
 40
0.0
 40
0.0
 40
0.0
 40
0.5257459442
 40
1.0
 40
1.0
 40
1.0
 40
1.0
 10
13.5627533264
 20
8.9675091946
 30
0.0
 10
13.5612196084
 20
8.9706345833
 30
0.0
 10
13.5590741963
 20
8.9770499428
 30
0.0
 10
13.5595716206
 20
8.9838819134
 30
0.0
 10
13.5604987746
 20
8.9868823877
 30
0.0
  0
SPLINE
  5
288
100
AcDbEntity
  8
0
100
AcDbSpline
 62
7
  6
CONTINUOUS
 70
0
 71
3
 72
9
 73
5
 74
0
 42
0.0000001
 43
0.0000001
 44
0.0000000001
 40
0.0
 40
0.0
 40
0.0
 40
0.0
 40
0.5257459442
 40
1.0
 40
1.0
 40
1.0
 40
1.0
 10
14.2879982036
 20
8.9675091946
 30
0.0
 10
14.2864644855
 20
8.9706345833
 30
0.0
 10
14.2843190735
 20
8.9770499428
 30
0.0
 10
14.2848164978
 20
8.9838819134
 30
0.0
 10
14.2857436517
 20
8.9868823877
 30
0.0
  0
SPLINE
  5
289
100
AcDbEntity
  8
0
100
AcDbSpline
 62
7
  6
CONTINUOUS
 70
0
 71
3
 72
9
 73
5
 74
0
 42
0.0000001
 43
0.0000001
 44
0.0000000001
 40
0.0
 40
0.0
 40
0.0
 40
0.0
 40
0.5257459442
 40
1.0
 40
1.0
 40
1.0
 40
1.0
 10
15.0132430807
 20
8.9675091946
 30
0.0
 10
15.0117093627
 20
8.9706345833
 30
0.0
 10
15.0095639506
 20
8.9770499428
 30
0.0
 10
15.0100613749
 20
8.9838819134
 30
0.0
 10
15.0109885289
 20
8.9868823877
 30
0.0
  0
SPLINE
  5
28A
100
AcDbEntity
  8
0
100
AcDbSpline
 62
7
  6
CONTINUOUS
 70
0
 71
3
 72
9
 73
5
 74
0
 42
0.0000001
 43
0.0000001
 44
0.0000000001
 40
0.0
 40
0.0
 40
0.0
 40
0.0
 40
0.4741172612
 40
1.0
 40
1.0
 40
1.0
 40
1.0
 10
15.0275024231
 20
8.8830311691
 30
0.0
 10
15.0309776057
 20
8.8942801894
 30
0.0
 10
15.0328543106
 20
8.9198997193
 30
0.0
 10
15.0248007573
 20
8.943957126
 30
0.0
 10
15.0190476832
 20
8.9556806584
 30
0.0
  0
SPLINE
  5
28B
100
AcDbEntity
  8
0
100
AcDbSpline
 62
7
  6
CONTINUOUS
 70
0
 71
3
 72
9
 73
5
 74
0
 42
0.0000001
 43
0.0000001
 44
0.0000000001
 40
0.0
 40
0.0
 40
0.0
 40
0.0
 40
0.5257459442
 40
1.0
 40
1.0
 40
1.0
 40
1.0
 10
15.7384879579
 20
8.9675091946
 30
0.0
 10
15.7369542399
 20
8.9706345833
 30
0.0
 10
15.7348088278
 20
8.9770499428
 30
0.0
 10
15.7353062521
 20
8.9838819134
 30
0.0
 10
15.7362334061
 20
8.9868823877
 30
0.0
  0
SPLINE
  5
28C
100
AcDbEntity
  8
0
100
AcDbSpline
 62
7
  6
CONTINUOUS
 70
0
 71
3
 72
9
 73
5
 74
0
 42
0.0000001
 43
0.0000001
 44
0.0000000001
 40
0.0
 40
0.0
 40
0.0
 40
0.0
 40
0.4741172612
 40
1.0
 40
1.0
 40
1.0
 40
1.0
 10
13.5770126687
 20
8.8830311691
 30
0.0
 10
13.5804878514
 20
8.8942801894
 30
0.0
 10
13.5823645563
 20
8.9198997193
 30
0.0
 10
13.574311003
 20
8.943957126
 30
0.0
 10
13.5685579289
 20
8.9556806584
 30
0.0
  0
SPLINE
  5
28D
100
AcDbEntity
  8
0
100
AcDbSpline
 62
7
  6
CONTINUOUS
 70
0
 71
3
 72
9
 73
5
 74
0
 42
0.0000001
 43
0.0000001
 44
0.0000000001
 40
0.0
 40
0.0
 40
0.0
 40
0.0
 40
0.5257459442
 40
1.0
 40
1.0
 40
1.0
 40
1.0
 10
16.4637328351
 20
8.9675091946
 30
0.0
 10
16.462199117
 20
8.9706345833
 30
0.0
 10
16.460053705
 20
8.9770499428
 30
0.0
 10
16.4605511293
 20
8.9838819134
 30
0.0
 10
16.4614782832
 20
8.9868823877
 30
0.0
  0
ENDSEC
  0
SECTION
  2
OBJECTS
  0
DICTIONARY
  5
C
100
AcDbDictionary
280
0
281
1
  3
ACAD_GROUP
350
D
  3
ACAD_MLINESTYLE
350
17
  3
ACAD_LAYOUT
350
1A
  3
ACAD_PLOTSETTINGS
350
19
  3
ACAD_PLOTSTYLENAME
350
E
  0
DICTIONARY
  5
D
102
{ACAD_REACTORS
330
C
102
}
100
AcDbDictionary
280
0
281
1
  0
ACDBDICTIONARYWDFLT
  5
E
102
{ACAD_REACTORS
330
C
102
}
100
AcDbDictionary
281
1
  3
Normal
350
F
100
AcDbDictionaryWithDefault
340
F
  0
DICTIONARY
  5
17
102
{ACAD_REACTORS
330
C
102
}
100
AcDbDictionary
280
0
281
1
  3
Standard
350
18
  0
DICTIONARY
  5
19
102
{ACAD_REACTORS
330
C
102
}
100
AcDbDictionary
281
1
  0
DICTIONARY
  5
1A
102
{ACAD_REACTORS
330
C
102
}
100
AcDbDictionary
281
1
  3
Model
350
28E
  3
Layout1
350
28F
  0
ACDBPLACEHOLDER
  5
F
102
{ACAD_REACTORS
330
E
102
}
  0
MLINESTYLE
  5
18
102
{ACAD_REACTORS
330
17
102
}
100
AcDbMlineStyle
  2
STANDARD
 70
0
  3

 62
256
 51
90.0
 52
90.0
 71
2
 49
0.5
 62
256
  6
BYLAYER
 49
-0.5
 62
256
  6
BYLAYER
  0
LAYOUT
  5
28E
102
{ACAD_REACTORS
330
1A
102
}
100
AcDbPlotSettings
  1

  2
none_device
  4
ANSI_C_(22.00_x_17.00_Inches)
  6

 40
0.0
 41
0.0
 42
0.0
 43
0.0
 44
558.8
 45
431.8
 46
0.0
 47
0.0
 48
0.0
 49
0.0
140
0.0
141
0.0
142
1.0
143
1.0
 70
1024
 72
0
 73
0
 74
0
  7

 75
0
147
1.0
148
0.0
149
0.0
100
AcDbLayout
  1
Model
 70
0
 71
0
 10
0.0
 20
0.0
 11
22.0
 21
17.0
 12
0.0
 22
0.0
 32
0.0
 14
0.0
 24
0.0
 34
0.0
 15
0.0
 25
0.0
 35
0.0
146
0.0
 13
0.0
 23
0.0
 33
0.0
 16
1.0
 26
0.0
 36
0.0
 17
0.0
 27
1.0
 37
0.0
 76
0
330
216
345
0
346
0
  0
LAYOUT
  5
28F
102
{ACAD_REACTORS
330
1A
102
}
100
AcDbPlotSettings
  1

  2
none_device
  4
ANSI_C_(22.00_x_17.00_Inches)
  6

 40
0.0
 41
0.0
 42
0.0
 43
0.0
 44
558.8
 45
431.8
 46
0.0
 47
0.0
 48
0.0
 49
0.0
140
0.0
141
0.0
142
1.0
143
1.0
 70
0
 72
0
 73
0
 74
0
  7

 75
0
147
1.0
148
0.0
149
0.0
100
AcDbLayout
  1
Layout1
 70
0
 71
1
 10
0.0
 20
0.0
 11
22.0
 21
17.0
 12
0.0
 22
0.0
 32
0.0
 14
0.0
 24
0.0
 34
0.0
 15
0.0
 25
0.0
 35
0.0
146
0.0
 13
0.0
 23
0.0
 33
0.0
 16
1.0
 26
0.0
 36
0.0
 17
0.0
 27
1.0
 37
0.0
 76
0
330
217
345
0
346
0
  0
ENDSEC
  0
EOF