999
DXF file: _cgs_temp_output.dxf
999
Pro/ENGINEER 2016360 by Parametric Technology Corporation
  0
SECTION
  2
HEADER
  9
$ACADVER
  1
AC1021
  9
$DWGCODEPAGE
  3
ANSI_1252
  9
$EXTMAX
 10
22.0
 20
17.0
 30
0.0
  9
$EXTMIN
 10
0.0
 20
0.0
 30
0.0
  9
$LIMMIN
 10
0.0
 20
0.0
  9
$LIMMAX
 10
22.0
 20
17.0
  9
$VIEWCTR
 10
11.0
 20
8.5
  9
$VIEWSIZE
 40
17.0
  9
$CLAYER
  8
0
  9
$LTSCALE
 40
1.21
  9
$CELTYPE
  6
BYLAYER
  9
$DIMSCALE
 40
1.0
  9
$DIMASZ
 40
0.1875
  9
$DIMEXO
 40
0.0625
  9
$DIMDLI
 40
0.836
  9
$DIMEXE
 40
0.125
  9
$DIMCEN
 40
0.198
  9
$DIMLFAC
 40
1.0
  9
$DIMBLK
  1
_CLOSED
  9
$DIMALT
 70
0
  9
$DIMALTF
 40
25.4
  9
$DIMTXT
 40
0.15625
  9
$DIMTOL
 70
0
  9
$DIMLIM
 70
0
  9
$DIMTFAC
 40
1.0
  9
$DIMGAP
 40
0.09
  9
$DIMDSEP
 70
46
  9
$AUNITS
 70
0
  9
$PDMODE
 70
3
  9
$PDSIZE
 40
0.3125
  9
$HANDSEED
  5
5A6
  9
$TILEMODE
 70
1
  9
$MEASUREMENT
 70
0
  9
$INSUNITS
 70
1
  0
ENDSEC
  0
SECTION
  2
CLASSES
  0
CLASS
  1
ACDBDICTIONARYWDFLT
  2
AcDbDictionaryWithDefault
  3
AutoCAD 2000
 90
0
 91
1
280
0
281
0
  0
CLASS
  1
ACDBPLACEHOLDER
  2
AcDbPlaceHolder
  3
AutoCAD 2000
 90
0
 91
1
280
0
281
0
  0
CLASS
  1
LAYOUT
  2
AcDbLayout
  3
AutoCAD 2000
 90
0
 91
0
280
0
281
0
  0
ENDSEC
  0
SECTION
  2
TABLES
  0
TABLE
  2
VPORT
  5
8
100
AcDbSymbolTable
 70
2
  0
VPORT
  5
1F4
100
AcDbSymbolTableRecord
100
AcDbViewportTableRecord
  2
*ACTIVE
 70
0
 10
0.0
 20
0.0
 11
1.0
 21
1.0
 12
11.0
 22
8.5
 13
0.0
 23
0.0
 14
1.0
 24
1.0
 15
0.0
 25
0.0
 16
0.0
 26
0.0
 36
1.0
 17
0.0
 27
0.0
 37
0.0
 40
17.0
 41
1.2941176471
 42
50.0
 43
0.0
 44
0.0
 50
0.0
 51
0.0
 71
0
 72
100
 73
1
 74
1
 75
0
 76
0
 77
0
 78
0
  0
ENDTAB
  0
TABLE
  2
LTYPE
  5
5
100
AcDbSymbolTable
 70
6
  0
LTYPE
  5
14
100
AcDbSymbolTableRecord
100
AcDbLinetypeTableRecord
  2
BYBLOCK
 70
0
  3

 72
65
 73
0
 40
0.0
  0
LTYPE
  5
15
100
AcDbSymbolTableRecord
100
AcDbLinetypeTableRecord
  2
BYLAYER
 70
0
  3

 72
65
 73
0
 40
0.0
  0
LTYPE
  5
16
100
AcDbSymbolTableRecord
100
AcDbLinetypeTableRecord
  2
CONTINUOUS
 70
64
  3
Solid line
 72
65
 73
0
 40
0.0
  0
LTYPE
  5
1F5
100
AcDbSymbolTableRecord
100
AcDbLinetypeTableRecord
  2
CENTER
 70
64
  3
____ _ ____ _ ____ _ ____ _ ____ _ ____ _ ____
 72
65
 73
4
 40
0.6
 49
0.375
 74
0
 49
-0.075
 74
0
 49
0.075
 74
0
 49
-0.075
 74
0
  0
LTYPE
  5
1F6
100
AcDbSymbolTableRecord
100
AcDbLinetypeTableRecord
  2
HIDDEN
 70
64
  3
- - - - - - - - - - - - - - - - - - - -
 72
65
 73
2
 40
0.2
 49
0.1
 74
0
 49
-0.1
 74
0
  0
LTYPE
  5
1F7
100
AcDbSymbolTableRecord
100
AcDbLinetypeTableRecord
  2
PHANTOM
 70
64
  3
_____ _ _ _____ _ _ _____ _ _ _____
 72
65
 73
6
 40
0.8
 49
0.45
 74
0
 49
-0.05
 74
0
 49
0.1
 74
0
 49
-0.05
 74
0
 49
0.1
 74
0
 49
-0.05
 74
0
  0
LTYPE
  5
1F8
100
AcDbSymbolTableRecord
100
AcDbLinetypeTableRecord
  2
DOT
 70
64
  3
. . . . . . . . . . . . . . . . . . . .
 72
65
 73
2
 40
0.2
 49
0.1
 74
0
 49
-0.1
 74
0
  0
LTYPE
  5
1F9
100
AcDbSymbolTableRecord
100
AcDbLinetypeTableRecord
  2
DASHED
 70
64
  3
- - - - - - - - - - - - - - - - - - - -
 72
65
 73
2
 40
0.2
 49
0.1
 74
0
 49
-0.1
 74
0
  0
ENDTAB
  0
TABLE
  2
LAYER
  5
2
100
AcDbSymbolTable
 70
36
  0
LAYER
  5
10
100
AcDbSymbolTableRecord
100
AcDbLayerTableRecord
  2
0
 70
0
 62
7
  6
CONTINUOUS
370
-3
390
F
  0
LAYER
  5
1FA
100
AcDbSymbolTableRecord
100
AcDbLayerTableRecord
  2
DEFAULT_1
 70
0
 62
7
  6
CENTER
370
-3
390
F
  0
LAYER
  5
1FB
100
AcDbSymbolTableRecord
100
AcDbLayerTableRecord
  2
DEFAULT_2
 70
0
 62
8
  6
HIDDEN
370
-3
390
F
  0
LAYER
  5
1FC
100
AcDbSymbolTableRecord
100
AcDbLayerTableRecord
  2
DEFAULT_3
 70
0
 62
7
  6
PHANTOM
370
-3
390
F
  0
LAYER
  5
1FD
100
AcDbSymbolTableRecord
100
AcDbLayerTableRecord
  2
01_ALL_DTM_PLN
 70
0
 62
7
  6
CONTINUOUS
370
-3
390
F
  0
LAYER
  5
1FE
100
AcDbSymbolTableRecord
100
AcDbLayerTableRecord
  2
01__ASM_ALL_DTM_PLN
 70
0
 62
7
  6
CONTINUOUS
370
-3
390
F
  0
LAYER
  5
1FF
100
AcDbSymbolTableRecord
100
AcDbLayerTableRecord
  2
01__ASM_DEF_DTM_PLN
 70
0
 62
7
  6
CONTINUOUS
370
-3
390
F
  0
LAYER
  5
200
100
AcDbSymbolTableRecord
100
AcDbLayerTableRecord
  2
01___PRT_ALL_DTM_PLN
 70
0
 62
7
  6
CONTINUOUS
370
-3
390
F
  0
LAYER
  5
201
100
AcDbSymbolTableRecord
100
AcDbLayerTableRecord
  2
01___PRT_DEF_DTM_PLN
 70
0
 62
7
  6
CONTINUOUS
370
-3
390
F
  0
LAYER
  5
202
100
AcDbSymbolTableRecord
100
AcDbLayerTableRecord
  2
02_ALL_AXES
 70
0
 62
7
  6
CONTINUOUS
370
-3
390
F
  0
LAYER
  5
203
100
AcDbSymbolTableRecord
100
AcDbLayerTableRecord
  2
02__ASM_ALL_AXES
 70
0
 62
7
  6
CONTINUOUS
370
-3
390
F
  0
LAYER
  5
204
100
AcDbSymbolTableRecord
100
AcDbLayerTableRecord
  2
02___PRT_ALL_AXES
 70
0
 62
7
  6
CONTINUOUS
370
-3
390
F
  0
LAYER
  5
205
100
AcDbSymbolTableRecord
100
AcDbLayerTableRecord
  2
03_ALL_CURVES
 70
0
 62
7
  6
CONTINUOUS
370
-3
390
F
  0
LAYER
  5
206
100
AcDbSymbolTableRecord
100
AcDbLayerTableRecord
  2
03__ASM_ALL_CURVES
 70
0
 62
7
  6
CONTINUOUS
370
-3
390
F
  0
LAYER
  5
207
100
AcDbSymbolTableRecord
100
AcDbLayerTableRecord
  2
03___PRT_ALL_CURVES
 70
0
 62
7
  6
CONTINUOUS
370
-3
390
F
  0
LAYER
  5
208
100
AcDbSymbolTableRecord
100
AcDbLayerTableRecord
  2
04_ALL_DTM_PNT
 70
0
 62
7
  6
CONTINUOUS
370
-3
390
F
  0
LAYER
  5
209
100
AcDbSymbolTableRecord
100
AcDbLayerTableRecord
  2
04__ASM_ALL_DTM_PNT
 70
0
 62
7
  6
CONTINUOUS
370
-3
390
F
  0
LAYER
  5
20A
100
AcDbSymbolTableRecord
100
AcDbLayerTableRecord
  2
04___PRT_ALL_DTM_PNT
 70
0
 62
7
  6
CONTINUOUS
370
-3
390
F
  0
LAYER
  5
20B
100
AcDbSymbolTableRecord
100
AcDbLayerTableRecord
  2
05_ALL_DTM_CSYS
 70
0
 62
7
  6
CONTINUOUS
370
-3
390
F
  0
LAYER
  5
20C
100
AcDbSymbolTableRecord
100
AcDbLayerTableRecord
  2
05__ASM_ALL_DTM_CSYS
 70
0
 62
7
  6
CONTINUOUS
370
-3
390
F
  0
LAYER
  5
20D
100
AcDbSymbolTableRecord
100
AcDbLayerTableRecord
  2
05__ASM_DEF_DTM_CSYS
 70
0
 62
7
  6
CONTINUOUS
370
-3
390
F
  0
LAYER
  5
20E
100
AcDbSymbolTableRecord
100
AcDbLayerTableRecord
  2
05___PRT_ALL_DTM_CSYS
 70
0
 62
7
  6
CONTINUOUS
370
-3
390
F
  0
LAYER
  5
20F
100
AcDbSymbolTableRecord
100
AcDbLayerTableRecord
  2
05___PRT_DEF_DTM_CSYS
 70
0
 62
7
  6
CONTINUOUS
370
-3
390
F
  0
LAYER
  5
210
100
AcDbSymbolTableRecord
100
AcDbLayerTableRecord
  2
06_ALL_SURFS
 70
0
 62
7
  6
CONTINUOUS
370
-3
390
F
  0
LAYER
  5
211
100
AcDbSymbolTableRecord
100
AcDbLayerTableRecord
  2
06__ASM_ALL_SURFS
 70
0
 62
7
  6
CONTINUOUS
370
-3
390
F
  0
LAYER
  5
212
100
AcDbSymbolTableRecord
100
AcDbLayerTableRecord
  2
06___PRT_ALL_SURFS
 70
0
 62
7
  6
CONTINUOUS
370
-3
390
F
  0
LAYER
  5
213
100
AcDbSymbolTableRecord
100
AcDbLayerTableRecord
  2
07__ASM_ALL_SKELETONS
 70
0
 62
7
  6
CONTINUOUS
370
-3
390
F
  0
LAYER
  5
214
100
AcDbSymbolTableRecord
100
AcDbLayerTableRecord
  2
DRAWING
 70
0
 62
7
  6
CONTINUOUS
370
-3
390
F
  0
LAYER
  5
215
100
AcDbSymbolTableRecord
100
AcDbLayerTableRecord
  2
SHELL
 70
0
 62
7
  6
CONTINUOUS
370
-3
390
F
  0
ENDTAB
  0
TABLE
  2
STYLE
  5
3
100
AcDbSymbolTable
 70
1
  0
STYLE
  5
11
100
AcDbSymbolTableRecord
100
AcDbTextStyleTableRecord
  2
STANDARD
 70
0
 40
0.0
 41
0.8
 50
0.0
 71
0
 42
0.2
  3
txt
  4

  0
STYLE
  5
216
100
AcDbSymbolTableRecord
100
AcDbTextStyleTableRecord
  2
TEXTSTYLE_1
 70
0
 40
0.0
 41
0.8
 50
0.0
 71
0
 42
0.2
  3
gdt
  4

  0
ENDTAB
  0
TABLE
  2
VIEW
  5
6
100
AcDbSymbolTable
 70
0
  0
ENDTAB
  0
TABLE
  2
UCS
  5
7
100
AcDbSymbolTable
 70
0
  0
ENDTAB
  0
TABLE
  2
APPID
  5
9
100
AcDbSymbolTable
 70
1
  0
APPID
  5
217
100
AcDbSymbolTableRecord
100
AcDbRegAppTableRecord
  2
ACAD
 70
0
  0
ENDTAB
  0
TABLE
  2
BLOCK_RECORD
  5
1
100
AcDbSymbolTable
 70
0
  0
BLOCK_RECORD
  5
218
100
AcDbSymbolTableRecord
100
AcDbBlockTableRecord
  2
*Model_Space
  0
BLOCK_RECORD
  5
219
100
AcDbSymbolTableRecord
100
AcDbBlockTableRecord
  2
*Paper_Space
  0
ENDTAB
  0
TABLE
  2
DIMSTYLE
  5
A
100
AcDbSymbolTable
 70
1
100
AcDbDimStyleTable
 71
0
  0
DIMSTYLE
105
21A
100
AcDbSymbolTableRecord
100
AcDbDimStyleTableRecord
  2
STANDARD
 70
0
  3

  4

 40
1.0
 41
0.1875
 42
0.0625
 43
0.38
 44
0.125
 45
0.0
 46
0.0
 47
0.0001
 48
0.0001
140
0.15625
141
0.09
142
0.0
143
25.4
144
1.0
145
0.0
146
1.0
147
0.09
 71
0.0
 72
0.0
 73
1
 74
1
 75
0
 76
0
 77
0
 78
4
 79
1
170
0
171
3
172
0
173
0
174
0
175
0
176
0
177
0
178
0
270
2
179
4
271
4
272
4
273
2
274
2
275
0
280
0
281
0
282
0
283
1
284
4
285
0
286
0
287
3
288
0
340
11
278
46
  0
ENDTAB
  0
ENDSEC
  0
SECTION
  2
BLOCKS
  0
BLOCK
  5
20
100
AcDbEntity
  8
0
100
AcDbBlockBegin
  2
*Model_Space
 70
0
 10
0.0
 20
0.0
 30
0.0
  3
*Model_Space
  1

  0
ENDBLK
  5
21
100
AcDbEntity
  8
0
100
AcDbBlockEnd
  0
BLOCK
  5
1C
100
AcDbEntity
  8
0
100
AcDbBlockBegin
  2
*Paper_Space
 70
0
 10
0.0
 20
0.0
 30
0.0
  3
*Paper_Space
  1

  0
ENDBLK
  5
1D
100
AcDbEntity
  8
0
100
AcDbBlockEnd
  0
ENDSEC
  0
SECTION
  2
ENTITIES
  0
MTEXT
  5
21B
100
AcDbEntity
  8
0
100
AcDbMText
 62
7
  6
CONTINUOUS
  7
STANDARD
 71
1
 72
1
 10
15.9560215477
 20
0.9479130325
 30
0.0
 11
1.0
 21
0.0
 31
0.0
 44
0.9
  1
SCALE: 1:0.500
 40
0.3
 41
3.36
  0
LINE
  5
21C
100
AcDbEntity
  8
0
100
AcDbLine
 62
7
  6
CONTINUOUS
 10
0.0
 20
0.0
 11
0.0
 21
17.0
  0
LINE
  5
21D
100
AcDbEntity
  8
0
100
AcDbLine
 62
7
  6
CONTINUOUS
 10
0.0
 20
0.0
 11
22.0
 21
0.0
  0
LINE
  5
21E
100
AcDbEntity
  8
0
100
AcDbLine
 62
7
  6
CONTINUOUS
 10
0.0
 20
17.0
 11
22.0
 21
17.0
  0
LINE
  5
21F
100
AcDbEntity
  8
0
100
AcDbLine
 62
7
  6
CONTINUOUS
 10
22.0
 20
0.0
 11
22.0
 21
17.0
  0
LINE
  5
220
100
AcDbEntity
  8
0
100
AcDbLine
 62
7
  6
CONTINUOUS
 10
4.5178672762
 20
5.8001198968
 11
4.5178672762
 21
5.2401198968
  0
LINE
  5
221
100
AcDbEntity
  8
0
100
AcDbLine
 62
7
  6
CONTINUOUS
 10
4.5428672762
 20
5.8001198968
 11
4.5428672762
 21
5.6751198968
  0
LINE
  5
222
100
AcDbEntity
  8
0
100
AcDbLine
 62
7
  6
CONTINUOUS
 10
4.5428672762
 20
5.3101198968
 11
4.5428672762
 21
5.4101198968
  0
LINE
  5
223
100
AcDbEntity
  8
0
100
AcDbLine
 62
7
  6
CONTINUOUS
 10
4.5478672762
 20
5.6751198968
 11
4.5478672762
 21
5.7401198968
  0
LINE
  5
224
100
AcDbEntity
  8
0
100
AcDbLine
 62
7
  6
CONTINUOUS
 10
4.5678672762
 20
5.2401198968
 11
4.5678672762
 21
5.3101198968
  0
LINE
  5
225
100
AcDbEntity
  8
0
100
AcDbLine
 62
7
  6
CONTINUOUS
 10
4.6678672762
 20
5.3101198968
 11
4.6678672762
 21
5.2401198968
  0
LINE
  5
226
100
AcDbEntity
  8
0
100
AcDbLine
 62
7
  6
CONTINUOUS
 10
4.6878672762
 20
5.6751198968
 11
4.6878672762
 21
5.7401198968
  0
LINE
  5
227
100
AcDbEntity
  8
0
100
AcDbLine
 62
7
  6
CONTINUOUS
 10
4.6928672762
 20
5.4101198968
 11
4.6928672762
 21
5.3101198968
  0
LINE
  5
228
100
AcDbEntity
  8
0
100
AcDbLine
 62
7
  6
CONTINUOUS
 10
4.6928672762
 20
5.6751198968
 11
4.6928672762
 21
5.8001198968
  0
LINE
  5
229
100
AcDbEntity
  8
0
100
AcDbLine
 62
7
  6
CONTINUOUS
 10
4.5578672762
 20
5.7501198968
 11
4.5478672762
 21
5.7401198968
  0
LINE
  5
22A
100
AcDbEntity
  8
0
100
AcDbLine
 62
7
  6
CONTINUOUS
 10
4.5778672762
 20
5.2401198968
 11
4.5678672762
 21
5.2501198968
  0
LINE
  5
22B
100
AcDbEntity
  8
0
100
AcDbLine
 62
7
  6
CONTINUOUS
 10
5.1053672762
 20
4.7451198968
 11
5.1053672762
 21
5.2401198968
  0
LINE
  5
22C
100
AcDbEntity
  8
0
100
AcDbLine
 62
7
  6
CONTINUOUS
 10
5.1053672762
 20
5.8001198968
 11
5.1053672762
 21
6.2951198968
  0
LINE
  5
22D
100
AcDbEntity
  8
0
100
AcDbLine
 62
7
  6
CONTINUOUS
 10
5.3553672762
 20
4.4951198968
 11
6.9053672762
 21
4.4951198968
  0
LINE
  5
22E
100
AcDbEntity
  8
0
100
AcDbLine
 62
7
  6
CONTINUOUS
 10
5.3172818507
 20
3.8080874567
 11
5.3247836068
 21
3.4998080516
  0
LINE
  5
22F
100
AcDbEntity
  8
0
100
AcDbLine
 62
7
  6
CONTINUOUS
 10
5.1553672762
 20
4.7451198968
 11
5.1553672762
 21
6.2951198968
  0
LINE
  5
230
100
AcDbEntity
  8
0
100
AcDbLine
 62
7
  6
CONTINUOUS
 10
5.3247836068
 20
7.5404317419
 11
5.3172818507
 21
7.2321523368
  0
LINE
  5
231
100
AcDbEntity
  8
0
100
AcDbLine
 62
7
  6
CONTINUOUS
 10
4.5701984223
 20
4.4439990243
 11
4.422555431
 21
4.17327035
  0
LINE
  5
232
100
AcDbEntity
  8
0
100
AcDbLine
 62
7
  6
CONTINUOUS
 10
6.4428672762
 20
7.6725531129
 11
6.2822308623
 21
7.4093261947
  0
LINE
  5
233
100
AcDbEntity
  8
0
100
AcDbLine
 62
7
  6
CONTINUOUS
 10
4.6578672762
 20
5.2401198968
 11
4.6678672762
 21
5.2501198968
  0
LINE
  5
234
100
AcDbEntity
  8
0
100
AcDbLine
 62
7
  6
CONTINUOUS
 10
4.2411609783
 20
5.3682563106
 11
3.97793406
 21
5.2076198968
  0
LINE
  5
235
100
AcDbEntity
  8
0
100
AcDbLine
 62
7
  6
CONTINUOUS
 10
7.4772168229
 20
7.2279317419
 11
7.2064881486
 21
7.0802887507
  0
LINE
  5
236
100
AcDbEntity
  8
0
100
AcDbLine
 62
7
  6
CONTINUOUS
 10
7.8423997162
 20
4.7070344713
 11
8.1506791213
 21
4.7145362274
  0
LINE
  5
237
100
AcDbEntity
  8
0
100
AcDbLine
 62
7
  6
CONTINUOUS
 10
6.9053672762
 20
4.5451198968
 11
5.3553672762
 21
4.5451198968
  0
LINE
  5
238
100
AcDbEntity
  8
0
100
AcDbLine
 62
7
  6
CONTINUOUS
 10
4.110055431
 20
4.7145362274
 11
4.4183348361
 21
4.7070344713
  0
LINE
  5
239
100
AcDbEntity
  8
0
100
AcDbLine
 62
7
  6
CONTINUOUS
 10
7.2064881486
 20
3.9599510428
 11
7.4772168229
 21
3.8123080516
  0
LINE
  5
23A
100
AcDbEntity
  8
0
100
AcDbLine
 62
7
  6
CONTINUOUS
 10
3.97793406
 20
5.8326198968
 11
4.2411609783
 21
5.6719834829
  0
LINE
  5
23B
100
AcDbEntity
  8
0
100
AcDbLine
 62
7
  6
CONTINUOUS
 10
4.6778672762
 20
5.7501198968
 11
4.6878672762
 21
5.7401198968
  0
LINE
  5
23C
100
AcDbEntity
  8
0
100
AcDbLine
 62
7
  6
CONTINUOUS
 10
6.2822308623
 20
3.6309135988
 11
6.4428672762
 21
3.3676866806
  0
LINE
  5
23D
100
AcDbEntity
  8
0
100
AcDbLine
 62
7
  6
CONTINUOUS
 10
4.422555431
 20
6.8669694435
 11
4.5701984223
 21
6.5962407692
  0
LINE
  5
23E
100
AcDbEntity
  8
0
100
AcDbLine
 62
7
  6
CONTINUOUS
 10
4.5178672762
 20
5.2401198968
 11
5.1053672762
 21
5.2401198968
  0
LINE
  5
23F
100
AcDbEntity
  8
0
100
AcDbLine
 62
7
  6
CONTINUOUS
 10
7.1553672762
 20
5.2401198968
 11
7.7428672762
 21
5.2401198968
  0
LINE
  5
240
100
AcDbEntity
  8
0
100
AcDbLine
 62
7
  6
CONTINUOUS
 10
7.6928672762
 20
5.2501198968
 11
7.5928672762
 21
5.2501198968
  0
LINE
  5
241
100
AcDbEntity
  8
0
100
AcDbLine
 62
7
  6
CONTINUOUS
 10
4.6678672762
 20
5.2501198968
 11
4.5678672762
 21
5.2501198968
  0
LINE
  5
242
100
AcDbEntity
  8
0
100
AcDbLine
 62
7
  6
CONTINUOUS
 10
7.7178672762
 20
5.3101198968
 11
7.5678672762
 21
5.3101198968
  0
LINE
  5
243
100
AcDbEntity
  8
0
100
AcDbLine
 62
7
  6
CONTINUOUS
 10
4.6928672762
 20
5.3101198968
 11
4.5428672762
 21
5.3101198968
  0
LINE
  5
244
100
AcDbEntity
  8
0
100
AcDbLine
 62
7
  6
CONTINUOUS
 10
5.9728672762
 20
6.3351198968
 11
5.9728672762
 21
6.2533959362
  0
LINE
  5
245
100
AcDbEntity
  8
0
100
AcDbLine
 62
7
  6
CONTINUOUS
 10
4.5428672762
 20
5.4101198968
 11
4.6928672762
 21
5.4101198968
  0
LINE
  5
246
100
AcDbEntity
  8
0
100
AcDbLine
 62
7
  6
CONTINUOUS
 10
7.5678672762
 20
5.4101198968
 11
7.7178672762
 21
5.4101198968
  0
LINE
  5
247
100
AcDbEntity
  8
0
100
AcDbLine
 62
7
  6
CONTINUOUS
 10
8.0053672762
 20
5.5201198968
 11
6.8803672762
 21
5.5201198968
  0
LINE
  5
248
100
AcDbEntity
  8
0
100
AcDbLine
 62
7
  6
CONTINUOUS
 10
5.3803672762
 20
5.5201198968
 11
4.2553672762
 21
5.5201198968
  0
LINE
  5
249
100
AcDbEntity
  8
0
100
AcDbLine
 62
7
  6
CONTINUOUS
 10
6.2878672762
 20
6.2533959362
 11
6.2878672762
 21
6.3351198968
  0
LINE
  5
24A
100
AcDbEntity
  8
0
100
AcDbLine
 62
7
  6
CONTINUOUS
 10
4.5428672762
 20
5.6751198968
 11
4.6928672762
 21
5.6751198968
  0
LINE
  5
24B
100
AcDbEntity
  8
0
100
AcDbLine
 62
7
  6
CONTINUOUS
 10
7.5678672762
 20
5.6751198968
 11
7.7178672762
 21
5.6751198968
  0
LINE
  5
24C
100
AcDbEntity
  8
0
100
AcDbLine
 62
7
  6
CONTINUOUS
 10
4.5478672762
 20
5.7401198968
 11
4.6878672762
 21
5.7401198968
  0
LINE
  5
24D
100
AcDbEntity
  8
0
100
AcDbLine
 62
7
  6
CONTINUOUS
 10
7.5728672762
 20
5.7401198968
 11
7.7128672762
 21
5.7401198968
  0
LINE
  5
24E
100
AcDbEntity
  8
0
100
AcDbLine
 62
7
  6
CONTINUOUS
 10
4.5578688891
 20
5.7501198968
 11
4.6778656632
 21
5.7501198968
  0
LINE
  5
24F
100
AcDbEntity
  8
0
100
AcDbLine
 62
7
  6
CONTINUOUS
 10
7.5828688891
 20
5.7501198968
 11
7.7028656632
 21
5.7501198968
  0
LINE
  5
250
100
AcDbEntity
  8
0
100
AcDbLine
 62
7
  6
CONTINUOUS
 10
4.5178672762
 20
5.8001198968
 11
5.1053672762
 21
5.8001198968
  0
LINE
  5
251
100
AcDbEntity
  8
0
100
AcDbLine
 62
7
  6
CONTINUOUS
 10
7.1553672762
 20
5.8001198968
 11
7.7428672762
 21
5.8001198968
  0
LINE
  5
252
100
AcDbEntity
  8
0
100
AcDbLine
 62
7
  6
CONTINUOUS
 10
6.2878672762
 20
6.3351198968
 11
5.9728672762
 21
6.3351198968
  0
LINE
  5
253
100
AcDbEntity
  8
0
100
AcDbLine
 62
7
  6
CONTINUOUS
 10
7.6028672762
 20
5.2401198968
 11
7.5928672762
 21
5.2501198968
  0
LINE
  5
254
100
AcDbEntity
  8
0
100
AcDbLine
 62
7
  6
CONTINUOUS
 10
6.9434527016
 20
7.2321523368
 11
6.9359509456
 21
7.5404317419
  0
LINE
  5
255
100
AcDbEntity
  8
0
100
AcDbLine
 62
7
  6
CONTINUOUS
 10
7.1053672762
 20
6.2951198968
 11
7.1053672762
 21
4.7451198968
  0
LINE
  5
256
100
AcDbEntity
  8
0
100
AcDbLine
 62
7
  6
CONTINUOUS
 10
7.1553672762
 20
6.2951198968
 11
7.1553672762
 21
5.8001198968
  0
LINE
  5
257
100
AcDbEntity
  8
0
100
AcDbLine
 62
7
  6
CONTINUOUS
 10
7.1553672762
 20
5.2401198968
 11
7.1553672762
 21
4.7451198968
  0
LINE
  5
258
100
AcDbEntity
  8
0
100
AcDbLine
 62
7
  6
CONTINUOUS
 10
6.9359509456
 20
3.4998080516
 11
6.9434527016
 21
3.8080874567
  0
LINE
  5
259
100
AcDbEntity
  8
0
100
AcDbLine
 62
7
  6
CONTINUOUS
 10
7.6905361301
 20
6.5962407692
 11
7.8381791213
 21
6.8669694435
  0
LINE
  5
25A
100
AcDbEntity
  8
0
100
AcDbLine
 62
7
  6
CONTINUOUS
 10
5.8178672762
 20
3.3676866806
 11
5.97850369
 21
3.6309135988
  0
LINE
  5
25B
100
AcDbEntity
  8
0
100
AcDbLine
 62
7
  6
CONTINUOUS
 10
7.5828672762
 20
5.7501198968
 11
7.5728672762
 21
5.7401198968
  0
LINE
  5
25C
100
AcDbEntity
  8
0
100
AcDbLine
 62
7
  6
CONTINUOUS
 10
8.0195735741
 20
5.6719834829
 11
8.2828004923
 21
5.8326198968
  0
LINE
  5
25D
100
AcDbEntity
  8
0
100
AcDbLine
 62
7
  6
CONTINUOUS
 10
4.7835177294
 20
3.8123080516
 11
5.0542464037
 21
3.9599510428
  0
LINE
  5
25E
100
AcDbEntity
  8
0
100
AcDbLine
 62
7
  6
CONTINUOUS
 10
4.4183348361
 20
6.3332053222
 11
4.110055431
 21
6.3257035661
  0
LINE
  5
25F
100
AcDbEntity
  8
0
100
AcDbLine
 62
7
  6
CONTINUOUS
 10
5.3553672762
 20
6.4951198968
 11
6.9053672762
 21
6.4951198968
  0
LINE
  5
260
100
AcDbEntity
  8
0
100
AcDbLine
 62
7
  6
CONTINUOUS
 10
5.3553672762
 20
6.5451198968
 11
6.9053672762
 21
6.5451198968
  0
LINE
  5
261
100
AcDbEntity
  8
0
100
AcDbLine
 62
7
  6
CONTINUOUS
 10
8.1506791213
 20
6.3257035661
 11
7.8423997162
 21
6.3332053222
  0
LINE
  5
262
100
AcDbEntity
  8
0
100
AcDbLine
 62
7
  6
CONTINUOUS
 10
5.0542464037
 20
7.0802887507
 11
4.7835177294
 21
7.2279317419
  0
LINE
  5
263
100
AcDbEntity
  8
0
100
AcDbLine
 62
7
  6
CONTINUOUS
 10
8.2828004923
 20
5.2076198968
 11
8.0195735741
 21
5.3682563106
  0
LINE
  5
264
100
AcDbEntity
  8
0
100
AcDbLine
 62
7
  6
CONTINUOUS
 10
5.97850369
 20
7.4093261947
 11
5.8178672762
 21
7.6725531129
  0
LINE
  5
265
100
AcDbEntity
  8
0
100
AcDbLine
 62
7
  6
CONTINUOUS
 10
7.8381791213
 20
4.17327035
 11
7.6905361301
 21
4.4439990243
  0
LINE
  5
266
100
AcDbEntity
  8
0
100
AcDbLine
 62
7
  6
CONTINUOUS
 10
7.5678672762
 20
5.8001198968
 11
7.5678672762
 21
5.6751198968
  0
LINE
  5
267
100
AcDbEntity
  8
0
100
AcDbLine
 62
7
  6
CONTINUOUS
 10
7.5678672762
 20
5.3101198968
 11
7.5678672762
 21
5.4101198968
  0
LINE
  5
268
100
AcDbEntity
  8
0
100
AcDbLine
 62
7
  6
CONTINUOUS
 10
7.5728672762
 20
5.6751198968
 11
7.5728672762
 21
5.7401198968
  0
LINE
  5
269
100
AcDbEntity
  8
0
100
AcDbLine
 62
7
  6
CONTINUOUS
 10
7.5928672762
 20
5.2401198968
 11
7.5928672762
 21
5.3101198968
  0
LINE
  5
26A
100
AcDbEntity
  8
0
100
AcDbLine
 62
7
  6
CONTINUOUS
 10
7.6828672762
 20
5.2401198968
 11
7.6928672762
 21
5.2501198968
  0
LINE
  5
26B
100
AcDbEntity
  8
0
100
AcDbLine
 62
7
  6
CONTINUOUS
 10
7.7028672762
 20
5.7501198968
 11
7.7128672762
 21
5.7401198968
  0
LINE
  5
26C
100
AcDbEntity
  8
0
100
AcDbLine
 62
7
  6
CONTINUOUS
 10
7.6928672762
 20
5.3101198968
 11
7.6928672762
 21
5.2401198968
  0
LINE
  5
26D
100
AcDbEntity
  8
0
100
AcDbLine
 62
7
  6
CONTINUOUS
 10
7.7128672762
 20
5.6751198968
 11
7.7128672762
 21
5.7401198968
  0
LINE
  5
26E
100
AcDbEntity
  8
0
100
AcDbLine
 62
7
  6
CONTINUOUS
 10
7.7178672762
 20
5.4101198968
 11
7.7178672762
 21
5.3101198968
  0
LINE
  5
26F
100
AcDbEntity
  8
0
100
AcDbLine
 62
7
  6
CONTINUOUS
 10
7.7178672762
 20
5.6751198968
 11
7.7178672762
 21
5.8001198968
  0
LINE
  5
270
100
AcDbEntity
  8
0
100
AcDbLine
 62
7
  6
CONTINUOUS
 10
7.7428672762
 20
5.2401198968
 11
7.7428672762
 21
5.8001198968
  0
LINE
  5
271
100
AcDbEntity
  8
DRAWING
100
AcDbLine
 62
7
  6
CONTINUOUS
 10
3.8883720839
 20
12.6250477814
 11
3.8883720839
 21
12.5750477814
  0
LINE
  5
272
100
AcDbEntity
  8
0
100
AcDbLine
 62
7
  6
CONTINUOUS
 10
3.9184388677
 20
12.7300477798
 11
3.9184388677
 21
12.6250477814
  0
LINE
  5
273
100
AcDbEntity
  8
0
100
AcDbLine
 62
7
  6
CONTINUOUS
 10
3.9184388677
 20
12.5750477814
 11
3.9184388677
 21
12.470047783
  0
LINE
  5
274
100
AcDbEntity
  8
0
100
AcDbLine
 62
7
  6
CONTINUOUS
 10
4.0505602387
 20
12.4700477828
 11
4.0505602387
 21
12.5750477814
  0
LINE
  5
275
100
AcDbEntity
  8
0
100
AcDbLine
 62
7
  6
CONTINUOUS
 10
4.0505602387
 20
12.6250477814
 11
4.0505602387
 21
12.7300477799
  0
LINE
  5
276
100
AcDbEntity
  8
0
100
AcDbLine
 62
7
  6
CONTINUOUS
 10
4.3583720839
 20
12.7800477814
 11
4.3583720839
 21
12.7550477814
  0
LINE
  5
277
100
AcDbEntity
  8
0
100
AcDbLine
 62
7
  6
CONTINUOUS
 10
4.3583720839
 20
12.4450477814
 11
4.3583720839
 21
12.4200477814
  0
LINE
  5
278
100
AcDbEntity
  8
0
100
AcDbLine
 62
7
  6
CONTINUOUS
 10
4.3630602387
 20
12.7300477766
 11
4.3630602387
 21
12.6250477814
  0
LINE
  5
279
100
AcDbEntity
  8
0
100
AcDbLine
 62
7
  6
CONTINUOUS
 10
4.3630602387
 20
12.5750477814
 11
4.3630602387
 21
12.470045692
  0
LINE
  5
27A
100
AcDbEntity
  8
0
100
AcDbLine
 62
7
  6
CONTINUOUS
 10
4.4583720839
 20
13.1150477814
 11
4.4583720839
 21
12.7800477814
  0
LINE
  5
27B
100
AcDbEntity
  8
0
100
AcDbLine
 62
7
  6
CONTINUOUS
 10
4.4583720839
 20
12.4200477814
 11
4.4583720839
 21
12.0850477814
  0
LINE
  5
27C
100
AcDbEntity
  8
0
100
AcDbLine
 62
7
  6
CONTINUOUS
 10
4.4833720839
 20
13.1150477814
 11
4.4833720839
 21
12.9275477814
  0
LINE
  5
27D
100
AcDbEntity
  8
0
100
AcDbLine
 62
7
  6
CONTINUOUS
 10
4.4833720839
 20
12.2725477814
 11
4.4833720839
 21
12.0850477814
  0
LINE
  5
27E
100
AcDbEntity
  8
0
100
AcDbLine
 62
7
  6
CONTINUOUS
 10
4.5208720839
 20
12.2383971463
 11
4.5208720839
 21
12.2816984165
  0
LINE
  5
27F
100
AcDbEntity
  8
0
100
AcDbLine
 62
7
  6
CONTINUOUS
 10
4.5208720839
 20
12.9183971463
 11
4.5208720839
 21
12.9616984165
  0
LINE
  5
280
100
AcDbEntity
  8
0
100
AcDbLine
 62
7
  6
CONTINUOUS
 10
4.3760916487
 20
12.7550477814
 11
4.3630602387
 21
12.7300477766
  0
LINE
  5
281
100
AcDbEntity
  8
0
100
AcDbLine
 62
7
  6
CONTINUOUS
 10
4.3630602387
 20
12.470045692
 11
4.3760912482
 21
12.4450477814
  0
LINE
  5
282
100
AcDbEntity
  8
0
100
AcDbLine
 62
7
  6
CONTINUOUS
 10
4.5958720839
 20
12.9616984165
 11
4.5958720839
 21
12.9183971463
  0
LINE
  5
283
100
AcDbEntity
  8
0
100
AcDbLine
 62
7
  6
CONTINUOUS
 10
4.5958720839
 20
12.2816984165
 11
4.5958720839
 21
12.2383971463
  0
LINE
  5
284
100
AcDbEntity
  8
0
100
AcDbLine
 62
7
  6
CONTINUOUS
 10
4.6333720839
 20
12.0850477814
 11
4.6333720839
 21
12.2725477814
  0
LINE
  5
285
100
AcDbEntity
  8
0
100
AcDbLine
 62
7
  6
CONTINUOUS
 10
4.6333720839
 20
12.9275477814
 11
4.6333720839
 21
13.1150477814
  0
LINE
  5
286
100
AcDbEntity
  8
0
100
AcDbLine
 62
7
  6
CONTINUOUS
 10
4.7240225371
 20
12.4700477862
 11
4.7240225371
 21
12.5750477814
  0
LINE
  5
287
100
AcDbEntity
  8
0
100
AcDbLine
 62
7
  6
CONTINUOUS
 10
4.7240225371
 20
12.6250477814
 11
4.7240225371
 21
12.7300498708
  0
LINE
  5
288
100
AcDbEntity
  8
0
100
AcDbLine
 62
7
  6
CONTINUOUS
 10
4.7479171215
 20
12.7550477814
 11
4.7240225371
 21
12.7300498708
  0
LINE
  5
289
100
AcDbEntity
  8
0
100
AcDbLine
 62
7
  6
CONTINUOUS
 10
4.5208720839
 20
12.9616984165
 11
4.5583720839
 21
12.9833490516
  0
LINE
  5
28A
100
AcDbEntity
  8
0
100
AcDbLine
 62
7
  6
CONTINUOUS
 10
4.5583720839
 20
12.2167465112
 11
4.5208720839
 21
12.2383971463
  0
LINE
  5
28B
100
AcDbEntity
  8
0
100
AcDbLine
 62
7
  6
CONTINUOUS
 10
4.747917856
 20
12.4450477814
 11
4.7240225371
 21
12.4700477862
  0
LINE
  5
28C
100
AcDbEntity
  8
0
100
AcDbLine
 62
7
  6
CONTINUOUS
 10
5.0458720839
 20
13.1150477814
 11
5.0458720839
 21
12.7800477814
  0
LINE
  5
28D
100
AcDbEntity
  8
0
100
AcDbLine
 62
7
  6
CONTINUOUS
 10
5.0458720839
 20
12.4200477814
 11
5.0458720839
 21
12.0850477814
  0
LINE
  5
28E
100
AcDbEntity
  8
0
100
AcDbLine
 62
7
  6
CONTINUOUS
 10
5.0958720839
 20
13.1175477814
 11
5.0958720839
 21
13.1150477814
  0
LINE
  5
28F
100
AcDbEntity
  8
0
100
AcDbLine
 62
7
  6
CONTINUOUS
 10
5.0958720839
 20
12.0850477814
 11
5.0958720839
 21
12.0825477814
  0
LINE
  5
290
100
AcDbEntity
  8
0
100
AcDbLine
 62
7
  6
CONTINUOUS
 10
4.5958720839
 20
12.9183971463
 11
4.5583720839
 21
12.8967465112
  0
LINE
  5
291
100
AcDbEntity
  8
0
100
AcDbLine
 62
7
  6
CONTINUOUS
 10
4.5583720839
 20
12.3033490516
 11
4.5958720839
 21
12.2816984165
  0
LINE
  5
292
100
AcDbEntity
  8
0
100
AcDbLine
 62
7
  6
CONTINUOUS
 10
5.2652884145
 20
12.7300477799
 11
5.2652884145
 21
12.6250477814
  0
LINE
  5
293
100
AcDbEntity
  8
0
100
AcDbLine
 62
7
  6
CONTINUOUS
 10
5.2652884145
 20
12.5750477814
 11
5.2652884145
 21
12.4700477828
  0
LINE
  5
294
100
AcDbEntity
  8
0
100
AcDbLine
 62
7
  6
CONTINUOUS
 10
4.5208720839
 20
12.2816984165
 11
4.5583720839
 21
12.3033490516
  0
LINE
  5
295
100
AcDbEntity
  8
0
100
AcDbLine
 62
7
  6
CONTINUOUS
 10
5.0958720839
 20
12.0825477814
 11
7.0458720839
 21
12.0825477814
  0
LINE
  5
296
100
AcDbEntity
  8
0
100
AcDbLine
 62
7
  6
CONTINUOUS
 10
4.4583720839
 20
12.0850477814
 11
7.6833720839
 21
12.0850477814
  0
LINE
  5
297
100
AcDbEntity
  8
0
100
AcDbLine
 62
7
  6
CONTINUOUS
 10
4.5583720839
 20
12.8967465112
 11
4.5208720839
 21
12.9183971463
  0
LINE
  5
298
100
AcDbEntity
  8
0
100
AcDbLine
 62
7
  6
CONTINUOUS
 10
5.7583720839
 20
12.470047783
 11
5.7583720839
 21
12.5750477814
  0
LINE
  5
299
100
AcDbEntity
  8
0
100
AcDbLine
 62
7
  6
CONTINUOUS
 10
5.7583720839
 20
12.6250477814
 11
5.7583720839
 21
12.7300477798
  0
LINE
  5
29A
100
AcDbEntity
  8
0
100
AcDbLine
 62
7
  6
CONTINUOUS
 10
4.5958720839
 20
12.2383971463
 11
4.5583720839
 21
12.2167465112
  0
LINE
  5
29B
100
AcDbEntity
  8
0
100
AcDbLine
 62
7
  6
CONTINUOUS
 10
6.0521220839
 20
12.2175718287
 11
6.0896220839
 21
12.2175718287
  0
LINE
  5
29C
100
AcDbEntity
  8
0
100
AcDbLine
 62
7
  6
CONTINUOUS
 10
6.0896220839
 20
12.282523734
 11
6.0521220839
 21
12.282523734
  0
LINE
  5
29D
100
AcDbEntity
  8
0
100
AcDbLine
 62
7
  6
CONTINUOUS
 10
4.5583720839
 20
12.9833490516
 11
4.5958720839
 21
12.9616984165
  0
LINE
  5
29E
100
AcDbEntity
  8
0
100
AcDbLine
 62
7
  6
CONTINUOUS
 10
7.5958720839
 20
12.3350477814
 11
7.5708720839
 21
12.3350477814
  0
LINE
  5
29F
100
AcDbEntity
  8
0
100
AcDbLine
 62
7
  6
CONTINUOUS
 10
4.5708720839
 20
12.3350477814
 11
4.5458720839
 21
12.3350477814
  0
LINE
  5
2A0
100
AcDbEntity
  8
0
100
AcDbLine
 62
7
  6
CONTINUOUS
 10
7.7833720839
 20
12.4200477814
 11
4.3583720839
 21
12.4200477814
  0
LINE
  5
2A1
100
AcDbEntity
  8
0
100
AcDbLine
 62
7
  6
CONTINUOUS
 10
8.200074572
 20
12.4450477814
 11
7.7728496774
 21
12.4450477814
  0
LINE
  5
2A2
100
AcDbEntity
  8
0
100
AcDbLine
 62
7
  6
CONTINUOUS
 10
7.7656539008
 20
12.4450477814
 11
4.376090267
 21
12.4450477814
  0
LINE
  5
2A3
100
AcDbEntity
  8
0
100
AcDbLine
 62
7
  6
CONTINUOUS
 10
4.3688944903
 20
12.4450477814
 11
3.9416695957
 21
12.4450477814
  0
LINE
  5
2A4
100
AcDbEntity
  8
0
100
AcDbLine
 62
7
  6
CONTINUOUS
 10
8.2233053
 20
12.4700477814
 11
8.091183929
 21
12.4700477814
  0
LINE
  5
2A5
100
AcDbEntity
  8
0
100
AcDbLine
 62
7
  6
CONTINUOUS
 10
7.778683929
 20
12.4700477814
 11
7.4177216306
 21
12.4700477814
  0
LINE
  5
2A6
100
AcDbEntity
  8
0
100
AcDbLine
 62
7
  6
CONTINUOUS
 10
6.8764557533
 20
12.4700477814
 11
6.3833720839
 21
12.4700477814
  0
LINE
  5
2A7
100
AcDbEntity
  8
0
100
AcDbLine
 62
7
  6
CONTINUOUS
 10
5.7583720839
 20
12.4700477814
 11
5.2652884145
 21
12.4700477814
  0
LINE
  5
2A8
100
AcDbEntity
  8
0
100
AcDbLine
 62
7
  6
CONTINUOUS
 10
4.7240225371
 20
12.4700477814
 11
4.3630602387
 21
12.4700477814
  0
LINE
  5
2A9
100
AcDbEntity
  8
0
100
AcDbLine
 62
7
  6
CONTINUOUS
 10
4.0505602387
 20
12.4700477814
 11
3.9184388677
 21
12.4700477814
  0
LINE
  5
2AA
100
AcDbEntity
  8
0
100
AcDbLine
 62
7
  6
CONTINUOUS
 10
6.0333720839
 20
12.2500477814
 11
6.0521220839
 21
12.2175718287
  0
LINE
  5
2AB
100
AcDbEntity
  8
0
100
AcDbLine
 62
7
  6
CONTINUOUS
 10
6.1083720839
 20
12.2500477814
 11
6.0896220839
 21
12.282523734
  0
LINE
  5
2AC
100
AcDbEntity
  8
DRAWING
100
AcDbLine
 62
7
  6
CONTINUOUS
 10
8.2533720839
 20
12.5750477814
 11
3.8883720839
 21
12.5750477814
  0
LINE
  5
2AD
100
AcDbEntity
  8
0
100
AcDbLine
 62
7
  6
CONTINUOUS
 10
6.0521220839
 20
12.282523734
 11
6.0333720839
 21
12.2500477814
  0
LINE
  5
2AE
100
AcDbEntity
  8
DRAWING
100
AcDbLine
 62
7
  6
CONTINUOUS
 10
8.2533720839
 20
12.6250477814
 11
3.8883720839
 21
12.6250477814
  0
LINE
  5
2AF
100
AcDbEntity
  8
0
100
AcDbLine
 62
7
  6
CONTINUOUS
 10
3.9184388677
 20
12.7300477814
 11
4.0505602387
 21
12.7300477814
  0
LINE
  5
2B0
100
AcDbEntity
  8
0
100
AcDbLine
 62
7
  6
CONTINUOUS
 10
4.3630602387
 20
12.7300477814
 11
4.7240225371
 21
12.7300477814
  0
LINE
  5
2B1
100
AcDbEntity
  8
0
100
AcDbLine
 62
7
  6
CONTINUOUS
 10
5.2652884145
 20
12.7300477814
 11
5.7583720839
 21
12.7300477814
  0
LINE
  5
2B2
100
AcDbEntity
  8
0
100
AcDbLine
 62
7
  6
CONTINUOUS
 10
6.3833720839
 20
12.7300477814
 11
6.8764557533
 21
12.7300477814
  0
LINE
  5
2B3
100
AcDbEntity
  8
0
100
AcDbLine
 62
7
  6
CONTINUOUS
 10
7.4177216306
 20
12.7300477814
 11
7.778683929
 21
12.7300477814
  0
LINE
  5
2B4
100
AcDbEntity
  8
0
100
AcDbLine
 62
7
  6
CONTINUOUS
 10
8.091183929
 20
12.7300477814
 11
8.2233053
 21
12.7300477814
  0
LINE
  5
2B5
100
AcDbEntity
  8
0
100
AcDbLine
 62
7
  6
CONTINUOUS
 10
3.9416695957
 20
12.7550477814
 11
8.200074572
 21
12.7550477814
  0
LINE
  5
2B6
100
AcDbEntity
  8
0
100
AcDbLine
 62
7
  6
CONTINUOUS
 10
6.3833720839
 20
12.7300477798
 11
6.3833720839
 21
12.6250477814
  0
LINE
  5
2B7
100
AcDbEntity
  8
0
100
AcDbLine
 62
7
  6
CONTINUOUS
 10
6.3833720839
 20
12.5750477814
 11
6.3833720839
 21
12.470047783
  0
LINE
  5
2B8
100
AcDbEntity
  8
0
100
AcDbLine
 62
7
  6
CONTINUOUS
 10
6.0896220839
 20
12.2175718287
 11
6.1083720839
 21
12.2500477814
  0
LINE
  5
2B9
100
AcDbEntity
  8
0
100
AcDbLine
 62
7
  6
CONTINUOUS
 10
4.3583720839
 20
12.7800477814
 11
7.7833720839
 21
12.7800477814
  0
LINE
  5
2BA
100
AcDbEntity
  8
0
100
AcDbLine
 62
7
  6
CONTINUOUS
 10
4.5458720839
 20
12.8650477814
 11
4.5708720839
 21
12.8650477814
  0
LINE
  5
2BB
100
AcDbEntity
  8
0
100
AcDbLine
 62
7
  6
CONTINUOUS
 10
7.5708720839
 20
12.8650477814
 11
7.5958720839
 21
12.8650477814
  0
LINE
  5
2BC
100
AcDbEntity
  8
0
100
AcDbLine
 62
7
  6
CONTINUOUS
 10
7.5458720839
 20
12.9616984165
 11
7.5833720839
 21
12.9833490516
  0
LINE
  5
2BD
100
AcDbEntity
  8
0
100
AcDbLine
 62
7
  6
CONTINUOUS
 10
7.5833720839
 20
12.2167465112
 11
7.5458720839
 21
12.2383971463
  0
LINE
  5
2BE
100
AcDbEntity
  8
0
100
AcDbLine
 62
7
  6
CONTINUOUS
 10
7.6208720839
 20
12.9183971463
 11
7.5833720839
 21
12.8967465112
  0
LINE
  5
2BF
100
AcDbEntity
  8
0
100
AcDbLine
 62
7
  6
CONTINUOUS
 10
4.4583720839
 20
13.1150477814
 11
7.6833720839
 21
13.1150477814
  0
LINE
  5
2C0
100
AcDbEntity
  8
0
100
AcDbLine
 62
7
  6
CONTINUOUS
 10
5.0958720839
 20
13.1175477814
 11
7.0458720839
 21
13.1175477814
  0
LINE
  5
2C1
100
AcDbEntity
  8
0
100
AcDbLine
 62
7
  6
CONTINUOUS
 10
7.5833720839
 20
12.3033490516
 11
7.6208720839
 21
12.2816984165
  0
LINE
  5
2C2
100
AcDbEntity
  8
0
100
AcDbLine
 62
7
  6
CONTINUOUS
 10
6.8764557533
 20
12.4700477828
 11
6.8764557533
 21
12.5750477814
  0
LINE
  5
2C3
100
AcDbEntity
  8
0
100
AcDbLine
 62
7
  6
CONTINUOUS
 10
6.8764557533
 20
12.6250477814
 11
6.8764557533
 21
12.7300477799
  0
LINE
  5
2C4
100
AcDbEntity
  8
0
100
AcDbLine
 62
7
  6
CONTINUOUS
 10
7.0458720839
 20
12.0825477814
 11
7.0458720839
 21
12.0850477814
  0
LINE
  5
2C5
100
AcDbEntity
  8
0
100
AcDbLine
 62
7
  6
CONTINUOUS
 10
7.0458720839
 20
13.1150477814
 11
7.0458720839
 21
13.1175477814
  0
LINE
  5
2C6
100
AcDbEntity
  8
0
100
AcDbLine
 62
7
  6
CONTINUOUS
 10
7.0958720839
 20
12.0850477814
 11
7.0958720839
 21
12.4200477814
  0
LINE
  5
2C7
100
AcDbEntity
  8
0
100
AcDbLine
 62
7
  6
CONTINUOUS
 10
7.0958720839
 20
12.7800477814
 11
7.0958720839
 21
13.1150477814
  0
LINE
  5
2C8
100
AcDbEntity
  8
0
100
AcDbLine
 62
7
  6
CONTINUOUS
 10
7.4177216306
 20
12.470045692
 11
7.3938270462
 21
12.4450477814
  0
LINE
  5
2C9
100
AcDbEntity
  8
0
100
AcDbLine
 62
7
  6
CONTINUOUS
 10
7.5458720839
 20
12.2816984165
 11
7.5833720839
 21
12.3033490516
  0
LINE
  5
2CA
100
AcDbEntity
  8
0
100
AcDbLine
 62
7
  6
CONTINUOUS
 10
7.5833720839
 20
12.8967465112
 11
7.5458720839
 21
12.9183971463
  0
LINE
  5
2CB
100
AcDbEntity
  8
0
100
AcDbLine
 62
7
  6
CONTINUOUS
 10
7.3938263117
 20
12.7550477814
 11
7.4177216306
 21
12.7300477766
  0
LINE
  5
2CC
100
AcDbEntity
  8
0
100
AcDbLine
 62
7
  6
CONTINUOUS
 10
7.6208720839
 20
12.2383971463
 11
7.5833720839
 21
12.2167465112
  0
LINE
  5
2CD
100
AcDbEntity
  8
0
100
AcDbLine
 62
7
  6
CONTINUOUS
 10
7.5833720839
 20
12.9833490516
 11
7.6208720839
 21
12.9616984165
  0
LINE
  5
2CE
100
AcDbEntity
  8
0
100
AcDbLine
 62
7
  6
CONTINUOUS
 10
7.4177216306
 20
12.7300477766
 11
7.4177216306
 21
12.6250477814
  0
LINE
  5
2CF
100
AcDbEntity
  8
0
100
AcDbLine
 62
7
  6
CONTINUOUS
 10
7.4177216306
 20
12.5750477814
 11
7.4177216306
 21
12.470045692
  0
LINE
  5
2D0
100
AcDbEntity
  8
0
100
AcDbLine
 62
7
  6
CONTINUOUS
 10
7.5083720839
 20
13.1150477814
 11
7.5083720839
 21
12.9275477814
  0
LINE
  5
2D1
100
AcDbEntity
  8
0
100
AcDbLine
 62
7
  6
CONTINUOUS
 10
7.5083720839
 20
12.2725477814
 11
7.5083720839
 21
12.0850477814
  0
LINE
  5
2D2
100
AcDbEntity
  8
0
100
AcDbLine
 62
7
  6
CONTINUOUS
 10
7.5458720839
 20
12.2383971463
 11
7.5458720839
 21
12.2816984165
  0
LINE
  5
2D3
100
AcDbEntity
  8
0
100
AcDbLine
 62
7
  6
CONTINUOUS
 10
7.5458720839
 20
12.9183971463
 11
7.5458720839
 21
12.9616984165
  0
LINE
  5
2D4
100
AcDbEntity
  8
0
100
AcDbLine
 62
7
  6
CONTINUOUS
 10
7.6208720839
 20
12.9616984165
 11
7.6208720839
 21
12.9183971463
  0
LINE
  5
2D5
100
AcDbEntity
  8
0
100
AcDbLine
 62
7
  6
CONTINUOUS
 10
7.6208720839
 20
12.2816984165
 11
7.6208720839
 21
12.2383971463
  0
LINE
  5
2D6
100
AcDbEntity
  8
0
100
AcDbLine
 62
7
  6
CONTINUOUS
 10
7.6583720839
 20
12.0850477814
 11
7.6583720839
 21
12.2725477814
  0
LINE
  5
2D7
100
AcDbEntity
  8
0
100
AcDbLine
 62
7
  6
CONTINUOUS
 10
7.6583720839
 20
12.9275477814
 11
7.6583720839
 21
13.1150477814
  0
LINE
  5
2D8
100
AcDbEntity
  8
0
100
AcDbLine
 62
7
  6
CONTINUOUS
 10
7.6833720839
 20
12.0850477814
 11
7.6833720839
 21
12.4200477814
  0
LINE
  5
2D9
100
AcDbEntity
  8
0
100
AcDbLine
 62
7
  6
CONTINUOUS
 10
7.6833720839
 20
12.7800477814
 11
7.6833720839
 21
13.1150477814
  0
LINE
  5
2DA
100
AcDbEntity
  8
0
100
AcDbLine
 62
7
  6
CONTINUOUS
 10
7.765652519
 20
12.4450477814
 11
7.778683929
 21
12.4700477862
  0
LINE
  5
2DB
100
AcDbEntity
  8
0
100
AcDbLine
 62
7
  6
CONTINUOUS
 10
7.7656529195
 20
12.7550477814
 11
7.778683929
 21
12.7300498708
  0
LINE
  5
2DC
100
AcDbEntity
  8
0
100
AcDbLine
 62
7
  6
CONTINUOUS
 10
7.778683929
 20
12.4700477862
 11
7.778683929
 21
12.5750477814
  0
LINE
  5
2DD
100
AcDbEntity
  8
0
100
AcDbLine
 62
7
  6
CONTINUOUS
 10
7.778683929
 20
12.6250477814
 11
7.778683929
 21
12.7300498708
  0
LINE
  5
2DE
100
AcDbEntity
  8
0
100
AcDbLine
 62
7
  6
CONTINUOUS
 10
7.7833720839
 20
12.7800477814
 11
7.7833720839
 21
12.7550477814
  0
LINE
  5
2DF
100
AcDbEntity
  8
0
100
AcDbLine
 62
7
  6
CONTINUOUS
 10
7.7833720839
 20
12.4450477814
 11
7.7833720839
 21
12.4200477814
  0
LINE
  5
2E0
100
AcDbEntity
  8
0
100
AcDbLine
 62
7
  6
CONTINUOUS
 10
8.091183929
 20
12.7300477799
 11
8.091183929
 21
12.6250477814
  0
LINE
  5
2E1
100
AcDbEntity
  8
0
100
AcDbLine
 62
7
  6
CONTINUOUS
 10
8.091183929
 20
12.5750477814
 11
8.091183929
 21
12.4700477828
  0
LINE
  5
2E2
100
AcDbEntity
  8
0
100
AcDbLine
 62
7
  6
CONTINUOUS
 10
8.2233053
 20
12.470047783
 11
8.2233053
 21
12.5750477814
  0
LINE
  5
2E3
100
AcDbEntity
  8
0
100
AcDbLine
 62
7
  6
CONTINUOUS
 10
8.2233053
 20
12.6250477814
 11
8.2233053
 21
12.7300477798
  0
LINE
  5
2E4
100
AcDbEntity
  8
DRAWING
100
AcDbLine
 62
7
  6
CONTINUOUS
 10
8.2533720839
 20
12.6250477814
 11
8.2533720839
 21
12.5750477814
  0
LINE
  5
2E5
100
AcDbEntity
  8
DRAWING
100
AcDbLine
 62
7
  6
CONTINUOUS
 10
15.5853552569
 20
3.2781247044
 11
15.5353552569
 21
3.2781247044
  0
LINE
  5
2E6
100
AcDbEntity
  8
0
100
AcDbLine
 62
7
  6
CONTINUOUS
 10
15.4303552585
 20
3.3081914883
 11
15.5353552569
 21
3.3081914883
  0
LINE
  5
2E7
100
AcDbEntity
  8
0
100
AcDbLine
 62
7
  6
CONTINUOUS
 10
15.5853552569
 20
3.3081914883
 11
15.6903552553
 21
3.3081914883
  0
LINE
  5
2E8
100
AcDbEntity
  8
0
100
AcDbLine
 62
7
  6
CONTINUOUS
 10
15.6903552555
 20
3.4403128593
 11
15.5853552569
 21
3.4403128593
  0
LINE
  5
2E9
100
AcDbEntity
  8
0
100
AcDbLine
 62
7
  6
CONTINUOUS
 10
15.5353552569
 20
3.4403128593
 11
15.4303552584
 21
3.4403128593
  0
LINE
  5
2EA
100
AcDbEntity
  8
0
100
AcDbLine
 62
7
  6
CONTINUOUS
 10
15.3803552569
 20
3.7481247044
 11
15.4053552569
 21
3.7481247044
  0
LINE
  5
2EB
100
AcDbEntity
  8
0
100
AcDbLine
 62
7
  6
CONTINUOUS
 10
15.7153552569
 20
3.7481247044
 11
15.7403552569
 21
3.7481247044
  0
LINE
  5
2EC
100
AcDbEntity
  8
0
100
AcDbLine
 62
7
  6
CONTINUOUS
 10
15.4303552618
 20
3.7528128593
 11
15.5353552569
 21
3.7528128593
  0
LINE
  5
2ED
100
AcDbEntity
  8
0
100
AcDbLine
 62
7
  6
CONTINUOUS
 10
15.5853552569
 20
3.7528128593
 11
15.6903573463
 21
3.7528128593
  0
LINE
  5
2EE
100
AcDbEntity
  8
0
100
AcDbLine
 62
7
  6
CONTINUOUS
 10
15.4303531675
 20
7.1684365496
 11
15.4053552569
 21
7.1554055401
  0
LINE
  5
2EF
100
AcDbEntity
  8
0
100
AcDbLine
 62
7
  6
CONTINUOUS
 10
15.4053552569
 20
3.7658442693
 11
15.4303552618
 21
3.7528128593
  0
LINE
  5
2F0
100
AcDbEntity
  8
0
100
AcDbLine
 62
7
  6
CONTINUOUS
 10
15.6903552521
 20
4.1137751577
 11
15.5853552569
 21
4.1137751577
  0
LINE
  5
2F1
100
AcDbEntity
  8
0
100
AcDbLine
 62
7
  6
CONTINUOUS
 10
15.5353552569
 20
4.1137751577
 11
15.4303531675
 21
4.1137751577
  0
LINE
  5
2F2
100
AcDbEntity
  8
0
100
AcDbLine
 62
7
  6
CONTINUOUS
 10
15.4053552569
 20
6.7835789323
 11
15.4303552618
 21
6.8074742512
  0
LINE
  5
2F3
100
AcDbEntity
  8
0
100
AcDbLine
 62
7
  6
CONTINUOUS
 10
15.4303531675
 20
4.1137751577
 11
15.4053552569
 21
4.1376697421
  0
LINE
  5
2F4
100
AcDbEntity
  8
0
100
AcDbLine
 62
7
  6
CONTINUOUS
 10
15.0453552569
 20
4.4356247044
 11
15.3803552569
 21
4.4356247044
  0
LINE
  5
2F5
100
AcDbEntity
  8
0
100
AcDbLine
 62
7
  6
CONTINUOUS
 10
15.7403552569
 20
4.4356247044
 11
16.0753552569
 21
4.4356247044
  0
LINE
  5
2F6
100
AcDbEntity
  8
0
100
AcDbLine
 62
7
  6
CONTINUOUS
 10
15.0428552569
 20
4.4856247044
 11
15.0453552569
 21
4.4856247044
  0
LINE
  5
2F7
100
AcDbEntity
  8
0
100
AcDbLine
 62
7
  6
CONTINUOUS
 10
16.0753552569
 20
4.4856247044
 11
16.0778552569
 21
4.4856247044
  0
LINE
  5
2F8
100
AcDbEntity
  8
0
100
AcDbLine
 62
7
  6
CONTINUOUS
 10
15.4303552584
 20
4.6550410351
 11
15.5353552569
 21
4.6550410351
  0
LINE
  5
2F9
100
AcDbEntity
  8
0
100
AcDbLine
 62
7
  6
CONTINUOUS
 10
15.5853552569
 20
4.6550410351
 11
15.6903552555
 21
4.6550410351
  0
LINE
  5
2FA
100
AcDbEntity
  8
0
100
AcDbLine
 62
7
  6
CONTINUOUS
 10
15.0428552569
 20
4.4856247044
 11
15.0428552569
 21
6.4356247044
  0
LINE
  5
2FB
100
AcDbEntity
  8
0
100
AcDbLine
 62
7
  6
CONTINUOUS
 10
15.0453552569
 20
4.4356247044
 11
15.0453552569
 21
6.4856247044
  0
LINE
  5
2FC
100
AcDbEntity
  8
0
100
AcDbLine
 62
7
  6
CONTINUOUS
 10
15.6903552553
 20
5.1481247044
 11
15.5853552569
 21
5.1481247044
  0
LINE
  5
2FD
100
AcDbEntity
  8
0
100
AcDbLine
 62
7
  6
CONTINUOUS
 10
15.5353552569
 20
5.1481247044
 11
15.4303552585
 21
5.1481247044
  0
LINE
  5
2FE
100
AcDbEntity
  8
0
100
AcDbLine
 62
7
  6
CONTINUOUS
 10
16.0753552569
 20
5.1806247044
 11
15.7403552569
 21
5.1806247044
  0
LINE
  5
2FF
100
AcDbEntity
  8
0
100
AcDbLine
 62
7
  6
CONTINUOUS
 10
15.3803552569
 20
5.1806247044
 11
15.0453552569
 21
5.1806247044
  0
LINE
  5
300
100
AcDbEntity
  8
0
100
AcDbLine
 62
7
  6
CONTINUOUS
 10
15.3803552569
 20
3.7481389667
 11
15.3803552569
 21
7.1731104422
  0
LINE
  5
301
100
AcDbEntity
  8
0
100
AcDbLine
 62
7
  6
CONTINUOUS
 10
15.4053552569
 20
3.3314222163
 11
15.4053552569
 21
7.5898271926
  0
LINE
  5
302
100
AcDbEntity
  8
0
100
AcDbLine
 62
7
  6
CONTINUOUS
 10
15.4303552569
 20
3.3081914883
 11
15.4303552569
 21
3.4403128593
  0
LINE
  5
303
100
AcDbEntity
  8
0
100
AcDbLine
 62
7
  6
CONTINUOUS
 10
15.4303552569
 20
3.7528128593
 11
15.4303552569
 21
4.1137751577
  0
LINE
  5
304
100
AcDbEntity
  8
0
100
AcDbLine
 62
7
  6
CONTINUOUS
 10
15.4303552569
 20
4.6550410351
 11
15.4303552569
 21
5.1481247044
  0
LINE
  5
305
100
AcDbEntity
  8
0
100
AcDbLine
 62
7
  6
CONTINUOUS
 10
15.4303552569
 20
5.7731247044
 11
15.4303552569
 21
6.2662083738
  0
LINE
  5
306
100
AcDbEntity
  8
0
100
AcDbLine
 62
7
  6
CONTINUOUS
 10
15.4303552569
 20
6.8074742512
 11
15.4303552569
 21
7.1684365496
  0
LINE
  5
307
100
AcDbEntity
  8
0
100
AcDbLine
 62
7
  6
CONTINUOUS
 10
15.4303552569
 20
7.4809365496
 11
15.4303552569
 21
7.6130579206
  0
LINE
  5
308
100
AcDbEntity
  8
DRAWING
100
AcDbLine
 62
7
  6
CONTINUOUS
 10
15.5353552569
 20
3.2781502772
 11
15.5353552569
 21
7.6430991317
  0
LINE
  5
309
100
AcDbEntity
  8
0
100
AcDbLine
 62
7
  6
CONTINUOUS
 10
16.0778552569
 20
5.4606247044
 11
15.5853552569
 21
5.4606247044
  0
LINE
  5
30A
100
AcDbEntity
  8
0
100
AcDbLine
 62
7
  6
CONTINUOUS
 10
15.5353552569
 20
5.4606247044
 11
15.0428552569
 21
5.4606247044
  0
LINE
  5
30B
100
AcDbEntity
  8
DRAWING
100
AcDbLine
 62
7
  6
CONTINUOUS
 10
15.5853552569
 20
3.2781502772
 11
15.5853552569
 21
7.6430991317
  0
LINE
  5
30C
100
AcDbEntity
  8
0
100
AcDbLine
 62
7
  6
CONTINUOUS
 10
15.6903552569
 20
7.6130579206
 11
15.6903552569
 21
7.4809365496
  0
LINE
  5
30D
100
AcDbEntity
  8
0
100
AcDbLine
 62
7
  6
CONTINUOUS
 10
15.6903552569
 20
7.1684365496
 11
15.6903552569
 21
6.8074742512
  0
LINE
  5
30E
100
AcDbEntity
  8
0
100
AcDbLine
 62
7
  6
CONTINUOUS
 10
15.6903552569
 20
6.2662083738
 11
15.6903552569
 21
5.7731247044
  0
LINE
  5
30F
100
AcDbEntity
  8
0
100
AcDbLine
 62
7
  6
CONTINUOUS
 10
15.6903552569
 20
5.1481247044
 11
15.6903552569
 21
4.6550410351
  0
LINE
  5
310
100
AcDbEntity
  8
0
100
AcDbLine
 62
7
  6
CONTINUOUS
 10
15.6903552569
 20
4.1137751577
 11
15.6903552569
 21
3.7528128593
  0
LINE
  5
311
100
AcDbEntity
  8
0
100
AcDbLine
 62
7
  6
CONTINUOUS
 10
15.6903552569
 20
3.4403128593
 11
15.6903552569
 21
3.3081914883
  0
LINE
  5
312
100
AcDbEntity
  8
0
100
AcDbLine
 62
7
  6
CONTINUOUS
 10
15.7153552569
 20
7.5898271926
 11
15.7153552569
 21
3.3314222163
  0
LINE
  5
313
100
AcDbEntity
  8
0
100
AcDbLine
 62
7
  6
CONTINUOUS
 10
15.7403552569
 20
7.1731104422
 11
15.7403552569
 21
3.7481389667
  0
LINE
  5
314
100
AcDbEntity
  8
0
100
AcDbLine
 62
7
  6
CONTINUOUS
 10
15.0453552569
 20
5.7406247044
 11
15.3803552569
 21
5.7406247044
  0
LINE
  5
315
100
AcDbEntity
  8
0
100
AcDbLine
 62
7
  6
CONTINUOUS
 10
15.7403552569
 20
5.7406247044
 11
16.0753552569
 21
5.7406247044
  0
LINE
  5
316
100
AcDbEntity
  8
0
100
AcDbLine
 62
7
  6
CONTINUOUS
 10
15.4303552585
 20
5.7731247044
 11
15.5353552569
 21
5.7731247044
  0
LINE
  5
317
100
AcDbEntity
  8
0
100
AcDbLine
 62
7
  6
CONTINUOUS
 10
15.5853552569
 20
5.7731247044
 11
15.6903552553
 21
5.7731247044
  0
LINE
  5
318
100
AcDbEntity
  8
0
100
AcDbLine
 62
7
  6
CONTINUOUS
 10
16.0753552569
 20
4.4356247044
 11
16.0753552569
 21
6.4856247044
  0
LINE
  5
319
100
AcDbEntity
  8
0
100
AcDbLine
 62
7
  6
CONTINUOUS
 10
16.0778552569
 20
6.4356247044
 11
16.0778552569
 21
4.4856247044
  0
LINE
  5
31A
100
AcDbEntity
  8
0
100
AcDbLine
 62
7
  6
CONTINUOUS
 10
15.6903552555
 20
6.2662083738
 11
15.5853552569
 21
6.2662083738
  0
LINE
  5
31B
100
AcDbEntity
  8
0
100
AcDbLine
 62
7
  6
CONTINUOUS
 10
15.5353552569
 20
6.2662083738
 11
15.4303552584
 21
6.2662083738
  0
LINE
  5
31C
100
AcDbEntity
  8
0
100
AcDbLine
 62
7
  6
CONTINUOUS
 10
15.7153552569
 20
4.1376704766
 11
15.6903552521
 21
4.1137751577
  0
LINE
  5
31D
100
AcDbEntity
  8
0
100
AcDbLine
 62
7
  6
CONTINUOUS
 10
16.0778552569
 20
6.4356247044
 11
16.0753552569
 21
6.4356247044
  0
LINE
  5
31E
100
AcDbEntity
  8
0
100
AcDbLine
 62
7
  6
CONTINUOUS
 10
15.0453552569
 20
6.4356247044
 11
15.0428552569
 21
6.4356247044
  0
LINE
  5
31F
100
AcDbEntity
  8
0
100
AcDbLine
 62
7
  6
CONTINUOUS
 10
16.0753552569
 20
6.4856247044
 11
15.7403552569
 21
6.4856247044
  0
LINE
  5
320
100
AcDbEntity
  8
0
100
AcDbLine
 62
7
  6
CONTINUOUS
 10
15.3803552569
 20
6.4856247044
 11
15.0453552569
 21
6.4856247044
  0
LINE
  5
321
100
AcDbEntity
  8
0
100
AcDbLine
 62
7
  6
CONTINUOUS
 10
15.7153552569
 20
6.7835796668
 11
15.6903573463
 21
6.8074742512
  0
LINE
  5
322
100
AcDbEntity
  8
0
100
AcDbLine
 62
7
  6
CONTINUOUS
 10
15.4303552618
 20
6.8074742512
 11
15.5353552569
 21
6.8074742512
  0
LINE
  5
323
100
AcDbEntity
  8
0
100
AcDbLine
 62
7
  6
CONTINUOUS
 10
15.5853552569
 20
6.8074742512
 11
15.6903573463
 21
6.8074742512
  0
LINE
  5
324
100
AcDbEntity
  8
0
100
AcDbLine
 62
7
  6
CONTINUOUS
 10
15.6903573463
 20
3.7528128593
 11
15.7153552569
 21
3.7658438688
  0
LINE
  5
325
100
AcDbEntity
  8
0
100
AcDbLine
 62
7
  6
CONTINUOUS
 10
15.7153552569
 20
7.1554051396
 11
15.6903552521
 21
7.1684365496
  0
LINE
  5
326
100
AcDbEntity
  8
0
100
AcDbLine
 62
7
  6
CONTINUOUS
 10
15.6903552521
 20
7.1684365496
 11
15.5853552569
 21
7.1684365496
  0
LINE
  5
327
100
AcDbEntity
  8
0
100
AcDbLine
 62
7
  6
CONTINUOUS
 10
15.5353552569
 20
7.1684365496
 11
15.4303531675
 21
7.1684365496
  0
LINE
  5
328
100
AcDbEntity
  8
0
100
AcDbLine
 62
7
  6
CONTINUOUS
 10
15.3803552569
 20
7.1731247044
 11
15.4053552569
 21
7.1731247044
  0
LINE
  5
329
100
AcDbEntity
  8
0
100
AcDbLine
 62
7
  6
CONTINUOUS
 10
15.7153552569
 20
7.1731247044
 11
15.7403552569
 21
7.1731247044
  0
LINE
  5
32A
100
AcDbEntity
  8
0
100
AcDbLine
 62
7
  6
CONTINUOUS
 10
15.4303552584
 20
7.4809365496
 11
15.5353552569
 21
7.4809365496
  0
LINE
  5
32B
100
AcDbEntity
  8
0
100
AcDbLine
 62
7
  6
CONTINUOUS
 10
15.5853552569
 20
7.4809365496
 11
15.6903552555
 21
7.4809365496
  0
LINE
  5
32C
100
AcDbEntity
  8
0
100
AcDbLine
 62
7
  6
CONTINUOUS
 10
15.6903552553
 20
7.6130579206
 11
15.5853552569
 21
7.6130579206
  0
LINE
  5
32D
100
AcDbEntity
  8
0
100
AcDbLine
 62
7
  6
CONTINUOUS
 10
15.5353552569
 20
7.6130579206
 11
15.4303552585
 21
7.6130579206
  0
LINE
  5
32E
100
AcDbEntity
  8
DRAWING
100
AcDbLine
 62
7
  6
CONTINUOUS
 10
15.5853552569
 20
7.6431247044
 11
15.5353552569
 21
7.6431247044
  0
LINE
  5
32F
100
AcDbEntity
  8
DRAWING
100
AcDbLine
 62
7
  6
CONTINUOUS
 10
13.3858623587
 20
13.1143181837
 11
13.3860630054
 21
13.116527724
  0
LINE
  5
330
100
AcDbEntity
  8
DRAWING
100
AcDbLine
 62
7
  6
CONTINUOUS
 10
13.3855909715
 20
13.1143939582
 11
13.3860630054
 21
13.116527724
  0
LINE
  5
331
100
AcDbEntity
  8
0
100
AcDbLine
 62
7
  6
CONTINUOUS
 10
13.3330766643
 20
12.909731335
 11
13.3564909162
 21
12.985499882
  0
LINE
  5
332
100
AcDbEntity
  8
0
100
AcDbLine
 62
7
  6
CONTINUOUS
 10
13.3815192677
 20
13.0664916571
 11
13.3960139076
 21
13.1133963292
  0
LINE
  5
333
100
AcDbEntity
  8
0
100
AcDbLine
 62
7
  6
CONTINUOUS
 10
13.5187367139
 20
13.4498525914
 11
13.4557989652
 21
13.246185962
  0
LINE
  5
334
100
AcDbEntity
  8
0
100
AcDbLine
 62
7
  6
CONTINUOUS
 10
13.6421781298
 20
12.9429781359
 11
13.6324281359
 21
12.9077476363
  0
LINE
  5
335
100
AcDbEntity
  8
0
100
AcDbLine
 62
7
  6
CONTINUOUS
 10
13.6324281359
 20
12.9077476363
 11
13.6322268076
 21
12.9070449965
  0
LINE
  5
336
100
AcDbEntity
  8
0
100
AcDbLine
 62
7
  6
CONTINUOUS
 10
13.6781591522
 20
13.4705653653
 11
13.7026216813
 21
13.5497261386
  0
LINE
  5
337
100
AcDbEntity
  8
0
100
AcDbLine
 62
7
  6
CONTINUOUS
 10
13.7181181596
 20
13.5998727608
 11
13.7410969009
 21
13.6742319947
  0
LINE
  5
338
100
AcDbEntity
  8
0
100
AcDbLine
 62
7
  6
CONTINUOUS
 10
13.6755173222
 20
13.0508638886
 11
13.6421781054
 21
12.9429781434
  0
LINE
  5
339
100
AcDbEntity
  8
0
100
AcDbLine
 62
7
  6
CONTINUOUS
 10
13.5524471525
 20
12.2147193808
 11
13.5757865219
 21
12.2902456078
  0
LINE
  5
33A
100
AcDbEntity
  8
0
100
AcDbLine
 62
7
  6
CONTINUOUS
 10
13.5907805305
 20
12.3387662374
 11
13.6153843959
 21
12.4183843748
  0
LINE
  5
33B
100
AcDbEntity
  8
0
100
AcDbLine
 62
7
  6
CONTINUOUS
 10
13.6792913313
 20
13.0360873919
 11
13.6785732116
 21
13.0342587568
  0
LINE
  5
33C
100
AcDbEntity
  8
0
100
AcDbLine
 62
7
  6
CONTINUOUS
 10
14.1443096985
 20
13.868483472
 11
14.1208026253
 21
13.7924145553
  0
LINE
  5
33D
100
AcDbEntity
  8
0
100
AcDbLine
 62
7
  6
CONTINUOUS
 10
14.1060419539
 20
13.7446490051
 11
14.0813724551
 21
13.6648184778
  0
LINE
  5
33E
100
AcDbEntity
  8
0
100
AcDbLine
 62
7
  6
CONTINUOUS
 10
13.8690212709
 20
12.5830232858
 11
13.7758257364
 21
12.2814424256
  0
LINE
  5
33F
100
AcDbEntity
  8
0
100
AcDbLine
 62
7
  6
CONTINUOUS
 10
13.8442396969
 20
12.4283162211
 11
13.7988522613
 21
12.2814424256
  0
LINE
  5
340
100
AcDbEntity
  8
0
100
AcDbLine
 62
7
  6
CONTINUOUS
 10
13.7731314263
 20
13.6857133254
 11
13.7410969009
 21
13.6742319947
  0
LINE
  5
341
100
AcDbEntity
  8
0
100
AcDbLine
 62
7
  6
CONTINUOUS
 10
13.7758257364
 20
12.2814424256
 11
13.9466491817
 21
11.9333408433
  0
LINE
  5
342
100
AcDbEntity
  8
0
100
AcDbLine
 62
7
  6
CONTINUOUS
 10
13.7988522613
 20
12.2814424256
 11
13.8369824946
 21
12.2037411795
  0
LINE
  5
343
100
AcDbEntity
  8
0
100
AcDbLine
 62
7
  6
CONTINUOUS
 10
13.9483227759
 20
11.9768535411
 11
13.9178185893
 21
12.0390145379
  0
LINE
  5
344
100
AcDbEntity
  8
0
100
AcDbLine
 62
7
  6
CONTINUOUS
 10
13.9927022314
 20
11.9333408433
 11
13.9713493008
 21
11.9768535411
  0
LINE
  5
345
100
AcDbEntity
  8
0
100
AcDbLine
 62
7
  6
CONTINUOUS
 10
13.4557989652
 20
13.246185962
 11
13.469039016
 21
13.2117513141
  0
LINE
  5
346
100
AcDbEntity
  8
0
100
AcDbLine
 62
7
  6
CONTINUOUS
 10
13.8857648588
 20
12.3704846113
 11
13.8962466381
 21
12.4044036614
  0
LINE
  5
347
100
AcDbEntity
  8
0
100
AcDbLine
 62
7
  6
CONTINUOUS
 10
13.8369824946
 20
12.2037411795
 11
13.8759071874
 21
12.3297015317
  0
LINE
  5
348
100
AcDbEntity
  8
0
100
AcDbLine
 62
7
  6
CONTINUOUS
 10
13.901578659
 20
12.3613308696
 11
13.9076857081
 21
12.3810932876
  0
LINE
  5
349
100
AcDbEntity
  8
0
100
AcDbLine
 62
7
  6
CONTINUOUS
 10
13.9653262127
 20
12.4044036614
 11
13.9548444334
 21
12.3704846113
  0
LINE
  5
34A
100
AcDbEntity
  8
0
100
AcDbLine
 62
7
  6
CONTINUOUS
 10
13.9370114104
 20
12.2814424256
 11
13.982398846
 21
12.4283162211
  0
LINE
  5
34B
100
AcDbEntity
  8
0
100
AcDbLine
 62
7
  6
CONTINUOUS
 10
13.88558246
 20
12.3099853991
 11
13.8657547387
 21
12.350390047
  0
LINE
  5
34C
100
AcDbEntity
  8
0
100
AcDbLine
 62
7
  6
CONTINUOUS
 10
14.0634554002
 20
11.9768535411
 11
14.0848083308
 21
11.9333408433
  0
LINE
  5
34D
100
AcDbEntity
  8
0
100
AcDbLine
 62
7
  6
CONTINUOUS
 10
14.0559777384
 20
12.0390145379
 11
14.086481925
 21
11.9768535411
  0
LINE
  5
34E
100
AcDbEntity
  8
0
100
AcDbLine
 62
7
  6
CONTINUOUS
 10
13.9751416437
 20
12.2037411795
 11
13.9370114104
 21
12.2814424256
  0
LINE
  5
34F
100
AcDbEntity
  8
0
100
AcDbLine
 62
7
  6
CONTINUOUS
 10
13.9076857081
 20
12.3810932876
 11
13.8962466381
 21
12.4044036614
  0
LINE
  5
350
100
AcDbEntity
  8
0
100
AcDbLine
 62
7
  6
CONTINUOUS
 10
13.947466385
 20
12.3980528127
 11
13.936027315
 21
12.4213631865
  0
LINE
  5
351
100
AcDbEntity
  8
0
100
AcDbLine
 62
7
  6
CONTINUOUS
 10
14.1573633839
 20
12.6629512027
 11
14.2505589184
 21
12.9645320629
  0
LINE
  5
352
100
AcDbEntity
  8
0
100
AcDbLine
 62
7
  6
CONTINUOUS
 10
14.4952300401
 20
13.7469464391
 11
14.5189986611
 21
13.8238617246
  0
LINE
  5
353
100
AcDbEntity
  8
0
100
AcDbLine
 62
7
  6
CONTINUOUS
 10
14.5330525591
 20
13.8693401555
 11
14.5581672834
 21
13.9506114331
  0
LINE
  5
354
100
AcDbEntity
  8
0
100
AcDbLine
 62
7
  6
CONTINUOUS
 10
13.9483227759
 20
11.9768535411
 11
13.9675319768
 21
12.0390145379
  0
LINE
  5
355
100
AcDbEntity
  8
0
100
AcDbLine
 62
7
  6
CONTINUOUS
 10
13.9713493008
 20
11.9768535411
 11
13.9905585017
 21
12.0390145379
  0
LINE
  5
356
100
AcDbEntity
  8
0
100
AcDbLine
 62
7
  6
CONTINUOUS
 10
14.0253578729
 20
12.0390145379
 11
13.9927022314
 21
11.9333408433
  0
LINE
  5
357
100
AcDbEntity
  8
0
100
AcDbLine
 62
7
  6
CONTINUOUS
 10
14.0723528253
 20
12.0056456192
 11
14.0634554002
 21
11.9768535411
  0
LINE
  5
358
100
AcDbEntity
  8
0
100
AcDbLine
 62
7
  6
CONTINUOUS
 10
17.4234877161
 20
11.5717557539
 11
17.3981453607
 21
11.5670273297
  0
LINE
  5
359
100
AcDbEntity
  8
0
100
AcDbLine
 62
7
  6
CONTINUOUS
 10
14.9452939549
 20
11.470241417
 11
16.3729384956
 21
11.470241417
  0
LINE
  5
35A
100
AcDbEntity
  8
0
100
AcDbLine
 62
7
  6
CONTINUOUS
 10
16.3570812364
 20
11.4993635981
 11
14.9294366957
 21
11.4993635981
  0
LINE
  5
35B
100
AcDbEntity
  8
0
100
AcDbLine
 62
7
  6
CONTINUOUS
 10
14.6387682397
 20
11.625643909
 11
14.4877725157
 21
11.9333408433
  0
LINE
  5
35C
100
AcDbEntity
  8
0
100
AcDbLine
 62
7
  6
CONTINUOUS
 10
14.3169490704
 20
12.2814424256
 11
14.1659533464
 21
12.5891393599
  0
LINE
  5
35D
100
AcDbEntity
  8
0
100
AcDbLine
 62
7
  6
CONTINUOUS
 10
14.6842161236
 20
11.6236855918
 11
14.2114012303
 21
12.5871810426
  0
LINE
  5
35E
100
AcDbEntity
  8
0
100
AcDbLine
 62
7
  6
CONTINUOUS
 10
14.2761524633
 20
11.5670277863
 11
14.2774904718
 21
11.5717573944
  0
LINE
  5
35F
100
AcDbEntity
  8
0
100
AcDbLine
 62
7
  6
CONTINUOUS
 10
14.2774904718
 20
11.5717573944
 11
14.3026448267
 21
11.653156917
  0
LINE
  5
360
100
AcDbEntity
  8
0
100
AcDbLine
 62
7
  6
CONTINUOUS
 10
14.3164429526
 20
11.6978076686
 11
14.325269609
 21
11.7263707391
  0
LINE
  5
361
100
AcDbEntity
  8
0
100
AcDbLine
 62
7
  6
CONTINUOUS
 10
14.3248434326
 20
11.7204618605
 11
14.2761519635
 21
11.5670262113
  0
LINE
  5
362
100
AcDbEntity
  8
0
100
AcDbLine
 62
7
  6
CONTINUOUS
 10
15.0722213586
 20
13.8065701308
 11
15.0802892718
 21
13.8260808361
  0
LINE
  5
363
100
AcDbEntity
  8
0
100
AcDbLine
 62
7
  6
CONTINUOUS
 10
15.0985231972
 20
13.870176098
 11
15.1339107612
 21
13.955754155
  0
LINE
  5
364
100
AcDbEntity
  8
0
100
AcDbLine
 62
7
  6
CONTINUOUS
 10
15.0588702009
 20
13.712922813
 11
14.9971807984
 21
13.5637387888
  0
LINE
  5
365
100
AcDbEntity
  8
0
100
AcDbLine
 62
7
  6
CONTINUOUS
 10
13.9150637565
 20
12.3535250862
 11
13.8857648588
 21
12.3704846113
  0
LINE
  5
366
100
AcDbEntity
  8
0
100
AcDbLine
 62
7
  6
CONTINUOUS
 10
13.9609514825
 20
12.3902470293
 11
13.947466385
 21
12.3980528127
  0
LINE
  5
367
100
AcDbEntity
  8
0
100
AcDbLine
 62
7
  6
CONTINUOUS
 10
13.936027315
 20
12.4213631865
 11
13.9653262127
 21
12.4044036614
  0
LINE
  5
368
100
AcDbEntity
  8
0
100
AcDbLine
 62
7
  6
CONTINUOUS
 10
13.6980916648
 20
13.4428817344
 11
13.6781591522
 21
13.4705653653
  0
LINE
  5
369
100
AcDbEntity
  8
0
100
AcDbLine
 62
7
  6
CONTINUOUS
 10
15.1338304047
 20
13.9506114331
 11
15.108670204
 21
13.8691929938
  0
LINE
  5
36A
100
AcDbEntity
  8
0
100
AcDbLine
 62
7
  6
CONTINUOUS
 10
15.0949097999
 20
13.8246643098
 11
15.0708931614
 21
13.7469464391
  0
LINE
  5
36B
100
AcDbEntity
  8
0
100
AcDbLine
 62
7
  6
CONTINUOUS
 10
13.6385084711
 20
12.4467799547
 11
13.673033592
 21
12.4646010625
  0
LINE
  5
36C
100
AcDbEntity
  8
0
100
AcDbLine
 62
7
  6
CONTINUOUS
 10
16.0238888896
 20
13.6020371757
 11
16.0354410114
 21
13.6072261436
  0
LINE
  5
36D
100
AcDbEntity
  8
0
100
AcDbLine
 62
7
  6
CONTINUOUS
 10
16.0953172486
 20
13.6341212786
 11
16.2101772095
 21
13.6857139353
  0
LINE
  5
36E
100
AcDbEntity
  8
0
100
AcDbLine
 62
7
  6
CONTINUOUS
 10
13.4690375634
 20
13.2117524325
 11
13.6683195933
 21
13.0583167833
  0
LINE
  5
36F
100
AcDbEntity
  8
0
100
AcDbLine
 62
7
  6
CONTINUOUS
 10
15.2069324894
 20
11.3251728912
 11
15.2989711897
 21
11.1504553413
  0
LINE
  5
370
100
AcDbEntity
  8
0
100
AcDbLine
 62
7
  6
CONTINUOUS
 10
14.0830102065
 20
13.6283233026
 11
14.1624493469
 21
13.4536057527
  0
LINE
  5
371
100
AcDbEntity
  8
0
100
AcDbLine
 62
7
  6
CONTINUOUS
 10
14.7747190435
 20
12.4926908956
 11
14.6550474006
 21
12.1054333172
  0
LINE
  5
372
100
AcDbEntity
  8
0
100
AcDbLine
 62
7
  6
CONTINUOUS
 10
15.0643127828
 20
12.8992300796
 11
15.0391815547
 21
12.873790792
  0
LINE
  5
373
100
AcDbEntity
  8
0
100
AcDbLine
 62
7
  6
CONTINUOUS
 10
15.0688884108
 20
12.8899059301
 11
15.0437571827
 21
12.8644666425
  0
LINE
  5
374
100
AcDbEntity
  8
0
100
AcDbLine
 62
7
  6
CONTINUOUS
 10
15.0831299012
 20
12.8483515044
 11
15.1082611293
 21
12.873790792
  0
LINE
  5
375
100
AcDbEntity
  8
0
100
AcDbLine
 62
7
  6
CONTINUOUS
 10
13.7398427095
 20
12.294989403
 11
13.5634679108
 21
12.2039486127
  0
LINE
  5
376
100
AcDbEntity
  8
0
100
AcDbLine
 62
7
  6
CONTINUOUS
 10
16.1351366492
 20
13.4428825933
 11
15.9488483293
 21
13.3592058337
  0
LINE
  5
377
100
AcDbEntity
  8
0
100
AcDbLine
 62
7
  6
CONTINUOUS
 10
13.8962466381
 20
12.4044036614
 11
13.936027315
 21
12.4213631865
  0
LINE
  5
378
100
AcDbEntity
  8
0
100
AcDbLine
 62
7
  6
CONTINUOUS
 10
13.947466385
 20
12.3980528127
 11
13.9076857081
 21
12.3810932876
  0
LINE
  5
379
100
AcDbEntity
  8
0
100
AcDbLine
 62
7
  6
CONTINUOUS
 10
17.2585035853
 20
11.8839673164
 11
17.5153022286
 21
11.8882189414
  0
LINE
  5
37A
100
AcDbEntity
  8
0
100
AcDbLine
 62
7
  6
CONTINUOUS
 10
13.9466491817
 20
11.9333408433
 11
13.9927022314
 21
11.9333408433
  0
LINE
  5
37B
100
AcDbEntity
  8
0
100
AcDbLine
 62
7
  6
CONTINUOUS
 10
14.0848083308
 20
11.9333408433
 11
14.4877725157
 21
11.9333408433
  0
LINE
  5
37C
100
AcDbEntity
  8
0
100
AcDbLine
 62
7
  6
CONTINUOUS
 10
16.3759475534
 20
11.9333408433
 11
16.7789117383
 21
11.9333408433
  0
LINE
  5
37D
100
AcDbEntity
  8
0
100
AcDbLine
 62
7
  6
CONTINUOUS
 10
16.8710178377
 20
11.9333408433
 11
16.9170708874
 21
11.9333408433
  0
LINE
  5
37E
100
AcDbEntity
  8
0
100
AcDbLine
 62
7
  6
CONTINUOUS
 10
16.8726914319
 20
11.9768535411
 11
16.849664907
 21
11.9768535411
  0
LINE
  5
37F
100
AcDbEntity
  8
0
100
AcDbLine
 62
7
  6
CONTINUOUS
 10
16.7575588076
 20
11.9768535411
 11
16.7345322828
 21
11.9768535411
  0
LINE
  5
380
100
AcDbEntity
  8
0
100
AcDbLine
 62
7
  6
CONTINUOUS
 10
14.086481925
 20
11.9768535411
 11
14.0634554002
 21
11.9768535411
  0
LINE
  5
381
100
AcDbEntity
  8
0
100
AcDbLine
 62
7
  6
CONTINUOUS
 10
13.9713493008
 20
11.9768535411
 11
13.9483227759
 21
11.9768535411
  0
LINE
  5
382
100
AcDbEntity
  8
0
100
AcDbLine
 62
7
  6
CONTINUOUS
 10
13.8437595509
 20
11.8882189414
 11
14.1047309833
 21
11.8839673164
  0
LINE
  5
383
100
AcDbEntity
  8
0
100
AcDbLine
 62
7
  6
CONTINUOUS
 10
16.9006819683
 20
11.4195728101
 11
17.1690954672
 21
11.3358960505
  0
LINE
  5
384
100
AcDbEntity
  8
0
100
AcDbLine
 62
7
  6
CONTINUOUS
 10
13.3814657456
 20
12.5748300311
 11
13.6471932059
 21
12.4837892409
  0
LINE
  5
385
100
AcDbEntity
  8
0
100
AcDbLine
 62
7
  6
CONTINUOUS
 10
16.1497548295
 20
11.215039855
 11
16.3578620037
 21
11.0658558308
  0
LINE
  5
386
100
AcDbEntity
  8
0
100
AcDbLine
 62
7
  6
CONTINUOUS
 10
14.9927946675
 20
12.6120454413
 11
14.9770961477
 21
12.5612450128
  0
LINE
  5
387
100
AcDbEntity
  8
0
100
AcDbLine
 62
7
  6
CONTINUOUS
 10
13.9548444334
 20
12.3704846113
 11
13.9150637565
 21
12.3535250862
  0
LINE
  5
388
100
AcDbEntity
  8
0
100
AcDbLine
 62
7
  6
CONTINUOUS
 10
13.9178185893
 20
12.0390145379
 11
14.0559777384
 21
12.0390145379
  0
LINE
  5
389
100
AcDbEntity
  8
0
100
AcDbLine
 62
7
  6
CONTINUOUS
 10
16.7040280961
 20
12.0390145379
 11
16.8421872452
 21
12.0390145379
  0
LINE
  5
38A
100
AcDbEntity
  8
0
100
AcDbLine
 62
7
  6
CONTINUOUS
 10
16.2438776153
 20
12.1054333172
 11
16.0366388916
 21
12.1054333172
  0
LINE
  5
38B
100
AcDbEntity
  8
0
100
AcDbLine
 62
7
  6
CONTINUOUS
 10
14.6550474006
 20
12.1054333172
 11
14.447808677
 21
12.1054333172
  0
LINE
  5
38C
100
AcDbEntity
  8
0
100
AcDbLine
 62
7
  6
CONTINUOUS
 10
16.8316591647
 20
12.1073916344
 11
16.2444827811
 21
12.1073916344
  0
LINE
  5
38D
100
AcDbEntity
  8
0
100
AcDbLine
 62
7
  6
CONTINUOUS
 10
14.4468476744
 20
12.1073916344
 11
13.8612374591
 21
12.1073916344
  0
LINE
  5
38E
100
AcDbEntity
  8
0
100
AcDbLine
 62
7
  6
CONTINUOUS
 10
14.9521669183
 20
12.6120454413
 11
14.9770961477
 21
12.5612450128
  0
LINE
  5
38F
100
AcDbEntity
  8
0
100
AcDbLine
 62
7
  6
CONTINUOUS
 10
15.5653558457
 20
13.6648184778
 11
15.5903337516
 21
13.7456470112
  0
LINE
  5
390
100
AcDbEntity
  8
0
100
AcDbLine
 62
7
  6
CONTINUOUS
 10
15.6039979868
 20
13.7898644925
 11
15.628293089
 21
13.868483472
  0
LINE
  5
391
100
AcDbEntity
  8
0
100
AcDbLine
 62
7
  6
CONTINUOUS
 10
13.8369824946
 20
12.2037411795
 11
13.9751416437
 21
12.2037411795
  0
LINE
  5
392
100
AcDbEntity
  8
0
100
AcDbLine
 62
7
  6
CONTINUOUS
 10
16.6231920015
 20
12.2037411795
 11
16.7613511506
 21
12.2037411795
  0
LINE
  5
393
100
AcDbEntity
  8
0
100
AcDbLine
 62
7
  6
CONTINUOUS
 10
16.7462474421
 20
12.2814424256
 11
16.7232209172
 21
12.2814424256
  0
LINE
  5
394
100
AcDbEntity
  8
0
100
AcDbLine
 62
7
  6
CONTINUOUS
 10
16.5850617681
 20
12.2814424256
 11
16.2051241081
 21
12.2814424256
  0
LINE
  5
395
100
AcDbEntity
  8
0
100
AcDbLine
 62
7
  6
CONTINUOUS
 10
13.7758257364
 20
12.2814424256
 11
13.7988522613
 21
12.2814424256
  0
LINE
  5
396
100
AcDbEntity
  8
0
100
AcDbLine
 62
7
  6
CONTINUOUS
 10
13.9370114104
 20
12.2814424256
 11
14.3169490704
 21
12.2814424256
  0
LINE
  5
397
100
AcDbEntity
  8
0
100
AcDbLine
 62
7
  6
CONTINUOUS
 10
15.0391815547
 20
12.873790792
 11
15.0437571827
 21
12.8644666425
  0
LINE
  5
398
100
AcDbEntity
  8
0
100
AcDbLine
 62
7
  6
CONTINUOUS
 10
15.0643127828
 20
12.8992300796
 11
15.0688884108
 21
12.8899059301
  0
LINE
  5
399
100
AcDbEntity
  8
0
100
AcDbLine
 62
7
  6
CONTINUOUS
 10
15.2672303608
 20
12.5612450128
 11
15.2423011314
 21
12.6120454413
  0
LINE
  5
39A
100
AcDbEntity
  8
0
100
AcDbLine
 62
7
  6
CONTINUOUS
 10
15.0391815547
 20
12.873790792
 11
15.0485901139
 21
12.8483515044
  0
LINE
  5
39B
100
AcDbEntity
  8
0
100
AcDbLine
 62
7
  6
CONTINUOUS
 10
15.0437571827
 20
12.8644666425
 11
15.0497172643
 21
12.8483515044
  0
LINE
  5
39C
100
AcDbEntity
  8
0
100
AcDbLine
 62
7
  6
CONTINUOUS
 10
15.1082611293
 20
12.873790792
 11
15.0988525701
 21
12.8992300796
  0
LINE
  5
39D
100
AcDbEntity
  8
0
100
AcDbLine
 62
7
  6
CONTINUOUS
 10
16.1592198099
 20
13.4705637248
 11
16.1351352914
 21
13.4428819834
  0
LINE
  5
39E
100
AcDbEntity
  8
0
100
AcDbLine
 62
7
  6
CONTINUOUS
 10
17.0048574825
 20
12.3698061492
 11
16.9588044328
 21
12.3698061492
  0
LINE
  5
39F
100
AcDbEntity
  8
0
100
AcDbLine
 62
7
  6
CONTINUOUS
 10
17.1605815521
 20
12.3893893219
 11
17.0109091406
 21
12.3893893219
  0
LINE
  5
3A0
100
AcDbEntity
  8
0
100
AcDbLine
 62
7
  6
CONTINUOUS
 10
13.8091838504
 20
12.3893893219
 11
13.7066028246
 21
12.3893893219
  0
LINE
  5
3A1
100
AcDbEntity
  8
0
100
AcDbLine
 62
7
  6
CONTINUOUS
 10
16.9356057717
 20
12.4089724947
 11
16.9248546993
 21
12.4089724947
  0
LINE
  5
3A2
100
AcDbEntity
  8
0
100
AcDbLine
 62
7
  6
CONTINUOUS
 10
16.726171186
 20
12.477274153
 11
16.7031446611
 21
12.477274153
  0
LINE
  5
3A3
100
AcDbEntity
  8
0
100
AcDbLine
 62
7
  6
CONTINUOUS
 10
13.9399616791
 20
12.477274153
 11
13.9169351543
 21
12.477274153
  0
LINE
  5
3A4
100
AcDbEntity
  8
0
100
AcDbLine
 62
7
  6
CONTINUOUS
 10
16.8175607002
 20
12.5830232858
 11
16.2983196426
 21
12.5830232858
  0
LINE
  5
3A5
100
AcDbEntity
  8
0
100
AcDbLine
 62
7
  6
CONTINUOUS
 10
14.1689546797
 20
12.5830232858
 11
13.8690212709
 21
12.5830232858
  0
LINE
  5
3A6
100
AcDbEntity
  8
0
100
AcDbLine
 62
7
  6
CONTINUOUS
 10
15.2423011314
 20
12.6120454413
 11
14.9521669183
 21
12.6120454413
  0
LINE
  5
3A7
100
AcDbEntity
  8
0
100
AcDbLine
 62
7
  6
CONTINUOUS
 10
14.3346050558
 20
12.7115030362
 11
15.7622495965
 21
12.7115030362
  0
LINE
  5
3A8
100
AcDbEntity
  8
0
100
AcDbLine
 62
7
  6
CONTINUOUS
 10
14.3352102216
 20
12.7134613535
 11
15.7628547623
 21
12.7134613535
  0
LINE
  5
3A9
100
AcDbEntity
  8
0
100
AcDbLine
 62
7
  6
CONTINUOUS
 10
14.3199581283
 20
12.7445418519
 11
15.747602669
 21
12.7445418519
  0
LINE
  5
3AA
100
AcDbEntity
  8
0
100
AcDbLine
 62
7
  6
CONTINUOUS
 10
15.0485901139
 20
12.8483515044
 11
15.0831299012
 21
12.8483515044
  0
LINE
  5
3AB
100
AcDbEntity
  8
0
100
AcDbLine
 62
7
  6
CONTINUOUS
 10
13.9665024084
 20
13.3592058337
 11
13.6980889095
 21
13.4428825933
  0
LINE
  5
3AC
100
AcDbEntity
  8
0
100
AcDbLine
 62
7
  6
CONTINUOUS
 10
17.4857186311
 20
12.2039486127
 11
17.2199911708
 21
12.294989403
  0
LINE
  5
3AD
100
AcDbEntity
  8
0
100
AcDbLine
 62
7
  6
CONTINUOUS
 10
16.2221575586
 20
13.6742303543
 11
16.197867289
 21
13.5956270131
  0
LINE
  5
3AE
100
AcDbEntity
  8
0
100
AcDbLine
 62
7
  6
CONTINUOUS
 10
16.184196331
 20
13.5513877768
 11
16.1592198099
 21
13.4705637248
  0
LINE
  5
3AF
100
AcDbEntity
  8
0
100
AcDbLine
 62
7
  6
CONTINUOUS
 10
13.6086807914
 20
12.8948113274
 11
13.3518821481
 21
12.8905597024
  0
LINE
  5
3B0
100
AcDbEntity
  8
0
100
AcDbLine
 62
7
  6
CONTINUOUS
 10
15.1023010476
 20
12.8899059301
 11
15.0688884108
 21
12.8899059301
  0
LINE
  5
3B1
100
AcDbEntity
  8
0
100
AcDbLine
 62
7
  6
CONTINUOUS
 10
15.0988525701
 20
12.8992300796
 11
15.0643127828
 21
12.8992300796
  0
LINE
  5
3B2
100
AcDbEntity
  8
0
100
AcDbLine
 62
7
  6
CONTINUOUS
 10
15.8407982035
 20
13.0461227121
 11
14.4131536628
 21
13.0461227121
  0
LINE
  5
3B3
100
AcDbEntity
  8
0
100
AcDbLine
 62
7
  6
CONTINUOUS
 10
17.0234248258
 20
12.8905597024
 11
16.7624533934
 21
12.8948113274
  0
LINE
  5
3B4
100
AcDbEntity
  8
0
100
AcDbLine
 62
7
  6
CONTINUOUS
 10
16.7012732633
 20
12.3535250862
 11
16.6719743657
 21
12.3704846113
  0
LINE
  5
3B5
100
AcDbEntity
  8
0
100
AcDbLine
 62
7
  6
CONTINUOUS
 10
16.7471609893
 20
12.3902470293
 11
16.7336758919
 21
12.3980528127
  0
LINE
  5
3B6
100
AcDbEntity
  8
0
100
AcDbLine
 62
7
  6
CONTINUOUS
 10
14.7174295472
 20
13.5637387888
 11
14.509322373
 21
13.712922813
  0
LINE
  5
3B7
100
AcDbEntity
  8
0
100
AcDbLine
 62
7
  6
CONTINUOUS
 10
17.3981468133
 20
11.5670262113
 11
17.1988647834
 21
11.7204618605
  0
LINE
  5
3B8
100
AcDbEntity
  8
0
100
AcDbLine
 62
7
  6
CONTINUOUS
 10
16.0074701686
 20
12.5871810426
 11
16.4802850619
 21
11.6236855918
  0
LINE
  5
3B9
100
AcDbEntity
  8
0
100
AcDbLine
 62
7
  6
CONTINUOUS
 10
16.0080753344
 20
12.5891393599
 11
16.4808902277
 21
11.625643909
  0
LINE
  5
3BA
100
AcDbEntity
  8
0
100
AcDbLine
 62
7
  6
CONTINUOUS
 10
16.682456145
 20
12.4044036614
 11
16.7222368219
 21
12.4213631865
  0
LINE
  5
3BB
100
AcDbEntity
  8
0
100
AcDbLine
 62
7
  6
CONTINUOUS
 10
16.7336758919
 20
12.3980528127
 11
16.693895215
 21
12.3810932876
  0
LINE
  5
3BC
100
AcDbEntity
  8
0
100
AcDbLine
 62
7
  6
CONTINUOUS
 10
16.7410539403
 20
12.3704846113
 11
16.7012732633
 21
12.3535250862
  0
LINE
  5
3BD
100
AcDbEntity
  8
0
100
AcDbLine
 62
7
  6
CONTINUOUS
 10
13.4269227083
 20
13.1333910444
 11
13.5677842556
 21
13.1357231847
  0
LINE
  5
3BE
100
AcDbEntity
  8
0
100
AcDbLine
 62
7
  6
CONTINUOUS
 10
16.8374939537
 20
13.1376426694
 11
16.901135478
 21
13.1366058513
  0
LINE
  5
3BF
100
AcDbEntity
  8
0
100
AcDbLine
 62
7
  6
CONTINUOUS
 10
16.9774488809
 20
13.1353625889
 11
17.0984653861
 21
13.1333910444
  0
LINE
  5
3C0
100
AcDbEntity
  8
0
100
AcDbLine
 62
7
  6
CONTINUOUS
 10
13.7731294698
 20
13.6857139353
 11
13.8317853818
 21
13.6674282058
  0
LINE
  5
3C1
100
AcDbEntity
  8
0
100
AcDbLine
 62
7
  6
CONTINUOUS
 10
13.8769657241
 20
13.6533434274
 11
14.0415429687
 21
13.6020371757
  0
LINE
  5
3C2
100
AcDbEntity
  8
0
100
AcDbLine
 62
7
  6
CONTINUOUS
 10
17.295031731
 20
12.5378207449
 11
17.4720970676
 21
12.4771564532
  0
LINE
  5
3C3
100
AcDbEntity
  8
0
100
AcDbLine
 62
7
  6
CONTINUOUS
 10
17.5128988884
 20
12.463177356
 11
17.5607591914
 21
12.4467799547
  0
LINE
  5
3C4
100
AcDbEntity
  8
0
100
AcDbLine
 62
7
  6
CONTINUOUS
 10
16.7222368219
 20
12.4213631865
 11
16.7515357195
 21
12.4044036614
  0
LINE
  5
3C5
100
AcDbEntity
  8
0
100
AcDbLine
 62
7
  6
CONTINUOUS
 10
14.5843629332
 20
13.955754155
 11
14.6854922854
 21
13.8832584144
  0
LINE
  5
3C6
100
AcDbEntity
  8
0
100
AcDbLine
 62
7
  6
CONTINUOUS
 10
14.7481266421
 20
13.8383582546
 11
14.7924701074
 21
13.8065701308
  0
LINE
  5
3C7
100
AcDbEntity
  8
0
100
AcDbLine
 62
7
  6
CONTINUOUS
 10
17.3744406813
 20
11.8858868011
 11
17.4731873735
 21
11.8098575533
  0
LINE
  5
3C8
100
AcDbEntity
  8
0
100
AcDbLine
 62
7
  6
CONTINUOUS
 10
15.6602518873
 20
13.4536057527
 11
15.568213187
 21
13.6283233026
  0
LINE
  5
3C9
100
AcDbEntity
  8
0
100
AcDbLine
 62
7
  6
CONTINUOUS
 10
16.0541283841
 20
12.5891393599
 11
16.2051241081
 21
12.2814424256
  0
LINE
  5
3CA
100
AcDbEntity
  8
0
100
AcDbLine
 62
7
  6
CONTINUOUS
 10
16.3759475534
 20
11.9333408433
 11
16.5269432774
 21
11.625643909
  0
LINE
  5
3CB
100
AcDbEntity
  8
0
100
AcDbLine
 62
7
  6
CONTINUOUS
 10
16.7841741702
 20
11.1504553413
 11
16.7047350298
 21
11.3251728912
  0
LINE
  5
3CC
100
AcDbEntity
  8
0
100
AcDbLine
 62
7
  6
CONTINUOUS
 10
16.2051241081
 20
12.2814424256
 11
16.2983196426
 21
12.5830232858
  0
LINE
  5
3CD
100
AcDbEntity
  8
0
100
AcDbLine
 62
7
  6
CONTINUOUS
 10
16.2444827811
 20
12.1073916344
 11
16.2438776153
 21
12.1054333172
  0
LINE
  5
3CE
100
AcDbEntity
  8
0
100
AcDbLine
 62
7
  6
CONTINUOUS
 10
16.6017972234
 20
13.2461876025
 11
16.6257819843
 21
13.3238023172
  0
LINE
  5
3CF
100
AcDbEntity
  8
0
100
AcDbLine
 62
7
  6
CONTINUOUS
 10
16.6395801102
 20
13.3684530688
 11
16.6647349721
 21
13.4498542319
  0
LINE
  5
3D0
100
AcDbEntity
  8
0
100
AcDbLine
 62
7
  6
CONTINUOUS
 10
16.5910319134
 20
13.2117508575
 11
16.6017972234
 21
13.2461876025
  0
LINE
  5
3D1
100
AcDbEntity
  8
0
100
AcDbLine
 62
7
  6
CONTINUOUS
 10
16.5423409441
 20
13.0583167833
 11
16.5910324132
 21
13.2117524325
  0
LINE
  5
3D2
100
AcDbEntity
  8
0
100
AcDbLine
 62
7
  6
CONTINUOUS
 10
15.8083141758
 20
11.0658558308
 11
15.8700035783
 21
11.215039855
  0
LINE
  5
3D3
100
AcDbEntity
  8
0
100
AcDbLine
 62
7
  6
CONTINUOUS
 10
17.1273416672
 20
12.4837892409
 11
17.3037164659
 21
12.5748300311
  0
LINE
  5
3D4
100
AcDbEntity
  8
0
100
AcDbLine
 62
7
  6
CONTINUOUS
 10
14.7320477274
 20
11.3358960505
 11
14.9183360473
 21
11.4195728101
  0
LINE
  5
3D5
100
AcDbEntity
  8
0
100
AcDbLine
 62
7
  6
CONTINUOUS
 10
15.6432537473
 20
13.8711546445
 11
15.7002954168
 21
13.7628721426
  0
LINE
  5
3D6
100
AcDbEntity
  8
0
100
AcDbLine
 62
7
  6
CONTINUOUS
 10
15.7299910231
 20
13.7065008166
 11
15.7352924475
 21
13.6964370946
  0
LINE
  5
3D7
100
AcDbEntity
  8
0
100
AcDbLine
 62
7
  6
CONTINUOUS
 10
16.6171374787
 20
11.9333408433
 11
16.6201388119
 21
11.9272247692
  0
LINE
  5
3D8
100
AcDbEntity
  8
0
100
AcDbLine
 62
7
  6
CONTINUOUS
 10
16.2983196426
 20
12.5830232858
 11
16.1473239186
 21
12.8907202201
  0
LINE
  5
3D9
100
AcDbEntity
  8
0
100
AcDbLine
 62
7
  6
CONTINUOUS
 10
16.851261264
 20
11.4107794478
 11
16.8592147305
 21
11.3932866833
  0
LINE
  5
3DA
100
AcDbEntity
  8
0
100
AcDbLine
 62
7
  6
CONTINUOUS
 10
16.6660726185
 20
13.4545826561
 11
16.6647349721
 21
13.4498542319
  0
LINE
  5
3DB
100
AcDbEntity
  8
0
100
AcDbLine
 62
7
  6
CONTINUOUS
 10
16.5850617681
 20
12.2814424256
 11
16.6231920015
 21
12.2037411795
  0
LINE
  5
3DC
100
AcDbEntity
  8
0
100
AcDbLine
 62
7
  6
CONTINUOUS
 10
16.7345322828
 20
11.9768535411
 11
16.7040280961
 21
12.0390145379
  0
LINE
  5
3DD
100
AcDbEntity
  8
0
100
AcDbLine
 62
7
  6
CONTINUOUS
 10
16.7789117383
 20
11.9333408433
 11
16.7575588076
 21
11.9768535411
  0
LINE
  5
3DE
100
AcDbEntity
  8
0
100
AcDbLine
 62
7
  6
CONTINUOUS
 10
16.6717919669
 20
12.3099853991
 11
16.6519642455
 21
12.350390047
  0
LINE
  5
3DF
100
AcDbEntity
  8
0
100
AcDbLine
 62
7
  6
CONTINUOUS
 10
16.849664907
 20
11.9768535411
 11
16.8710178377
 21
11.9333408433
  0
LINE
  5
3E0
100
AcDbEntity
  8
0
100
AcDbLine
 62
7
  6
CONTINUOUS
 10
16.8421872452
 20
12.0390145379
 11
16.8726914319
 21
11.9768535411
  0
LINE
  5
3E1
100
AcDbEntity
  8
0
100
AcDbLine
 62
7
  6
CONTINUOUS
 10
16.7613511506
 20
12.2037411795
 11
16.7232209172
 21
12.2814424256
  0
LINE
  5
3E2
100
AcDbEntity
  8
0
100
AcDbLine
 62
7
  6
CONTINUOUS
 10
16.693895215
 20
12.3810932876
 11
16.682456145
 21
12.4044036614
  0
LINE
  5
3E3
100
AcDbEntity
  8
0
100
AcDbLine
 62
7
  6
CONTINUOUS
 10
16.9170708874
 20
11.9333408433
 11
16.7462474421
 21
12.2814424256
  0
LINE
  5
3E4
100
AcDbEntity
  8
0
100
AcDbLine
 62
7
  6
CONTINUOUS
 10
16.6304492038
 20
12.4283162211
 11
16.5850617681
 21
12.2814424256
  0
LINE
  5
3E5
100
AcDbEntity
  8
0
100
AcDbLine
 62
7
  6
CONTINUOUS
 10
16.6719743657
 20
12.3704846113
 11
16.682456145
 21
12.4044036614
  0
LINE
  5
3E6
100
AcDbEntity
  8
0
100
AcDbLine
 62
7
  6
CONTINUOUS
 10
16.6231920015
 20
12.2037411795
 11
16.6621166943
 21
12.3297015317
  0
LINE
  5
3E7
100
AcDbEntity
  8
0
100
AcDbLine
 62
7
  6
CONTINUOUS
 10
16.6877881659
 20
12.3613308696
 11
16.693895215
 21
12.3810932876
  0
LINE
  5
3E8
100
AcDbEntity
  8
0
100
AcDbLine
 62
7
  6
CONTINUOUS
 10
16.7336758919
 20
12.3980528127
 11
16.7222368219
 21
12.4213631865
  0
LINE
  5
3E9
100
AcDbEntity
  8
0
100
AcDbLine
 62
7
  6
CONTINUOUS
 10
16.7515357195
 20
12.4044036614
 11
16.7410539403
 21
12.3704846113
  0
LINE
  5
3EA
100
AcDbEntity
  8
0
100
AcDbLine
 62
7
  6
CONTINUOUS
 10
16.7232209172
 20
12.2814424256
 11
16.7686083529
 21
12.4283162211
  0
LINE
  5
3EB
100
AcDbEntity
  8
0
100
AcDbLine
 62
7
  6
CONTINUOUS
 10
16.7462474421
 20
12.2814424256
 11
16.8333426259
 21
12.5632825437
  0
LINE
  5
3EC
100
AcDbEntity
  8
0
100
AcDbLine
 62
7
  6
CONTINUOUS
 10
16.53553324
 20
11.5518320662
 11
16.6287287745
 21
11.8534129264
  0
LINE
  5
3ED
100
AcDbEntity
  8
0
100
AcDbLine
 62
7
  6
CONTINUOUS
 10
16.7537414837
 20
12.0390145379
 11
16.7345322828
 21
11.9768535411
  0
LINE
  5
3EE
100
AcDbEntity
  8
0
100
AcDbLine
 62
7
  6
CONTINUOUS
 10
16.7575588076
 20
11.9768535411
 11
16.7767680085
 21
12.0390145379
  0
LINE
  5
3EF
100
AcDbEntity
  8
0
100
AcDbLine
 62
7
  6
CONTINUOUS
 10
17.1176747802
 20
13.1133963292
 11
17.092574202
 21
13.0321708282
  0
LINE
  5
3F0
100
AcDbEntity
  8
0
100
AcDbLine
 62
7
  6
CONTINUOUS
 10
17.0784290082
 20
12.9863969645
 11
17.0547375368
 21
12.909731335
  0
LINE
  5
3F1
100
AcDbEntity
  8
0
100
AcDbLine
 62
7
  6
CONTINUOUS
 10
16.2101752973
 20
13.6857130764
 11
16.2221575586
 21
13.6742303543
  0
LINE
  5
3F2
100
AcDbEntity
  8
0
100
AcDbLine
 62
7
  6
CONTINUOUS
 10
16.8742249259
 20
12.5121451252
 11
17.0102664219
 21
12.2349217035
  0
LINE
  5
3F3
100
AcDbEntity
  8
0
100
AcDbLine
 62
7
  6
CONTINUOUS
 10
16.9248546993
 20
12.4089724947
 11
16.8316591647
 21
12.1073916344
  0
LINE
  5
3F4
100
AcDbEntity
  8
0
100
AcDbLine
 62
7
  6
CONTINUOUS
 10
16.8115673798
 20
12.0390145379
 11
16.7789117383
 21
11.9333408433
  0
LINE
  5
3F5
100
AcDbEntity
  8
0
100
AcDbLine
 62
7
  6
CONTINUOUS
 10
16.8585623321
 20
12.0056456192
 11
16.849664907
 21
11.9768535411
  0
LINE
  5
3F6
100
AcDbEntity
  8
0
100
AcDbLine
 62
7
  6
CONTINUOUS
 10
17.0109091406
 20
12.3893893219
 11
17.0048574825
 21
12.3698061492
  0
LINE
  5
3F7
100
AcDbEntity
  8
0
100
AcDbLine
 62
7
  6
CONTINUOUS
 10
17.0102664219
 20
12.2349217035
 11
16.9170708874
 21
11.9333408433
  0
LINE
  5
3F8
100
AcDbEntity
  8
0
100
AcDbLine
 62
7
  6
CONTINUOUS
 10
16.6637111904
 20
13.4504351373
 11
16.6647344664
 21
13.4498525952
  0
LINE
  5
3F9
100
AcDbEntity
  8
0
100
AcDbLine
 62
7
  6
CONTINUOUS
 10
16.663736796
 20
13.4504536107
 11
16.6647344664
 21
13.4498525952
  0
LINE
  5
3FA
100
AcDbEntity
  8
0
100
AcDbLine
 62
7
  6
CONTINUOUS
 10
17.2015980478
 20
12.5221187507
 11
17.1605815521
 21
12.3893893219
  0
LINE
  5
3FB
100
AcDbEntity
  8
0
100
AcDbLine
 62
7
  6
CONTINUOUS
 10
16.8608524819
 20
11.3567915081
 11
16.8361829831
 21
11.2769609807
  0
LINE
  5
3FC
100
AcDbEntity
  8
0
100
AcDbLine
 62
7
  6
CONTINUOUS
 10
16.8214223117
 20
11.2291954305
 11
16.7979152385
 21
11.1531265139
  0
LINE
  5
3FD
100
AcDbEntity
  8
0
100
AcDbLine
 62
7
  6
CONTINUOUS
 10
17.1690927119
 20
11.3358969094
 11
17.201128543
 21
11.3473796316
  0
LINE
  5
3FE
100
AcDbEntity
  8
0
100
AcDbLine
 62
7
  6
CONTINUOUS
 10
14.1443096988
 20
13.8684834731
 11
14.2719106301
 21
13.9031268833
  0
LINE
  5
3FF
100
AcDbEntity
  8
0
100
AcDbLine
 62
7
  6
CONTINUOUS
 10
17.4731853279
 20
11.8098591283
 11
17.4864254648
 21
11.7754223834
  0
LINE
  5
400
100
AcDbEntity
  8
0
100
AcDbLine
 62
7
  6
CONTINUOUS
 10
17.2250062469
 20
11.8358005079
 11
17.2347562408
 21
11.8710310075
  0
LINE
  5
401
100
AcDbEntity
  8
0
100
AcDbLine
 62
7
  6
CONTINUOUS
 10
17.2347562408
 20
11.8710310075
 11
17.2349575691
 21
11.8717336473
  0
LINE
  5
402
100
AcDbEntity
  8
0
100
AcDbLine
 62
7
  6
CONTINUOUS
 10
17.3268405411
 20
12.603225611
 11
17.3514444064
 21
12.6828437484
  0
LINE
  5
403
100
AcDbEntity
  8
0
100
AcDbLine
 62
7
  6
CONTINUOUS
 10
17.366438415
 20
12.731364378
 11
17.3897777844
 21
12.806890605
  0
LINE
  5
404
100
AcDbEntity
  8
0
100
AcDbLine
 62
7
  6
CONTINUOUS
 10
17.2375274028
 20
11.8763188967
 11
17.235794201
 21
11.8707102536
  0
LINE
  5
405
100
AcDbEntity
  8
0
100
AcDbLine
 62
7
  6
CONTINUOUS
 10
17.1878845792
 20
11.7426938677
 11
17.1886111651
 21
11.744519887
  0
LINE
  5
406
100
AcDbEntity
  8
0
100
AcDbLine
 62
7
  6
CONTINUOUS
 10
17.580428951
 20
12.4183843748
 11
17.557759521
 21
12.3450260722
  0
LINE
  5
407
100
AcDbEntity
  8
0
100
AcDbLine
 62
7
  6
CONTINUOUS
 10
17.5418333821
 20
12.2934890679
 11
17.5174917077
 21
12.2147193808
  0
LINE
  5
408
100
AcDbEntity
  8
DRAWING
100
AcDbLine
 62
7
  6
CONTINUOUS
 10
17.5563625782
 20
11.9072918021
 11
17.5561619315
 21
11.9050822618
  0
LINE
  5
409
100
AcDbEntity
  8
DRAWING
100
AcDbLine
 62
7
  6
CONTINUOUS
 10
17.5566339655
 20
11.9072160276
 11
17.5561619315
 21
11.9050822618
  0
LINE
  5
40A
100
AcDbEntity
  8
0
100
AcDbLine
 62
7
  6
CONTINUOUS
 10
17.4864254648
 20
11.7754223834
 11
17.4684392953
 21
11.7172191173
  0
LINE
  5
40B
100
AcDbEntity
  8
0
100
AcDbLine
 62
7
  6
CONTINUOUS
 10
17.4475426794
 20
11.6495976437
 11
17.4234877161
 21
11.5717557539
  0
LINE
  5
40C
100
AcDbEntity
  8
0
100
AcDbLine
 62
7
  6
CONTINUOUS
 10
17.5462110293
 20
11.9082136566
 11
17.6091482727
 21
12.1118786508
  0
LINE
  5
40D
100
AcDbEntity
  8
DRAWING
100
AcDbLine
 62
7
  6
CONTINUOUS
 10
17.5406890881
 20
11.8509702963
 11
17.5403991829
 21
11.8501912306
  0
LINE
  5
40E
100
AcDbEntity
  8
DRAWING
100
AcDbLine
 62
7
  6
CONTINUOUS
 10
17.5383175183
 20
11.8517511358
 11
17.5380014503
 21
11.8509816996
  0
ARC
  5
40F
100
AcDbEntity
  8
0
100
AcDbCircle
 62
7
  6
CONTINUOUS
 10
5.3553672762
 20
4.7451198968
 40
0.25
100
AcDbArc
 50
180.0
 51
270.0
  0
ARC
  5
410
100
AcDbEntity
  8
0
100
AcDbCircle
 62
7
  6
CONTINUOUS
 10
5.3553672762
 20
4.7451198968
 40
0.2
100
AcDbArc
 50
180.0
 51
270.0
  0
ARC
  5
411
100
AcDbEntity
  8
0
100
AcDbCircle
 62
7
  6
CONTINUOUS
 10
4.2216264824
 20
5.4002665195
 40
0.0375
100
AcDbArc
 50
301.3939761905
 51
3.5929911294
  0
ARC
  5
412
100
AcDbEntity
  8
0
100
AcDbCircle
 62
7
  6
CONTINUOUS
 10
4.4174225708
 20
4.6695455693
 40
0.0375
100
AcDbArc
 50
26.4070088706
 51
88.6060238095
  0
ARC
  5
413
100
AcDbEntity
  8
0
100
AcDbCircle
 62
7
  6
CONTINUOUS
 10
4.5372759481
 20
4.4619534304
 40
0.0375
100
AcDbArc
 50
331.3939761905
 51
33.5929911294
  0
ARC
  5
414
100
AcDbEntity
  8
0
100
AcDbCircle
 62
7
  6
CONTINUOUS
 10
5.0722008098
 20
3.9270285687
 40
0.0375
100
AcDbArc
 50
56.4070088706
 51
118.6060238095
  0
ARC
  5
415
100
AcDbEntity
  8
0
100
AcDbCircle
 62
7
  6
CONTINUOUS
 10
5.2797929487
 20
3.8071751914
 40
0.0375
100
AcDbArc
 50
1.3939761905
 51
63.5929911294
  0
ARC
  5
416
100
AcDbEntity
  8
0
100
AcDbCircle
 62
7
  6
CONTINUOUS
 10
6.0105138989
 20
3.6113791029
 40
0.0375
100
AcDbArc
 50
86.4070088706
 51
148.6060238095
  0
ARC
  5
417
100
AcDbEntity
  8
0
100
AcDbCircle
 62
7
  6
CONTINUOUS
 10
5.3553672762
 20
6.2951198968
 40
0.25
100
AcDbArc
 50
90.0
 51
180.0
  0
ARC
  5
418
100
AcDbEntity
  8
0
100
AcDbCircle
 62
7
  6
CONTINUOUS
 10
5.3553672762
 20
6.2951198968
 40
0.2
100
AcDbArc
 50
90.0
 51
180.0
  0
ARC
  5
419
100
AcDbEntity
  8
0
100
AcDbCircle
 62
7
  6
CONTINUOUS
 10
4.2216264824
 20
5.6399732741
 40
0.0375
100
AcDbArc
 50
356.4070088706
 51
58.6060238095
  0
ARC
  5
41A
100
AcDbEntity
  8
0
100
AcDbCircle
 62
7
  6
CONTINUOUS
 10
4.4174225708
 20
6.3706942242
 40
0.0375
100
AcDbArc
 50
271.3939761905
 51
333.5929911294
  0
ARC
  5
41B
100
AcDbEntity
  8
0
100
AcDbCircle
 62
7
  6
CONTINUOUS
 10
4.5372759481
 20
6.5782863631
 40
0.0375
100
AcDbArc
 50
326.4070088706
 51
28.6060238095
  0
ARC
  5
41C
100
AcDbEntity
  8
0
100
AcDbCircle
 62
7
  6
CONTINUOUS
 10
5.0722008098
 20
7.1132112248
 40
0.0375
100
AcDbArc
 50
241.3939761905
 51
303.5929911294
  0
ARC
  5
41D
100
AcDbEntity
  8
0
100
AcDbCircle
 62
7
  6
CONTINUOUS
 10
5.2797929487
 20
7.2330646021
 40
0.0375
100
AcDbArc
 50
296.4070088706
 51
358.6060238095
  0
ARC
  5
41E
100
AcDbEntity
  8
0
100
AcDbCircle
 62
7
  6
CONTINUOUS
 10
6.0105138989
 20
7.4288606906
 40
0.0375
100
AcDbArc
 50
211.3939761905
 51
273.5929911294
  0
ARC
  5
41F
100
AcDbEntity
  8
0
100
AcDbCircle
 62
7
  6
CONTINUOUS
 10
6.9053672762
 20
4.7451198968
 40
0.25
100
AcDbArc
 50
270.0
 51
360.0
  0
ARC
  5
420
100
AcDbEntity
  8
0
100
AcDbCircle
 62
7
  6
CONTINUOUS
 10
6.9053672762
 20
4.7451198968
 40
0.2
100
AcDbArc
 50
270.0
 51
360.0
  0
ARC
  5
421
100
AcDbEntity
  8
0
100
AcDbCircle
 62
7
  6
CONTINUOUS
 10
6.2502206535
 20
3.6113791029
 40
0.0375
100
AcDbArc
 50
31.3939761905
 51
93.5929911294
  0
ARC
  5
422
100
AcDbEntity
  8
0
100
AcDbCircle
 62
7
  6
CONTINUOUS
 10
6.9809416036
 20
3.8071751914
 40
0.0375
100
AcDbArc
 50
116.4070088706
 51
178.6060238095
  0
ARC
  5
423
100
AcDbEntity
  8
0
100
AcDbCircle
 62
7
  6
CONTINUOUS
 10
7.1885337425
 20
3.9270285687
 40
0.0375
100
AcDbArc
 50
61.3939761905
 51
123.5929911294
  0
ARC
  5
424
100
AcDbEntity
  8
0
100
AcDbCircle
 62
7
  6
CONTINUOUS
 10
7.7234586042
 20
4.4619534304
 40
0.0375
100
AcDbArc
 50
146.4070088706
 51
208.6060238095
  0
ARC
  5
425
100
AcDbEntity
  8
0
100
AcDbCircle
 62
7
  6
CONTINUOUS
 10
7.8433119815
 20
4.6695455693
 40
0.0375
100
AcDbArc
 50
91.3939761905
 51
153.5929911294
  0
ARC
  5
426
100
AcDbEntity
  8
0
100
AcDbCircle
 62
7
  6
CONTINUOUS
 10
8.03910807
 20
5.4002665195
 40
0.0375
100
AcDbArc
 50
176.4070088706
 51
238.6060238095
  0
CIRCLE
  5
427
100
AcDbEntity
  8
DRAWING
100
AcDbCircle
 62
7
  6
CONTINUOUS
 10
6.1303672762
 20
5.5201198968
 40
2.1825
  0
ARC
  5
428
100
AcDbEntity
  8
0
100
AcDbCircle
 62
7
  6
CONTINUOUS
 10
6.1303672762
 20
5.5201198968
 40
2.175
100
AcDbArc
 50
98.2607419059
 51
111.7392580941
  0
ARC
  5
429
100
AcDbEntity
  8
0
100
AcDbCircle
 62
7
  6
CONTINUOUS
 10
6.1303672762
 20
5.5201198968
 40
2.175
100
AcDbArc
 50
158.2607419059
 51
171.7392580941
  0
ARC
  5
42A
100
AcDbEntity
  8
0
100
AcDbCircle
 62
7
  6
CONTINUOUS
 10
6.1303672762
 20
5.5201198968
 40
2.175
100
AcDbArc
 50
128.2607419059
 51
141.7392580941
  0
ARC
  5
42B
100
AcDbEntity
  8
0
100
AcDbCircle
 62
7
  6
CONTINUOUS
 10
6.1303672762
 20
5.5201198968
 40
2.175
100
AcDbArc
 50
68.2607419059
 51
81.7392580941
  0
ARC
  5
42C
100
AcDbEntity
  8
0
100
AcDbCircle
 62
7
  6
CONTINUOUS
 10
6.1303672762
 20
5.5201198968
 40
2.175
100
AcDbArc
 50
38.2607419059
 51
51.7392580941
  0
ARC
  5
42D
100
AcDbEntity
  8
0
100
AcDbCircle
 62
7
  6
CONTINUOUS
 10
6.1303672762
 20
5.5201198968
 40
2.175
100
AcDbArc
 50
8.2607419059
 51
21.7392580941
  0
ARC
  5
42E
100
AcDbEntity
  8
0
100
AcDbCircle
 62
7
  6
CONTINUOUS
 10
6.1303672762
 20
5.5201198968
 40
2.175
100
AcDbArc
 50
338.2607419059
 51
351.7392580941
  0
ARC
  5
42F
100
AcDbEntity
  8
0
100
AcDbCircle
 62
7
  6
CONTINUOUS
 10
6.1303672762
 20
5.5201198968
 40
2.175
100
AcDbArc
 50
308.2607419059
 51
321.7392580941
  0
ARC
  5
430
100
AcDbEntity
  8
0
100
AcDbCircle
 62
7
  6
CONTINUOUS
 10
6.1303672762
 20
5.5201198968
 40
2.175
100
AcDbArc
 50
278.2607419059
 51
291.7392580941
  0
ARC
  5
431
100
AcDbEntity
  8
0
100
AcDbCircle
 62
7
  6
CONTINUOUS
 10
6.1303672762
 20
5.5201198968
 40
2.175
100
AcDbArc
 50
248.2607419059
 51
261.7392580941
  0
ARC
  5
432
100
AcDbEntity
  8
0
100
AcDbCircle
 62
7
  6
CONTINUOUS
 10
6.1303672762
 20
5.5201198968
 40
2.175
100
AcDbArc
 50
218.2607419059
 51
231.7392580941
  0
ARC
  5
433
100
AcDbEntity
  8
0
100
AcDbCircle
 62
7
  6
CONTINUOUS
 10
6.1303672762
 20
5.5201198968
 40
2.175
100
AcDbArc
 50
188.2607419059
 51
201.7392580941
  0
ARC
  5
434
100
AcDbEntity
  8
DRAWING
100
AcDbCircle
 62
7
  6
CONTINUOUS
 10
6.1303672762
 20
5.5201198968
 40
2.17325
100
AcDbArc
 50
141.7403755474
 51
158.2596244526
  0
ARC
  5
435
100
AcDbEntity
  8
DRAWING
100
AcDbCircle
 62
7
  6
CONTINUOUS
 10
6.1303672762
 20
5.5201198968
 40
2.17325
100
AcDbArc
 50
111.7694613247
 51
128.2305386753
  0
ARC
  5
436
100
AcDbEntity
  8
DRAWING
100
AcDbCircle
 62
7
  6
CONTINUOUS
 10
6.1303672762
 20
5.5201198968
 40
2.17325
100
AcDbArc
 50
81.7403755474
 51
98.2596244526
  0
ARC
  5
437
100
AcDbEntity
  8
DRAWING
100
AcDbCircle
 62
7
  6
CONTINUOUS
 10
6.1303672762
 20
5.5201198968
 40
2.17325
100
AcDbArc
 50
51.7694613247
 51
68.2305386753
  0
ARC
  5
438
100
AcDbEntity
  8
DRAWING
100
AcDbCircle
 62
7
  6
CONTINUOUS
 10
6.1303672762
 20
5.5201198968
 40
2.17325
100
AcDbArc
 50
21.7403755474
 51
38.2596244526
  0
ARC
  5
439
100
AcDbEntity
  8
DRAWING
100
AcDbCircle
 62
7
  6
CONTINUOUS
 10
6.1303672762
 20
5.5201198968
 40
2.17325
100
AcDbArc
 50
351.7693154628
 51
8.2306845372
  0
ARC
  5
43A
100
AcDbEntity
  8
DRAWING
100
AcDbCircle
 62
7
  6
CONTINUOUS
 10
6.1303672762
 20
5.5201198968
 40
2.17325
100
AcDbArc
 50
321.7403755474
 51
338.2596244526
  0
ARC
  5
43B
100
AcDbEntity
  8
DRAWING
100
AcDbCircle
 62
7
  6
CONTINUOUS
 10
6.1303672762
 20
5.5201198968
 40
2.17325
100
AcDbArc
 50
291.7694613247
 51
308.2305386753
  0
ARC
  5
43C
100
AcDbEntity
  8
DRAWING
100
AcDbCircle
 62
7
  6
CONTINUOUS
 10
6.1303672762
 20
5.5201198968
 40
2.17325
100
AcDbArc
 50
261.7403755474
 51
278.2596244526
  0
ARC
  5
43D
100
AcDbEntity
  8
DRAWING
100
AcDbCircle
 62
7
  6
CONTINUOUS
 10
6.1303672762
 20
5.5201198968
 40
2.17325
100
AcDbArc
 50
231.7694613247
 51
248.2305386753
  0
ARC
  5
43E
100
AcDbEntity
  8
DRAWING
100
AcDbCircle
 62
7
  6
CONTINUOUS
 10
6.1303672762
 20
5.5201198968
 40
2.17325
100
AcDbArc
 50
201.7403755474
 51
218.2596244526
  0
ARC
  5
43F
100
AcDbEntity
  8
DRAWING
100
AcDbCircle
 62
7
  6
CONTINUOUS
 10
6.1303672762
 20
5.5201198968
 40
2.17325
100
AcDbArc
 50
171.7693154628
 51
188.2306845372
  0
ARC
  5
440
100
AcDbEntity
  8
0
100
AcDbCircle
 62
7
  6
CONTINUOUS
 10
6.1303672762
 20
5.5201198968
 40
2.15
100
AcDbArc
 50
127.975810013
 51
142.024189987
  0
ARC
  5
441
100
AcDbEntity
  8
0
100
AcDbCircle
 62
7
  6
CONTINUOUS
 10
6.1303672762
 20
5.5201198968
 40
2.15
100
AcDbArc
 50
7.975810013
 51
22.024189987
  0
ARC
  5
442
100
AcDbEntity
  8
0
100
AcDbCircle
 62
7
  6
CONTINUOUS
 10
6.1303672762
 20
5.5201198968
 40
2.15
100
AcDbArc
 50
67.975810013
 51
82.024189987
  0
ARC
  5
443
100
AcDbEntity
  8
0
100
AcDbCircle
 62
7
  6
CONTINUOUS
 10
6.1303672762
 20
5.5201198968
 40
2.15
100
AcDbArc
 50
157.975810013
 51
172.024189987
  0
ARC
  5
444
100
AcDbEntity
  8
0
100
AcDbCircle
 62
7
  6
CONTINUOUS
 10
6.1303672762
 20
5.5201198968
 40
2.15
100
AcDbArc
 50
37.975810013
 51
52.024189987
  0
ARC
  5
445
100
AcDbEntity
  8
0
100
AcDbCircle
 62
7
  6
CONTINUOUS
 10
6.1303672762
 20
5.5201198968
 40
2.15
100
AcDbArc
 50
97.975810013
 51
112.024189987
  0
ARC
  5
446
100
AcDbEntity
  8
0
100
AcDbCircle
 62
7
  6
CONTINUOUS
 10
6.1303672762
 20
5.5201198968
 40
2.15
100
AcDbArc
 50
217.975810013
 51
232.024189987
  0
ARC
  5
447
100
AcDbEntity
  8
0
100
AcDbCircle
 62
7
  6
CONTINUOUS
 10
6.1303672762
 20
5.5201198968
 40
2.15
100
AcDbArc
 50
337.975810013
 51
352.024189987
  0
ARC
  5
448
100
AcDbEntity
  8
0
100
AcDbCircle
 62
7
  6
CONTINUOUS
 10
6.1303672762
 20
5.5201198968
 40
2.15
100
AcDbArc
 50
277.975810013
 51
292.024189987
  0
ARC
  5
449
100
AcDbEntity
  8
0
100
AcDbCircle
 62
7
  6
CONTINUOUS
 10
6.1303672762
 20
5.5201198968
 40
2.15
100
AcDbArc
 50
307.975810013
 51
322.024189987
  0
ARC
  5
44A
100
AcDbEntity
  8
0
100
AcDbCircle
 62
7
  6
CONTINUOUS
 10
6.1303672762
 20
5.5201198968
 40
2.15
100
AcDbArc
 50
187.975810013
 51
202.024189987
  0
ARC
  5
44B
100
AcDbEntity
  8
0
100
AcDbCircle
 62
7
  6
CONTINUOUS
 10
6.1303672762
 20
5.5201198968
 40
2.15
100
AcDbArc
 50
247.975810013
 51
262.024189987
  0
ARC
  5
44C
100
AcDbEntity
  8
0
100
AcDbCircle
 62
7
  6
CONTINUOUS
 10
6.1303672762
 20
5.5201198968
 40
1.875
100
AcDbArc
 50
146.4070088706
 51
153.5929911294
  0
ARC
  5
44D
100
AcDbEntity
  8
0
100
AcDbCircle
 62
7
  6
CONTINUOUS
 10
6.1303672762
 20
5.5201198968
 40
1.875
100
AcDbArc
 50
116.4070088706
 51
123.5929911294
  0
ARC
  5
44E
100
AcDbEntity
  8
0
100
AcDbCircle
 62
7
  6
CONTINUOUS
 10
6.1303672762
 20
5.5201198968
 40
1.875
100
AcDbArc
 50
86.4070088706
 51
93.5929911294
  0
ARC
  5
44F
100
AcDbEntity
  8
0
100
AcDbCircle
 62
7
  6
CONTINUOUS
 10
6.1303672762
 20
5.5201198968
 40
1.875
100
AcDbArc
 50
56.4070088706
 51
63.5929911294
  0
ARC
  5
450
100
AcDbEntity
  8
0
100
AcDbCircle
 62
7
  6
CONTINUOUS
 10
6.1303672762
 20
5.5201198968
 40
1.875
100
AcDbArc
 50
26.4070088706
 51
33.5929911294
  0
ARC
  5
451
100
AcDbEntity
  8
0
100
AcDbCircle
 62
7
  6
CONTINUOUS
 10
6.1303672762
 20
5.5201198968
 40
1.875
100
AcDbArc
 50
176.4070088706
 51
183.5929911294
  0
ARC
  5
452
100
AcDbEntity
  8
0
100
AcDbCircle
 62
7
  6
CONTINUOUS
 10
6.1303672762
 20
5.5201198968
 40
1.875
100
AcDbArc
 50
206.4070088706
 51
213.5929911294
  0
ARC
  5
453
100
AcDbEntity
  8
0
100
AcDbCircle
 62
7
  6
CONTINUOUS
 10
6.1303672762
 20
5.5201198968
 40
1.875
100
AcDbArc
 50
236.4070088706
 51
243.5929911294
  0
ARC
  5
454
100
AcDbEntity
  8
0
100
AcDbCircle
 62
7
  6
CONTINUOUS
 10
6.1303672762
 20
5.5201198968
 40
1.875
100
AcDbArc
 50
266.4070088706
 51
273.5929911294
  0
ARC
  5
455
100
AcDbEntity
  8
0
100
AcDbCircle
 62
7
  6
CONTINUOUS
 10
6.1303672762
 20
5.5201198968
 40
1.875
100
AcDbArc
 50
296.4070088706
 51
303.5929911294
  0
ARC
  5
456
100
AcDbEntity
  8
0
100
AcDbCircle
 62
7
  6
CONTINUOUS
 10
6.1303672762
 20
5.5201198968
 40
1.875
100
AcDbArc
 50
326.4070088706
 51
333.5929911294
  0
ARC
  5
457
100
AcDbEntity
  8
0
100
AcDbCircle
 62
7
  6
CONTINUOUS
 10
6.1303672762
 20
5.5201198968
 40
1.875
100
AcDbArc
 50
356.4070088706
 51
3.5929911294
  0
CIRCLE
  5
458
100
AcDbEntity
  8
0
100
AcDbCircle
 62
7
  6
CONTINUOUS
 10
6.1303672762
 20
5.5201198968
 40
1.7125
  0
CIRCLE
  5
459
100
AcDbEntity
  8
0
100
AcDbCircle
 62
7
  6
CONTINUOUS
 10
6.1303672762
 20
5.5201198968
 40
1.6625
  0
ARC
  5
45A
100
AcDbEntity
  8
0
100
AcDbCircle
 62
7
  6
CONTINUOUS
 10
6.1303672762
 20
5.5201198968
 40
0.75
100
AcDbArc
 50
102.1223522448
 51
77.8776477552
  0
ARC
  5
45B
100
AcDbEntity
  8
0
100
AcDbCircle
 62
7
  6
CONTINUOUS
 10
6.9053672762
 20
6.2951198968
 40
0.25
100
AcDbArc
 50
0.0
 51
90.0
  0
ARC
  5
45C
100
AcDbEntity
  8
0
100
AcDbCircle
 62
7
  6
CONTINUOUS
 10
6.9053672762
 20
6.2951198968
 40
0.2
100
AcDbArc
 50
0.0
 51
90.0
  0
ARC
  5
45D
100
AcDbEntity
  8
0
100
AcDbCircle
 62
7
  6
CONTINUOUS
 10
6.2502206535
 20
7.4288606906
 40
0.0375
100
AcDbArc
 50
266.4070088706
 51
328.6060238095
  0
ARC
  5
45E
100
AcDbEntity
  8
0
100
AcDbCircle
 62
7
  6
CONTINUOUS
 10
6.9809416036
 20
7.2330646021
 40
0.0375
100
AcDbArc
 50
181.3939761905
 51
243.5929911294
  0
ARC
  5
45F
100
AcDbEntity
  8
0
100
AcDbCircle
 62
7
  6
CONTINUOUS
 10
7.8433119815
 20
6.3706942242
 40
0.0375
100
AcDbArc
 50
206.4070088706
 51
268.6060238095
  0
ARC
  5
460
100
AcDbEntity
  8
0
100
AcDbCircle
 62
7
  6
CONTINUOUS
 10
8.03910807
 20
5.6399732741
 40
0.0375
100
AcDbArc
 50
121.3939761905
 51
183.5929911294
  0
ARC
  5
461
100
AcDbEntity
  8
0
100
AcDbCircle
 62
7
  6
CONTINUOUS
 10
7.1885337425
 20
7.1132112248
 40
0.0375
100
AcDbArc
 50
236.4070088706
 51
298.6060238095
  0
ARC
  5
462
100
AcDbEntity
  8
0
100
AcDbCircle
 62
7
  6
CONTINUOUS
 10
7.7234586042
 20
6.5782863631
 40
0.0375
100
AcDbArc
 50
151.3939761905
 51
213.5929911294
  0
CIRCLE
  5
463
100
AcDbEntity
  8
0
100
AcDbCircle
 62
7
  6
CONTINUOUS
 10
4.5583720839
 20
12.2600477814
 40
0.07
  0
CIRCLE
  5
464
100
AcDbEntity
  8
0
100
AcDbCircle
 62
7
  6
CONTINUOUS
 10
4.5583720839
 20
12.9400477814
 40
0.07
  0
CIRCLE
  5
465
100
AcDbEntity
  8
0
100
AcDbCircle
 62
7
  6
CONTINUOUS
 10
7.5833720839
 20
12.2600477814
 40
0.07
  0
CIRCLE
  5
466
100
AcDbEntity
  8
0
100
AcDbCircle
 62
7
  6
CONTINUOUS
 10
7.5833720839
 20
12.9400477814
 40
0.07
  0
ARC
  5
467
100
AcDbEntity
  8
0
100
AcDbCircle
 62
7
  6
CONTINUOUS
 10
4.5458720839
 20
12.2725477814
 40
0.0625
100
AcDbArc
 50
90.0
 51
180.0
  0
ARC
  5
468
100
AcDbEntity
  8
0
100
AcDbCircle
 62
7
  6
CONTINUOUS
 10
4.5708720839
 20
12.2725477814
 40
0.0625
100
AcDbArc
 50
0.0
 51
90.0
  0
ARC
  5
469
100
AcDbEntity
  8
0
100
AcDbCircle
 62
7
  6
CONTINUOUS
 10
7.5958720839
 20
12.2725477814
 40
0.0625
100
AcDbArc
 50
0.0
 51
90.0
  0
ARC
  5
46A
100
AcDbEntity
  8
0
100
AcDbCircle
 62
7
  6
CONTINUOUS
 10
7.5708720839
 20
12.2725477814
 40
0.0625
100
AcDbArc
 50
90.0
 51
180.0
  0
ARC
  5
46B
100
AcDbEntity
  8
0
100
AcDbCircle
 62
7
  6
CONTINUOUS
 10
7.5708720839
 20
12.9275477814
 40
0.0625
100
AcDbArc
 50
180.0
 51
270.0
  0
ARC
  5
46C
100
AcDbEntity
  8
0
100
AcDbCircle
 62
7
  6
CONTINUOUS
 10
7.5958720839
 20
12.9275477814
 40
0.0625
100
AcDbArc
 50
270.0
 51
360.0
  0
ARC
  5
46D
100
AcDbEntity
  8
0
100
AcDbCircle
 62
7
  6
CONTINUOUS
 10
4.5458720839
 20
12.9275477814
 40
0.0625
100
AcDbArc
 50
180.0
 51
270.0
  0
ARC
  5
46E
100
AcDbEntity
  8
0
100
AcDbCircle
 62
7
  6
CONTINUOUS
 10
4.5708720839
 20
12.9275477814
 40
0.0625
100
AcDbArc
 50
270.0
 51
360.0
  0
CIRCLE
  5
46F
100
AcDbEntity
  8
02___PRT_ALL_AXES
100
AcDbCircle
 62
7
  6
CONTINUOUS
 10
6.0708720839
 20
12.2500477814
 40
0.06
  0
CIRCLE
  5
470
100
AcDbEntity
  8
0
100
AcDbCircle
 62
7
  6
CONTINUOUS
 10
4.5583720839
 20
12.2600477814
 40
0.06
  0
CIRCLE
  5
471
100
AcDbEntity
  8
0
100
AcDbCircle
 62
7
  6
CONTINUOUS
 10
4.5583720839
 20
12.9400477814
 40
0.06
  0
CIRCLE
  5
472
100
AcDbEntity
  8
0
100
AcDbCircle
 62
7
  6
CONTINUOUS
 10
7.5833720839
 20
12.2600477814
 40
0.06
  0
CIRCLE
  5
473
100
AcDbEntity
  8
0
100
AcDbCircle
 62
7
  6
CONTINUOUS
 10
7.5833720839
 20
12.9400477814
 40
0.06
  0
CIRCLE
  5
474
100
AcDbEntity
  8
0
100
AcDbCircle
 62
7
  6
CONTINUOUS
 10
6.0708720839
 20
12.2500477814
 40
0.0575
  0
ARC
  5
475
100
AcDbEntity
  8
DRAWING
100
AcDbCircle
 62
7
  6
CONTINUOUS
 10
14.7115350955
 20
10.0526664565
 40
3.8018955723
100
AcDbArc
 50
69.7016382425
 51
74.3096147564
  0
ARC
  5
476
100
AcDbEntity
  8
DRAWING
100
AcDbCircle
 62
7
  6
CONTINUOUS
 10
14.713237929
 20
10.0584140732
 40
3.7906019984
100
AcDbArc
 50
69.6960232622
 51
74.3108548159
  0
ARC
  5
477
100
AcDbEntity
  8
0
100
AcDbCircle
 62
7
  6
CONTINUOUS
 10
14.7765706038
 20
10.2712203292
 40
3.7027917502
100
AcDbArc
 50
76.4636578673
 51
76.6818254189
  0
ARC
  5
478
100
AcDbEntity
  8
0
100
AcDbCircle
 62
7
  6
CONTINUOUS
 10
14.8041097022
 20
10.3267145234
 40
3.6414149564
100
AcDbArc
 50
67.0390856595
 51
67.2859544161
  0
ARC
  5
479
100
AcDbEntity
  8
0
100
AcDbCircle
 62
7
  6
CONTINUOUS
 10
14.8596618624
 20
10.5322517575
 40
3.2714747575
100
AcDbArc
 50
69.8292779689
 51
73.9448724839
  0
ARC
  5
47A
100
AcDbEntity
  8
0
100
AcDbCircle
 62
7
  6
CONTINUOUS
 10
14.7858503861
 20
10.2931779322
 40
3.2675238839
100
AcDbArc
 50
69.8267887443
 51
73.9473617085
  0
ARC
  5
47B
100
AcDbEntity
  8
0
100
AcDbCircle
 62
7
  6
CONTINUOUS
 10
14.8627629191
 20
10.9712897041
 40
2.5835952111
100
AcDbArc
 50
87.5991570297
 51
92.4008429703
  0
ARC
  5
47C
100
AcDbEntity
  8
0
100
AcDbCircle
 62
7
  6
CONTINUOUS
 10
14.9378034793
 20
11.2672579987
 40
2.5305058803
100
AcDbArc
 50
87.5487575554
 51
92.4512424446
  0
ARC
  5
47D
100
AcDbEntity
  8
0
100
AcDbCircle
 62
7
  6
CONTINUOUS
 10
14.8289869052
 20
11.4881888867
 40
2.4796611142
100
AcDbArc
 50
95.6615622367
 51
96.2860113694
  0
ARC
  5
47E
100
AcDbEntity
  8
0
100
AcDbCircle
 62
7
  6
CONTINUOUS
 10
14.7367771204
 20
11.9264722635
 40
2.0305822429
100
AcDbArc
 50
102.6593375156
 51
103.2342375771
  0
ARC
  5
47F
100
AcDbEntity
  8
0
100
AcDbCircle
 62
7
  6
CONTINUOUS
 10
14.0648545676
 20
12.0812465317
 40
0.0436944732
100
AcDbArc
 50
255.9700246517
 51
258.5176611814
  0
ARC
  5
480
100
AcDbEntity
  8
0
100
AcDbCircle
 62
7
  6
CONTINUOUS
 10
12.8425370758
 20
13.9889853501
 40
2.291614644
100
AcDbArc
 50
359.0405165814
 51
359.1691124753
  0
ARC
  5
481
100
AcDbEntity
  8
0
100
AcDbCircle
 62
7
  6
CONTINUOUS
 10
15.1649458354
 20
13.3525422941
 40
1.9716803256
100
AcDbArc
 50
221.8127016257
 51
222.4225109066
  0
ARC
  5
482
100
AcDbEntity
  8
0
100
AcDbCircle
 62
7
  6
CONTINUOUS
 10
14.8848396425
 20
13.1552058249
 40
1.6308845766
100
AcDbArc
 50
215.216849576
 51
215.7421278706
  0
ARC
  5
483
100
AcDbEntity
  8
DRAWING
100
AcDbCircle
 62
7
  6
CONTINUOUS
 10
14.5945768063
 20
13.0795791511
 40
1.2466011951
100
AcDbArc
 50
205.4205735608
 51
206.1390210031
  0
ARC
  5
484
100
AcDbEntity
  8
DRAWING
100
AcDbCircle
 62
7
  6
CONTINUOUS
 10
14.5544170192
 20
13.0268857529
 40
1.2154547899
100
AcDbArc
 50
202.833030034
 51
206.1492354642
  0
ARC
  5
485
100
AcDbEntity
  8
DRAWING
100
AcDbCircle
 62
7
  6
CONTINUOUS
 10
14.533717831
 20
13.021491675
 40
1.2021448716
100
AcDbArc
 50
202.6471511264
 51
206.1742857989
  0
ARC
  5
486
100
AcDbEntity
  8
0
100
AcDbCircle
 62
7
  6
CONTINUOUS
 10
14.7283863529
 20
12.8912348918
 40
1.1383718877
100
AcDbArc
 50
206.1578087366
 51
210.331876954
  0
ARC
  5
487
100
AcDbEntity
  8
0
100
AcDbCircle
 62
7
  6
CONTINUOUS
 10
14.6181133617
 20
12.6609258804
 40
1.0866542232
100
AcDbArc
 50
119.0354426107
 51
119.8849834381
  0
ARC
  5
488
100
AcDbEntity
  8
0
100
AcDbCircle
 62
7
  6
CONTINUOUS
 10
14.6216373296
 20
12.8396254968
 40
1.0198042746
100
AcDbArc
 50
201.7075963467
 51
206.1991621309
  0
ARC
  5
489
100
AcDbEntity
  8
0
100
AcDbCircle
 62
7
  6
CONTINUOUS
 10
14.306758547
 20
12.8369530213
 40
0.9617043363
100
AcDbArc
 50
193.8832817178
 51
195.8167117477
  0
ARC
  5
48A
100
AcDbEntity
  8
DRAWING
100
AcDbCircle
 62
7
  6
CONTINUOUS
 10
14.1009235199
 20
12.9075014899
 40
0.747425463
100
AcDbArc
 50
147.7437806309
 51
152.1375585198
  0
ARC
  5
48B
100
AcDbEntity
  8
DRAWING
100
AcDbCircle
 62
7
  6
CONTINUOUS
 10
14.0720666265
 20
12.9221005267
 40
0.7243869967
100
AcDbArc
 50
162.8586837059
 51
174.8689886884
  0
ARC
  5
48C
100
AcDbEntity
  8
DRAWING
100
AcDbCircle
 62
7
  6
CONTINUOUS
 10
14.078244734
 20
12.9191714587
 40
0.72192187
100
AcDbArc
 50
152.1151897406
 51
159.6146951715
  0
ARC
  5
48D
100
AcDbEntity
  8
DRAWING
100
AcDbCircle
 62
7
  6
CONTINUOUS
 10
14.064769638
 20
12.9238985713
 40
0.7168843287
100
AcDbArc
 50
159.5687246763
 51
162.8241200037
  0
ARC
  5
48E
100
AcDbEntity
  8
DRAWING
100
AcDbCircle
 62
7
  6
CONTINUOUS
 10
14.0837060354
 20
12.961079957
 40
0.7147515692
100
AcDbArc
 50
166.0875952811
 51
167.4386404379
  0
ARC
  5
48F
100
AcDbEntity
  8
DRAWING
100
AcDbCircle
 62
7
  6
CONTINUOUS
 10
14.0825262281
 20
12.9613695585
 40
0.7135367408
100
AcDbArc
 50
165.1109466062
 51
166.0873893303
  0
ARC
  5
490
100
AcDbEntity
  8
DRAWING
100
AcDbCircle
 62
7
  6
CONTINUOUS
 10
14.070269309
 20
12.9222125831
 40
0.7133866188
100
AcDbArc
 50
159.620523648
 51
162.8251416843
  0
ARC
  5
491
100
AcDbEntity
  8
DRAWING
100
AcDbCircle
 62
7
  6
CONTINUOUS
 10
14.0695967813
 20
12.9224254031
 40
0.7126812371
100
AcDbArc
 50
162.8255227533
 51
164.1865409451
  0
ARC
  5
492
100
AcDbEntity
  8
0
100
AcDbCircle
 62
7
  6
CONTINUOUS
 10
14.2337513052
 20
12.7600041614
 40
0.6192239488
100
AcDbArc
 50
153.7109087063
 51
162.81312714
  0
ARC
  5
493
100
AcDbEntity
  8
0
100
AcDbCircle
 62
7
  6
CONTINUOUS
 10
14.3735160893
 20
12.7384778276
 40
0.5466129061
100
AcDbArc
 50
164.4604872112
 51
167.1139762869
  0
ARC
  5
494
100
AcDbEntity
  8
0
100
AcDbCircle
 62
7
  6
CONTINUOUS
 10
13.9313998029
 20
12.3655804821
 40
0.0795900165
100
AcDbArc
 50
270.0570367641
 51
275.1480123813
  0
ARC
  5
495
100
AcDbEntity
  8
0
100
AcDbCircle
 62
7
  6
CONTINUOUS
 10
13.9548500966
 20
12.3923830663
 40
0.0417767763
100
AcDbArc
 50
50.5828271989
 51
52.3331295071
  0
ARC
  5
496
100
AcDbEntity
  8
02___PRT_ALL_AXES
100
AcDbCircle
 62
7
  6
CONTINUOUS
 10
15.0480949555
 20
12.8612184034
 40
0.0314545504
100
AcDbArc
 50
192.7687107654
 51
215.3660058593
  0
ARC
  5
497
100
AcDbEntity
  8
0
100
AcDbCircle
 62
7
  6
CONTINUOUS
 10
16.6775900374
 20
8.0348274715
 40
5.9272731013
100
AcDbArc
 50
100.0498288897
 51
100.1967326389
  0
ARC
  5
498
100
AcDbEntity
  8
0
100
AcDbCircle
 62
7
  6
CONTINUOUS
 10
15.5409954805
 20
11.4355331853
 40
2.3040038664
100
AcDbArc
 50
46.7696022863
 51
47.4693845904
  0
ARC
  5
499
100
AcDbEntity
  8
0
100
AcDbCircle
 62
7
  6
CONTINUOUS
 10
15.6127121942
 20
11.4844553195
 40
2.2177378572
100
AcDbArc
 50
43.0736882701
 51
47.2654616009
  0
ARC
  5
49A
100
AcDbEntity
  8
0
100
AcDbCircle
 62
7
  6
CONTINUOUS
 10
15.641609492
 20
11.5413859605
 40
2.1579651861
100
AcDbArc
 50
42.4950405398
 51
46.7909960908
  0
ARC
  5
49B
100
AcDbEntity
  8
0
100
AcDbCircle
 62
7
  6
CONTINUOUS
 10
15.7427774303
 20
11.6094370473
 40
2.0373750034
100
AcDbArc
 50
42.4223945037
 51
43.0042371071
  0
ARC
  5
49C
100
AcDbEntity
  8
0
100
AcDbCircle
 62
7
  6
CONTINUOUS
 10
16.1387980238
 20
11.8875437521
 40
1.1383718877
100
AcDbArc
 50
26.1578087366
 51
30.331876954
  0
ARC
  5
49D
100
AcDbEntity
  8
0
100
AcDbCircle
 62
7
  6
CONTINUOUS
 10
16.5533157521
 20
12.2026757576
 40
1.0632458409
100
AcDbArc
 50
305.3908389382
 51
307.1548851369
  0
ARC
  5
49E
100
AcDbEntity
  8
0
100
AcDbCircle
 62
7
  6
CONTINUOUS
 10
16.2455470471
 20
11.939153147
 40
1.0198042746
100
AcDbArc
 50
21.7075963466
 51
26.1991621309
  0
ARC
  5
49F
100
AcDbEntity
  8
0
100
AcDbCircle
 62
7
  6
CONTINUOUS
 10
16.0554210128
 20
11.9259382563
 40
1.0065387772
100
AcDbArc
 50
26.1667062386
 51
28.9906900689
  0
ARC
  5
4A0
100
AcDbEntity
  8
0
100
AcDbCircle
 62
7
  6
CONTINUOUS
 10
16.2997965775
 20
12.2168105642
 40
0.8114112226
100
AcDbArc
 50
306.5942543297
 51
306.9837983816
  0
ARC
  5
4A1
100
AcDbEntity
  8
0
100
AcDbCircle
 62
7
  6
CONTINUOUS
 10
16.2771336008
 20
12.0176353046
 40
0.766217971
100
AcDbArc
 50
16.0178153011
 51
16.4978887496
  0
ARC
  5
4A2
100
AcDbEntity
  8
DRAWING
100
AcDbCircle
 62
7
  6
CONTINUOUS
 10
16.8534522098
 20
12.0610489319
 40
0.7290345188
100
AcDbArc
 50
346.1314507925
 51
354.8460913256
  0
ARC
  5
4A3
100
AcDbEntity
  8
DRAWING
100
AcDbCircle
 62
7
  6
CONTINUOUS
 10
16.8701583104
 20
12.0995094592
 40
0.7243869967
100
AcDbArc
 50
342.8586837059
 51
354.8689886884
  0
ARC
  5
4A4
100
AcDbEntity
  8
DRAWING
100
AcDbCircle
 62
7
  6
CONTINUOUS
 10
16.8504157985
 20
12.0622106058
 40
0.7230265684
100
AcDbArc
 50
347.6214816712
 51
351.388212019
  0
ARC
  5
4A5
100
AcDbEntity
  8
DRAWING
100
AcDbCircle
 62
7
  6
CONTINUOUS
 10
16.8638970904
 20
12.1024766877
 40
0.7220131806
100
AcDbArc
 50
332.1154705883
 51
339.5481890683
  0
ARC
  5
4A6
100
AcDbEntity
  8
DRAWING
100
AcDbCircle
 62
7
  6
CONTINUOUS
 10
16.8663232309
 20
12.0582256017
 40
0.7158620552
100
AcDbArc
 50
342.825593063
 51
346.1039101858
  0
ARC
  5
4A7
100
AcDbEntity
  8
DRAWING
100
AcDbCircle
 62
7
  6
CONTINUOUS
 10
16.8585189015
 20
12.0605300288
 40
0.7147515691
100
AcDbArc
 50
346.0875952811
 51
347.438640438
  0
ARC
  5
4A8
100
AcDbEntity
  8
DRAWING
100
AcDbCircle
 62
7
  6
CONTINUOUS
 10
16.8601848783
 20
12.0601161693
 40
0.7130349571
100
AcDbArc
 50
342.8260707226
 51
346.0876880351
  0
ARC
  5
4A9
100
AcDbEntity
  8
0
100
AcDbCircle
 62
7
  6
CONTINUOUS
 10
16.6334330715
 20
12.0187744824
 40
0.6192239488
100
AcDbArc
 50
333.7109087063
 51
342.81312714
  0
ARC
  5
4AA
100
AcDbEntity
  8
0
100
AcDbCircle
 62
7
  6
CONTINUOUS
 10
16.505635581
 20
12.0796123751
 40
0.546786606
100
AcDbArc
 50
338.5304746156
 51
340.1627400171
  0
ARC
  5
4AB
100
AcDbEntity
  8
0
100
AcDbCircle
 62
7
  6
CONTINUOUS
 10
16.8510640744
 20
12.0812465317
 40
0.0436944732
100
AcDbArc
 50
255.9700246516
 51
258.5176611814
  0
ARC
  5
4AC
100
AcDbEntity
  8
0
100
AcDbCircle
 62
7
  6
CONTINUOUS
 10
17.8128017138
 20
16.562934047
 40
6.0874947039
100
AcDbArc
 50
225.5847473944
 51
225.7297865934
  0
ARC
  5
4AD
100
AcDbEntity
  8
0
100
AcDbCircle
 62
7
  6
CONTINUOUS
 10
15.8236632717
 20
16.1282048317
 40
5.0695730751
100
AcDbArc
 50
280.9216126146
 51
281.0798198624
  0
ARC
  5
4AE
100
AcDbEntity
  8
DRAWING
100
AcDbCircle
 62
7
  6
CONTINUOUS
 10
16.2176279822
 20
14.9265686158
 40
3.7985519089
100
AcDbArc
 50
248.8210688008
 51
255.1073078871
  0
ARC
  5
4AF
100
AcDbEntity
  8
DRAWING
100
AcDbCircle
 62
7
  6
CONTINUOUS
 10
16.2291058763
 20
14.9634781389
 40
3.7909058541
100
AcDbArc
 50
254.3102786609
 51
254.4288109906
  0
ARC
  5
4B0
100
AcDbEntity
  8
DRAWING
100
AcDbCircle
 62
7
  6
CONTINUOUS
 10
16.2289870079
 20
14.9631959127
 40
3.7906019983
100
AcDbArc
 50
249.6960232622
 51
254.3108548159
  0
ARC
  5
4B1
100
AcDbEntity
  8
DRAWING
100
AcDbCircle
 62
7
  6
CONTINUOUS
 10
16.2165194338
 20
14.9226629339
 40
3.7891879711
100
AcDbArc
 50
248.895436844
 51
255.0336108286
  0
ARC
  5
4B2
100
AcDbEntity
  8
DRAWING
100
AcDbCircle
 62
7
  6
CONTINUOUS
 10
16.2197414731
 20
14.937235756
 40
3.7630466874
100
AcDbArc
 50
249.5535495141
 51
249.6908901292
  0
ARC
  5
4B3
100
AcDbEntity
  8
0
100
AcDbCircle
 62
7
  6
CONTINUOUS
 10
16.0813339906
 20
14.4856007116
 40
3.2675238839
100
AcDbArc
 50
249.8267887443
 51
253.9473617085
  0
ARC
  5
4B4
100
AcDbEntity
  8
DRAWING
100
AcDbCircle
 62
7
  6
CONTINUOUS
 10
16.1406781199
 20
14.2955697346
 40
3.1160535925
100
AcDbArc
 50
264.8870522072
 51
271.0140821291
  0
ARC
  5
4B5
100
AcDbEntity
  8
0
100
AcDbCircle
 62
7
  6
CONTINUOUS
 10
16.0044214576
 20
13.8074889398
 40
2.5835952111
100
AcDbArc
 50
267.5991570297
 51
272.4008429703
  0
ARC
  5
4B6
100
AcDbEntity
  8
0
100
AcDbCircle
 62
7
  6
CONTINUOUS
 10
16.1974312834
 20
13.0385995276
 40
1.9773807926
100
AcDbArc
 50
283.2342008802
 51
283.8457835452
  0
ARC
  5
4B7
100
AcDbEntity
  8
0
100
AcDbCircle
 62
7
  6
CONTINUOUS
 10
16.229143332
 20
12.9965981325
 40
1.929235031
100
AcDbArc
 50
283.2191716606
 51
286.7398603858
  0
ARC
  5
4B8
100
AcDbEntity
  8
0
100
AcDbCircle
 62
7
  6
CONTINUOUS
 10
16.2237114527
 20
12.9340283538
 40
1.8695590787
100
AcDbArc
 50
283.8307148102
 51
287.4445921795
  0
ARC
  5
4B9
100
AcDbEntity
  8
0
100
AcDbCircle
 62
7
  6
CONTINUOUS
 10
16.2656068934
 20
12.8700566849
 40
1.7975542802
100
AcDbArc
 50
286.7885964256
 51
287.2252626266
  0
ARC
  5
4BA
100
AcDbEntity
  8
0
100
AcDbCircle
 62
7
  6
CONTINUOUS
 10
15.8551083553
 20
13.7533975519
 40
1.3056913073
100
AcDbArc
 50
248.1624367017
 51
257.350590042
  0
ARC
  5
4BB
100
AcDbEntity
  8
0
100
AcDbCircle
 62
7
  6
CONTINUOUS
 10
15.7991115545
 20
13.6316885597
 40
1.171605594
100
AcDbArc
 50
241.3366772699
 51
241.9089940338
  0
ARC
  5
4BC
100
AcDbEntity
  8
0
100
AcDbCircle
 62
7
  6
CONTINUOUS
 10
15.7915093668
 20
13.6178330036
 40
1.1558015098
100
AcDbArc
 50
240.5731625832
 51
241.3378959025
  0
ARC
  5
4BD
100
AcDbEntity
  8
0
100
AcDbCircle
 62
7
  6
CONTINUOUS
 10
16.7176093098
 20
12.3655804821
 40
0.0795900165
100
AcDbArc
 50
270.0570367641
 51
275.1480123813
  0
ARC
  5
4BE
100
AcDbEntity
  8
0
100
AcDbCircle
 62
7
  6
CONTINUOUS
 10
16.7410596035
 20
12.3923830663
 40
0.0417767763
100
AcDbArc
 50
50.5828271992
 51
52.3331295071
  0
ARC
  5
4BF
100
AcDbEntity
  8
0
100
AcDbCircle
 62
7
  6
CONTINUOUS
 10
17.1413669848
 20
12.4741284055
 40
0.0231900301
100
AcDbArc
 50
206.1958571679
 51
210.2938285226
  0
ARC
  5
4C0
100
AcDbEntity
  8
0
100
AcDbCircle
 62
7
  6
CONTINUOUS
 10
17.2123231035
 20
12.3240443801
 40
0.0207711504
100
AcDbArc
 50
201.7481686985
 51
206.158589779
  0
LINE
  5
4C1
100
AcDbEntity
  8
0
100
AcDbLine
 62
7
  6
CONTINUOUS
 10
8.2233053
 20
12.7300477798
 11
8.2000745704
 21
12.7550477814
  0
LINE
  5
4C2
100
AcDbEntity
  8
0
100
AcDbLine
 62
7
  6
CONTINUOUS
 10
3.9416695973
 20
12.7550477814
 11
3.9184388677
 21
12.7300477798
  0
LINE
  5
4C3
100
AcDbEntity
  8
0
100
AcDbLine
 62
7
  6
CONTINUOUS
 10
3.9184388677
 20
12.470047783
 11
3.9416695973
 21
12.4450477814
  0
LINE
  5
4C4
100
AcDbEntity
  8
0
100
AcDbLine
 62
7
  6
CONTINUOUS
 10
8.2000745704
 20
12.4450477814
 11
8.2233053
 21
12.470047783
  0
LINE
  5
4C5
100
AcDbEntity
  8
0
100
AcDbLine
 62
7
  6
CONTINUOUS
 10
6.3833720839
 20
12.470047783
 11
6.3691953381
 21
12.4450477814
  0
LINE
  5
4C6
100
AcDbEntity
  8
0
100
AcDbLine
 62
7
  6
CONTINUOUS
 10
6.8771178104
 20
12.4450477814
 11
6.8764557533
 21
12.4700477828
  0
LINE
  5
4C7
100
AcDbEntity
  8
0
100
AcDbLine
 62
7
  6
CONTINUOUS
 10
4.0505602387
 20
12.7300477799
 11
4.0777670135
 21
12.7550477814
  0
LINE
  5
4C8
100
AcDbEntity
  8
0
100
AcDbLine
 62
7
  6
CONTINUOUS
 10
4.0777670135
 20
12.4450477814
 11
4.0505602387
 21
12.4700477828
  0
LINE
  5
4C9
100
AcDbEntity
  8
0
100
AcDbLine
 62
7
  6
CONTINUOUS
 10
8.091183929
 20
12.4700477828
 11
8.0639771542
 21
12.4450477814
  0
LINE
  5
4CA
100
AcDbEntity
  8
0
100
AcDbLine
 62
7
  6
CONTINUOUS
 10
6.3691953381
 20
12.7550477814
 11
6.3833720839
 21
12.7300477798
  0
LINE
  5
4CB
100
AcDbEntity
  8
0
100
AcDbLine
 62
7
  6
CONTINUOUS
 10
6.8764557533
 20
12.7300477799
 11
6.8771178104
 21
12.7550477814
  0
LINE
  5
4CC
100
AcDbEntity
  8
0
100
AcDbLine
 62
7
  6
CONTINUOUS
 10
5.7725488296
 20
12.4450477814
 11
5.7583720839
 21
12.470047783
  0
LINE
  5
4CD
100
AcDbEntity
  8
0
100
AcDbLine
 62
7
  6
CONTINUOUS
 10
5.2652884145
 20
12.4700477828
 11
5.2646263573
 21
12.4450477814
  0
LINE
  5
4CE
100
AcDbEntity
  8
0
100
AcDbLine
 62
7
  6
CONTINUOUS
 10
5.7583720839
 20
12.7300477798
 11
5.7725488296
 21
12.7550477814
  0
LINE
  5
4CF
100
AcDbEntity
  8
0
100
AcDbLine
 62
7
  6
CONTINUOUS
 10
8.0639771542
 20
12.7550477814
 11
8.091183929
 21
12.7300477799
  0
LINE
  5
4D0
100
AcDbEntity
  8
0
100
AcDbLine
 62
7
  6
CONTINUOUS
 10
5.2646263573
 20
12.7550477814
 11
5.2652884145
 21
12.7300477799
  0
LINE
  5
4D1
100
AcDbEntity
  8
0
100
AcDbLine
 62
7
  6
CONTINUOUS
 10
15.7153552569
 20
7.589827191
 11
15.6903552553
 21
7.6130579206
  0
LINE
  5
4D2
100
AcDbEntity
  8
0
100
AcDbLine
 62
7
  6
CONTINUOUS
 10
15.4303552585
 20
7.6130579206
 11
15.4053552569
 21
7.589827191
  0
LINE
  5
4D3
100
AcDbEntity
  8
0
100
AcDbLine
 62
7
  6
CONTINUOUS
 10
15.4053552569
 20
5.7589479587
 11
15.4303552585
 21
5.7731247044
  0
LINE
  5
4D4
100
AcDbEntity
  8
0
100
AcDbLine
 62
7
  6
CONTINUOUS
 10
15.6903552555
 20
7.4809365496
 11
15.7153552569
 21
7.4537297748
  0
LINE
  5
4D5
100
AcDbEntity
  8
0
100
AcDbLine
 62
7
  6
CONTINUOUS
 10
15.6903552553
 20
5.7731247044
 11
15.7153552569
 21
5.7589479587
  0
LINE
  5
4D6
100
AcDbEntity
  8
0
100
AcDbLine
 62
7
  6
CONTINUOUS
 10
15.4303552584
 20
6.2662083738
 11
15.4053552569
 21
6.266870431
  0
LINE
  5
4D7
100
AcDbEntity
  8
0
100
AcDbLine
 62
7
  6
CONTINUOUS
 10
15.7153552569
 20
6.266870431
 11
15.6903552555
 21
6.2662083738
  0
LINE
  5
4D8
100
AcDbEntity
  8
0
100
AcDbLine
 62
7
  6
CONTINUOUS
 10
15.4053552569
 20
7.4537297748
 11
15.4303552584
 21
7.4809365496
  0
LINE
  5
4D9
100
AcDbEntity
  8
0
100
AcDbLine
 62
7
  6
CONTINUOUS
 10
15.6903552553
 20
3.3081914883
 11
15.7153552569
 21
3.3314222179
  0
LINE
  5
4DA
100
AcDbEntity
  8
0
100
AcDbLine
 62
7
  6
CONTINUOUS
 10
15.4053552569
 20
3.3314222179
 11
15.4303552585
 21
3.3081914883
  0
LINE
  5
4DB
100
AcDbEntity
  8
0
100
AcDbLine
 62
7
  6
CONTINUOUS
 10
15.4303552585
 20
5.1481247044
 11
15.4053552569
 21
5.1623014502
  0
LINE
  5
4DC
100
AcDbEntity
  8
0
100
AcDbLine
 62
7
  6
CONTINUOUS
 10
15.7153552569
 20
3.4675196341
 11
15.6903552555
 21
3.4403128593
  0
LINE
  5
4DD
100
AcDbEntity
  8
0
100
AcDbLine
 62
7
  6
CONTINUOUS
 10
15.4303552584
 20
3.4403128593
 11
15.4053552569
 21
3.4675196341
  0
LINE
  5
4DE
100
AcDbEntity
  8
0
100
AcDbLine
 62
7
  6
CONTINUOUS
 10
15.6903552555
 20
4.6550410351
 11
15.7153552569
 21
4.6543789779
  0
LINE
  5
4DF
100
AcDbEntity
  8
0
100
AcDbLine
 62
7
  6
CONTINUOUS
 10
15.7153552569
 20
5.1623014502
 11
15.6903552553
 21
5.1481247044
  0
LINE
  5
4E0
100
AcDbEntity
  8
0
100
AcDbLine
 62
7
  6
CONTINUOUS
 10
15.4053552569
 20
4.6543789779
 11
15.4303552584
 21
4.6550410351
  0
SPLINE
  5
4E1
100
AcDbEntity
  8
02___PRT_ALL_AXES
100
AcDbSpline
 62
7
  6
CONTINUOUS
 70
0
 71
3
 72
15
 73
11
 74
0
 42
0.0000001
 43
0.0000001
 44
0.0000000001
 40
0.0
 40
0.0
 40
0.0
 40
0.0
 40
0.1395797278
 40
0.2751360875
 40
0.406158456
 40
0.5324992398
 40
0.6544547792
 40
0.7725231393
 40
0.8874150869
 40
1.0
 40
1.0
 40
1.0
 40
1.0
 10
15.0591973626
 20
12.8267911774
 30
0.0
 10
15.0572570029
 20
12.8267911774
 30
0.0
 10
15.0534295768
 20
12.826964643
 30
0.0
 10
15.0478307833
 20
12.8277599538
 30
0.0
 10
15.0425200593
 20
12.8290817212
 30
0.0
 10
15.0375656993
 20
12.8309207348
 30
0.0
 10
15.0330226139
 20
12.8332508819
 30
0.0
 10
15.0289436485
 20
12.8360524154
 30
0.0
 10
15.02537637
 20
12.8392910506
 30
0.0
 10
15.0233506879
 20
12.8417364048
 30
0.0
 10
15.0224446709
 20
12.8430125899
 30
0.0
  0
SPLINE
  5
4E2
100
AcDbEntity
  8
02___PRT_ALL_AXES
100
AcDbSpline
 62
7
  6
CONTINUOUS
 70
0
 71
3
 72
18
 73
14
 74
0
 42
0.0000001
 43
0.0000001
 44
0.0000000001
 40
0.0
 40
0.0
 40
0.0
 40
0.0
 40
0.0507658275
 40
0.1030476778
 40
0.1572984444
 40
0.2138053786
 40
0.3337153826
 40
0.4622836096
 40
0.5969635739
 40
0.7340892136
 40
0.8696742601
 40
0.9357842711
 40
1.0
 40
1.0
 40
1.0
 40
1.0
 10
15.0174182699
 20
12.8542664465
 30
0.0
 10
15.0170082475
 20
12.8560652763
 30
0.0
 10
15.016489775
 20
12.8597947308
 30
0.0
 10
15.01661825
 20
12.865531731
 30
0.0
 10
15.017644488
 20
12.8713892968
 30
0.0
 10
15.0202242006
 20
12.8793892201
 30
0.0
 10
15.0256578654
 20
12.889182118
 30
0.0
 10
15.0349317909
 20
12.8996904211
 30
0.0
 10
15.0465321264
 20
12.9086142137
 30
0.0
 10
15.0597599779
 20
12.9154312785
 30
0.0
 10
15.071609191
 20
12.9190560362
 30
0.0
 10
15.0811719182
 20
12.9205325343
 30
0.0
 10
15.0859115474
 20
12.9207904066
 30
0.0
 10
15.0882453214
 20
12.9207904066
 30
0.0
  0
SPLINE
  5
4E3
100
AcDbEntity
  8
02___PRT_ALL_AXES
100
AcDbSpline
 62
7
  6
CONTINUOUS
 70
0
 71
3
 72
16
 73
12
 74
0
 42
0.0000001
 43
0.0000001
 44
0.0000000001
 40
0.0
 40
0.0
 40
0.0
 40
0.0
 40
0.124060339
 40
0.2528532468
 40
0.384024264
 40
0.515371455
 40
0.6445126558
 40
0.7693077159
 40
0.8295789678
 40
0.8881969138
 40
1.0
 40
1.0
 40
1.0
 40
1.0
 10
15.0591973626
 20
12.8267911774
 30
0.0
 10
15.0628692949
 20
12.8267911774
 30
0.0
 10
15.0703633254
 20
12.8274273124
 30
0.0
 10
15.0814544629
 20
12.8300806532
 30
0.0
 10
15.0922563605
 20
12.8343662109
 30
0.0
 10
15.1023649193
 20
12.8401182516
 30
0.0
 10
15.1114100836
 20
12.8471260467
 30
0.0
 10
15.1178622843
 20
12.8538811584
 30
0.0
 10
15.1221651013
 20
12.8596802634
 30
0.0
 10
15.1257526165
 20
12.8654955574
 30
0.0
 10
15.1278152382
 20
12.8701444909
 30
0.0
 10
15.1288277485
 20
12.8732949271
 30
0.0
  0
SPLINE
  5
4E4
100
AcDbEntity
  8
02___PRT_ALL_AXES
100
AcDbSpline
 62
7
  6
CONTINUOUS
 70
0
 71
3
 72
11
 73
7
 74
0
 42
0.0000001
 43
0.0000001
 44
0.0000000001
 40
0.0
 40
0.0
 40
0.0
 40
0.0
 40
0.262157907
 40
0.5152889653
 40
0.7606582317
 40
1.0
 40
1.0
 40
1.0
 40
1.0
 10
15.1288277485
 20
12.8732949271
 30
0.0
 10
15.1293700751
 20
12.8749823817
 30
0.0
 10
15.1302479348
 20
12.878364126
 30
0.0
 10
15.1309053644
 20
12.8834792091
 30
0.0
 10
15.130871709
 20
12.888482831
 30
0.0
 10
15.1303840401
 20
12.891737404
 30
0.0
 10
15.1300244141
 20
12.8933151375
 30
0.0
  0
SPLINE
  5
4E5
100
AcDbEntity
  8
02___PRT_ALL_AXES
100
AcDbSpline
 62
7
  6
CONTINUOUS
 70
0
 71
3
 72
15
 73
11
 74
0
 42
0.0000001
 43
0.0000001
 44
0.0000000001
 40
0.0
 40
0.0
 40
0.0
 40
0.0
 40
0.1147237868
 40
0.2290613008
 40
0.3451247552
 40
0.4647653111
 40
0.5894303219
 40
0.7201007048
 40
0.857166634
 40
1.0
 40
1.0
 40
1.0
 40
1.0
 10
15.1300244141
 20
12.8933151375
 30
0.0
 10
15.1295648854
 20
12.8953311588
 30
0.0
 10
15.1282540308
 20
12.8992790478
 30
0.0
 10
15.1251481245
 20
12.9047140298
 30
0.0
 10
15.1209760863
 20
12.9094993686
 30
0.0
 10
15.1158465813
 20
12.9135408179
 30
0.0
 10
15.1098652026
 20
12.9167535295
 30
0.0
 10
15.1031596545
 20
12.919086045
 30
0.0
 10
15.0958708367
 20
12.9204872552
 30
0.0
 10
15.0908196861
 20
12.9207904066
 30
0.0
 10
15.0882453214
 20
12.9207904066
 30
0.0
  0
SPLINE
  5
4E6
100
AcDbEntity
  8
0
100
AcDbSpline
 62
7
  6
CONTINUOUS
 70
0
 71
3
 72
14
 73
10
 74
0
 42
0.0000001
 43
0.0000001
 44
0.0000000001
 40
0.0
 40
0.0
 40
0.0
 40
0.0
 40
0.1143689613
 40
0.2314578171
 40
0.3515375886
 40
0.4747807432
 40
0.7309308932
 40
0.8639928625
 40
1.0
 40
1.0
 40
1.0
 40
1.0
 10
13.9803786078
 20
12.4254526014
 30
0.0
 10
13.9792603991
 20
12.4263159508
 30
0.0
 10
13.9769082842
 20
12.4279506868
 30
0.0
 10
13.9731180122
 20
12.4300814112
 30
0.0
 10
13.9690505776
 20
12.4319061106
 30
0.0
 10
13.9632200428
 20
12.4339414725
 30
0.0
 10
13.9570020912
 20
12.4352809651
 30
0.0
 10
13.950545769
 20
12.4359498927
 30
0.0
 10
13.9472205921
 20
12.4360609203
 30
0.0
 10
13.9455405971
 20
12.4360609203
 30
0.0
  0
SPLINE
  5
4E7
100
AcDbEntity
  8
0
100
AcDbSpline
 62
7
  6
CONTINUOUS
 70
0
 71
3
 72
21
 73
17
 74
0
 42
0.0000001
 43
0.0000001
 44
0.0000000001
 40
0.0
 40
0.0
 40
0.0
 40
0.0
 40
0.1412803952
 40
0.2775689372
 40
0.343746925
 40
0.4086049716
 40
0.4721712045
 40
0.5344880464
 40
0.5956147687
 40
0.6556367493
 40
0.7146646985
 40
0.7728268381
 40
0.830271862
 40
0.8871634672
 40
0.9436771603
 40
1.0
 40
1.0
 40
1.0
 40
1.0
 10
13.9314790331
 20
12.285990505
 30
0.0
 10
13.9289089391
 20
12.285990505
 30
0.0
 10
13.9238552732
 20
12.28624753
 30
0.0
 10
13.9176685998
 20
12.2872538515
 30
0.0
 10
13.9129563294
 20
12.2884661466
 30
0.0
 10
13.9095870066
 20
12.2895603419
 30
0.0
 10
13.9063609393
 20
12.2908447943
 30
0.0
 10
13.903289658
 20
12.2923141222
 30
0.0
 10
13.9003849308
 20
12.2939635369
 30
0.0
 10
13.8976578763
 20
12.295787278
 30
0.0
 10
13.8951182038
 20
12.2977779956
 30
0.0
 10
13.8927758416
 20
12.299929032
 30
0.0
 10
13.8906396598
 20
12.3022323416
 30
0.0
 10
13.888717177
 20
12.3046789951
 30
0.0
 10
13.8870165768
 20
12.3072601872
 30
0.0
 10
13.8860340585
 20
12.3090656977
 30
0.0
 10
13.8855826631
 20
12.3099854989
 30
0.0
  0
SPLINE
  5
4E8
100
AcDbEntity
  8
0
100
AcDbSpline
 62
7
  6
CONTINUOUS
 70
0
 71
3
 72
25
 73
21
 74
0
 42
0.0000001
 43
0.0000001
 44
0.0000000001
 40
0.0
 40
0.0
 40
0.0
 40
0.0
 40
0.0653493146
 40
0.1326143867
 40
0.2012705645
 40
0.2707828979
 40
0.340543641
 40
0.4099421938
 40
0.4783843753
 40
0.5453222057
 40
0.610284126
 40
0.6729053185
 40
0.7329607007
 40
0.7903955012
 40
0.8453515769
 40
0.8981832267
 40
0.9239963826
 40
0.9495051008
 40
0.9748054732
 40
1.0
 40
1.0
 40
1.0
 40
1.0
 10
13.9455405971
 20
12.4360609203
 30
0.0
 10
13.9425811293
 20
12.4360609203
 30
0.0
 10
13.9365709466
 20
12.4357091534
 30
0.0
 10
13.9275658859
 20
12.4342001266
 30
0.0
 10
13.9185805118
 20
12.4317273358
 30
0.0
 10
13.9097790597
 20
12.4283379541
 30
0.0
 10
13.9013197189
 20
12.4240920657
 30
0.0
 10
13.8933557762
 20
12.4190669161
 30
0.0
 10
13.8860311392
 20
12.4133531662
 30
0.0
 10
13.8794784411
 20
12.4070534369
 30
0.0
 10
13.8738166143
 20
12.4002804404
 30
0.0
 10
13.8691491782
 20
12.3931546879
 30
0.0
 10
13.8655622762
 20
12.3858029033
 30
0.0
 10
13.8631244887
 20
12.3783549221
 30
0.0
 10
13.8618855466
 20
12.370945372
 30
0.0
 10
13.8618792528
 20
12.3648624678
 30
0.0
 10
13.8625028742
 20
12.3601816011
 30
0.0
 10
13.8632714673
 20
12.356792609
 30
0.0
 10
13.864340595
 20
12.3535159474
 30
0.0
 10
13.8652522073
 20
12.3514144015
 30
0.0
 10
13.8657548821
 20
12.3503901174
 30
0.0
  0
SPLINE
  5
4E9
100
AcDbEntity
  8
0
100
AcDbSpline
 62
7
  6
CONTINUOUS
 70
0
 71
3
 72
15
 73
11
 74
0
 42
0.0000001
 43
0.0000001
 44
0.0000000001
 40
0.0
 40
0.0
 40
0.0
 40
0.0
 40
0.119223836
 40
0.2415933355
 40
0.3663518964
 40
0.4928325067
 40
0.6202567429
 40
0.7477986682
 40
0.8746439245
 40
1.0
 40
1.0
 40
1.0
 40
1.0
 10
13.9110215564
 20
12.3404445218
 30
0.0
 10
13.9131885726
 20
12.3404445218
 30
0.0
 10
13.9175822546
 20
12.3406646234
 30
0.0
 10
13.9241817439
 20
12.3416140596
 30
0.0
 10
13.9307992284
 20
12.3431769272
 30
0.0
 10
13.9373446798
 20
12.3453311528
 30
0.0
 10
13.9437325085
 20
12.3480471898
 30
0.0
 10
13.949877303
 20
12.3512901292
 30
0.0
 10
13.9556967565
 20
12.355015969
 30
0.0
 10
13.959338182
 20
12.3578116426
 30
0.0
 10
13.96108207
 20
12.3592780354
 30
0.0
  0
SPLINE
  5
4EA
100
AcDbEntity
  8
0
100
AcDbSpline
 62
7
  6
CONTINUOUS
 70
0
 71
3
 72
15
 73
11
 74
0
 42
0.0000001
 43
0.0000001
 44
0.0000000001
 40
0.0
 40
0.0
 40
0.0
 40
0.0
 40
0.1126028077
 40
0.227073057
 40
0.3445829408
 40
0.4660654341
 40
0.5921419943
 40
0.7231605433
 40
0.8592358853
 40
1.0
 40
1.0
 40
1.0
 40
1.0
 10
13.9784877459
 20
12.4156142444
 30
0.0
 10
13.9776536436
 20
12.4170740209
 30
0.0
 10
13.9757296139
 20
12.419886335
 30
0.0
 10
13.9721802909
 20
12.4236378045
 30
0.0
 10
13.9680033309
 20
12.4268948707
 30
0.0
 10
13.9632591679
 20
12.4296132513
 30
0.0
 10
13.9580141759
 20
12.4317609202
 30
0.0
 10
13.9523378402
 20
12.4333105882
 30
0.0
 10
13.9463082029
 20
12.434242694
 30
0.0
 10
13.9421712629
 20
12.4344437509
 30
0.0
 10
13.9400695152
 20
12.4344437509
 30
0.0
  0
SPLINE
  5
4EB
100
AcDbEntity
  8
0
100
AcDbSpline
 62
7
  6
CONTINUOUS
 70
0
 71
3
 72
36
 73
32
 74
0
 42
0.0000001
 43
0.0000001
 44
0.0000000001
 40
0.0
 40
0.0
 40
0.0
 40
0.0
 40
0.0336310073
 40
0.0680451216
 40
0.1030800152
 40
0.1386023308
 40
0.2104706778
 40
0.2465306038
 40
0.2824386297
 40
0.3531116054
 40
0.3876271244
 40
0.4214057988
 40
0.4862990204
 40
0.5173470503
 40
0.5474097303
 40
0.5765115692
 40
0.6047158558
 40
0.6321302728
 40
0.658902044
 40
0.6852155228
 40
0.7112824947
 40
0.7373301628
 40
0.7635872757
 40
0.7902680825
 40
0.8175627281
 40
0.8456268123
 40
0.8745721661
 40
0.9044679711
 40
0.9353527264
 40
0.9672255057
 40
1.0
 40
1.0
 40
1.0
 40
1.0
 10
13.9400695152
 20
12.4344437509
 30
0.0
 10
13.9382397778
 20
12.4344437509
 30
0.0
 10
13.9345361499
 20
12.4342868377
 30
0.0
 10
13.9289640726
 20
12.4336066639
 30
0.0
 10
13.9233588228
 20
12.432482509
 30
0.0
 10
13.9158892257
 20
12.4304013633
 30
0.0
 10
13.9086119925
 20
12.4274948927
 30
0.0
 10
13.90168656
 20
12.4238396772
 30
0.0
 10
13.8950930258
 20
12.4197372207
 30
0.0
 10
13.8890194188
 20
12.4149889024
 30
0.0
 10
13.8836278286
 20
12.4096787685
 30
0.0
 10
13.8788781517
 20
12.404199334
 30
0.0
 10
13.8749145016
 20
12.3983079383
 30
0.0
 10
13.8719171622
 20
12.3921326905
 30
0.0
 10
13.8702166794
 20
12.3875191963
 30
0.0
 10
13.8690475283
 20
12.3829022092
 30
0.0
 10
13.8684236565
 20
12.3783248623
 30
0.0
 10
13.8683507753
 20
12.3738316293
 30
0.0
 10
13.8688327837
 20
12.3694663336
 30
0.0
 10
13.8698647633
 20
12.365272254
 30
0.0
 10
13.8714385528
 20
12.3612919052
 30
0.0
 10
13.8735378055
 20
12.3575653838
 30
0.0
 10
13.8761415008
 20
12.3541304548
 30
0.0
 10
13.879222523
 20
12.3510209581
 30
0.0
 10
13.8827493707
 20
12.3482666666
 30
0.0
 10
13.8866869268
 20
12.3458940245
 30
0.0
 10
13.890995532
 20
12.3439237748
 30
0.0
 10
13.895633905
 20
12.3423745242
 30
0.0
 10
13.9005580399
 20
12.3412593085
 30
0.0
 10
13.9057191722
 20
12.3405898979
 30
0.0
 10
13.9092384186
 20
12.3404445218
 30
0.0
 10
13.9110215564
 20
12.3404445218
 30
0.0
  0
SPLINE
  5
4EC
100
AcDbEntity
  8
0
100
AcDbSpline
 62
7
  6
CONTINUOUS
 70
0
 71
3
 72
21
 73
17
 74
0
 42
0.0000001
 43
0.0000001
 44
0.0000000001
 40
0.0
 40
0.0
 40
0.0
 40
0.0
 40
0.0563222808
 40
0.1128352183
 40
0.1697259552
 40
0.2271703984
 40
0.2853326734
 40
0.3443614046
 40
0.4043842689
 40
0.4655114782
 40
0.5278283785
 40
0.5913944463
 40
0.6562522708
 40
0.7224301078
 40
0.8587190002
 40
1.0
 40
1.0
 40
1.0
 40
1.0
 10
13.8657548821
 20
12.3503901174
 30
0.0
 10
13.8662062763
 20
12.3494703263
 30
0.0
 10
13.8671887908
 20
12.3476648399
 30
0.0
 10
13.868889363
 20
12.3450836752
 30
0.0
 10
13.8708118131
 20
12.3426370447
 30
0.0
 10
13.8729479786
 20
12.3403337496
 30
0.0
 10
13.8752903546
 20
12.3381827164
 30
0.0
 10
13.8778300533
 20
12.3361919768
 30
0.0
 10
13.8805571355
 20
12.3343682033
 30
0.0
 10
13.8834618818
 20
12.3327187652
 30
0.0
 10
13.8865331732
 20
12.3312494373
 30
0.0
 10
13.8897592396
 20
12.3299649935
 30
0.0
 10
13.8931285551
 20
12.3288708013
 30
0.0
 10
13.8978408272
 20
12.3276585029
 30
0.0
 10
13.9040275195
 20
12.3266521836
 30
0.0
 10
13.9090812053
 20
12.326395153
 30
0.0
 10
13.9116513118
 20
12.326395153
 30
0.0
  0
SPLINE
  5
4ED
100
AcDbEntity
  8
0
100
AcDbSpline
 62
7
  6
CONTINUOUS
 70
0
 71
3
 72
13
 73
9
 74
0
 42
0.0000001
 43
0.0000001
 44
0.0000000001
 40
0.0
 40
0.0
 40
0.0
 40
0.0
 40
0.1192633708
 40
0.240922246
 40
0.4897249948
 40
0.6163282521
 40
0.7438688033
 40
1.0
 40
1.0
 40
1.0
 40
1.0
 10
13.9116513118
 20
12.326395153
 30
0.0
 10
13.9134327289
 20
12.326395153
 30
0.0
 10
13.9170325855
 20
12.3265224818
 30
0.0
 10
13.92431336
 20
12.327268113
 30
0.0
 10
13.9316135901
 20
12.3287447605
 30
0.0
 10
13.9388141292
 20
12.3308991777
 30
0.0
 10
13.9459751912
 20
12.3335192337
 30
0.0
 10
13.9511761667
 20
12.3359676741
 30
0.0
 10
13.9545353677
 20
12.3377986386
 30
0.0
  0
SPLINE
  5
4EE
100
AcDbEntity
  8
0
100
AcDbSpline
 62
7
  6
CONTINUOUS
 70
0
 71
3
 72
14
 73
10
 74
0
 42
0.0000001
 43
0.0000001
 44
0.0000000001
 40
0.0
 40
0.0
 40
0.0
 40
0.0
 40
0.1143689613
 40
0.2314578171
 40
0.3515375886
 40
0.4747807432
 40
0.7309308932
 40
0.8639928625
 40
1.0
 40
1.0
 40
1.0
 40
1.0
 10
16.7665881147
 20
12.4254526014
 30
0.0
 10
16.7654699059
 20
12.4263159508
 30
0.0
 10
16.7631177911
 20
12.4279506868
 30
0.0
 10
16.7593275191
 20
12.4300814112
 30
0.0
 10
16.7552600845
 20
12.4319061106
 30
0.0
 10
16.7494295497
 20
12.4339414725
 30
0.0
 10
16.7432115981
 20
12.4352809651
 30
0.0
 10
16.7367552758
 20
12.4359498927
 30
0.0
 10
16.733430099
 20
12.4360609203
 30
0.0
 10
16.7317501039
 20
12.4360609203
 30
0.0
  0
SPLINE
  5
4EF
100
AcDbEntity
  8
0
100
AcDbSpline
 62
7
  6
CONTINUOUS
 70
0
 71
3
 72
21
 73
17
 74
0
 42
0.0000001
 43
0.0000001
 44
0.0000000001
 40
0.0
 40
0.0
 40
0.0
 40
0.0
 40
0.1412803952
 40
0.2775689372
 40
0.343746925
 40
0.4086049716
 40
0.4721712045
 40
0.5344880464
 40
0.5956147687
 40
0.6556367493
 40
0.7146646985
 40
0.7728268381
 40
0.830271862
 40
0.8871634672
 40
0.9436771603
 40
1.0
 40
1.0
 40
1.0
 40
1.0
 10
16.71768854
 20
12.285990505
 30
0.0
 10
16.715118446
 20
12.285990505
 30
0.0
 10
16.7100647801
 20
12.28624753
 30
0.0
 10
16.7038781066
 20
12.2872538515
 30
0.0
 10
16.6991658363
 20
12.2884661466
 30
0.0
 10
16.6957965134
 20
12.2895603419
 30
0.0
 10
16.6925704462
 20
12.2908447943
 30
0.0
 10
16.6894991649
 20
12.2923141222
 30
0.0
 10
16.6865944377
 20
12.2939635369
 30
0.0
 10
16.6838673832
 20
12.295787278
 30
0.0
 10
16.6813277107
 20
12.2977779956
 30
0.0
 10
16.6789853485
 20
12.299929032
 30
0.0
 10
16.6768491667
 20
12.3022323416
 30
0.0
 10
16.6749266839
 20
12.3046789951
 30
0.0
 10
16.6732260837
 20
12.3072601872
 30
0.0
 10
16.6722435654
 20
12.3090656977
 30
0.0
 10
16.67179217
 20
12.3099854989
 30
0.0
  0
SPLINE
  5
4F0
100
AcDbEntity
  8
0
100
AcDbSpline
 62
7
  6
CONTINUOUS
 70
0
 71
3
 72
25
 73
21
 74
0
 42
0.0000001
 43
0.0000001
 44
0.0000000001
 40
0.0
 40
0.0
 40
0.0
 40
0.0
 40
0.0653493146
 40
0.1326143867
 40
0.2012705645
 40
0.2707828979
 40
0.340543641
 40
0.4099421938
 40
0.4783843753
 40
0.5453222057
 40
0.610284126
 40
0.6729053185
 40
0.7329607007
 40
0.7903955012
 40
0.8453515769
 40
0.8981832267
 40
0.9239963826
 40
0.9495051008
 40
0.9748054732
 40
1.0
 40
1.0
 40
1.0
 40
1.0
 10
16.7317501039
 20
12.4360609203
 30
0.0
 10
16.7287906362
 20
12.4360609203
 30
0.0
 10
16.7227804534
 20
12.4357091534
 30
0.0
 10
16.7137753928
 20
12.4342001266
 30
0.0
 10
16.7047900186
 20
12.4317273358
 30
0.0
 10
16.6959885666
 20
12.4283379541
 30
0.0
 10
16.6875292258
 20
12.4240920657
 30
0.0
 10
16.679565283
 20
12.4190669161
 30
0.0
 10
16.6722406461
 20
12.4133531662
 30
0.0
 10
16.665687948
 20
12.4070534369
 30
0.0
 10
16.6600261211
 20
12.4002804404
 30
0.0
 10
16.6553586851
 20
12.3931546879
 30
0.0
 10
16.6517717831
 20
12.3858029033
 30
0.0
 10
16.6493339956
 20
12.3783549221
 30
0.0
 10
16.6480950535
 20
12.370945372
 30
0.0
 10
16.6480887597
 20
12.3648624678
 30
0.0
 10
16.648712381
 20
12.3601816011
 30
0.0
 10
16.6494809742
 20
12.356792609
 30
0.0
 10
16.6505501019
 20
12.3535159474
 30
0.0
 10
16.6514617141
 20
12.3514144015
 30
0.0
 10
16.651964389
 20
12.3503901174
 30
0.0
  0
SPLINE
  5
4F1
100
AcDbEntity
  8
0
100
AcDbSpline
 62
7
  6
CONTINUOUS
 70
0
 71
3
 72
15
 73
11
 74
0
 42
0.0000001
 43
0.0000001
 44
0.0000000001
 40
0.0
 40
0.0
 40
0.0
 40
0.0
 40
0.119223836
 40
0.2415933355
 40
0.3663518964
 40
0.4928325067
 40
0.6202567429
 40
0.7477986682
 40
0.8746439245
 40
1.0
 40
1.0
 40
1.0
 40
1.0
 10
16.6972310632
 20
12.3404445218
 30
0.0
 10
16.6993980795
 20
12.3404445218
 30
0.0
 10
16.7037917614
 20
12.3406646234
 30
0.0
 10
16.7103912507
 20
12.3416140596
 30
0.0
 10
16.7170087352
 20
12.3431769272
 30
0.0
 10
16.7235541867
 20
12.3453311528
 30
0.0
 10
16.7299420154
 20
12.3480471898
 30
0.0
 10
16.7360868098
 20
12.3512901292
 30
0.0
 10
16.7419062633
 20
12.355015969
 30
0.0
 10
16.7455476889
 20
12.3578116426
 30
0.0
 10
16.7472915769
 20
12.3592780354
 30
0.0
  0
SPLINE
  5
4F2
100
AcDbEntity
  8
0
100
AcDbSpline
 62
7
  6
CONTINUOUS
 70
0
 71
3
 72
15
 73
11
 74
0
 42
0.0000001
 43
0.0000001
 44
0.0000000001
 40
0.0
 40
0.0
 40
0.0
 40
0.0
 40
0.1126028077
 40
0.227073057
 40
0.3445829408
 40
0.4660654341
 40
0.5921419943
 40
0.7231605433
 40
0.8592358853
 40
1.0
 40
1.0
 40
1.0
 40
1.0
 10
16.7646972527
 20
12.4156142444
 30
0.0
 10
16.7638631505
 20
12.4170740209
 30
0.0
 10
16.7619391207
 20
12.419886335
 30
0.0
 10
16.7583897978
 20
12.4236378045
 30
0.0
 10
16.7542128377
 20
12.4268948707
 30
0.0
 10
16.7494686748
 20
12.4296132513
 30
0.0
 10
16.7442236827
 20
12.4317609202
 30
0.0
 10
16.7385473471
 20
12.4333105882
 30
0.0
 10
16.7325177098
 20
12.434242694
 30
0.0
 10
16.7283807698
 20
12.4344437509
 30
0.0
 10
16.726279022
 20
12.4344437509
 30
0.0
  0
SPLINE
  5
4F3
100
AcDbEntity
  8
0
100
AcDbSpline
 62
7
  6
CONTINUOUS
 70
0
 71
3
 72
36
 73
32
 74
0
 42
0.0000001
 43
0.0000001
 44
0.0000000001
 40
0.0
 40
0.0
 40
0.0
 40
0.0
 40
0.0336310073
 40
0.0680451216
 40
0.1030800152
 40
0.1386023308
 40
0.2104706778
 40
0.2465306038
 40
0.2824386297
 40
0.3531116054
 40
0.3876271244
 40
0.4214057988
 40
0.4862990204
 40
0.5173470503
 40
0.5474097303
 40
0.5765115692
 40
0.6047158558
 40
0.6321302728
 40
0.658902044
 40
0.6852155228
 40
0.7112824947
 40
0.7373301628
 40
0.7635872757
 40
0.7902680825
 40
0.8175627281
 40
0.8456268123
 40
0.8745721661
 40
0.9044679711
 40
0.9353527264
 40
0.9672255057
 40
1.0
 40
1.0
 40
1.0
 40
1.0
 10
16.726279022
 20
12.4344437509
 30
0.0
 10
16.7244492846
 20
12.4344437509
 30
0.0
 10
16.7207456568
 20
12.4342868377
 30
0.0
 10
16.7151735795
 20
12.4336066639
 30
0.0
 10
16.7095683297
 20
12.432482509
 30
0.0
 10
16.7020987326
 20
12.4304013633
 30
0.0
 10
16.6948214993
 20
12.4274948927
 30
0.0
 10
16.6878960669
 20
12.4238396772
 30
0.0
 10
16.6813025327
 20
12.4197372207
 30
0.0
 10
16.6752289257
 20
12.4149889024
 30
0.0
 10
16.6698373354
 20
12.4096787685
 30
0.0
 10
16.6650876586
 20
12.404199334
 30
0.0
 10
16.6611240085
 20
12.3983079383
 30
0.0
 10
16.6581266691
 20
12.3921326905
 30
0.0
 10
16.6564261862
 20
12.3875191963
 30
0.0
 10
16.6552570351
 20
12.3829022092
 30
0.0
 10
16.6546331634
 20
12.3783248623
 30
0.0
 10
16.6545602821
 20
12.3738316293
 30
0.0
 10
16.6550422905
 20
12.3694663336
 30
0.0
 10
16.6560742701
 20
12.365272254
 30
0.0
 10
16.6576480597
 20
12.3612919052
 30
0.0
 10
16.6597473124
 20
12.3575653838
 30
0.0
 10
16.6623510077
 20
12.3541304548
 30
0.0
 10
16.6654320298
 20
12.3510209581
 30
0.0
 10
16.6689588776
 20
12.3482666666
 30
0.0
 10
16.6728964336
 20
12.3458940245
 30
0.0
 10
16.6772050388
 20
12.3439237748
 30
0.0
 10
16.6818434119
 20
12.3423745242
 30
0.0
 10
16.6867675468
 20
12.3412593085
 30
0.0
 10
16.691928679
 20
12.3405898979
 30
0.0
 10
16.6954479255
 20
12.3404445218
 30
0.0
 10
16.6972310632
 20
12.3404445218
 30
0.0
  0
SPLINE
  5
4F4
100
AcDbEntity
  8
0
100
AcDbSpline
 62
7
  6
CONTINUOUS
 70
0
 71
3
 72
21
 73
17
 74
0
 42
0.0000001
 43
0.0000001
 44
0.0000000001
 40
0.0
 40
0.0
 40
0.0
 40
0.0
 40
0.0563222808
 40
0.1128352183
 40
0.1697259552
 40
0.2271703984
 40
0.2853326734
 40
0.3443614046
 40
0.4043842689
 40
0.4655114782
 40
0.5278283785
 40
0.5913944463
 40
0.6562522708
 40
0.7224301078
 40
0.8587190002
 40
1.0
 40
1.0
 40
1.0
 40
1.0
 10
16.651964389
 20
12.3503901174
 30
0.0
 10
16.6524157832
 20
12.3494703263
 30
0.0
 10
16.6533982977
 20
12.3476648399
 30
0.0
 10
16.6550988698
 20
12.3450836752
 30
0.0
 10
16.65702132
 20
12.3426370447
 30
0.0
 10
16.6591574854
 20
12.3403337496
 30
0.0
 10
16.6614998614
 20
12.3381827164
 30
0.0
 10
16.6640395602
 20
12.3361919768
 30
0.0
 10
16.6667666423
 20
12.3343682033
 30
0.0
 10
16.6696713886
 20
12.3327187652
 30
0.0
 10
16.6727426801
 20
12.3312494373
 30
0.0
 10
16.6759687464
 20
12.3299649935
 30
0.0
 10
16.679338062
 20
12.3288708013
 30
0.0
 10
16.6840503341
 20
12.3276585029
 30
0.0
 10
16.6902370263
 20
12.3266521836
 30
0.0
 10
16.6952907122
 20
12.326395153
 30
0.0
 10
16.6978608186
 20
12.326395153
 30
0.0
  0
SPLINE
  5
4F5
100
AcDbEntity
  8
0
100
AcDbSpline
 62
7
  6
CONTINUOUS
 70
0
 71
3
 72
13
 73
9
 74
0
 42
0.0000001
 43
0.0000001
 44
0.0000000001
 40
0.0
 40
0.0
 40
0.0
 40
0.0
 40
0.1192633708
 40
0.240922246
 40
0.4897249948
 40
0.6163282521
 40
0.7438688033
 40
1.0
 40
1.0
 40
1.0
 40
1.0
 10
16.6978608186
 20
12.326395153
 30
0.0
 10
16.6996422358
 20
12.326395153
 30
0.0
 10
16.7032420924
 20
12.3265224818
 30
0.0
 10
16.7105228669
 20
12.327268113
 30
0.0
 10
16.717823097
 20
12.3287447605
 30
0.0
 10
16.725023636
 20
12.3308991777
 30
0.0
 10
16.732184698
 20
12.3335192337
 30
0.0
 10
16.7373856735
 20
12.3359676741
 30
0.0
 10
16.7407448746
 20
12.3377986386
 30
0.0
  0
SPLINE
  5
4F6
100
AcDbEntity
  8
0
100
AcDbSpline
 62
7
  6
CONTINUOUS
 70
0
 71
3
 72
15
 73
11
 74
0
 42
0.0000001
 43
0.0000001
 44
0.0000000001
 40
0.0
 40
0.0
 40
0.0
 40
0.0
 40
0.1164355757
 40
0.2337743067
 40
0.352880517
 40
0.4745683052
 40
0.599575201
 40
0.7285416981
 40
0.8619200682
 40
1.0
 40
1.0
 40
1.0
 40
1.0
 10
16.06240877
 20
11.8839977914
 30
0.0
 10
16.0650252864
 20
11.8924655268
 30
0.0
 10
16.069358077
 20
11.9097664812
 30
0.0
 10
16.0730591051
 20
11.936419186
 30
0.0
 10
16.073959578
 20
11.9637136972
 30
0.0
 10
16.0720544355
 20
11.9915375315
 30
0.0
 10
16.067362257
 20
12.0197866233
 30
0.0
 10
16.0598959153
 20
12.0483495771
 30
0.0
 10
16.0497010768
 20
12.077108046
 30
0.0
 10
16.0412691197
 20
12.0959979043
 30
0.0
 10
16.0366388916
 20
12.1054333172
 30
0.0
  0
SPLINE
  5
4F7
100
AcDbEntity
  8
0
100
AcDbSpline
 62
7
  6
CONTINUOUS
 70
0
 71
3
 72
17
 73
13
 74
0
 42
0.0000001
 43
0.0000001
 44
0.0000000001
 40
0.0
 40
0.0
 40
0.0
 40
0.0
 40
0.1557351734
 40
0.3031518303
 40
0.4409886821
 40
0.5688975766
 40
0.6871659394
 40
0.796855782
 40
0.8491684927
 40
0.900191214
 40
0.9503240537
 40
1.0
 40
1.0
 40
1.0
 40
1.0
 10
16.3729384956
 20
11.470241417
 30
0.0
 10
16.3830059633
 20
11.470241417
 30
0.0
 10
16.4026180212
 20
11.4711101666
 30
0.0
 10
16.4308830023
 20
11.4751945122
 30
0.0
 10
16.4567820303
 20
11.4819830628
 30
0.0
 10
16.4798520945
 20
11.4913687611
 30
0.0
 10
16.4996962414
 20
11.5032011746
 30
0.0
 10
16.5134523935
 20
11.5151834684
 30
0.0
 10
16.5223173677
 20
11.5257518317
 30
0.0
 10
16.5278403447
 20
11.5340189883
 30
0.0
 10
16.5323112146
 20
11.5427069859
 30
0.0
 10
16.5345831218
 20
11.5487645496
 30
0.0
 10
16.5355319287
 20
11.5518324734
 30
0.0
  0
SPLINE
  5
4F8
100
AcDbEntity
  8
0
100
AcDbSpline
 62
7
  6
CONTINUOUS
 70
0
 71
3
 72
19
 73
15
 74
0
 42
0.0000001
 43
0.0000001
 44
0.0000000001
 40
0.0
 40
0.0
 40
0.0
 40
0.0
 40
0.0487186629
 40
0.1003490199
 40
0.1548268354
 40
0.2120417837
 40
0.2718339017
 40
0.3339635402
 40
0.4638606064
 40
0.5988331514
 40
0.7354816901
 40
0.8703277148
 40
0.9360549141
 40
1.0
 40
1.0
 40
1.0
 40
1.0
 10
14.6387682397
 20
11.625643909
 30
0.0
 10
14.6413338649
 20
11.6204157145
 30
0.0
 10
14.6472741786
 20
11.6099605299
 30
0.0
 10
14.6580476689
 20
11.5948777456
 30
0.0
 10
14.6708443641
 20
11.580098233
 30
0.0
 10
14.6855311575
 20
11.5657666079
 30
0.0
 10
14.7019703159
 20
11.552013369
 30
0.0
 10
14.7263775806
 20
11.5343595317
 30
0.0
 10
14.7602626281
 20
11.5146491376
 30
0.0
 10
14.8043885208
 20
11.4955103548
 30
0.0
 10
14.8509368134
 20
11.4812399519
 30
0.0
 10
14.890653843
 20
11.4737880625
 30
0.0
 10
14.9221448657
 20
11.4707649679
 30
0.0
 10
14.9376500194
 20
11.470241417
 30
0.0
 10
14.9452939549
 20
11.470241417
 30
0.0
  0
SPLINE
  5
4F9
100
AcDbEntity
  8
0
100
AcDbSpline
 62
7
  6
CONTINUOUS
 70
0
 71
3
 72
11
 73
7
 74
0
 42
0.0000001
 43
0.0000001
 44
0.0000000001
 40
0.0
 40
0.0
 40
0.0
 40
0.0
 40
0.2328554196
 40
0.4734119525
 40
0.7276034335
 40
1.0
 40
1.0
 40
1.0
 40
1.0
 10
17.2349514357
 20
11.8717355438
 30
0.0
 10
17.2352214454
 20
11.8726077676
 30
0.0
 10
17.2359733063
 20
11.8743244544
 30
0.0
 10
17.2376639488
 20
11.8766471812
 30
0.0
 10
17.2398921967
 20
11.8786932639
 30
0.0
 10
17.2416384826
 20
11.8798139837
 30
0.0
 10
17.2425764479
 20
11.880324938
 30
0.0
  0
SPLINE
  5
4FA
100
AcDbEntity
  8
0
100
AcDbSpline
 62
7
  6
CONTINUOUS
 70
0
 71
3
 72
10
 73
6
 74
0
 42
0.0000001
 43
0.0000001
 44
0.0000000001
 40
0.0
 40
0.0
 40
0.0
 40
0.0
 40
0.4653966467
 40
0.7251453613
 40
1.0
 40
1.0
 40
1.0
 40
1.0
 10
17.2425764479
 20
11.880324938
 30
0.0
 10
17.2448194357
 20
11.8815468002
 30
0.0
 10
17.2486438679
 20
11.8828635523
 30
0.0
 10
17.2540599719
 20
11.8837595894
 30
0.0
 10
17.2569953283
 20
11.8839423453
 30
0.0
 10
17.2585035853
 20
11.8839673164
 30
0.0
  0
SPLINE
  5
4FB
100
AcDbEntity
  8
0
100
AcDbSpline
 62
7
  6
CONTINUOUS
 70
0
 71
3
 72
11
 73
7
 74
0
 42
0.0000001
 43
0.0000001
 44
0.0000000001
 40
0.0
 40
0.0
 40
0.0
 40
0.0
 40
0.2268288662
 40
0.4641601647
 40
0.7204500087
 40
1.0
 40
1.0
 40
1.0
 40
1.0
 10
16.7037149365
 20
11.3356774891
 30
0.0
 10
16.7040411946
 20
11.3367336967
 30
0.0
 10
16.7050113182
 20
11.3388123882
 30
0.0
 10
16.707286002
 20
11.3415310013
 30
0.0
 10
16.7103153518
 20
11.3438166076
 30
0.0
 10
16.7126715244
 20
11.3449767752
 30
0.0
 10
16.713935998
 20
11.3454839259
 30
0.0
  0
SPLINE
  5
4FC
100
AcDbEntity
  8
0
100
AcDbSpline
 62
7
  6
CONTINUOUS
 70
0
 71
3
 72
9
 73
5
 74
0
 42
0.0000001
 43
0.0000001
 44
0.0000000001
 40
0.0
 40
0.0
 40
0.0
 40
0.0
 40
0.2451811741
 40
1.0
 40
1.0
 40
1.0
 40
1.0
 10
13.7094704313
 20
12.0224615995
 30
0.0
 10
13.719940661
 20
12.01100371
 30
0.0
 10
13.7631899638
 20
11.9647713902
 30
0.0
 10
13.8085471098
 20
11.92052049
 30
0.0
 10
13.8437595509
 20
11.8882189414
 30
0.0
  0
SPLINE
  5
4FD
100
AcDbEntity
  8
0
100
AcDbSpline
 62
7
  6
CONTINUOUS
 70
0
 71
3
 72
9
 73
5
 74
0
 42
0.0000001
 43
0.0000001
 44
0.0000000001
 40
0.0
 40
0.0
 40
0.0
 40
0.0
 40
0.2570716221
 40
1.0
 40
1.0
 40
1.0
 40
1.0
 10
16.9588044328
 20
12.3698061492
 30
0.0
 10
16.9642682385
 20
12.3586720838
 30
0.0
 10
16.984681162
 20
12.3149572431
 30
0.0
 10
17.0016281849
 20
12.2695929776
 30
0.0
 10
17.011806531
 20
12.2352258944
 30
0.0
  0
SPLINE
  5
4FE
100
AcDbEntity
  8
0
100
AcDbSpline
 62
7
  6
CONTINUOUS
 70
0
 71
3
 72
14
 73
10
 74
0
 42
0.0000001
 43
0.0000001
 44
0.0000000001
 40
0.0
 40
0.0
 40
0.0
 40
0.0
 40
0.2624812395
 40
0.3896623805
 40
0.5145733538
 40
0.6376177193
 40
0.759226905
 40
0.8798598582
 40
1.0
 40
1.0
 40
1.0
 40
1.0
 10
17.0136038824
 20
12.2290626052
 30
0.0
 10
17.0221745743
 20
12.1992072702
 30
0.0
 10
17.0322047066
 20
12.1540196484
 30
0.0
 10
17.0391822702
 20
12.0934904238
 30
0.0
 10
17.0411202171
 20
12.0490990776
 30
0.0
 10
17.0398134257
 20
12.0053458235
 30
0.0
 10
17.0352640296
 20
11.9623160036
 30
0.0
 10
17.0274726546
 20
11.9201048715
 30
0.0
 10
17.0201237312
 20
11.892541073
 30
0.0
 10
17.0159264317
 20
11.878957781
 30
0.0
  0
SPLINE
  5
4FF
100
AcDbEntity
  8
0
100
AcDbSpline
 62
7
  6
CONTINUOUS
 70
0
 71
3
 72
11
 73
7
 74
0
 42
0.0000001
 43
0.0000001
 44
0.0000000001
 40
0.0
 40
0.0
 40
0.0
 40
0.0
 40
0.2395873344
 40
0.486697471
 40
0.7404859155
 40
1.0
 40
1.0
 40
1.0
 40
1.0
 10
14.2034922511
 20
11.9329936273
 30
0.0
 10
14.2344188815
 20
11.9062747973
 30
0.0
 10
14.2989602992
 20
11.8539583503
 30
0.0
 10
14.4015654014
 20
11.7801770723
 30
0.0
 10
14.5108980782
 20
11.7102646219
 30
0.0
 10
14.5870554356
 20
11.6669652694
 30
0.0
 10
14.6260680761
 20
11.6460422922
 30
0.0
  0
SPLINE
  5
500
100
AcDbEntity
  8
0
100
AcDbSpline
 62
7
  6
CONTINUOUS
 70
0
 71
3
 72
27
 73
23
 74
0
 42
0.0000001
 43
0.0000001
 44
0.0000000001
 40
0.0
 40
0.0
 40
0.0
 40
0.0
 40
0.0772542911
 40
0.1543145669
 40
0.2306424157
 40
0.3057150862
 40
0.3790371717
 40
0.4501525211
 40
0.5186579464
 40
0.5842186402
 40
0.6465840957
 40
0.67652654
 40
0.7056255508
 40
0.7612845612
 40
0.8137085088
 40
0.8631985919
 40
0.8870065172
 40
0.9102814375
 40
0.9331134794
 40
0.9556036683
 40
0.9778609161
 40
1.0
 40
1.0
 40
1.0
 40
1.0
 10
15.0313289328
 20
11.4682332041
 30
0.0
 10
15.0863943676
 20
11.4489193287
 30
0.0
 10
15.1975457822
 20
11.4135578411
 30
0.0
 10
15.3664578081
 20
11.3705073102
 30
0.0
 10
15.5360100643
 20
11.3378269331
 30
0.0
 10
15.704436036
 20
11.3158567982
 30
0.0
 10
15.8699928924
 20
11.3048241315
 30
0.0
 10
16.0309666602
 20
11.304846348
 30
0.0
 10
16.1856988766
 20
11.3159270382
 30
0.0
 10
16.3325871346
 20
11.337955441
 30
0.0
 10
16.4487614538
 20
11.3656249269
 30
0.0
 10
16.5362470203
 20
11.3932390175
 30
0.0
 10
16.6174859218
 20
11.4234305463
 30
0.0
 10
16.7117044597
 20
11.4671232828
 30
0.0
 10
16.8132067507
 20
11.5298581043
 30
0.0
 10
16.8868232604
 20
11.5904187502
 30
0.0
 10
16.9375401748
 20
11.6429390434
 30
0.0
 10
16.9711540412
 20
11.6837470247
 30
0.0
 10
17.0007221666
 20
11.7263709419
 30
0.0
 10
17.0261674106
 20
11.7706978938
 30
0.0
 10
17.0474196674
 20
11.8166026846
 30
0.0
 10
17.0587602699
 20
11.8482180062
 30
0.0
 10
17.0636973865
 20
11.8641954395
 30
0.0
  0
SPLINE
  5
501
100
AcDbEntity
  8
0
100
AcDbSpline
 62
7
  6
CONTINUOUS
 70
0
 71
3
 72
12
 73
8
 74
0
 42
0.0000001
 43
0.0000001
 44
0.0000000001
 40
0.0
 40
0.0
 40
0.0
 40
0.0
 40
0.2105297784
 40
0.3281378538
 40
0.4529642135
 40
0.7198174144
 40
1.0
 40
1.0
 40
1.0
 40
1.0
 10
16.8655484724
 20
11.4185251554
 30
0.0
 10
16.867739095
 20
11.4197840955
 30
0.0
 10
16.8715007849
 20
11.4211583147
 30
0.0
 10
16.876851429
 20
11.4221311459
 30
0.0
 10
16.8829577878
 20
11.4225929694
 30
0.0
 10
16.8910447803
 20
11.4220517615
 30
0.0
 10
16.8974718148
 20
11.4205735617
 30
0.0
 10
16.9006819683
 20
11.4195728101
 30
0.0
  0
SPLINE
  5
502
100
AcDbEntity
  8
0
100
AcDbSpline
 62
7
  6
CONTINUOUS
 70
0
 71
3
 72
9
 73
5
 74
0
 42
0.0000001
 43
0.0000001
 44
0.0000000001
 40
0.0
 40
0.0
 40
0.0
 40
0.0
 40
0.2569800296
 40
1.0
 40
1.0
 40
1.0
 40
1.0
 10
16.713935998
 20
11.3454839259
 30
0.0
 10
16.7273216914
 20
11.3508526136
 30
0.0
 10
16.7790673296
 20
11.3725812102
 30
0.0
 10
16.8293940249
 20
11.3977473715
 30
0.0
 10
16.8655484724
 20
11.4185251554
 30
0.0
  0
SPLINE
  5
503
100
AcDbEntity
  8
0
100
AcDbSpline
 62
7
  6
CONTINUOUS
 70
0
 71
3
 72
9
 73
5
 74
0
 42
0.0000001
 43
0.0000001
 44
0.0000000001
 40
0.0
 40
0.0
 40
0.0
 40
0.0
 40
0.5095764965
 40
1.0
 40
1.0
 40
1.0
 40
1.0
 10
16.3578620037
 20
11.0658558308
 30
0.0
 10
16.4079475342
 20
11.0708222901
 30
0.0
 10
16.5059708588
 20
11.0835248552
 30
0.0
 10
16.6029640863
 20
11.1026434693
 30
0.0
 10
16.6501169759
 20
11.1137331783
 30
0.0
  0
SPLINE
  5
504
100
AcDbEntity
  8
0
100
AcDbSpline
 62
7
  6
CONTINUOUS
 70
0
 71
3
 72
11
 73
7
 74
0
 42
0.0000001
 43
0.0000001
 44
0.0000000001
 40
0.0
 40
0.0
 40
0.0
 40
0.0
 40
0.242832505
 40
0.4986636287
 40
0.7551889051
 40
1.0
 40
1.0
 40
1.0
 40
1.0
 10
16.1126491741
 20
11.2261615726
 30
0.0
 10
16.1158319491
 20
11.2262993144
 30
0.0
 10
16.1224039064
 20
11.2259395207
 30
0.0
 10
16.1321188416
 20
11.2238150407
 30
0.0
 10
16.1414240365
 20
11.2202342952
 30
0.0
 10
16.1471445362
 20
11.2169110738
 30
0.0
 10
16.1497548295
 20
11.215039855
 30
0.0
  0
SPLINE
  5
505
100
AcDbEntity
  8
0
100
AcDbSpline
 62
7
  6
CONTINUOUS
 70
0
 71
3
 72
14
 73
10
 74
0
 42
0.0000001
 43
0.0000001
 44
0.0000000001
 40
0.0
 40
0.0
 40
0.0
 40
0.0
 40
0.0979929565
 40
0.2009160698
 40
0.3111378865
 40
0.4302748852
 40
0.559116031
 40
0.6976664905
 40
1.0
 40
1.0
 40
1.0
 40
1.0
 10
15.8700035783
 20
11.215039855
 30
0.0
 10
15.8703795384
 20
11.2159490427
 30
0.0
 10
15.8713805503
 20
11.2177248143
 30
0.0
 10
15.8734901174
 20
11.2200581074
 30
0.0
 10
15.8761851031
 20
11.2220564469
 30
0.0
 10
15.8794033456
 20
11.2236928299
 30
0.0
 10
15.8830893773
 20
11.2249436859
 30
0.0
 10
15.8887003816
 20
11.2261071213
 30
0.0
 10
15.8931609112
 20
11.2262874774
 30
0.0
 10
15.8961937411
 20
11.2261615726
 30
0.0
  0
SPLINE
  5
506
100
AcDbEntity
  8
0
100
AcDbSpline
 62
7
  6
CONTINUOUS
 70
0
 71
3
 72
9
 73
5
 74
0
 42
0.0000001
 43
0.0000001
 44
0.0000000001
 40
0.0
 40
0.0
 40
0.0
 40
0.0
 40
0.5048028856
 40
1.0
 40
1.0
 40
1.0
 40
1.0
 10
15.2989711897
 20
11.1504553413
 30
0.0
 10
15.3834940073
 20
11.130106526
 30
0.0
 10
15.552400737
 20
11.0956572235
 30
0.0
 10
15.7233767828
 20
11.0735312107
 30
0.0
 10
15.8083141758
 20
11.0658558308
 30
0.0
  0
SPLINE
  5
507
100
AcDbEntity
  8
0
100
AcDbSpline
 62
7
  6
CONTINUOUS
 70
0
 71
3
 72
11
 73
7
 74
0
 42
0.0000001
 43
0.0000001
 44
0.0000000001
 40
0.0
 40
0.0
 40
0.0
 40
0.0
 40
0.2782980499
 40
0.5447939546
 40
0.7878270638
 40
1.0
 40
1.0
 40
1.0
 40
1.0
 10
15.1777971049
 20
11.3454839259
 30
0.0
 10
15.1810360046
 20
11.3445518006
 30
0.0
 10
15.1872476767
 20
11.3422383605
 30
0.0
 10
15.1955913528
 20
11.3375195826
 30
0.0
 10
15.2023483211
 20
11.3318978869
 30
0.0
 10
15.2057348968
 20
11.3274462877
 30
0.0
 10
15.2069324894
 20
11.3251728912
 30
0.0
  0
SPLINE
  5
508
100
AcDbEntity
  8
0
100
AcDbSpline
 62
7
  6
CONTINUOUS
 70
0
 71
3
 72
11
 73
7
 74
0
 42
0.0000001
 43
0.0000001
 44
0.0000000001
 40
0.0
 40
0.0
 40
0.0
 40
0.0
 40
0.2153514606
 40
0.4600031034
 40
0.7255626862
 40
1.0
 40
1.0
 40
1.0
 40
1.0
 10
14.9183360473
 20
11.4195728101
 30
0.0
 10
14.9207553697
 20
11.4206595184
 30
0.0
 10
14.9262888679
 20
11.4221780692
 30
0.0
 10
14.9352582105
 20
11.4226607646
 30
0.0
 10
14.9448952617
 20
11.4215053213
 30
0.0
 10
14.9513253015
 20
11.4196908574
 30
0.0
 10
14.9544977718
 20
11.4185251554
 30
0.0
  0
SPLINE
  5
509
100
AcDbEntity
  8
0
100
AcDbSpline
 62
7
  6
CONTINUOUS
 70
0
 71
3
 72
9
 73
5
 74
0
 42
0.0000001
 43
0.0000001
 44
0.0000000001
 40
0.0
 40
0.0
 40
0.0
 40
0.0
 40
0.4940176036
 40
1.0
 40
1.0
 40
1.0
 40
1.0
 10
14.2761519635
 20
11.5670262113
 30
0.0
 10
14.3481531945
 20
11.5233194756
 30
0.0
 10
14.4974707948
 20
11.4406285707
 30
0.0
 10
14.652469904
 20
11.3692072186
 30
0.0
 10
14.7320477274
 20
11.3358960505
 30
0.0
  0
SPLINE
  5
50A
100
AcDbEntity
  8
0
100
AcDbSpline
 62
7
  6
CONTINUOUS
 70
0
 71
3
 72
13
 73
9
 74
0
 42
0.0000001
 43
0.0000001
 44
0.0000000001
 40
0.0
 40
0.0
 40
0.0
 40
0.0
 40
0.3034949249
 40
0.569136391
 40
0.6874397554
 40
0.7971747873
 40
0.9004285789
 40
1.0
 40
1.0
 40
1.0
 40
1.0
 10
14.3114851217
 20
11.744519887
 30
0.0
 10
14.3139410729
 20
11.7428547559
 30
0.0
 10
14.3182959134
 20
11.7393325648
 30
0.0
 10
14.3225178487
 20
11.7339911909
 30
0.0
 10
14.3245545992
 20
11.7295919068
 30
0.0
 10
14.3253729674
 20
11.7264363327
 30
0.0
 10
14.3255089427
 20
11.7233599003
 30
0.0
 10
14.3251378905
 20
11.7213897506
 30
0.0
 10
14.3248434326
 20
11.7204618605
 30
0.0
  0
SPLINE
  5
50B
100
AcDbEntity
  8
0
100
AcDbSpline
 62
7
  6
CONTINUOUS
 70
0
 71
3
 72
9
 73
5
 74
0
 42
0.0000001
 43
0.0000001
 44
0.0000000001
 40
0.0
 40
0.0
 40
0.0
 40
0.0
 40
0.2456366393
 40
1.0
 40
1.0
 40
1.0
 40
1.0
 10
14.1411747644
 20
11.8710310075
 30
0.0
 10
14.1546405911
 20
11.8600518869
 30
0.0
 10
14.2099796962
 20
11.815994277
 30
0.0
 10
14.2673211625
 20
11.7744629837
 30
0.0
 10
14.3114851217
 20
11.744519887
 30
0.0
  0
SPLINE
  5
50C
100
AcDbEntity
  8
0
100
AcDbSpline
 62
7
  6
CONTINUOUS
 70
0
 71
3
 72
11
 73
7
 74
0
 42
0.0000001
 43
0.0000001
 44
0.0000000001
 40
0.0
 40
0.0
 40
0.0
 40
0.0
 40
0.248651412
 40
0.5064932231
 40
0.7609617925
 40
1.0
 40
1.0
 40
1.0
 40
1.0
 10
14.1047309833
 20
11.8839673164
 30
0.0
 10
14.1079875371
 20
11.8839142621
 30
0.0
 10
14.1146197276
 20
11.8831951033
 30
0.0
 10
14.1242768448
 20
11.8805816487
 30
0.0
 10
14.1333100211
 20
11.8765819672
 30
0.0
 10
14.138748067
 20
11.8730095718
 30
0.0
 10
14.1411747644
 20
11.8710310075
 30
0.0
  0
SPLINE
  5
50D
100
AcDbEntity
  8
0
100
AcDbSpline
 62
7
  6
CONTINUOUS
 70
0
 71
3
 72
11
 73
7
 74
0
 42
0.0000001
 43
0.0000001
 44
0.0000000001
 40
0.0
 40
0.0
 40
0.0
 40
0.0
 40
0.2756077395
 40
0.5308754048
 40
0.7698853217
 40
1.0
 40
1.0
 40
1.0
 40
1.0
 10
13.7458408208
 20
12.3163480924
 30
0.0
 10
13.7464455615
 20
12.3153121688
 30
0.0
 10
13.7474643101
 20
12.3132247271
 30
0.0
 10
13.748376628
 20
12.3099784748
 30
0.0
 10
13.7485709535
 20
12.3068059736
 30
0.0
 10
13.7482096589
 20
12.3047724015
 30
0.0
 10
13.7479138843
 20
12.3038155505
 30
0.0
  0
SPLINE
  5
50E
100
AcDbEntity
  8
0
100
AcDbSpline
 62
7
  6
CONTINUOUS
 70
0
 71
3
 72
18
 73
14
 74
0
 42
0.0000001
 43
0.0000001
 44
0.0000000001
 40
0.0
 40
0.0
 40
0.0
 40
0.0
 40
0.0487226339
 40
0.1003575476
 40
0.1548402279
 40
0.2120600046
 40
0.3339143339
 40
0.4638198784
 40
0.5988013204
 40
0.7354593798
 40
0.8703165705
 40
0.9360496582
 40
1.0
 40
1.0
 40
1.0
 40
1.0
 10
14.6842161236
 20
11.6236855918
 30
0.0
 10
14.6862686341
 20
11.6195030151
 30
0.0
 10
14.6910209029
 20
11.611138761
 30
0.0
 10
14.6996397013
 20
11.5990724768
 30
0.0
 10
14.7098772848
 20
11.5872483306
 30
0.0
 10
14.7258783102
 20
11.5716368545
 30
0.0
 10
14.749366227
 20
11.5535317026
 30
0.0
 10
14.7814081139
 20
11.5348915844
 30
0.0
 10
14.8167131646
 20
11.5195786199
 30
0.0
 10
14.8539503249
 20
11.5081628059
 30
0.0
 10
14.8857242761
 20
11.5022007982
 30
0.0
 10
14.910917267
 20
11.4997824296
 30
0.0
 10
14.9233215124
 20
11.4993635981
 30
0.0
 10
14.9294366957
 20
11.4993635981
 30
0.0
  0
SPLINE
  5
50F
100
AcDbEntity
  8
0
100
AcDbSpline
 62
7
  6
CONTINUOUS
 70
0
 71
3
 72
15
 73
11
 74
0
 42
0.0000001
 43
0.0000001
 44
0.0000000001
 40
0.0
 40
0.0
 40
0.0
 40
0.0
 40
0.1557870904
 40
0.3032534627
 40
0.4411339025
 40
0.5690827695
 40
0.6873883028
 40
0.7971124527
 40
0.9003276496
 40
1.0
 40
1.0
 40
1.0
 40
1.0
 10
16.3570812364
 20
11.4993635981
 30
0.0
 10
16.3651353009
 20
11.4993635981
 30
0.0
 10
16.380825159
 20
11.5000586001
 30
0.0
 10
16.4034372901
 20
11.5033259077
 30
0.0
 10
16.42415657
 20
11.5087574668
 30
0.0
 10
16.4426118782
 20
11.5162651977
 30
0.0
 10
16.4584887633
 20
11.5257341608
 30
0.0
 10
16.4714852747
 20
11.5370493107
 30
0.0
 10
16.4813227091
 20
11.5500266882
 30
0.0
 10
16.4856331257
 20
11.5597136291
 30
0.0
 10
16.4871556515
 20
11.5646365453
 30
0.0
  0
SPLINE
  5
510
100
AcDbEntity
  8
0
100
AcDbSpline
 62
7
  6
CONTINUOUS
 70
0
 71
3
 72
11
 73
7
 74
0
 42
0.0000001
 43
0.0000001
 44
0.0000000001
 40
0.0
 40
0.0
 40
0.0
 40
0.0
 40
0.2134827415
 40
0.455757649
 40
0.721212707
 40
1.0
 40
1.0
 40
1.0
 40
1.0
 10
17.2690746966
 20
12.557027245
 30
0.0
 10
17.2701811586
 20
12.5549607448
 30
0.0
 10
17.2732118831
 20
12.5509015653
 30
0.0
 10
17.2792055372
 20
12.5456637559
 30
0.0
 10
17.2866103784
 20
12.5411502636
 30
0.0
 10
17.2921358499
 20
12.5388129017
 30
0.0
 10
17.295031731
 20
12.5378207449
 30
0.0
  0
SPLINE
  5
511
100
AcDbEntity
  8
0
100
AcDbSpline
 62
7
  6
CONTINUOUS
 70
0
 71
3
 72
9
 73
5
 74
0
 42
0.0000001
 43
0.0000001
 44
0.0000000001
 40
0.0
 40
0.0
 40
0.0
 40
0.0
 40
0.2436952553
 40
1.0
 40
1.0
 40
1.0
 40
1.0
 10
13.5611252495
 20
12.2025439185
 30
0.0
 10
13.5712160888
 20
12.1885222514
 30
0.0
 10
13.6135278913
 20
12.1316379599
 30
0.0
 10
13.659307976
 20
12.0773558807
 30
0.0
 10
13.6954741327
 20
12.0377781646
 30
0.0
  0
SPLINE
  5
512
100
AcDbEntity
  8
0
100
AcDbSpline
 62
7
  6
CONTINUOUS
 70
0
 71
3
 72
11
 73
7
 74
0
 42
0.0000001
 43
0.0000001
 44
0.0000000001
 40
0.0
 40
0.0
 40
0.0
 40
0.0
 40
0.2610141139
 40
0.5140172668
 40
0.759963803
 40
1.0
 40
1.0
 40
1.0
 40
1.0
 10
17.2011285418
 20
11.3473796278
 30
0.0
 10
17.2235366248
 20
11.3635224068
 30
0.0
 10
17.266473283
 20
11.3970152761
 30
0.0
 10
17.3256362424
 20
11.4516125056
 30
0.0
 10
17.3782826025
 20
11.5095606231
 30
0.0
 10
17.4092381194
 20
11.5507342296
 30
0.0
 10
17.4234882219
 20
11.5717573906
 30
0.0
  0
LINE
  5
513
100
AcDbEntity
  8
0
100
AcDbLine
 62
7
  6
CONTINUOUS
 10
17.515302227
 20
11.8882189414
 11
17.5462110293
 21
11.9082136566
  0
LINE
  5
514
100
AcDbEntity
  8
0
100
AcDbLine
 62
7
  6
CONTINUOUS
 10
17.5607591897
 20
12.4467799553
 11
17.580428951
 21
12.4183843748
  0
SPLINE
  5
515
100
AcDbEntity
  8
0
100
AcDbSpline
 62
7
  6
CONTINUOUS
 70
0
 71
3
 72
11
 73
7
 74
0
 42
0.0000001
 43
0.0000001
 44
0.0000000001
 40
0.0
 40
0.0
 40
0.0
 40
0.0
 40
0.2596623185
 40
0.512075381
 40
0.7584055187
 40
1.0
 40
1.0
 40
1.0
 40
1.0
 10
17.5804289514
 20
12.4183843761
 30
0.0
 10
17.5875465406
 20
12.3925589359
 30
0.0
 10
17.5995151852
 20
12.3410271193
 30
0.0
 10
17.6104754591
 20
12.2634521202
 30
0.0
 10
17.6141169243
 20
12.1870515487
 30
0.0
 10
17.6116308268
 20
12.1366790305
 30
0.0
 10
17.609148273
 20
12.111878652
 30
0.0
  0
LINE
  5
516
100
AcDbEntity
  8
0
100
AcDbLine
 62
7
  6
CONTINUOUS
 10
16.85921473
 20
11.3932866844
 11
16.8608524819
 21
11.3567915081
  0
LINE
  5
517
100
AcDbEntity
  8
0
100
AcDbLine
 62
7
  6
CONTINUOUS
 10
13.6153843959
 20
12.4183843748
 11
13.6385084722
 21
12.4467799553
  0
SPLINE
  5
518
100
AcDbEntity
  8
0
100
AcDbSpline
 62
7
  6
CONTINUOUS
 70
0
 71
3
 72
11
 73
7
 74
0
 42
0.0000001
 43
0.0000001
 44
0.0000000001
 40
0.0
 40
0.0
 40
0.0
 40
0.0
 40
0.233658935
 40
0.4744440454
 40
0.7285748979
 40
1.0
 40
1.0
 40
1.0
 40
1.0
 10
16.4871556515
 20
11.5646365453
 30
0.0
 10
16.488555407
 20
11.5691624973
 30
0.0
 10
16.490391988
 20
11.5786947898
 30
0.0
 10
16.4900707329
 20
11.593561275
 30
0.0
 10
16.4867294944
 20
11.6088216745
 30
0.0
 10
16.4827094463
 20
11.6187452158
 30
0.0
 10
16.4802850619
 20
11.6236855918
 30
0.0
  0
SPLINE
  5
519
100
AcDbEntity
  8
0
100
AcDbSpline
 62
7
  6
CONTINUOUS
 70
0
 71
3
 72
9
 73
5
 74
0
 42
0.0000001
 43
0.0000001
 44
0.0000000001
 40
0.0
 40
0.0
 40
0.0
 40
0.0
 40
0.4913253323
 40
1.0
 40
1.0
 40
1.0
 40
1.0
 10
13.5634679108
 20
12.2039486127
 30
0.0
 10
13.5833538562
 20
12.1754723881
 30
0.0
 10
13.6257343384
 20
12.1188282706
 30
0.0
 10
13.6714233223
 20
12.0648289414
 30
0.0
 10
13.695396846
 20
12.0380275266
 30
0.0
  0
SPLINE
  5
51A
100
AcDbEntity
  8
0
100
AcDbSpline
 62
7
  6
CONTINUOUS
 70
0
 71
3
 72
12
 73
8
 74
0
 42
0.0000001
 43
0.0000001
 44
0.0000000001
 40
0.0
 40
0.0
 40
0.0
 40
0.0
 40
0.1165102415
 40
0.2339195536
 40
0.474625005
 40
0.7286675467
 40
1.0
 40
1.0
 40
1.0
 40
1.0
 10
16.5355319287
 20
11.5518324734
 30
0.0
 10
16.5364046631
 20
11.5546544206
 30
0.0
 10
16.5378505292
 20
11.5604205023
 30
0.0
 10
16.5395083305
 20
11.57235754
 30
0.0
 10
16.5391767213
 20
11.5879930373
 30
0.0
 10
16.534998212
 20
11.6070627188
 30
0.0
 10
16.529973745
 20
11.6194684653
 30
0.0
 10
16.5269432774
 20
11.625643909
 30
0.0
  0
SPLINE
  5
51B
100
AcDbEntity
  8
0
100
AcDbSpline
 62
7
  6
CONTINUOUS
 70
0
 71
3
 72
40
 73
36
 74
0
 42
0.0000001
 43
0.0000001
 44
0.0000000001
 40
0.0
 40
0.0
 40
0.0
 40
0.0
 40
0.0265226592
 40
0.0543700929
 40
0.0835317863
 40
0.1139861008
 40
0.1456883619
 40
0.1785577874
 40
0.2124929498
 40
0.2473732206
 40
0.2830650343
 40
0.3194200558
 40
0.3562816629
 40
0.3934850024
 40
0.4308612902
 40
0.4682389467
 40
0.5054463853
 40
0.5423147245
 40
0.5786790244
 40
0.6143826196
 40
0.6492770508
 40
0.6832280922
 40
0.7161147184
 40
0.7478368488
 40
0.7783138694
 40
0.8074940577
 40
0.8353532784
 40
0.8619057317
 40
0.8872030619
 40
0.8994151883
 40
0.9113545777
 40
0.9344862764
 40
0.9568047295
 40
0.9785502109
 40
1.0
 40
1.0
 40
1.0
 40
1.0
 10
14.6550474006
 20
12.1054333172
 30
0.0
 10
14.6615056615
 20
12.0922727652
 30
0.0
 10
14.6761184986
 20
12.0659524268
 30
0.0
 10
14.7020642705
 20
12.0276991808
 30
0.0
 10
14.7323986383
 20
11.9899934413
 30
0.0
 10
14.7668960197
 20
11.9530904926
 30
0.0
 10
14.8053306798
 20
11.9172371604
 30
0.0
 10
14.8474364824
 20
11.8826639738
 30
0.0
 10
14.8929351311
 20
11.8496151336
 30
0.0
 10
14.9415110439
 20
11.8183048567
 30
0.0
 10
14.9928398837
 20
11.7889540522
 30
0.0
 10
15.0465681873
 20
11.7617525419
 30
0.0
 10
15.1023351015
 20
11.7368948258
 30
0.0
 10
15.159757259
 20
11.7145404646
 30
0.0
 10
15.2184474904
 20
11.6948510564
 30
0.0
 10
15.2780032107
 20
11.6779509825
 30
0.0
 10
15.3380219116
 20
11.6639650132
 30
0.0
 10
15.3980927478
 20
11.6529784271
 30
0.0
 10
15.4578091873
 20
11.6450760417
 30
0.0
 10
15.5167635909
 20
11.6403013532
 30
0.0
 10
15.5745567499
 20
11.6386975183
 30
0.0
 10
15.6307957601
 20
11.6402649037
 30
0.0
 10
15.685099759
 20
11.645004723
 30
0.0
 10
15.7371018135
 20
11.6528744697
 30
0.0
 10
15.7864496033
 20
11.6638348651
 30
0.0
 10
15.8328122087
 20
11.6778026285
 30
0.0
 10
15.8758747709
 20
11.6947017778
 30
0.0
 10
15.91534734
 20
11.7144105885
 30
0.0
 10
15.9453744101
 20
11.7333079398
 30
0.0
 10
15.9672439976
 20
11.749723324
 30
0.0
 10
15.9872306671
 20
11.7665804476
 30
0.0
 10
16.0096405154
 20
11.7891522783
 30
0.0
 10
16.0322763878
 20
11.8187368015
 30
0.0
 10
16.0501849558
 20
11.8503407479
 30
0.0
 10
16.0589086133
 20
11.8726703636
 30
0.0
 10
16.06240877
 20
11.8839977914
 30
0.0
  0
SPLINE
  5
51C
100
AcDbEntity
  8
0
100
AcDbSpline
 62
7
  6
CONTINUOUS
 70
0
 71
3
 72
11
 73
7
 74
0
 42
0.0000001
 43
0.0000001
 44
0.0000000001
 40
0.0
 40
0.0
 40
0.0
 40
0.0
 40
0.2317989113
 40
0.4716966793
 40
0.7264551322
 40
1.0
 40
1.0
 40
1.0
 40
1.0
 10
13.7479138843
 20
12.3038155505
 30
0.0
 10
13.7476339751
 20
12.3029100254
 30
0.0
 10
13.746845295
 20
12.3011280102
 30
0.0
 10
13.745053603
 20
12.2987311574
 30
0.0
 10
13.7426878812
 20
12.2966367121
 30
0.0
 10
13.7408366071
 20
12.295502431
 30
0.0
 10
13.7398427095
 20
12.294989403
 30
0.0
  0
SPLINE
  5
51D
100
AcDbEntity
  8
0
100
AcDbSpline
 62
7
  6
CONTINUOUS
 70
0
 71
3
 72
15
 73
11
 74
0
 42
0.0000001
 43
0.0000001
 44
0.0000000001
 40
0.0
 40
0.0
 40
0.0
 40
0.0
 40
0.1164317552
 40
0.2337712689
 40
0.3528872107
 40
0.4745795606
 40
0.5995751304
 40
0.7285115571
 40
0.8618866975
 40
1.0
 40
1.0
 40
1.0
 40
1.0
 10
17.0636973865
 20
11.8641954395
 30
0.0
 10
17.069671706
 20
11.8835294553
 30
0.0
 10
17.0795724452
 20
11.9230309334
 30
0.0
 10
17.0880183538
 20
11.9838904261
 30
0.0
 10
17.0900693745
 20
12.0462153593
 30
0.0
 10
17.0857243107
 20
12.1097475047
 30
0.0
 10
17.075006584
 20
12.17424247
 30
0.0
 10
17.0579698474
 20
12.2394560984
 30
0.0
 10
17.0346893511
 20
12.3051209593
 30
0.0
 10
17.0154324068
 20
12.3482567192
 30
0.0
 10
17.0048574825
 20
12.3698061492
 30
0.0
  0
SPLINE
  5
51E
100
AcDbEntity
  8
0
100
AcDbSpline
 62
7
  6
CONTINUOUS
 70
0
 71
3
 72
13
 73
9
 74
0
 42
0.0000001
 43
0.0000001
 44
0.0000000001
 40
0.0
 40
0.0
 40
0.0
 40
0.0
 40
0.1193070289
 40
0.2391995767
 40
0.3602476194
 40
0.4829937962
 40
0.7353749637
 40
1.0
 40
1.0
 40
1.0
 40
1.0
 10
17.0159264317
 20
11.878957781
 30
0.0
 10
17.0113322323
 20
11.8640900423
 30
0.0
 10
17.0008375493
 20
11.8346609664
 30
0.0
 10
16.9813111617
 20
11.7918641959
 30
0.0
 10
16.9580390201
 20
11.7504638775
 30
0.0
 10
16.9217738404
 20
11.696786617
 30
0.0
 10
16.8668518829
 20
11.6335022027
 30
0.0
 10
16.8155037696
 20
11.5894149103
 30
0.0
 10
16.7879327796
 20
11.5686506916
 30
0.0
  0
SPLINE
  5
51F
100
AcDbEntity
  8
0
100
AcDbSpline
 62
7
  6
CONTINUOUS
 70
0
 71
3
 72
23
 73
19
 74
0
 42
0.0000001
 43
0.0000001
 44
0.0000000001
 40
0.0
 40
0.0
 40
0.0
 40
0.0
 40
0.0480038914
 40
0.0981333327
 40
0.1504931261
 40
0.2051311359
 40
0.2620405488
 40
0.3211689965
 40
0.3824229645
 40
0.4456734424
 40
0.5107619935
 40
0.5775029311
 40
0.6456903397
 40
0.715098511
 40
0.785488661
 40
0.8566091478
 40
0.928201206
 40
1.0
 40
1.0
 40
1.0
 40
1.0
 10
16.7835148054
 20
11.5653469441
 30
0.0
 10
16.761394828
 20
11.5489224758
 30
0.0
 10
16.7144480622
 20
11.5176230439
 30
0.0
 10
16.6384245323
 20
11.4764113617
 30
0.0
 10
16.5557480568
 20
11.4401517385
 30
0.0
 10
16.4668791169
 20
11.4090459011
 30
0.0
 10
16.3723030451
 20
11.3832492621
 30
0.0
 10
16.2725372851
 20
11.362899448
 30
0.0
 10
16.168127442
 20
11.3481057749
 30
0.0
 10
16.0596458199
 20
11.3389424718
 30
0.0
 10
15.9476872037
 20
11.3354653502
 30
0.0
 10
15.8328661607
 20
11.3376838123
 30
0.0
 10
15.7158144411
 20
11.3455950707
 30
0.0
 10
15.5971747868
 20
11.3591452128
 30
0.0
 10
15.4776018965
 20
11.3782690386
 30
0.0
 10
15.3577519901
 20
11.4028530103
 30
0.0
 10
15.2382898014
 20
11.4327676448
 30
0.0
 10
15.1593535477
 20
11.4561480833
 30
0.0
 10
15.120100834
 20
11.4686897859
 30
0.0
  0
SPLINE
  5
520
100
AcDbEntity
  8
0
100
AcDbSpline
 62
7
  6
CONTINUOUS
 70
0
 71
3
 72
11
 73
7
 74
0
 42
0.0000001
 43
0.0000001
 44
0.0000000001
 40
0.0
 40
0.0
 40
0.0
 40
0.0
 40
0.2583845655
 40
0.511628799
 40
0.7590400676
 40
1.0
 40
1.0
 40
1.0
 40
1.0
 10
14.6043007754
 20
11.6919804912
 30
0.0
 10
14.5723764253
 20
11.7099327507
 30
0.0
 10
14.5099203747
 20
11.746849423
 30
0.0
 10
14.4198275937
 20
11.8057354222
 30
0.0
 10
14.3346068951
 20
11.8673512181
 30
0.0
 10
14.2805551537
 20
11.9106593496
 30
0.0
 10
14.2544759691
 20
11.9327160602
 30
0.0
  0
SPLINE
  5
521
100
AcDbEntity
  8
0
100
AcDbSpline
 62
7
  6
CONTINUOUS
 70
0
 71
3
 72
15
 73
11
 74
0
 42
0.0000001
 43
0.0000001
 44
0.0000000001
 40
0.0
 40
0.0
 40
0.0
 40
0.0
 40
0.1381135615
 40
0.2714885914
 40
0.4004247036
 40
0.5254201532
 40
0.6471125453
 40
0.7662285516
 40
0.8835680952
 40
1.0
 40
1.0
 40
1.0
 40
1.0
 10
17.0109091406
 20
12.3893893219
 30
0.0
 10
17.021484085
 20
12.3678398508
 30
0.0
 10
17.0407410593
 20
12.324704075
 30
0.0
 10
17.0640215502
 20
12.2590392377
 30
0.0
 10
17.0810582159
 20
12.1938256894
 30
0.0
 10
17.0917759908
 20
12.1293307969
 30
0.0
 10
17.0961209931
 20
12.0657986522
 30
0.0
 10
17.0940701431
 20
12.0034736843
 30
0.0
 10
17.0856240764
 20
11.9426141663
 30
0.0
 10
17.075723405
 20
11.9031126433
 30
0.0
 10
17.0697490965
 20
11.8837785962
 30
0.0
  0
SPLINE
  5
522
100
AcDbEntity
  8
0
100
AcDbSpline
 62
7
  6
CONTINUOUS
 70
0
 71
3
 72
11
 73
7
 74
0
 42
0.0000001
 43
0.0000001
 44
0.0000000001
 40
0.0
 40
0.0
 40
0.0
 40
0.0
 40
0.2804295201
 40
0.5466640447
 40
0.7884553145
 40
1.0
 40
1.0
 40
1.0
 40
1.0
 10
17.2199911708
 20
12.294989403
 30
0.0
 10
17.2170100288
 20
12.2960107709
 30
0.0
 10
17.2113334639
 20
12.298425226
 30
0.0
 10
17.2037653692
 20
12.3031083429
 30
0.0
 10
17.197716463
 20
12.3085415031
 30
0.0
 10
17.1947266404
 20
12.3127531997
 30
0.0
 10
17.1936793918
 20
12.3148872679
 30
0.0
  0
SPLINE
  5
523
100
AcDbEntity
  8
0
100
AcDbSpline
 62
7
  6
CONTINUOUS
 70
0
 71
3
 72
11
 73
7
 74
0
 42
0.0000001
 43
0.0000001
 44
0.0000000001
 40
0.0
 40
0.0
 40
0.0
 40
0.0
 40
0.2412778635
 40
0.4874267304
 40
0.7399133725
 40
1.0
 40
1.0
 40
1.0
 40
1.0
 10
17.5153022286
 20
11.8882189414
 30
0.0
 10
17.5180732913
 20
11.9137213785
 30
0.0
 10
17.5209547779
 20
11.9655728956
 30
0.0
 10
17.5173545901
 20
12.0442807854
 30
0.0
 10
17.5058921416
 20
12.12424649
 30
0.0
 10
17.4932515199
 20
12.1773421399
 30
0.0
 10
17.4857186311
 20
12.2039486127
 30
0.0
  0
SPLINE
  5
524
100
AcDbEntity
  8
0
100
AcDbSpline
 62
7
  6
CONTINUOUS
 70
0
 71
3
 72
11
 73
7
 74
0
 42
0.0000001
 43
0.0000001
 44
0.0000000001
 40
0.0
 40
0.0
 40
0.0
 40
0.0
 40
0.2714251021
 40
0.5255559546
 40
0.766341065
 40
1.0
 40
1.0
 40
1.0
 40
1.0
 10
16.4808902277
 20
11.625643909
 30
0.0
 10
16.4833146121
 20
11.620703533
 30
0.0
 10
16.4873346602
 20
11.6107799918
 30
0.0
 10
16.4906758987
 20
11.5955195923
 30
0.0
 10
16.4909971538
 20
11.5806531071
 30
0.0
 10
16.4891605728
 20
11.5711208146
 30
0.0
 10
16.4877608173
 20
11.5665948626
 30
0.0
  0
SPLINE
  5
525
100
AcDbEntity
  8
0
100
AcDbSpline
 62
7
  6
CONTINUOUS
 70
0
 71
3
 72
11
 73
7
 74
0
 42
0.0000001
 43
0.0000001
 44
0.0000000001
 40
0.0
 40
0.0
 40
0.0
 40
0.0
 40
0.2714729114
 40
0.5254918187
 40
0.7662289941
 40
1.0
 40
1.0
 40
1.0
 40
1.0
 10
17.1891717573
 20
11.7316224983
 30
0.0
 10
17.1887171032
 20
11.7325489859
 30
0.0
 10
17.1879631102
 20
11.7344093352
 30
0.0
 10
17.1873371742
 20
11.7372703088
 30
0.0
 10
17.1872762861
 20
11.7400576368
 30
0.0
 10
17.1876213143
 20
11.7418450522
 30
0.0
 10
17.1878836163
 20
11.7426941652
 30
0.0
  0
LINE
  5
526
100
AcDbEntity
  8
0
100
AcDbLine
 62
7
  6
CONTINUOUS
 10
17.5174917077
 20
12.2147193808
 11
17.4857186294
 21
12.2039486133
  0
SPLINE
  5
527
100
AcDbEntity
  8
0
100
AcDbSpline
 62
7
  6
CONTINUOUS
 70
0
 71
3
 72
11
 73
7
 74
0
 42
0.0000001
 43
0.0000001
 44
0.0000000001
 40
0.0
 40
0.0
 40
0.0
 40
0.0
 40
0.241594481
 40
0.4879246193
 40
0.7403376812
 40
1.0
 40
1.0
 40
1.0
 40
1.0
 10
17.546211029
 20
11.9082136555
 30
0.0
 10
17.5486935827
 20
11.933014034
 30
0.0
 10
17.5511796802
 20
11.9833865522
 30
0.0
 10
17.5475382151
 20
12.0597871237
 30
0.0
 10
17.536577941
 20
12.1373621228
 30
0.0
 10
17.5246092964
 20
12.1888939393
 30
0.0
 10
17.5174917073
 20
12.2147193796
 30
0.0
  0
SPLINE
  5
528
100
AcDbEntity
  8
0
100
AcDbSpline
 62
7
  6
CONTINUOUS
 70
0
 71
3
 72
9
 73
5
 74
0
 42
0.0000001
 43
0.0000001
 44
0.0000000001
 40
0.0
 40
0.0
 40
0.0
 40
0.0
 40
0.5326012538
 40
1.0
 40
1.0
 40
1.0
 40
1.0
 10
17.1988647834
 20
11.7204618605
 30
0.0
 10
17.1967721185
 20
11.7220730916
 30
0.0
 10
17.1930815631
 20
11.7254313171
 30
0.0
 10
17.1901928266
 20
11.729541778
 30
0.0
 10
17.1891717573
 20
11.7316224983
 30
0.0
  0
SPLINE
  5
529
100
AcDbEntity
  8
0
100
AcDbSpline
 62
7
  6
CONTINUOUS
 70
0
 71
3
 72
11
 73
7
 74
0
 42
0.0000001
 43
0.0000001
 44
0.0000000001
 40
0.0
 40
0.0
 40
0.0
 40
0.0
 40
0.2601666374
 40
0.5129162877
 40
0.759183306
 40
1.0
 40
1.0
 40
1.0
 40
1.0
 10
17.1954861901
 20
11.3552627256
 30
0.0
 10
17.2158325276
 20
11.3706858665
 30
0.0
 10
17.2548449666
 20
11.4025836755
 30
0.0
 10
17.3086560668
 20
11.454226476
 30
0.0
 10
17.3566944285
 20
11.5087788708
 30
0.0
 10
17.3850481382
 20
11.5473560616
 30
0.0
 10
17.3981468133
 20
11.5670262113
 30
0.0
  0
SPLINE
  5
52A
100
AcDbEntity
  8
0
100
AcDbSpline
 62
7
  6
CONTINUOUS
 70
0
 71
3
 72
10
 73
6
 74
0
 42
0.0000001
 43
0.0000001
 44
0.0000000001
 40
0.0
 40
0.0
 40
0.0
 40
0.0
 40
0.5225508171
 40
0.7646016757
 40
1.0
 40
1.0
 40
1.0
 40
1.0
 10
16.7047350298
 20
11.3251728912
 30
0.0
 10
16.7039592652
 20
11.3268790991
 30
0.0
 10
16.7031515409
 20
11.3295713347
 30
0.0
 10
16.7031294045
 20
11.333176667
 30
0.0
 10
16.7034657449
 20
11.3348707715
 30
0.0
 10
16.7037149365
 20
11.3356774891
 30
0.0
  0
SPLINE
  5
52B
100
AcDbEntity
  8
0
100
AcDbSpline
 62
7
  6
CONTINUOUS
 70
0
 71
3
 72
12
 73
8
 74
0
 42
0.0000001
 43
0.0000001
 44
0.0000000001
 40
0.0
 40
0.0
 40
0.0
 40
0.0
 40
0.2713324388
 40
0.5253750032
 40
0.7660804615
 40
0.8834897682
 40
1.0
 40
1.0
 40
1.0
 40
1.0
 10
16.6201388119
 20
11.9272247692
 30
0.0
 10
16.6231692794
 20
11.9210493258
 30
0.0
 10
16.6281937455
 20
11.9086435788
 30
0.0
 10
16.6323722561
 20
11.8895738973
 30
0.0
 10
16.6327038651
 20
11.8739383993
 30
0.0
 10
16.6310460638
 20
11.8620013619
 30
0.0
 10
16.6296001981
 20
11.8562352804
 30
0.0
 10
16.6287274636
 20
11.8534133335
 30
0.0
  0
SPLINE
  5
52C
100
AcDbEntity
  8
0
100
AcDbSpline
 62
7
  6
CONTINUOUS
 70
0
 71
3
 72
9
 73
5
 74
0
 42
0.0000001
 43
0.0000001
 44
0.0000000001
 40
0.0
 40
0.0
 40
0.0
 40
0.0
 40
0.491502426
 40
1.0
 40
1.0
 40
1.0
 40
1.0
 10
14.3150023636
 20
11.9322353422
 30
0.0
 10
14.3554490675
 20
11.9001642147
 30
0.0
 10
14.4402444608
 20
11.8380253549
 30
0.0
 10
14.5291161408
 20
11.7819033906
 30
0.0
 10
14.575161719
 20
11.7548525312
 30
0.0
  0
SPLINE
  5
52D
100
AcDbEntity
  8
0
100
AcDbSpline
 62
7
  6
CONTINUOUS
 70
0
 71
3
 72
25
 73
21
 74
0
 42
0.0000001
 43
0.0000001
 44
0.0000000001
 40
0.0
 40
0.0
 40
0.0
 40
0.0
 40
0.077947043
 40
0.1551353624
 40
0.2311459666
 40
0.3055806672
 40
0.3780687107
 40
0.4482769603
 40
0.515918594
 40
0.5807620415
 40
0.6426450076
 40
0.701486545
 40
0.7573004554
 40
0.8102133824
 40
0.8604779288
 40
0.9084820581
 40
0.9318116848
 40
0.9547840129
 40
0.97748366
 40
1.0
 40
1.0
 40
1.0
 40
1.0
 10
15.2676766962
 20
11.4681772296
 30
0.0
 10
15.3162912273
 20
11.4552155751
 30
0.0
 10
15.4137393318
 20
11.4319348777
 30
0.0
 10
15.5605549803
 20
11.4049948065
 30
0.0
 10
15.7063755746
 20
11.3863541335
 30
0.0
 10
15.8499918674
 20
11.3761676193
 30
0.0
 10
15.9902209077
 20
11.3745241641
 30
0.0
 10
16.1259073554
 20
11.3814355934
 30
0.0
 10
16.2559365158
 20
11.3968463875
 30
0.0
 10
16.3792414721
 20
11.4206406358
 30
0.0
 10
16.4948135814
 20
11.452629293
 30
0.0
 10
16.6017093745
 20
11.4925649784
 30
0.0
 10
16.6990501841
 20
11.5401502233
 30
0.0
 10
16.7860329996
 20
11.5950319516
 30
0.0
 10
16.8619136875
 20
11.6567890297
 30
0.0
 10
16.9158602834
 20
11.7141855294
 30
0.0
 10
16.9524795244
 20
11.7628709828
 30
0.0
 10
16.9765373914
 20
11.8004064417
 30
0.0
 10
16.9973915248
 20
11.8392135579
 30
0.0
 10
17.0091626074
 20
11.8659597481
 30
0.0
 10
17.0144819613
 20
11.8794850314
 30
0.0
  0
SPLINE
  5
52E
100
AcDbEntity
  8
0
100
AcDbSpline
 62
7
  6
CONTINUOUS
 70
0
 71
3
 72
22
 73
18
 74
0
 42
0.0000001
 43
0.0000001
 44
0.0000000001
 40
0.0
 40
0.0
 40
0.0
 40
0.0
 40
0.0506982042
 40
0.1025413637
 40
0.1564784014
 40
0.2131608966
 40
0.2729075939
 40
0.3356922191
 40
0.4012220912
 40
0.4689666765
 40
0.5382423188
 40
0.6082569111
 40
0.6781702202
 40
0.7471412876
 40
0.8143845489
 40
0.8793041439
 40
1.0
 40
1.0
 40
1.0
 40
1.0
 10
15.0221016422
 20
12.8484595203
 30
0.0
 10
15.0230720799
 20
12.8464820421
 30
0.0
 10
15.0254922956
 20
12.8426910192
 30
0.0
 10
15.0303274734
 20
12.8378435338
 30
0.0
 10
15.0362596395
 20
12.833935168
 30
0.0
 10
15.0431157143
 20
12.8310466504
 30
0.0
 10
15.0507250107
 20
12.8292488904
 30
0.0
 10
15.0588948987
 20
12.8285651283
 30
0.0
 10
15.0674255483
 20
12.8290197145
 30
0.0
 10
15.0761078632
 20
12.8305854139
 30
0.0
 10
15.0847259285
 20
12.8332340287
 30
0.0
 10
15.0930704347
 20
12.836887831
 30
0.0
 10
15.1009296637
 20
12.8414682693
 30
0.0
 10
15.1081143394
 20
12.8468479069
 30
0.0
 10
15.1144446197
 20
12.8529110108
 30
0.0
 10
15.1213574413
 20
12.8614668745
 30
0.0
 10
15.1251340538
 20
12.8687805065
 30
0.0
 10
15.1266823491
 20
12.873790792
 30
0.0
  0
SPLINE
  5
52F
100
AcDbEntity
  8
0
100
AcDbSpline
 62
7
  6
CONTINUOUS
 70
0
 71
3
 72
11
 73
7
 74
0
 42
0.0000001
 43
0.0000001
 44
0.0000000001
 40
0.0
 40
0.0
 40
0.0
 40
0.0
 40
0.2390158302
 40
0.4829581175
 40
0.7359658642
 40
1.0
 40
1.0
 40
1.0
 40
1.0
 10
13.980940515
 20
12.4558500226
 30
0.0
 10
13.9819307808
 20
12.4538325474
 30
0.0
 10
13.9835092542
 20
12.4495339276
 30
0.0
 10
13.9845327447
 20
12.4426450879
 30
0.0
 10
13.9842016271
 20
12.4354576905
 30
0.0
 10
13.9831318409
 20
12.4306881933
 30
0.0
 10
13.982398846
 20
12.4283162211
 30
0.0
  0
SPLINE
  5
530
100
AcDbEntity
  8
0
100
AcDbSpline
 62
7
  6
CONTINUOUS
 70
0
 71
3
 72
12
 73
8
 74
0
 42
0.0000001
 43
0.0000001
 44
0.0000000001
 40
0.0
 40
0.0
 40
0.0
 40
0.0
 40
0.1165102415
 40
0.2339195536
 40
0.474625005
 40
0.7286675467
 40
1.0
 40
1.0
 40
1.0
 40
1.0
 10
14.1573646951
 20
12.6629507955
 30
0.0
 10
14.1564919607
 20
12.6601288483
 30
0.0
 10
14.1550460946
 20
12.6543627666
 30
0.0
 10
14.1533882934
 20
12.6424257289
 30
0.0
 10
14.1537199025
 20
12.6267902316
 30
0.0
 10
14.1578984118
 20
12.6077205501
 30
0.0
 10
14.1629228788
 20
12.5953148036
 30
0.0
 10
14.1659533464
 20
12.5891393599
 30
0.0
  0
SPLINE
  5
531
100
AcDbEntity
  8
0
100
AcDbSpline
 62
7
  6
CONTINUOUS
 70
0
 71
3
 72
11
 73
7
 74
0
 42
0.0000001
 43
0.0000001
 44
0.0000000001
 40
0.0
 40
0.0
 40
0.0
 40
0.0
 40
0.2390158302
 40
0.4829581175
 40
0.7359658642
 40
1.0
 40
1.0
 40
1.0
 40
1.0
 10
16.7671500219
 20
12.4558500226
 30
0.0
 10
16.7681402876
 20
12.4538325474
 30
0.0
 10
16.769718761
 20
12.4495339276
 30
0.0
 10
16.7707422516
 20
12.4426450879
 30
0.0
 10
16.7704111339
 20
12.4354576905
 30
0.0
 10
16.7693413477
 20
12.4306881933
 30
0.0
 10
16.7686083529
 20
12.4283162211
 30
0.0
  0
SPLINE
  5
532
100
AcDbEntity
  8
0
100
AcDbSpline
 62
7
  6
CONTINUOUS
 70
0
 71
3
 72
9
 73
5
 74
0
 42
0.0000001
 43
0.0000001
 44
0.0000000001
 40
0.0
 40
0.0
 40
0.0
 40
0.0
 40
0.509095779
 40
1.0
 40
1.0
 40
1.0
 40
1.0
 10
17.2467508043
 20
12.9838318212
 30
0.0
 10
17.2728087271
 20
12.9553158504
 30
0.0
 10
17.3223988879
 20
12.8978193978
 30
0.0
 10
17.3682978579
 20
12.8373217398
 30
0.0
 10
17.3897777848
 20
12.8068906062
 30
0.0
  0
SPLINE
  5
533
100
AcDbEntity
  8
0
100
AcDbSpline
 62
7
  6
CONTINUOUS
 70
0
 71
3
 72
18
 73
14
 74
0
 42
0.0000001
 43
0.0000001
 44
0.0000000001
 40
0.0
 40
0.0
 40
0.0
 40
0.0
 40
0.1513062549
 40
0.2943914942
 40
0.4289839394
 40
0.5553440136
 40
0.6741369331
 40
0.7310952678
 40
0.7866564178
 40
0.8410546614
 40
0.8945513461
 40
0.9474316344
 40
1.0
 40
1.0
 40
1.0
 40
1.0
 10
14.9770961477
 20
12.5612450128
 30
0.0
 10
14.955094035
 20
12.5578113749
 30
0.0
 10
14.9125348704
 20
12.5493298672
 30
0.0
 10
14.8519755365
 20
12.5311172439
 30
0.0
 10
14.7970770527
 20
12.5079256706
 30
0.0
 10
14.7484867396
 20
12.4800086926
 30
0.0
 10
14.713224477
 20
12.4526300835
 30
0.0
 10
14.6889738198
 20
12.428691079
 30
0.0
 10
14.6729527565
 20
12.4100285413
 30
0.0
 10
14.6588968916
 20
12.3904675992
 30
0.0
 10
14.6468476996
 20
12.3700645349
 30
0.0
 10
14.6368497226
 20
12.3488802911
 30
0.0
 10
14.6315625254
 20
12.3342604365
 30
0.0
 10
14.6292779776
 20
12.3268687015
 30
0.0
  0
SPLINE
  5
534
100
AcDbEntity
  8
0
100
AcDbSpline
 62
7
  6
CONTINUOUS
 70
0
 71
3
 72
20
 73
16
 74
0
 42
0.0000001
 43
0.0000001
 44
0.0000000001
 40
0.0
 40
0.0
 40
0.0
 40
0.0
 40
0.0488495459
 40
0.1001955627
 40
0.1540238194
 40
0.2102961326
 40
0.2689124342
 40
0.3297104262
 40
0.392486948
 40
0.457005877
 40
0.5901295324
 40
0.7267412828
 40
0.8642309579
 40
0.9325176835
 40
1.0
 40
1.0
 40
1.0
 40
1.0
 10
16.0366388916
 20
12.1054333172
 30
0.0
 10
16.0300004826
 20
12.1189609724
 30
0.0
 10
16.0149335733
 20
12.1460129493
 30
0.0
 10
15.9880903322
 20
12.1852831761
 30
0.0
 10
15.9566329984
 20
12.2239609557
 30
0.0
 10
15.9208015137
 20
12.2617686866
 30
0.0
 10
15.8808495039
 20
12.2984464689
 30
0.0
 10
15.8370605053
 20
12.3337321115
 30
0.0
 10
15.7897489685
 20
12.3673781885
 30
0.0
 10
15.7217187673
 20
12.4101657582
 30
0.0
 10
15.6300828933
 20
12.4578790664
 30
0.0
 10
15.5132632922
 20
12.5045700297
 30
0.0
 10
15.4116882142
 20
12.5341739511
 30
0.0
 10
15.3292240062
 20
12.5517616732
 30
0.0
 10
15.2878587093
 20
12.5584533507
 30
0.0
 10
15.2672303608
 20
12.5612450128
 30
0.0
  0
SPLINE
  5
535
100
AcDbEntity
  8
0
100
AcDbSpline
 62
7
  6
CONTINUOUS
 70
0
 71
3
 72
9
 73
5
 74
0
 42
0.0000001
 43
0.0000001
 44
0.0000000001
 40
0.0
 40
0.0
 40
0.0
 40
0.0
 40
0.4911790649
 40
1.0
 40
1.0
 40
1.0
 40
1.0
 10
14.2921079611
 20
13.9078768075
 30
0.0
 10
14.3350283115
 20
13.9179710817
 30
0.0
 10
14.4231094491
 20
13.935630931
 30
0.0
 10
14.5120843679
 20
13.9479401808
 30
0.0
 10
14.5574847566
 20
13.952941577
 30
0.0
  0
SPLINE
  5
536
100
AcDbEntity
  8
0
100
AcDbSpline
 62
7
  6
CONTINUOUS
 70
0
 71
3
 72
11
 73
7
 74
0
 42
0.0000001
 43
0.0000001
 44
0.0000000001
 40
0.0
 40
0.0
 40
0.0
 40
0.0
 40
0.2318284977
 40
0.471950929
 40
0.7267798637
 40
1.0
 40
1.0
 40
1.0
 40
1.0
 10
17.1192696047
 20
12.4749633625
 30
0.0
 10
17.1195494575
 20
12.4758689981
 30
0.0
 10
17.1203379128
 20
12.4776524682
 30
0.0
 10
17.1221347919
 20
12.4800470573
 30
0.0
 10
17.1244992794
 20
12.482141879
 30
0.0
 10
17.1263489831
 20
12.4832768392
 30
0.0
 10
17.1273416672
 20
12.4837892409
 30
0.0
  0
SPLINE
  5
537
100
AcDbEntity
  8
0
100
AcDbSpline
 62
7
  6
CONTINUOUS
 70
0
 71
3
 72
12
 73
8
 74
0
 42
0.0000001
 43
0.0000001
 44
0.0000000001
 40
0.0
 40
0.0
 40
0.0
 40
0.0
 40
0.2839292916
 40
0.5515477869
 40
0.6757950765
 40
0.7923349619
 40
1.0
 40
1.0
 40
1.0
 40
1.0
 10
13.6471932059
 20
12.4837892409
 30
0.0
 10
13.6503546552
 20
12.4827060979
 30
0.0
 10
13.6563462552
 20
12.4801309211
 30
0.0
 10
13.6630859996
 20
12.4758236269
 30
0.0
 10
13.6676040341
 20
12.4718804977
 30
0.0
 10
13.6711776677
 20
12.4679929404
 30
0.0
 10
13.6732507308
 20
12.4647017581
 30
0.0
 10
13.6741539621
 20
12.4624305514
 30
0.0
  0
SPLINE
  5
538
100
AcDbEntity
  8
0
100
AcDbSpline
 62
7
  6
CONTINUOUS
 70
0
 71
3
 72
11
 73
7
 74
0
 42
0.0000001
 43
0.0000001
 44
0.0000000001
 40
0.0
 40
0.0
 40
0.0
 40
0.0
 40
0.2918502781
 40
0.5556453288
 40
0.790071295
 40
1.0
 40
1.0
 40
1.0
 40
1.0
 10
13.6683195933
 20
13.0583167833
 30
0.0
 10
13.670042541
 20
13.0569902131
 30
0.0
 10
13.6731559581
 20
13.0542324401
 30
0.0
 10
13.6768550595
 20
13.0496079691
 30
0.0
 10
13.6792226073
 20
13.0448396955
 30
0.0
 10
13.6798419245
 20
13.0415239235
 30
0.0
 10
13.6798568156
 20
13.0399598893
 30
0.0
  0
SPLINE
  5
539
100
AcDbEntity
  8
0
100
AcDbSpline
 62
7
  6
CONTINUOUS
 70
0
 71
3
 72
9
 73
5
 74
0
 42
0.0000001
 43
0.0000001
 44
0.0000000001
 40
0.0
 40
0.0
 40
0.0
 40
0.0
 40
0.2539671774
 40
1.0
 40
1.0
 40
1.0
 40
1.0
 10
13.6798568156
 20
13.0399598893
 30
0.0
 10
13.679859978
 20
13.0396277344
 30
0.0
 10
13.6798242639
 20
13.0383199257
 30
0.0
 10
13.6795878693
 20
13.0370170386
 30
0.0
 10
13.6793002478
 20
13.0360846381
 30
0.0
  0
SPLINE
  5
53A
100
AcDbEntity
  8
0
100
AcDbSpline
 62
7
  6
CONTINUOUS
 70
0
 71
3
 72
10
 73
6
 74
0
 42
0.0000001
 43
0.0000001
 44
0.0000000001
 40
0.0
 40
0.0
 40
0.0
 40
0.0
 40
0.5225508171
 40
0.7646016757
 40
1.0
 40
1.0
 40
1.0
 40
1.0
 10
14.1624493469
 20
13.4536057527
 30
0.0
 10
14.1632251115
 20
13.4518995448
 30
0.0
 10
14.1640328358
 20
13.4492073091
 30
0.0
 10
14.1640549721
 20
13.4456019768
 30
0.0
 10
14.1637186318
 20
13.4439078724
 30
0.0
 10
14.1634694402
 20
13.4431011548
 30
0.0
  0
SPLINE
  5
53B
100
AcDbEntity
  8
0
100
AcDbSpline
 62
7
  6
CONTINUOUS
 70
0
 71
3
 72
11
 73
7
 74
0
 42
0.0000001
 43
0.0000001
 44
0.0000000001
 40
0.0
 40
0.0
 40
0.0
 40
0.0
 40
0.2390382075
 40
0.4935067769
 40
0.751348588
 40
1.0
 40
1.0
 40
1.0
 40
1.0
 10
16.8010501725
 20
13.1505789783
 30
0.0
 10
16.80347687
 20
13.148600414
 30
0.0
 10
16.8089149158
 20
13.1450280186
 30
0.0
 10
16.8179480921
 20
13.1410283371
 30
0.0
 10
16.8276052094
 20
13.1384148825
 30
0.0
 10
16.8342373998
 20
13.1376957237
 30
0.0
 10
16.8374939537
 20
13.1376426694
 30
0.0
  0
SPLINE
  5
53C
100
AcDbEntity
  8
0
100
AcDbSpline
 62
7
  6
CONTINUOUS
 70
0
 71
3
 72
9
 73
5
 74
0
 42
0.0000001
 43
0.0000001
 44
0.0000000001
 40
0.0
 40
0.0
 40
0.0
 40
0.0
 40
0.254296019
 40
1.0
 40
1.0
 40
1.0
 40
1.0
 10
16.6307398153
 20
13.2770900988
 30
0.0
 10
16.6456274309
 20
13.2669963182
 30
0.0
 10
16.7037530962
 20
13.2266907556
 30
0.0
 10
16.760170773
 20
13.1839092646
 30
0.0
 10
16.8010501725
 20
13.1505789783
 30
0.0
  0
SPLINE
  5
53D
100
AcDbEntity
  8
0
100
AcDbSpline
 62
7
  6
CONTINUOUS
 70
0
 71
3
 72
10
 73
6
 74
0
 42
0.0000001
 43
0.0000001
 44
0.0000000001
 40
0.0
 40
0.0
 40
0.0
 40
0.0
 40
0.462947541
 40
0.7232453357
 40
1.0
 40
1.0
 40
1.0
 40
1.0
 10
16.6186421693
 20
13.2899874875
 30
0.0
 10
16.6198550138
 20
13.2875159704
 30
0.0
 10
16.6224736991
 20
13.2840006003
 30
0.0
 10
16.6268159447
 20
13.2799357314
 30
0.0
 10
16.6293775831
 20
13.2780136901
 30
0.0
 10
16.6307398153
 20
13.2770900988
 30
0.0
  0
SPLINE
  5
53E
100
AcDbEntity
  8
0
100
AcDbSpline
 62
7
  6
CONTINUOUS
 70
0
 71
3
 72
9
 73
5
 74
0
 42
0.0000001
 43
0.0000001
 44
0.0000000001
 40
0.0
 40
0.0
 40
0.0
 40
0.0
 40
0.2385816658
 40
1.0
 40
1.0
 40
1.0
 40
1.0
 10
16.6169135994
 20
13.2955237968
 30
0.0
 10
16.6169725166
 20
13.2950651101
 30
0.0
 10
16.6173096499
 20
13.2931542498
 30
0.0
 10
16.6179919739
 20
13.2913124465
 30
0.0
 10
16.6186421693
 20
13.2899874875
 30
0.0
  0
SPLINE
  5
53F
100
AcDbEntity
  8
0
100
AcDbSpline
 62
7
  6
CONTINUOUS
 70
0
 71
3
 72
9
 73
5
 74
0
 42
0.0000001
 43
0.0000001
 44
0.0000000001
 40
0.0
 40
0.0
 40
0.0
 40
0.0
 40
0.5058793114
 40
1.0
 40
1.0
 40
1.0
 40
1.0
 10
16.224636942
 20
13.6796244902
 30
0.0
 10
16.3016198356
 20
13.6470090857
 30
0.0
 10
16.4516299639
 20
13.5772849937
 30
0.0
 10
16.5962643139
 20
13.4969594988
 30
0.0
 10
16.6660729735
 20
13.4545837745
 30
0.0
  0
SPLINE
  5
540
100
AcDbEntity
  8
0
100
AcDbSpline
 62
7
  6
CONTINUOUS
 70
0
 71
3
 72
11
 73
7
 74
0
 42
0.0000001
 43
0.0000001
 44
0.0000000001
 40
0.0
 40
0.0
 40
0.0
 40
0.0
 40
0.2744373138
 40
0.5399968966
 40
0.7846485394
 40
1.0
 40
1.0
 40
1.0
 40
1.0
 10
15.9877271652
 20
13.6030848304
 30
0.0
 10
15.9908996354
 20
13.6019191285
 30
0.0
 10
15.9973296753
 20
13.6001046645
 30
0.0
 10
16.0069667265
 20
13.5989492212
 30
0.0
 10
16.0159360691
 20
13.5994319166
 30
0.0
 10
16.0214695672
 20
13.6009504674
 30
0.0
 10
16.0238888896
 20
13.6020371757
 30
0.0
  0
SPLINE
  5
541
100
AcDbEntity
  8
0
100
AcDbSpline
 62
7
  6
CONTINUOUS
 70
0
 71
3
 72
11
 73
7
 74
0
 42
0.0000001
 43
0.0000001
 44
0.0000000001
 40
0.0
 40
0.0
 40
0.0
 40
0.0
 40
0.2121729362
 40
0.4552060454
 40
0.7217019501
 40
1.0
 40
1.0
 40
1.0
 40
1.0
 10
15.7352924475
 20
13.6964370946
 30
0.0
 10
15.7364900402
 20
13.6941636982
 30
0.0
 10
15.7398766158
 20
13.6897120989
 30
0.0
 10
15.7466335841
 20
13.6840904032
 30
0.0
 10
15.7549772603
 20
13.6793716253
 30
0.0
 10
15.7611889323
 20
13.6770581852
 30
0.0
 10
15.7644278321
 20
13.6761260599
 30
0.0
  0
SPLINE
  5
542
100
AcDbEntity
  8
0
100
AcDbSpline
 62
7
  6
CONTINUOUS
 70
0
 71
3
 72
9
 73
5
 74
0
 42
0.0000001
 43
0.0000001
 44
0.0000000001
 40
0.0
 40
0.0
 40
0.0
 40
0.0
 40
0.4952571996
 40
1.0
 40
1.0
 40
1.0
 40
1.0
 10
15.1339107612
 20
13.955754155
 30
0.0
 10
15.2165417737
 20
13.9482871915
 30
0.0
 10
15.3828683121
 20
13.9269391011
 30
0.0
 10
15.5472571787
 20
13.8939069835
 30
0.0
 10
15.629539876
 20
13.8744286449
 30
0.0
  0
SPLINE
  5
543
100
AcDbEntity
  8
0
100
AcDbSpline
 62
7
  6
CONTINUOUS
 70
0
 71
3
 72
14
 73
10
 74
0
 42
0.0000001
 43
0.0000001
 44
0.0000000001
 40
0.0
 40
0.0
 40
0.0
 40
0.0
 40
0.3023335095
 40
0.440883969
 40
0.5697251148
 40
0.6888621135
 40
0.7990839302
 40
0.9020070435
 40
1.0
 40
1.0
 40
1.0
 40
1.0
 10
15.0460311958
 20
13.7954484132
 30
0.0
 10
15.0490640257
 20
13.7953225084
 30
0.0
 10
15.0535245553
 20
13.7955028645
 30
0.0
 10
15.0591355597
 20
13.7966662999
 30
0.0
 10
15.0628215914
 20
13.7979171559
 30
0.0
 10
15.0660398339
 20
13.7995535389
 30
0.0
 10
15.0687348195
 20
13.8015518784
 30
0.0
 10
15.0708443866
 20
13.8038851715
 30
0.0
 10
15.0718453985
 20
13.8056609432
 30
0.0
 10
15.0722213586
 20
13.8065701308
 30
0.0
  0
SPLINE
  5
544
100
AcDbEntity
  8
0
100
AcDbSpline
 62
7
  6
CONTINUOUS
 70
0
 71
3
 72
11
 73
7
 74
0
 42
0.0000001
 43
0.0000001
 44
0.0000000001
 40
0.0
 40
0.0
 40
0.0
 40
0.0
 40
0.2448110949
 40
0.5013363713
 40
0.757167495
 40
1.0
 40
1.0
 40
1.0
 40
1.0
 10
14.7924701074
 20
13.8065701308
 30
0.0
 10
14.7950804007
 20
13.804698912
 30
0.0
 10
14.8008009005
 20
13.8013756906
 30
0.0
 10
14.8101060954
 20
13.7977949451
 30
0.0
 10
14.8198210306
 20
13.7956704651
 30
0.0
 10
14.8263929879
 20
13.7953106715
 30
0.0
 10
14.8295757628
 20
13.7954484132
 30
0.0
  0
SPLINE
  5
545
100
AcDbEntity
  8
0
100
AcDbSpline
 62
7
  6
CONTINUOUS
 70
0
 71
3
 72
12
 73
8
 74
0
 42
0.0000001
 43
0.0000001
 44
0.0000000001
 40
0.0
 40
0.0
 40
0.0
 40
0.0
 40
0.2801825856
 40
0.5470357865
 40
0.6718621462
 40
0.7894702216
 40
1.0
 40
1.0
 40
1.0
 40
1.0
 10
14.0415429687
 20
13.6020371757
 30
0.0
 10
14.0447531221
 20
13.6010364241
 30
0.0
 10
14.0511801567
 20
13.5995582243
 30
0.0
 10
14.0592671491
 20
13.5990170164
 30
0.0
 10
14.065373508
 20
13.5994788399
 30
0.0
 10
14.0707241521
 20
13.6004516711
 30
0.0
 10
14.0744858419
 20
13.6018258903
 30
0.0
 10
14.0766764645
 20
13.6030848304
 30
0.0
  0
SPLINE
  5
546
100
AcDbEntity
  8
0
100
AcDbSpline
 62
7
  6
CONTINUOUS
 70
0
 71
3
 72
15
 73
11
 74
0
 42
0.0000001
 43
0.0000001
 44
0.0000000001
 40
0.0
 40
0.0
 40
0.0
 40
0.0
 40
0.1182162081
 40
0.2371340206
 40
0.3574329
 40
0.4797472429
 40
0.6046641005
 40
0.7327170617
 40
0.8643758856
 40
1.0
 40
1.0
 40
1.0
 40
1.0
 10
13.791383674
 20
12.8754168589
 30
0.0
 10
13.7861777655
 20
12.8585695646
 30
0.0
 10
13.7773236775
 20
12.8242606104
 30
0.0
 10
13.7688890084
 20
12.7715424487
 30
0.0
 10
13.7653047538
 20
12.717659776
 30
0.0
 10
13.7665689533
 20
12.6627826302
 30
0.0
 10
13.772683772
 20
12.6070730455
 30
0.0
 10
13.7836191068
 20
12.5506900007
 30
0.0
 10
13.7993430301
 20
12.4937997743
 30
0.0
 10
13.812778643
 20
12.4562213799
 30
0.0
 10
13.8202335623
 20
12.4374152119
 30
0.0
  0
SPLINE
  5
547
100
AcDbEntity
  8
0
100
AcDbSpline
 62
7
  6
CONTINUOUS
 70
0
 71
3
 72
28
 73
24
 74
0
 42
0.0000001
 43
0.0000001
 44
0.0000000001
 40
0.0
 40
0.0
 40
0.0
 40
0.0
 40
0.0236662588
 40
0.0474090084
 40
0.0713035122
 40
0.0954223034
 40
0.1198348635
 40
0.1446066039
 40
0.1954383266
 40
0.2216251461
 40
0.248377107
 40
0.2757303545
 40
0.3037159563
 40
0.361661861
 40
0.4223624982
 40
0.4858670538
 40
0.5521523574
 40
0.6211306376
 40
0.6926620125
 40
0.7665574527
 40
0.8425906703
 40
0.9205007787
 40
1.0
 40
1.0
 40
1.0
 40
1.0
 10
13.8391546288
 20
12.8606545173
 30
0.0
 10
13.8428791954
 20
12.8727079521
 30
0.0
 10
13.8511819773
 20
12.8966029142
 30
0.0
 10
13.8661278805
 20
12.9315821507
 30
0.0
 10
13.8835476144
 20
12.9656701179
 30
0.0
 10
13.9034085118
 20
12.9988108935
 30
0.0
 10
13.9256824087
 20
13.0309520949
 30
0.0
 10
13.9588251647
 20
13.0727516079
 30
0.0
 10
13.9964988312
 20
13.1120204536
 30
0.0
 10
14.0380998074
 20
13.1485103436
 30
0.0
 10
14.071809188
 20
13.1749221762
 30
0.0
 10
14.1076542888
 20
13.2000578182
 30
0.0
 10
14.158812836
 20
13.2321864565
 30
0.0
 10
14.2279894543
 20
13.2688440863
 30
0.0
 10
14.3175569931
 20
13.306623486
 30
0.0
 10
14.4140807867
 20
13.3384831256
 30
0.0
 10
14.5169533103
 20
13.3642264284
 30
0.0
 10
14.6255334273
 20
13.3837087764
 30
0.0
 10
14.7391441761
 20
13.3968025744
 30
0.0
 10
14.8570745167
 20
13.4034377146
 30
0.0
 10
14.9785872979
 20
13.4035681339
 30
0.0
 10
15.1029170413
 20
13.3971962381
 30
0.0
 10
15.1864373891
 20
13.388714785
 30
0.0
 10
15.228484715
 20
13.3834259289
 30
0.0
  0
SPLINE
  5
548
100
AcDbEntity
  8
0
100
AcDbSpline
 62
7
  6
CONTINUOUS
 70
0
 71
3
 72
23
 73
19
 74
0
 42
0.0000001
 43
0.0000001
 44
0.0000000001
 40
0.0
 40
0.0
 40
0.0
 40
0.0
 40
0.0667643194
 40
0.1343387939
 40
0.2024156526
 40
0.2706794751
 40
0.3388128845
 40
0.4064998039
 40
0.473430693
 40
0.5393066067
 40
0.6038437018
 40
0.6667790198
 40
0.7278738549
 40
0.7869232521
 40
0.8437570754
 40
0.8982475731
 40
0.9503332412
 40
1.0
 40
1.0
 40
1.0
 40
1.0
 10
15.228484715
 20
13.3834259289
 30
0.0
 10
15.273243033
 20
13.3777960749
 30
0.0
 10
15.3630288458
 20
13.364169465
 30
0.0
 10
15.4971287053
 20
13.3370325611
 30
0.0
 10
15.630751671
 20
13.3032232169
 30
0.0
 10
15.7629722177
 20
13.2629773929
 30
0.0
 10
15.8928807734
 20
13.2165750036
 30
0.0
 10
16.0195791682
 20
13.1643301377
 30
0.0
 10
16.1421965536
 20
13.1066091781
 30
0.0
 10
16.2598865272
 20
13.0438062071
 30
0.0
 10
16.3718379053
 20
12.9763526914
 30
0.0
 10
16.4772828915
 20
12.90471708
 30
0.0
 10
16.5754929008
 20
12.8293843212
 30
0.0
 10
16.6657957369
 20
12.7508734166
 30
0.0
 10
16.747569069
 20
12.6697208734
 30
0.0
 10
16.8202549889
 20
12.5864703616
 30
0.0
 10
16.8833474875
 20
12.5016919203
 30
0.0
 10
16.9195788812
 20
12.4431311481
 30
0.0
 10
16.935838943
 20
12.4137748868
 30
0.0
  0
SPLINE
  5
549
100
AcDbEntity
  8
0
100
AcDbSpline
 62
7
  6
CONTINUOUS
 70
0
 71
3
 72
11
 73
7
 74
0
 42
0.0000001
 43
0.0000001
 44
0.0000000001
 40
0.0
 40
0.0
 40
0.0
 40
0.0
 40
0.233658935
 40
0.4744440454
 40
0.7285748979
 40
1.0
 40
1.0
 40
1.0
 40
1.0
 10
14.2045306407
 20
12.6462300891
 30
0.0
 10
14.2031308852
 20
12.641704137
 30
0.0
 10
14.2012943042
 20
12.6321718446
 30
0.0
 10
14.2016155593
 20
12.6173053594
 30
0.0
 10
14.2049567978
 20
12.6020449598
 30
0.0
 10
14.2089768459
 20
12.5921214186
 30
0.0
 10
14.2114012303
 20
12.5871810426
 30
0.0
  0
SPLINE
  5
54A
100
AcDbEntity
  8
0
100
AcDbSpline
 62
7
  6
CONTINUOUS
 70
0
 71
3
 72
11
 73
7
 74
0
 42
0.0000001
 43
0.0000001
 44
0.0000000001
 40
0.0
 40
0.0
 40
0.0
 40
0.0
 40
0.2640329586
 40
0.5170354117
 40
0.7609789182
 40
1.0
 40
1.0
 40
1.0
 40
1.0
 10
15.1266823491
 20
12.873790792
 30
0.0
 10
15.1273567053
 20
12.8759730094
 30
0.0
 10
15.1283410591
 20
12.8803608694
 30
0.0
 10
15.1286458711
 20
12.8869732848
 30
0.0
 10
15.1277040311
 20
12.8933110339
 30
0.0
 10
15.1262519635
 20
12.8972658623
 30
0.0
 10
15.1253410418
 20
12.8991220637
 30
0.0
  0
LINE
  5
54B
100
AcDbEntity
  8
0
100
AcDbLine
 62
7
  6
CONTINUOUS
 10
17.3037164647
 20
12.5748300305
 11
17.3268405411
 21
12.603225611
  0
SPLINE
  5
54C
100
AcDbEntity
  8
0
100
AcDbSpline
 62
7
  6
CONTINUOUS
 70
0
 71
3
 72
11
 73
7
 74
0
 42
0.0000001
 43
0.0000001
 44
0.0000000001
 40
0.0
 40
0.0
 40
0.0
 40
0.0
 40
0.2400362803
 40
0.4859827367
 40
0.7389858133
 40
1.0
 40
1.0
 40
1.0
 40
1.0
 10
13.518736715
 20
13.4498525952
 30
0.0
 10
13.5329867997
 20
13.4708757789
 30
0.0
 10
13.5639423358
 20
13.5120493746
 30
0.0
 10
13.6165886955
 20
13.5699974785
 30
0.0
 10
13.675751651
 20
13.624594704
 30
0.0
 10
13.7186883383
 20
13.6580875295
 30
0.0
 10
13.7410963951
 20
13.674230358
 30
0.0
  0
LINE
  5
54D
100
AcDbEntity
  8
0
100
AcDbLine
 62
7
  6
CONTINUOUS
 10
13.3617959859
 20
12.603225611
 11
13.3814657473
 21
12.5748300305
  0
SPLINE
  5
54E
100
AcDbEntity
  8
0
100
AcDbSpline
 62
7
  6
CONTINUOUS
 70
0
 71
3
 72
11
 73
7
 74
0
 42
0.0000001
 43
0.0000001
 44
0.0000000001
 40
0.0
 40
0.0
 40
0.0
 40
0.0
 40
0.2415944813
 40
0.487924619
 40
0.7403376815
 40
1.0
 40
1.0
 40
1.0
 40
1.0
 10
13.3330766639
 20
12.9097313338
 30
0.0
 10
13.3305941101
 20
12.8849309553
 30
0.0
 10
13.3281080126
 20
12.8345584371
 30
0.0
 10
13.3317494779
 20
12.7581578656
 30
0.0
 10
13.3427097518
 20
12.6805828665
 30
0.0
 10
13.3546783963
 20
12.6290510499
 30
0.0
 10
13.3617959855
 20
12.6032256097
 30
0.0
  0
LINE
  5
54F
100
AcDbEntity
  8
0
100
AcDbLine
 62
7
  6
CONTINUOUS
 10
13.3960139076
 20
13.1133963292
 11
13.42692271
 21
13.1333910444
  0
LINE
  5
550
100
AcDbEntity
  8
0
100
AcDbLine
 62
7
  6
CONTINUOUS
 10
14.0813724551
 20
13.6648184778
 11
14.083010207
 21
13.6283233014
  0
SPLINE
  5
551
100
AcDbEntity
  8
0
100
AcDbSpline
 62
7
  6
CONTINUOUS
 70
0
 71
3
 72
45
 73
41
 74
0
 42
0.0000001
 43
0.0000001
 44
0.0000000001
 40
0.0
 40
0.0
 40
0.0
 40
0.0
 40
0.0107123597
 40
0.0214621888
 40
0.0322862854
 40
0.0432200407
 40
0.0542972606
 40
0.0655495032
 40
0.0886800608
 40
0.1006187559
 40
0.1128300503
 40
0.1253306749
 40
0.1381347182
 40
0.1512527645
 40
0.1646925767
 40
0.1925507478
 40
0.2217288265
 40
0.2522047486
 40
0.2839248142
 40
0.3168099532
 40
0.3507589662
 40
0.3856516127
 40
0.4213530945
 40
0.4577154972
 40
0.4945816479
 40
0.5317870579
 40
0.5691624812
 40
0.6065365596
 40
0.6437377565
 40
0.6805971677
 40
0.7169501617
 40
0.7526398604
 40
0.7875186405
 40
0.8214512567
 40
0.854318735
 40
0.8860198527
 40
0.9164745613
 40
0.945631344
 40
0.9734740608
 40
1.0
 40
1.0
 40
1.0
 40
1.0
 10
13.7974352802
 20
12.8950000477
 30
0.0
 10
13.8014269166
 20
12.9079177749
 30
0.0
 10
13.8103629289
 20
12.9335189939
 30
0.0
 10
13.8265445302
 20
12.9709541555
 30
0.0
 10
13.8454820842
 20
13.0073902936
 30
0.0
 10
13.8671376418
 20
13.0427625599
 30
0.0
 10
13.8914786356
 20
13.077009559
 30
0.0
 10
13.9277761096
 20
13.1214886409
 30
0.0
 10
13.9690929641
 20
13.1631049568
 30
0.0
 10
14.01472587
 20
13.2015925111
 30
0.0
 10
14.0517410395
 20
13.229378758
 30
0.0
 10
14.0911118283
 20
13.2557227475
 30
0.0
 10
14.1327756975
 20
13.2805791076
 30
0.0
 10
14.176658985
 20
13.303909142
 30
0.0
 10
14.2387657181
 20
13.3332794148
 30
0.0
 10
14.3216832526
 20
13.3658084615
 30
0.0
 10
14.427538397
 20
13.3977103341
 30
0.0
 10
14.5402188293
 20
13.4227279991
 30
0.0
 10
14.658956086
 20
13.4407044367
 30
0.0
 10
14.7829507717
 20
13.4515215782
 30
0.0
 10
14.9113634081
 20
13.4551047547
 30
0.0
 10
15.0433242137
 20
13.4514385446
 30
0.0
 10
15.1779373522
 20
13.4405410239
 30
0.0
 10
15.3142888795
 20
13.4224913031
 30
0.0
 10
15.4514519723
 20
13.3974123664
 30
0.0
 10
15.5884925818
 20
13.365470207
 30
0.0
 10
15.7244798867
 20
13.3268891121
 30
0.0
 10
15.8584867535
 20
13.2819255101
 30
0.0
 10
15.989602149
 20
13.2308881871
 30
0.0
 10
16.1169346973
 20
13.1741261423
 30
0.0
 10
16.2396159083
 20
13.1120199196
 30
0.0
 10
16.35681483
 20
13.0449981993
 30
0.0
 10
16.4677323891
 20
12.9735110005
 30
0.0
 10
16.5716165472
 20
12.8980443746
 30
0.0
 10
16.6677648411
 20
12.819110579
 30
0.0
 10
16.7555189378
 20
12.737235222
 30
0.0
 10
16.8342915832
 20
12.6529780136
 30
0.0
 10
16.9035491334
 20
12.5668856912
 30
0.0
 10
16.9627977618
 20
12.479547198
 30
0.0
 10
16.9961601352
 20
12.4194446348
 30
0.0
 10
17.0109091406
 20
12.3893893219
 30
0.0
  0
SPLINE
  5
552
100
AcDbEntity
  8
0
100
AcDbSpline
 62
7
  6
CONTINUOUS
 70
0
 71
3
 72
11
 73
7
 74
0
 42
0.0000001
 43
0.0000001
 44
0.0000000001
 40
0.0
 40
0.0
 40
0.0
 40
0.0
 40
0.242832505
 40
0.4986636287
 40
0.7551889051
 40
1.0
 40
1.0
 40
1.0
 40
1.0
 10
14.7545352026
 20
13.5526170712
 30
0.0
 10
14.7513524276
 20
13.5524793295
 30
0.0
 10
14.7447804703
 20
13.5528391231
 30
0.0
 10
14.7350655351
 20
13.5549636031
 30
0.0
 10
14.7257603402
 20
13.5585443486
 30
0.0
 10
14.7200398404
 20
13.56186757
 30
0.0
 10
14.7174295472
 20
13.5637387888
 30
0.0
  0
SPLINE
  5
553
100
AcDbEntity
  8
0
100
AcDbSpline
 62
7
  6
CONTINUOUS
 70
0
 71
3
 72
14
 73
10
 74
0
 42
0.0000001
 43
0.0000001
 44
0.0000000001
 40
0.0
 40
0.0
 40
0.0
 40
0.0
 40
0.0979929565
 40
0.2009160698
 40
0.3111378865
 40
0.4302748852
 40
0.559116031
 40
0.6976664905
 40
1.0
 40
1.0
 40
1.0
 40
1.0
 10
14.9971807984
 20
13.5637387888
 30
0.0
 10
14.9968048383
 20
13.5628296012
 30
0.0
 10
14.9958038264
 20
13.5610538295
 30
0.0
 10
14.9936942593
 20
13.5587205364
 30
0.0
 10
14.9909992736
 20
13.5567221969
 30
0.0
 10
14.9877810311
 20
13.5550858139
 30
0.0
 10
14.9840949994
 20
13.553834958
 30
0.0
 10
14.9784839951
 20
13.5526715225
 30
0.0
 10
14.9740234655
 20
13.5524911665
 30
0.0
 10
14.9709906356
 20
13.5526170712
 30
0.0
  0
SPLINE
  5
554
100
AcDbEntity
  8
0
100
AcDbSpline
 62
7
  6
CONTINUOUS
 70
0
 71
3
 72
9
 73
5
 74
0
 42
0.0000001
 43
0.0000001
 44
0.0000000001
 40
0.0
 40
0.0
 40
0.0
 40
0.0
 40
0.5048028856
 40
1.0
 40
1.0
 40
1.0
 40
1.0
 10
15.568213187
 20
13.6283233026
 30
0.0
 10
15.4836903694
 20
13.6486721178
 30
0.0
 10
15.3147836397
 20
13.6831214204
 30
0.0
 10
15.1438075939
 20
13.7052474331
 30
0.0
 10
15.0588702009
 20
13.712922813
 30
0.0
  0
SPLINE
  5
555
100
AcDbEntity
  8
0
100
AcDbSpline
 62
7
  6
CONTINUOUS
 70
0
 71
3
 72
12
 73
8
 74
0
 42
0.0000001
 43
0.0000001
 44
0.0000000001
 40
0.0
 40
0.0
 40
0.0
 40
0.0
 40
0.119766568
 40
0.2403458485
 40
0.4852805982
 40
0.7377004261
 40
1.0
 40
1.0
 40
1.0
 40
1.0
 10
13.8406692887
 20
12.8603792474
 30
0.0
 10
13.8378049286
 20
12.8478603105
 30
0.0
 10
13.8329390448
 20
12.8225254074
 30
0.0
 10
13.8266971257
 20
12.7708318451
 30
0.0
 10
13.8255657841
 20
12.7043605287
 30
0.0
 10
13.8348062387
 20
12.6232274728
 30
0.0
 10
13.8476784187
 20
12.5694048484
 30
0.0
 10
13.8557057772
 20
12.5424485985
 30
0.0
  0
SPLINE
  5
556
100
AcDbEntity
  8
0
100
AcDbSpline
 62
7
  6
CONTINUOUS
 70
0
 71
3
 72
15
 73
11
 74
0
 42
0.0000001
 43
0.0000001
 44
0.0000000001
 40
0.0
 40
0.0
 40
0.0
 40
0.0
 40
0.0996723504
 40
0.2028875473
 40
0.3126116972
 40
0.4309172305
 40
0.5588660975
 40
0.6967465373
 40
0.8442129096
 40
1.0
 40
1.0
 40
1.0
 40
1.0
 10
14.2051358065
 20
12.6481884063
 30
0.0
 10
14.2066583323
 20
12.6531113225
 30
0.0
 10
14.2109687489
 20
12.6627982634
 30
0.0
 10
14.2208061834
 20
12.6757756409
 30
0.0
 10
14.2338026947
 20
12.6870907908
 30
0.0
 10
14.2496795798
 20
12.6965597539
 30
0.0
 10
14.268134888
 20
12.7040674848
 30
0.0
 10
14.288854168
 20
12.7094990439
 30
0.0
 10
14.311466299
 20
12.7127663516
 30
0.0
 10
14.3271561571
 20
12.7134613535
 30
0.0
 10
14.3352102216
 20
12.7134613535
 30
0.0
  0
SPLINE
  5
557
100
AcDbEntity
  8
0
100
AcDbSpline
 62
7
  6
CONTINUOUS
 70
0
 71
3
 72
11
 73
7
 74
0
 42
0.0000001
 43
0.0000001
 44
0.0000000001
 40
0.0
 40
0.0
 40
0.0
 40
0.0
 40
0.2782980499
 40
0.5447939546
 40
0.7878270638
 40
1.0
 40
1.0
 40
1.0
 40
1.0
 10
15.6893872718
 20
13.4332947179
 30
0.0
 10
15.686148372
 20
13.4342268432
 30
0.0
 10
15.6799367
 20
13.4365402833
 30
0.0
 10
15.6715930239
 20
13.4412590613
 30
0.0
 10
15.6648360556
 20
13.4468807569
 30
0.0
 10
15.6614494799
 20
13.4513323562
 30
0.0
 10
15.6602518873
 20
13.4536057527
 30
0.0
  0
SPLINE
  5
558
100
AcDbEntity
  8
0
100
AcDbSpline
 62
7
  6
CONTINUOUS
 70
0
 71
3
 72
11
 73
7
 74
0
 42
0.0000001
 43
0.0000001
 44
0.0000000001
 40
0.0
 40
0.0
 40
0.0
 40
0.0
 40
0.2153514606
 40
0.4600031034
 40
0.7255626862
 40
1.0
 40
1.0
 40
1.0
 40
1.0
 10
15.9488483293
 20
13.3592058337
 30
0.0
 10
15.946429007
 20
13.3581191254
 30
0.0
 10
15.9408955088
 20
13.3566005746
 30
0.0
 10
15.9319261662
 20
13.3561178792
 30
0.0
 10
15.922289115
 20
13.3572733225
 30
0.0
 10
15.9158590752
 20
13.3590877865
 30
0.0
 10
15.9126866049
 20
13.3602534885
 30
0.0
  0
SPLINE
  5
559
100
AcDbEntity
  8
0
100
AcDbSpline
 62
7
  6
CONTINUOUS
 70
0
 71
3
 72
9
 73
5
 74
0
 42
0.0000001
 43
0.0000001
 44
0.0000000001
 40
0.0
 40
0.0
 40
0.0
 40
0.0
 40
0.4940176036
 40
1.0
 40
1.0
 40
1.0
 40
1.0
 10
16.5910324132
 20
13.2117524325
 30
0.0
 10
16.5190311822
 20
13.2554591683
 30
0.0
 10
16.3697135819
 20
13.3381500731
 30
0.0
 10
16.2147144727
 20
13.4095714252
 30
0.0
 10
16.1351366492
 20
13.4428825933
 30
0.0
  0
SPLINE
  5
55A
100
AcDbEntity
  8
0
100
AcDbSpline
 62
7
  6
CONTINUOUS
 70
0
 71
3
 72
15
 73
11
 74
0
 42
0.0000001
 43
0.0000001
 44
0.0000000001
 40
0.0
 40
0.0
 40
0.0
 40
0.0
 40
0.1164335259
 40
0.2337743265
 40
0.3528860377
 40
0.4745746677
 40
0.5995738191
 40
0.7285241775
 40
0.8619021546
 40
1.0
 40
1.0
 40
1.0
 40
1.0
 10
14.6292779776
 20
12.3268687015
 30
0.0
 10
14.6266609674
 20
12.3184012733
 30
0.0
 10
14.6223255612
 20
12.3011008513
 30
0.0
 10
14.6186279239
 20
12.2744471279
 30
0.0
 10
14.6177270025
 20
12.2471521103
 30
0.0
 10
14.6196317575
 20
12.2193282461
 30
0.0
 10
14.6243245309
 20
12.1910810673
 30
0.0
 10
14.6317880821
 20
12.1625192844
 30
0.0
 10
14.6419836743
 20
12.1337608542
 30
0.0
 10
14.6504165674
 20
12.114869963
 30
0.0
 10
14.6550474006
 20
12.1054333172
 30
0.0
  0
SPLINE
  5
55B
100
AcDbEntity
  8
0
100
AcDbSpline
 62
7
  6
CONTINUOUS
 70
0
 71
3
 72
10
 73
6
 74
0
 42
0.0000001
 43
0.0000001
 44
0.0000000001
 40
0.0
 40
0.0
 40
0.0
 40
0.0
 40
0.5246472531
 40
0.7658386187
 40
1.0
 40
1.0
 40
1.0
 40
1.0
 10
16.5436016091
 20
13.0471561455
 30
0.0
 10
16.5427175219
 20
13.0489577257
 30
0.0
 10
16.5417760827
 20
13.0518158248
 30
0.0
 10
16.5417113048
 20
13.0556627241
 30
0.0
 10
16.542070021
 20
13.0574630556
 30
0.0
 10
16.5423409441
 20
13.0583167833
 30
0.0
  0
SPLINE
  5
55C
100
AcDbEntity
  8
0
100
AcDbSpline
 62
7
  6
CONTINUOUS
 70
0
 71
3
 72
10
 73
6
 74
0
 42
0.0000001
 43
0.0000001
 44
0.0000000001
 40
0.0
 40
0.0
 40
0.0
 40
0.0
 40
0.2767546643
 40
0.537052459
 40
1.0
 40
1.0
 40
1.0
 40
1.0
 10
16.555699255
 20
13.0342587568
 30
0.0
 10
16.5543370229
 20
13.0351823481
 30
0.0
 10
16.5517753845
 20
13.0371043894
 30
0.0
 10
16.5474331389
 20
13.0411692583
 30
0.0
 10
16.5448144535
 20
13.0446846284
 30
0.0
 10
16.5436016091
 20
13.0471561455
 30
0.0
  0
SPLINE
  5
55D
100
AcDbEntity
  8
0
100
AcDbSpline
 62
7
  6
CONTINUOUS
 70
0
 71
3
 72
9
 73
5
 74
0
 42
0.0000001
 43
0.0000001
 44
0.0000000001
 40
0.0
 40
0.0
 40
0.0
 40
0.0
 40
0.2456366393
 40
1.0
 40
1.0
 40
1.0
 40
1.0
 10
16.7260096123
 20
12.9077476363
 30
0.0
 10
16.7125437856
 20
12.918726757
 30
0.0
 10
16.6572046805
 20
12.9627843668
 30
0.0
 10
16.5998632142
 20
13.0043156602
 30
0.0
 10
16.555699255
 20
13.0342587568
 30
0.0
  0
SPLINE
  5
55E
100
AcDbEntity
  8
0
100
AcDbSpline
 62
7
  6
CONTINUOUS
 70
0
 71
3
 72
11
 73
7
 74
0
 42
0.0000001
 43
0.0000001
 44
0.0000000001
 40
0.0
 40
0.0
 40
0.0
 40
0.0
 40
0.248651412
 40
0.5064932231
 40
0.7609617925
 40
1.0
 40
1.0
 40
1.0
 40
1.0
 10
16.7624533934
 20
12.8948113274
 30
0.0
 10
16.7591968395
 20
12.8948643817
 30
0.0
 10
16.7525646491
 20
12.8955835405
 30
0.0
 10
16.7429075319
 20
12.8981969951
 30
0.0
 10
16.7338743556
 20
12.9021966766
 30
0.0
 10
16.7284363097
 20
12.905769072
 30
0.0
 10
16.7260096123
 20
12.9077476363
 30
0.0
  0
SPLINE
  5
55F
100
AcDbEntity
  8
0
100
AcDbSpline
 62
7
  6
CONTINUOUS
 70
0
 71
3
 72
11
 73
7
 74
0
 42
0.0000001
 43
0.0000001
 44
0.0000000001
 40
0.0
 40
0.0
 40
0.0
 40
0.0
 40
0.2379818343
 40
0.4840977465
 40
0.738191767
 40
1.0
 40
1.0
 40
1.0
 40
1.0
 10
17.3037164659
 20
12.5748300311
 30
0.0
 10
17.2845053313
 20
12.602339942
 30
0.0
 10
17.2436470112
 20
12.6570754184
 30
0.0
 10
17.1766224935
 20
12.7367697805
 30
0.0
 10
17.1030691723
 20
12.8151509663
 30
0.0
 10
17.0506265426
 20
12.8656066589
 30
0.0
 10
17.0234248258
 20
12.8905597024
 30
0.0
  0
SPLINE
  5
560
100
AcDbEntity
  8
0
100
AcDbSpline
 62
7
  6
CONTINUOUS
 70
0
 71
3
 72
17
 73
13
 74
0
 42
0.0000001
 43
0.0000001
 44
0.0000000001
 40
0.0
 40
0.0
 40
0.0
 40
0.0
 40
0.1557351734
 40
0.3031518303
 40
0.4409886821
 40
0.5688975766
 40
0.6871659394
 40
0.796855782
 40
0.8491684927
 40
0.900191214
 40
0.9503240537
 40
1.0
 40
1.0
 40
1.0
 40
1.0
 10
14.3199581283
 20
12.7445418519
 30
0.0
 10
14.3098906606
 20
12.7445418519
 30
0.0
 10
14.2902786026
 20
12.7436731023
 30
0.0
 10
14.2620136215
 20
12.7395887567
 30
0.0
 10
14.2361145935
 20
12.7328002061
 30
0.0
 10
14.2130445293
 20
12.7234145078
 30
0.0
 10
14.1932003824
 20
12.7115820943
 30
0.0
 10
14.1794442303
 20
12.6995998005
 30
0.0
 10
14.1705792562
 20
12.6890314372
 30
0.0
 10
14.1650562792
 20
12.6807642806
 30
0.0
 10
14.1605854092
 20
12.672076283
 30
0.0
 10
14.158313502
 20
12.6660187193
 30
0.0
 10
14.1573646951
 20
12.6629507955
 30
0.0
  0
SPLINE
  5
561
100
AcDbEntity
  8
0
100
AcDbSpline
 62
7
  6
CONTINUOUS
 70
0
 71
3
 72
11
 73
7
 74
0
 42
0.0000001
 43
0.0000001
 44
0.0000000001
 40
0.0
 40
0.0
 40
0.0
 40
0.0
 40
0.2709248687
 40
0.5251706346
 40
0.766307305
 40
1.0
 40
1.0
 40
1.0
 40
1.0
 10
17.120558796
 20
12.463891376
 30
0.0
 10
17.1201050895
 20
12.4648159327
 30
0.0
 10
17.1193535888
 20
12.4666759195
 30
0.0
 10
17.1187281436
 20
12.4695366999
 30
0.0
 10
17.1186623227
 20
12.4723258401
 30
0.0
 10
17.1190073306
 20
12.4741146135
 30
0.0
 10
17.1192696047
 20
12.4749633625
 30
0.0
  0
SPLINE
  5
562
100
AcDbEntity
  8
0
100
AcDbSpline
 62
7
  6
CONTINUOUS
 70
0
 71
3
 72
19
 73
15
 74
0
 42
0.0000001
 43
0.0000001
 44
0.0000000001
 40
0.0
 40
0.0
 40
0.0
 40
0.0
 40
0.0487186629
 40
0.1003490199
 40
0.1548268354
 40
0.2120417837
 40
0.2718339017
 40
0.3339635402
 40
0.4638606064
 40
0.5988331514
 40
0.7354816901
 40
0.8703277148
 40
0.9360549141
 40
1.0
 40
1.0
 40
1.0
 40
1.0
 10
16.0541283841
 20
12.5891393599
 30
0.0
 10
16.0515627589
 20
12.5943675544
 30
0.0
 10
16.0456224453
 20
12.604822739
 30
0.0
 10
16.0348489549
 20
12.6199055233
 30
0.0
 10
16.0220522598
 20
12.6346850359
 30
0.0
 10
16.0073654663
 20
12.649016661
 30
0.0
 10
15.9909263079
 20
12.6627698999
 30
0.0
 10
15.9665190433
 20
12.6804237372
 30
0.0
 10
15.9326339957
 20
12.7001341313
 30
0.0
 10
15.888508103
 20
12.7192729141
 30
0.0
 10
15.8419598104
 20
12.733543317
 30
0.0
 10
15.8022427808
 20
12.7409952064
 30
0.0
 10
15.7707517581
 20
12.744018301
 30
0.0
 10
15.7552466044
 20
12.7445418519
 30
0.0
 10
15.747602669
 20
12.7445418519
 30
0.0
  0
SPLINE
  5
563
100
AcDbEntity
  8
0
100
AcDbSpline
 62
7
  6
CONTINUOUS
 70
0
 71
3
 72
13
 73
9
 74
0
 42
0.0000001
 43
0.0000001
 44
0.0000000001
 40
0.0
 40
0.0
 40
0.0
 40
0.0
 40
0.2295859164
 40
0.354495708
 40
0.4838683384
 40
0.7464102444
 40
0.8756220495
 40
1.0
 40
1.0
 40
1.0
 40
1.0
 10
13.8442396969
 20
12.4283162211
 30
0.0
 10
13.8463380641
 20
12.4351065399
 30
0.0
 10
13.8519418364
 20
12.4449219211
 30
0.0
 10
13.8622481139
 20
12.4558260294
 30
0.0
 10
13.8748946784
 20
12.4657115305
 30
0.0
 10
13.8896481333
 20
12.4728535633
 30
0.0
 10
13.9052221984
 20
12.4765998138
 30
0.0
 10
13.9130848628
 20
12.477274153
 30
0.0
 10
13.9169351543
 20
12.477274153
 30
0.0
  0
SPLINE
  5
564
100
AcDbEntity
  8
0
100
AcDbSpline
 62
7
  6
CONTINUOUS
 70
0
 71
3
 72
15
 73
11
 74
0
 42
0.0000001
 43
0.0000001
 44
0.0000000001
 40
0.0
 40
0.0
 40
0.0
 40
0.0
 40
0.1411189322
 40
0.2775927052
 40
0.4088010142
 40
0.5346834518
 40
0.6557753851
 40
0.772914063
 40
0.8872216264
 40
1.0
 40
1.0
 40
1.0
 40
1.0
 10
13.9399616791
 20
12.477274153
 30
0.0
 10
13.9422525712
 20
12.477274153
 30
0.0
 10
13.9467630079
 20
12.4770417744
 30
0.0
 10
13.9533270888
 20
12.4759757202
 30
0.0
 10
13.9594833384
 20
12.4742050058
 30
0.0
 10
13.965129527
 20
12.4717472419
 30
0.0
 10
13.9701855071
 20
12.4686449489
 30
0.0
 10
13.9745713429
 20
12.464931512
 30
0.0
 10
13.9782222537
 20
12.4606699
 30
0.0
 10
13.9801338087
 20
12.4574935309
 30
0.0
 10
13.980940515
 20
12.4558500226
 30
0.0
  0
SPLINE
  5
565
100
AcDbEntity
  8
0
100
AcDbSpline
 62
7
  6
CONTINUOUS
 70
0
 71
3
 72
11
 73
7
 74
0
 42
0.0000001
 43
0.0000001
 44
0.0000000001
 40
0.0
 40
0.0
 40
0.0
 40
0.0
 40
0.2268288662
 40
0.4641601647
 40
0.7204500087
 40
1.0
 40
1.0
 40
1.0
 40
1.0
 10
14.1634694402
 20
13.4431011548
 30
0.0
 10
14.1631431821
 20
13.4420449471
 30
0.0
 10
14.1621730585
 20
13.4399662557
 30
0.0
 10
14.1598983747
 20
13.4372476425
 30
0.0
 10
14.1568690249
 20
13.4349620363
 30
0.0
 10
14.1545128523
 20
13.4338018686
 30
0.0
 10
14.1532483787
 20
13.4332947179
 30
0.0
  0
SPLINE
  5
566
100
AcDbEntity
  8
0
100
AcDbSpline
 62
7
  6
CONTINUOUS
 70
0
 71
3
 72
9
 73
5
 74
0
 42
0.0000001
 43
0.0000001
 44
0.0000000001
 40
0.0
 40
0.0
 40
0.0
 40
0.0
 40
0.4914244109
 40
1.0
 40
1.0
 40
1.0
 40
1.0
 10
14.2917672695
 20
13.9076917056
 30
0.0
 10
14.3349125882
 20
13.9173837658
 30
0.0
 10
14.4233627927
 20
13.9342761278
 30
0.0
 10
14.5126439485
 20
13.9459256221
 30
0.0
 10
14.5581672838
 20
13.9506114344
 30
0.0
  0
SPLINE
  5
567
100
AcDbEntity
  8
0
100
AcDbSpline
 62
7
  6
CONTINUOUS
 70
0
 71
3
 72
11
 73
7
 74
0
 42
0.0000001
 43
0.0000001
 44
0.0000000001
 40
0.0
 40
0.0
 40
0.0
 40
0.0
 40
0.2640329586
 40
0.5170354117
 40
0.7609789182
 40
1.0
 40
1.0
 40
1.0
 40
1.0
 10
15.0207603348
 20
12.873790792
 30
0.0
 10
15.0200859787
 20
12.8716085746
 30
0.0
 10
15.0191016248
 20
12.8672207147
 30
0.0
 10
15.0187968129
 20
12.8606082993
 30
0.0
 10
15.0197386528
 20
12.8542705501
 30
0.0
 10
15.0211907204
 20
12.8503157217
 30
0.0
 10
15.0221016422
 20
12.8484595203
 30
0.0
  0
SPLINE
  5
568
100
AcDbEntity
  8
0
100
AcDbSpline
 62
7
  6
CONTINUOUS
 70
0
 71
3
 72
19
 73
15
 74
0
 42
0.0000001
 43
0.0000001
 44
0.0000000001
 40
0.0
 40
0.0
 40
0.0
 40
0.0
 40
0.0639450902
 40
0.129672301
 40
0.2645183477
 40
0.4011668922
 40
0.53613944
 40
0.6660365007
 40
0.7281661346
 40
0.7879582486
 40
0.8451731886
 40
0.8996509931
 40
0.9512813408
 40
1.0
 40
1.0
 40
1.0
 40
1.0
 10
15.8407982035
 20
13.0461227121
 30
0.0
 10
15.8484421395
 20
13.0461227121
 30
0.0
 10
15.863947295
 20
13.0455991607
 30
0.0
 10
15.8954383222
 20
13.0425760654
 30
0.0
 10
15.9351553564
 20
13.035124175
 30
0.0
 10
15.9817036519
 20
13.0208537686
 30
0.0
 10
16.0258295442
 20
13.0017149843
 30
0.0
 10
16.0597145908
 20
12.9820045901
 30
0.0
 10
16.0841218524
 20
12.9643507515
 30
0.0
 10
16.1005610092
 20
12.9505975138
 30
0.0
 10
16.1152477997
 20
12.9362658896
 30
0.0
 10
16.1280444929
 20
12.92148638
 30
0.0
 10
16.1388179812
 20
12.9064035977
 30
0.0
 10
16.1447582936
 20
12.8959484142
 30
0.0
 10
16.1473239186
 20
12.8907202201
 30
0.0
  0
SPLINE
  5
569
100
AcDbEntity
  8
0
100
AcDbSpline
 62
7
  6
CONTINUOUS
 70
0
 71
3
 72
17
 73
13
 74
0
 42
0.0000001
 43
0.0000001
 44
0.0000000001
 40
0.0
 40
0.0
 40
0.0
 40
0.0
 40
0.0496759511
 40
0.0998087962
 40
0.1508315218
 40
0.2031442366
 40
0.312834085
 40
0.431102452
 40
0.5590113509
 40
0.696848195
 40
0.8442648295
 40
1.0
 40
1.0
 40
1.0
 40
1.0
 10
14.2505602292
 20
12.9645316558
 30
0.0
 10
14.2515090363
 20
12.9675995799
 30
0.0
 10
14.2537809443
 20
12.973657144
 30
0.0
 10
14.2582518156
 20
12.982345142
 30
0.0
 10
14.2637747922
 20
12.9906122999
 30
0.0
 10
14.2726397676
 20
13.0011806634
 30
0.0
 10
14.2863959204
 20
13.0131629577
 30
0.0
 10
14.306240069
 20
13.0249953703
 30
0.0
 10
14.3293101334
 20
13.034381068
 30
0.0
 10
14.35520916
 20
13.0411696173
 30
0.0
 10
14.3834741389
 20
13.0452539635
 30
0.0
 10
14.4030861953
 20
13.0461227121
 30
0.0
 10
14.4131536628
 20
13.0461227121
 30
0.0
  0
SPLINE
  5
56A
100
AcDbEntity
  8
0
100
AcDbSpline
 62
7
  6
CONTINUOUS
 70
0
 71
3
 72
13
 73
9
 74
0
 42
0.0000001
 43
0.0000001
 44
0.0000000001
 40
0.0
 40
0.0
 40
0.0
 40
0.0
 40
0.1003524848
 40
0.2042282639
 40
0.3143340062
 40
0.4327059399
 40
0.6976821081
 40
1.0
 40
1.0
 40
1.0
 40
1.0
 10
13.632232941
 20
12.9070431001
 30
0.0
 10
13.6319537986
 20
12.9061413744
 30
0.0
 10
13.6311683942
 20
12.9043666556
 30
0.0
 10
13.6293895758
 20
12.901977933
 30
0.0
 10
13.6270393419
 20
12.8998874593
 30
0.0
 10
13.6230684076
 20
12.8974463733
 30
0.0
 10
13.6168680381
 20
12.8953937502
 30
0.0
 10
13.6115240889
 20
12.8948584018
 30
0.0
 10
13.6086807914
 20
12.8948113274
 30
0.0
  0
SPLINE
  5
56B
100
AcDbEntity
  8
0
100
AcDbSpline
 62
7
  6
CONTINUOUS
 70
0
 71
3
 72
15
 73
11
 74
0
 42
0.0000001
 43
0.0000001
 44
0.0000000001
 40
0.0
 40
0.0
 40
0.0
 40
0.0
 40
0.1557870904
 40
0.3032534627
 40
0.4411339025
 40
0.5690827695
 40
0.6873883028
 40
0.7971124527
 40
0.9003276496
 40
1.0
 40
1.0
 40
1.0
 40
1.0
 10
14.3346050558
 20
12.7115030362
 30
0.0
 10
14.3265509913
 20
12.7115030362
 30
0.0
 10
14.3108611332
 20
12.7108080343
 30
0.0
 10
14.2882490022
 20
12.7075407267
 30
0.0
 10
14.2675297222
 20
12.7021091675
 30
0.0
 10
14.249074414
 20
12.6946014366
 30
0.0
 10
14.2331975289
 20
12.6851324735
 30
0.0
 10
14.2202010176
 20
12.6738173236
 30
0.0
 10
14.2103635831
 20
12.6608399461
 30
0.0
 10
14.2060531665
 20
12.6511530052
 30
0.0
 10
14.2045306407
 20
12.6462300891
 30
0.0
  0
SPLINE
  5
56C
100
AcDbEntity
  8
0
100
AcDbSpline
 62
7
  6
CONTINUOUS
 70
0
 71
3
 72
15
 73
11
 74
0
 42
0.0000001
 43
0.0000001
 44
0.0000000001
 40
0.0
 40
0.0
 40
0.0
 40
0.0
 40
0.1095458078
 40
0.2236200586
 40
0.3422200408
 40
0.4653260033
 40
0.5928597127
 40
0.7246464481
 40
0.8604547053
 40
1.0
 40
1.0
 40
1.0
 40
1.0
 10
17.0048574825
 20
12.3698061492
 30
0.0
 10
16.992670375
 20
12.3946408632
 30
0.0
 10
16.965661391
 20
12.4443135924
 30
0.0
 10
16.9187426708
 20
12.5169742174
 30
0.0
 10
16.8648166773
 20
12.5889231461
 30
0.0
 10
16.8041593281
 20
12.6598205835
 30
0.0
 10
16.7370455153
 20
12.7293397074
 30
0.0
 10
16.6637954694
 20
12.7971696162
 30
0.0
 10
16.5847460481
 20
12.8629812299
 30
0.0
 10
16.5291372813
 20
12.9047821621
 30
0.0
 10
16.5004813842
 20
12.9252925302
 30
0.0
  0
SPLINE
  5
56D
100
AcDbEntity
  8
0
100
AcDbSpline
 62
7
  6
CONTINUOUS
 70
0
 71
3
 72
15
 73
11
 74
0
 42
0.0000001
 43
0.0000001
 44
0.0000000001
 40
0.0
 40
0.0
 40
0.0
 40
0.0
 40
0.1185929065
 40
0.2407567059
 40
0.3656799773
 40
0.4924873646
 40
0.6202607162
 40
0.7480605425
 40
0.8749469218
 40
1.0
 40
1.0
 40
1.0
 40
1.0
 10
16.5004813842
 20
12.9252925302
 30
0.0
 10
16.4554024226
 20
12.957557655
 30
0.0
 10
16.3614575763
 20
13.0197218764
 30
0.0
 10
16.2127771594
 20
13.1042952782
 30
0.0
 10
16.0555413607
 20
13.1808744063
 30
0.0
 10
15.891469842
 20
13.2486198018
 30
0.0
 10
15.7223456532
 20
13.3067943204
 30
0.0
 10
15.5500089366
 20
13.3547649136
 30
0.0
 10
15.3763460878
 20
13.3920085419
 30
0.0
 10
15.2598044318
 20
13.4095899166
 30
0.0
 10
15.2017513221
 20
13.4164395363
 30
0.0
  0
SPLINE
  5
56E
100
AcDbEntity
  8
0
100
AcDbSpline
 62
7
  6
CONTINUOUS
 70
0
 71
3
 72
28
 73
24
 74
0
 42
0.0000001
 43
0.0000001
 44
0.0000000001
 40
0.0
 40
0.0
 40
0.0
 40
0.0
 40
0.0794992563
 40
0.1573763991
 40
0.2333524899
 40
0.3071746587
 40
0.3786252035
 40
0.4475231379
 40
0.5137359661
 40
0.5771832546
 40
0.6378473794
 40
0.6957827231
 40
0.7237736233
 40
0.7511397881
 40
0.7779122561
 40
0.8041270462
 40
0.8550367242
 40
0.8798571156
 40
0.9043239647
 40
0.9285018186
 40
0.9524590818
 40
0.97626713
 40
1.0
 40
1.0
 40
1.0
 40
1.0
 10
15.2017513221
 20
13.4164395363
 30
0.0
 10
15.1589486854
 20
13.4214897703
 30
0.0
 10
15.0739630996
 20
13.4294728349
 30
0.0
 10
14.9475232523
 20
13.4350182983
 30
0.0
 10
14.8240365939
 20
13.4339973167
 30
0.0
 10
14.7042655489
 20
13.4264085991
 30
0.0
 10
14.5889439676
 20
13.4123061459
 30
0.0
 10
14.4787793666
 20
13.3917634401
 30
0.0
 10
14.3744452359
 20
13.3649112861
 30
0.0
 10
14.2765785769
 20
13.3319000925
 30
0.0
 10
14.1857844952
 20
13.2929263292
 30
0.0
 10
14.1156766723
 20
13.2552354566
 30
0.0
 10
14.0638311146
 20
13.2222630268
 30
0.0
 10
14.0274982979
 20
13.1964907346
 30
0.0
 10
13.993327642
 20
13.1694338789
 30
0.0
 10
13.9511463671
 20
13.1320754163
 30
0.0
 10
13.9129443437
 20
13.0919181679
 30
0.0
 10
13.8793248333
 20
13.0492144671
 30
0.0
 10
13.8567181716
 20
13.0163884597
 30
0.0
 10
13.8365490534
 20
12.9825555535
 30
0.0
 10
13.8188458096
 20
12.9477678857
 30
0.0
 10
13.8036412323
 20
12.9120813217
 30
0.0
 10
13.7951822701
 20
12.8877098266
 30
0.0
 10
13.791383674
 20
12.8754168589
 30
0.0
  0
SPLINE
  5
56F
100
AcDbEntity
  8
0
100
AcDbSpline
 62
7
  6
CONTINUOUS
 70
0
 71
3
 72
14
 73
10
 74
0
 42
0.0000001
 43
0.0000001
 44
0.0000000001
 40
0.0
 40
0.0
 40
0.0
 40
0.0
 40
0.2629219301
 40
0.3901846913
 40
0.5150963013
 40
0.6380732377
 40
0.7595616182
 40
0.880036709
 40
1.0
 40
1.0
 40
1.0
 40
1.0
 10
13.8436150423
 20
12.503239934
 30
0.0
 10
13.8345430595
 20
12.5336977827
 30
0.0
 10
13.8238571964
 20
12.5798240682
 30
0.0
 10
13.8162491279
 20
12.6416583181
 30
0.0
 10
13.8139745783
 20
12.6869904803
 30
0.0
 10
13.8150761095
 20
12.7316666517
 30
0.0
 10
13.8195510604
 20
12.7755961542
 30
0.0
 10
13.8273992691
 20
12.8186778664
 30
0.0
 10
13.8348736785
 20
12.8468005147
 30
0.0
 10
13.8391546288
 20
12.8606545173
 30
0.0
  0
LINE
  5
570
100
AcDbEntity
  8
0
100
AcDbLine
 62
7
  6
CONTINUOUS
 10
17.0547375368
 20
12.909731335
 11
17.0234248242
 21
12.8905597024
  0
SPLINE
  5
571
100
AcDbEntity
  8
0
100
AcDbSpline
 62
7
  6
CONTINUOUS
 70
0
 71
3
 72
11
 73
7
 74
0
 42
0.0000001
 43
0.0000001
 44
0.0000000001
 40
0.0
 40
0.0
 40
0.0
 40
0.0
 40
0.2384693564
 40
0.4847388525
 40
0.7386627745
 40
1.0
 40
1.0
 40
1.0
 40
1.0
 10
17.3268405407
 20
12.6032256097
 30
0.0
 10
17.308020702
 20
12.6298881315
 30
0.0
 10
17.2681226529
 20
12.6829419014
 30
0.0
 10
17.2029445538
 20
12.7602733944
 30
0.0
 10
17.1316851304
 20
12.8363829947
 30
0.0
 10
17.0809980028
 20
12.8854511336
 30
0.0
 10
17.0547375365
 20
12.9097313338
 30
0.0
  0
SPLINE
  5
572
100
AcDbEntity
  8
0
100
AcDbSpline
 62
7
  6
CONTINUOUS
 70
0
 71
3
 72
18
 73
14
 74
0
 42
0.0000001
 43
0.0000001
 44
0.0000000001
 40
0.0
 40
0.0
 40
0.0
 40
0.0
 40
0.0487226339
 40
0.1003575476
 40
0.1548402279
 40
0.2120600046
 40
0.3339143339
 40
0.4638198784
 40
0.5988013204
 40
0.7354593798
 40
0.8703165705
 40
0.9360496582
 40
1.0
 40
1.0
 40
1.0
 40
1.0
 10
16.0074701686
 20
12.5871810426
 30
0.0
 10
16.0054176581
 20
12.5913636192
 30
0.0
 10
16.0006653893
 20
12.5997278734
 30
0.0
 10
15.9920465909
 20
12.6117941575
 30
0.0
 10
15.9818090074
 20
12.6236183037
 30
0.0
 10
15.965807982
 20
12.6392297799
 30
0.0
 10
15.9423200653
 20
12.6573349318
 30
0.0
 10
15.9102781783
 20
12.6759750499
 30
0.0
 10
15.8749731276
 20
12.6912880144
 30
0.0
 10
15.8377359673
 20
12.7027038284
 30
0.0
 10
15.8059620162
 20
12.7086658361
 30
0.0
 10
15.7807690252
 20
12.7110842047
 30
0.0
 10
15.7683647798
 20
12.7115030362
 30
0.0
 10
15.7622495965
 20
12.7115030362
 30
0.0
  0
SPLINE
  5
573
100
AcDbEntity
  8
0
100
AcDbSpline
 62
7
  6
CONTINUOUS
 70
0
 71
3
 72
9
 73
5
 74
0
 42
0.0000001
 43
0.0000001
 44
0.0000000001
 40
0.0
 40
0.0
 40
0.0
 40
0.0
 40
0.494260175
 40
1.0
 40
1.0
 40
1.0
 40
1.0
 10
16.6017972223
 20
13.2461875987
 30
0.0
 10
16.5317339206
 20
13.2884126035
 30
0.0
 10
16.3866834418
 20
13.3684657601
 30
0.0
 10
16.2363378748
 20
13.4380206768
 30
0.0
 10
16.1592203156
 20
13.4705653615
 30
0.0
  0
LINE
  5
574
100
AcDbEntity
  8
0
100
AcDbLine
 62
7
  6
CONTINUOUS
 10
15.5682131876
 20
13.6283233014
 11
15.5653558457
 21
13.6648184778
  0
LINE
  5
575
100
AcDbEntity
  8
0
100
AcDbLine
 62
7
  6
CONTINUOUS
 10
15.0708931614
 20
13.7469464391
 11
15.0588702005
 21
13.712922812
  0
SPLINE
  5
576
100
AcDbEntity
  8
0
100
AcDbSpline
 62
7
  6
CONTINUOUS
 70
0
 71
3
 72
9
 73
5
 74
0
 42
0.0000001
 43
0.0000001
 44
0.0000000001
 40
0.0
 40
0.0
 40
0.0
 40
0.0
 40
0.5046081029
 40
1.0
 40
1.0
 40
1.0
 40
1.0
 10
15.5653558453
 20
13.6648184766
 30
0.0
 10
15.4832819649
 20
13.6843285216
 30
0.0
 10
15.3192809362
 20
13.7175234053
 30
0.0
 10
15.153353733
 20
13.7392373925
 30
0.0
 10
15.070893161
 20
13.7469464379
 30
0.0
  0
LINE
  5
577
100
AcDbEntity
  8
0
100
AcDbLine
 62
7
  6
CONTINUOUS
 10
14.5581672834
 20
13.9506114331
 11
14.5843629345
 21
13.955754154
  0
SPLINE
  5
578
100
AcDbEntity
  8
0
100
AcDbSpline
 62
7
  6
CONTINUOUS
 70
0
 71
3
 72
22
 73
18
 74
0
 42
0.0000001
 43
0.0000001
 44
0.0000000001
 40
0.0
 40
0.0
 40
0.0
 40
0.0
 40
0.0506982042
 40
0.1025413637
 40
0.1564784014
 40
0.2131608966
 40
0.2729075939
 40
0.3356922191
 40
0.4012220912
 40
0.4689666765
 40
0.5382423188
 40
0.6082569111
 40
0.6781702202
 40
0.7471412876
 40
0.8143845489
 40
0.8793041439
 40
1.0
 40
1.0
 40
1.0
 40
1.0
 10
15.1253410418
 20
12.8991220637
 30
0.0
 10
15.1243706041
 20
12.9010995419
 30
0.0
 10
15.1219503884
 20
12.9048905648
 30
0.0
 10
15.1171152106
 20
12.9097380502
 30
0.0
 10
15.1111830445
 20
12.913646416
 30
0.0
 10
15.1043269697
 20
12.9165349336
 30
0.0
 10
15.0967176732
 20
12.9183326936
 30
0.0
 10
15.0885477853
 20
12.9190164558
 30
0.0
 10
15.0800171357
 20
12.9185618695
 30
0.0
 10
15.0713348207
 20
12.9169961701
 30
0.0
 10
15.0627167555
 20
12.9143475553
 30
0.0
 10
15.0543722492
 20
12.910693753
 30
0.0
 10
15.0465130203
 20
12.9061133148
 30
0.0
 10
15.0393283446
 20
12.9007336771
 30
0.0
 10
15.0329980642
 20
12.8946705732
 30
0.0
 10
15.0260852426
 20
12.8861147096
 30
0.0
 10
15.0223086302
 20
12.8788010776
 30
0.0
 10
15.0207603348
 20
12.873790792
 30
0.0
  0
SPLINE
  5
579
100
AcDbEntity
  8
0
100
AcDbSpline
 62
7
  6
CONTINUOUS
 70
0
 71
3
 72
11
 73
7
 74
0
 42
0.0000001
 43
0.0000001
 44
0.0000000001
 40
0.0
 40
0.0
 40
0.0
 40
0.0
 40
0.2423766756
 40
0.489047763
 40
0.7412159948
 40
1.0
 40
1.0
 40
1.0
 40
1.0
 10
13.3518821481
 20
12.8905597024
 30
0.0
 10
13.3493814214
 20
12.8675452017
 30
0.0
 10
13.346544637
 20
12.8208411834
 30
0.0
 10
13.3487458175
 20
12.7499886467
 30
0.0
 10
13.3573605069
 20
12.6780531044
 30
0.0
 10
13.3672194143
 20
12.6301923763
 30
0.0
 10
13.3731489256
 20
12.6061970784
 30
0.0
  0
SPLINE
  5
57A
100
AcDbEntity
  8
0
100
AcDbSpline
 62
7
  6
CONTINUOUS
 70
0
 71
3
 72
11
 73
7
 74
0
 42
0.0000001
 43
0.0000001
 44
0.0000000001
 40
0.0
 40
0.0
 40
0.0
 40
0.0
 40
0.2610140955
 40
0.51401735
 40
0.7599636177
 40
1.0
 40
1.0
 40
1.0
 40
1.0
 10
13.678159151
 20
13.4705653615
 30
0.0
 10
13.6557510698
 20
13.4544225832
 30
0.0
 10
13.6128143936
 20
13.4209297208
 30
0.0
 10
13.5536514816
 20
13.3663324685
 30
0.0
 10
13.5010050792
 20
13.3083843923
 30
0.0
 10
13.4700495391
 20
13.2672108068
 30
0.0
 10
13.455799471
 20
13.2461875987
 30
0.0
  0
SPLINE
  5
57B
100
AcDbEntity
  8
0
100
AcDbSpline
 62
7
  6
CONTINUOUS
 70
0
 71
3
 72
18
 73
14
 74
0
 42
0.0000001
 43
0.0000001
 44
0.0000000001
 40
0.0
 40
0.0
 40
0.0
 40
0.0
 40
0.0639503418
 40
0.1296834295
 40
0.2645406202
 40
0.4011986796
 40
0.5361801216
 40
0.6660856661
 40
0.7879399954
 40
0.8451597721
 40
0.8996424524
 40
0.9512773661
 40
1.0
 40
1.0
 40
1.0
 40
1.0
 10
15.7628547623
 20
12.7134613535
 30
0.0
 10
15.7689699456
 20
12.7134613535
 30
0.0
 10
15.781374191
 20
12.713042522
 30
0.0
 10
15.806567182
 20
12.7106241534
 30
0.0
 10
15.8383411331
 20
12.7046621457
 30
0.0
 10
15.8755782934
 20
12.6932463317
 30
0.0
 10
15.9108833441
 20
12.6779333672
 30
0.0
 10
15.9429252311
 20
12.659293249
 30
0.0
 10
15.9664131478
 20
12.6411880971
 30
0.0
 10
15.9824141733
 20
12.625576621
 30
0.0
 10
15.9926517568
 20
12.6137524748
 30
0.0
 10
16.0012705551
 20
12.6016861906
 30
0.0
 10
16.0060228239
 20
12.5933219365
 30
0.0
 10
16.0080753344
 20
12.5891393599
 30
0.0
  0
LINE
  5
57C
100
AcDbEntity
  8
0
100
AcDbLine
 62
7
  6
CONTINUOUS
 10
13.3518821497
 20
12.8905597024
 11
13.3330766643
 21
12.909731335
  0
SPLINE
  5
57D
100
AcDbEntity
  8
0
100
AcDbSpline
 62
7
  6
CONTINUOUS
 70
0
 71
3
 72
11
 73
7
 74
0
 42
0.0000001
 43
0.0000001
 44
0.0000000001
 40
0.0
 40
0.0
 40
0.0
 40
0.0
 40
0.2614907406
 40
0.5145967682
 40
0.7603501065
 40
1.0
 40
1.0
 40
1.0
 40
1.0
 10
13.6980889095
 20
13.4428825933
 30
0.0
 10
13.6748460207
 20
13.4263686391
 30
0.0
 10
13.6303660257
 20
13.3920415154
 30
0.0
 10
13.5692524547
 20
13.3358606
 30
0.0
 10
13.5151359597
 20
13.2760774651
 30
0.0
 10
13.4835209624
 20
13.2335020083
 30
0.0
 10
13.4690375634
 20
13.2117524325
 30
0.0
  0
SPLINE
  5
57E
100
AcDbEntity
  8
0
100
AcDbSpline
 62
7
  6
CONTINUOUS
 70
0
 71
3
 72
12
 73
8
 74
0
 42
0.0000001
 43
0.0000001
 44
0.0000000001
 40
0.0
 40
0.0
 40
0.0
 40
0.0
 40
0.2105297784
 40
0.3281378538
 40
0.4529642135
 40
0.7198174144
 40
1.0
 40
1.0
 40
1.0
 40
1.0
 10
14.0016359043
 20
13.3602534885
 30
0.0
 10
13.9994452817
 20
13.3589945484
 30
0.0
 10
13.9956835918
 20
13.3576203291
 30
0.0
 10
13.9903329477
 20
13.3566474979
 30
0.0
 10
13.9842265888
 20
13.3561856744
 30
0.0
 10
13.9761395964
 20
13.3567268823
 30
0.0
 10
13.9697125619
 20
13.3582050821
 30
0.0
 10
13.9665024084
 20
13.3592058337
 30
0.0
  0
SPLINE
  5
57F
100
AcDbEntity
  8
0
100
AcDbSpline
 62
7
  6
CONTINUOUS
 70
0
 71
3
 72
9
 73
5
 74
0
 42
0.0000001
 43
0.0000001
 44
0.0000000001
 40
0.0
 40
0.0
 40
0.0
 40
0.0
 40
0.2569800296
 40
1.0
 40
1.0
 40
1.0
 40
1.0
 10
14.1532483787
 20
13.4332947179
 30
0.0
 10
14.1398626853
 20
13.4279260303
 30
0.0
 10
14.0881170471
 20
13.4061974336
 30
0.0
 10
14.0377903518
 20
13.3810312723
 30
0.0
 10
14.0016359043
 20
13.3602534885
 30
0.0
  0
SPLINE
  5
580
100
AcDbEntity
  8
0
100
AcDbSpline
 62
7
  6
CONTINUOUS
 70
0
 71
3
 72
11
 73
7
 74
0
 42
0.0000001
 43
0.0000001
 44
0.0000000001
 40
0.0
 40
0.0
 40
0.0
 40
0.0
 40
0.2606607136
 40
0.5144071693
 40
0.7609291473
 40
1.0
 40
1.0
 40
1.0
 40
1.0
 10
14.4952300397
 20
13.7469464379
 30
0.0
 10
14.4587071338
 20
13.7431870584
 30
0.0
 10
14.3867804522
 20
13.7341930298
 30
0.0
 10
14.2811208425
 20
13.7159550576
 30
0.0
 10
14.1794521826
 20
13.6932027875
 30
0.0
 10
14.1135367318
 20
13.6747909915
 30
0.0
 10
14.0813724547
 20
13.6648184766
 30
0.0
  0
LINE
  5
581
100
AcDbEntity
  8
0
100
AcDbLine
 62
7
  6
CONTINUOUS
 10
14.5093223743
 20
13.712922812
 11
14.4952300401
 21
13.7469464391
  0
SPLINE
  5
582
100
AcDbEntity
  8
0
100
AcDbSpline
 62
7
  6
CONTINUOUS
 70
0
 71
3
 72
9
 73
5
 74
0
 42
0.0000001
 43
0.0000001
 44
0.0000000001
 40
0.0
 40
0.0
 40
0.0
 40
0.0
 40
0.4953918971
 40
1.0
 40
1.0
 40
1.0
 40
1.0
 10
15.1338304051
 20
13.9506114344
 30
0.0
 10
15.2162909771
 20
13.9429023894
 30
0.0
 10
15.3822181802
 20
13.9211884012
 30
0.0
 10
15.5462192091
 20
13.8879935186
 30
0.0
 10
15.6282930894
 20
13.8684834731
 30
0.0
  0
SPLINE
  5
583
100
AcDbEntity
  8
0
100
AcDbSpline
 62
7
  6
CONTINUOUS
 70
0
 71
3
 72
9
 73
5
 74
0
 42
0.0000001
 43
0.0000001
 44
0.0000000001
 40
0.0
 40
0.0
 40
0.0
 40
0.0
 40
0.5057201558
 40
1.0
 40
1.0
 40
1.0
 40
1.0
 10
16.2221575597
 20
13.674230358
 30
0.0
 10
16.2990912784
 20
13.6417630584
 30
0.0
 10
16.4490895355
 20
13.5723839626
 30
0.0
 10
16.5938195764
 20
13.4925557835
 30
0.0
 10
16.663736796
 20
13.4504536107
 30
0.0
  0
LINE
  5
584
100
AcDbEntity
  8
0
100
AcDbLine
 62
7
  6
CONTINUOUS
 10
17.0984653844
 20
13.1333910444
 11
17.1176747802
 21
13.1133963292
  0
SPLINE
  5
585
100
AcDbEntity
  8
0
100
AcDbSpline
 62
7
  6
CONTINUOUS
 70
0
 71
3
 72
13
 73
9
 74
0
 42
0.0000001
 43
0.0000001
 44
0.0000000001
 40
0.0
 40
0.0
 40
0.0
 40
0.0
 40
0.2295859164
 40
0.354495708
 40
0.4838683384
 40
0.7464102444
 40
0.8756220495
 40
1.0
 40
1.0
 40
1.0
 40
1.0
 10
16.6304492038
 20
12.4283162211
 30
0.0
 10
16.632547571
 20
12.4351065399
 30
0.0
 10
16.6381513433
 20
12.4449219211
 30
0.0
 10
16.6484576208
 20
12.4558260294
 30
0.0
 10
16.6611041852
 20
12.4657115305
 30
0.0
 10
16.6758576401
 20
12.4728535633
 30
0.0
 10
16.6914317052
 20
12.4765998138
 30
0.0
 10
16.6992943697
 20
12.477274153
 30
0.0
 10
16.7031446611
 20
12.477274153
 30
0.0
  0
SPLINE
  5
586
100
AcDbEntity
  8
0
100
AcDbSpline
 62
7
  6
CONTINUOUS
 70
0
 71
3
 72
15
 73
11
 74
0
 42
0.0000001
 43
0.0000001
 44
0.0000000001
 40
0.0
 40
0.0
 40
0.0
 40
0.0
 40
0.1411189322
 40
0.2775927052
 40
0.4088010142
 40
0.5346834518
 40
0.6557753851
 40
0.772914063
 40
0.8872216264
 40
1.0
 40
1.0
 40
1.0
 40
1.0
 10
16.726171186
 20
12.477274153
 30
0.0
 10
16.7284620781
 20
12.477274153
 30
0.0
 10
16.7329725147
 20
12.4770417744
 30
0.0
 10
16.7395365957
 20
12.4759757202
 30
0.0
 10
16.7456928453
 20
12.4742050058
 30
0.0
 10
16.7513390338
 20
12.4717472419
 30
0.0
 10
16.756395014
 20
12.4686449489
 30
0.0
 10
16.7607808497
 20
12.464931512
 30
0.0
 10
16.7644317605
 20
12.4606699
 30
0.0
 10
16.7663433155
 20
12.4574935309
 30
0.0
 10
16.7671500219
 20
12.4558500226
 30
0.0
  0
SPLINE
  5
587
100
AcDbEntity
  8
0
100
AcDbSpline
 62
7
  6
CONTINUOUS
 70
0
 71
3
 72
11
 73
7
 74
0
 42
0.0000001
 43
0.0000001
 44
0.0000000001
 40
0.0
 40
0.0
 40
0.0
 40
0.0
 40
0.2611021969
 40
0.5150129848
 40
0.7613936472
 40
1.0
 40
1.0
 40
1.0
 40
1.0
 10
14.509322373
 20
13.712922813
 30
0.0
 10
14.4716174334
 20
13.7091840077
 30
0.0
 10
14.3974000638
 20
13.7001234406
 30
0.0
 10
14.2884564964
 20
13.681438518
 30
0.0
 10
14.1837968726
 20
13.657906175
 30
0.0
 10
14.1160336158
 20
13.6387334265
 30
0.0
 10
14.0830102065
 20
13.6283233026
 30
0.0
  0
SPLINE
  5
588
100
AcDbEntity
  8
DRAWING
100
AcDbSpline
 62
7
  6
CONTINUOUS
 70
0
 71
3
 72
9
 73
5
 74
0
 42
0.0000001
 43
0.0000001
 44
0.0000000001
 40
0.0
 40
0.0
 40
0.0
 40
0.0
 40
0.4890330052
 40
1.0
 40
1.0
 40
1.0
 40
1.0
 10
17.487379746
 20
12.5303881656
 30
0.0
 10
17.4705251827
 20
12.5647341544
 30
0.0
 10
17.432857195
 20
12.633425781
 30
0.0
 10
17.3897645642
 20
12.6988238506
 30
0.0
 10
17.3665653318
 20
12.7313778753
 30
0.0
  0
SPLINE
  5
589
100
AcDbEntity
  8
DRAWING
100
AcDbSpline
 62
7
  6
CONTINUOUS
 70
0
 71
3
 72
14
 73
10
 74
0
 42
0.0000001
 43
0.0000001
 44
0.0000000001
 40
0.0
 40
0.0
 40
0.0
 40
0.0
 40
0.1120369606
 40
0.228067554
 40
0.3480240871
 40
0.4717646886
 40
0.5990915672
 40
0.7297699287
 40
1.0
 40
1.0
 40
1.0
 40
1.0
 10
17.3665653318
 20
12.7313778753
 30
0.0
 10
17.3454952787
 20
12.7609441564
 30
0.0
 10
17.3005932129
 20
12.8197189208
 30
0.0
 10
17.2267915762
 20
12.9050756479
 30
0.0
 10
17.1456396276
 20
12.9888428108
 30
0.0
 10
17.0574871669
 20
13.070678816
 30
0.0
 10
16.9626958873
 20
13.1502432615
 30
0.0
 10
16.8264846451
 20
13.2539886098
 30
0.0
 10
16.717831894
 20
13.3256038118
 30
0.0
 10
16.6428225599
 20
13.3707908011
 30
0.0
  0
SPLINE
  5
58A
100
AcDbEntity
  8
DRAWING
100
AcDbSpline
 62
7
  6
CONTINUOUS
 70
0
 71
3
 72
22
 73
18
 74
0
 42
0.0000001
 43
0.0000001
 44
0.0000000001
 40
0.0
 40
0.0
 40
0.0
 40
0.0
 40
0.1280223106
 40
0.1934821672
 40
0.2595361256
 40
0.3259036704
 40
0.3923012236
 40
0.4584441254
 40
0.5240515538
 40
0.5888489667
 40
0.6525732581
 40
0.7149747987
 40
0.7758241347
 40
0.8349129246
 40
0.8920632311
 40
0.9471273428
 40
1.0
 40
1.0
 40
1.0
 40
1.0
 10
16.6428225599
 20
13.3707908011
 30
0.0
 10
16.5468942181
 20
13.4285797819
 30
0.0
 10
16.3972704104
 20
13.5084609792
 30
0.0
 10
16.1899026732
 20
13.6010121655
 30
0.0
 10
16.0286535136
 20
13.6641500555
 30
0.0
 10
15.8639123687
 20
13.7200907549
 30
0.0
 10
15.6967109269
 20
13.7684704973
 30
0.0
 10
15.5281168206
 20
13.8089909541
 30
0.0
 10
15.3591983862
 20
13.8413882608
 30
0.0
 10
15.1910287842
 20
13.8654598234
 30
0.0
 10
15.0246753557
 20
13.8810534817
 30
0.0
 10
14.8611923815
 20
13.888065258
 30
0.0
 10
14.7016161906
 20
13.8864588276
 30
0.0
 10
14.546957022
 20
13.8762305018
 30
0.0
 10
14.3981888712
 20
13.8574581803
 30
0.0
 10
14.256262733
 20
13.8302402039
 30
0.0
 10
14.1648844868
 20
13.8060816018
 30
0.0
 10
14.1206565891
 20
13.7925504341
 30
0.0
  0
SPLINE
  5
58B
100
AcDbEntity
  8
DRAWING
100
AcDbSpline
 62
7
  6
CONTINUOUS
 70
0
 71
3
 72
15
 73
11
 74
0
 42
0.0000001
 43
0.0000001
 44
0.0000000001
 40
0.0
 40
0.0
 40
0.0
 40
0.0
 40
0.1417338783
 40
0.2782907564
 40
0.4097302887
 40
0.5362225463
 40
0.6580412037
 40
0.7755799715
 40
0.8893553807
 40
1.0
 40
1.0
 40
1.0
 40
1.0
 10
14.1206565891
 20
13.7925504341
 30
0.0
 10
14.0858021037
 20
13.7818869861
 30
0.0
 10
14.0179784276
 20
13.7588659849
 30
0.0
 10
13.9205873396
 20
13.7184378026
 30
0.0
 10
13.8298302917
 20
13.6728938879
 30
0.0
 10
13.7460958818
 20
13.6224329133
 30
0.0
 10
13.6697467075
 20
13.5672537774
 30
0.0
 10
13.6011193741
 20
13.5075739594
 30
0.0
 10
13.5405190509
 20
13.4436582866
 30
0.0
 10
13.5052352662
 20
13.3978267566
 30
0.0
 10
13.4891291708
 20
13.3743698021
 30
0.0
  0
SPLINE
  5
58C
100
AcDbEntity
  8
DRAWING
100
AcDbSpline
 62
7
  6
CONTINUOUS
 70
0
 71
3
 72
11
 73
7
 74
0
 42
0.0000001
 43
0.0000001
 44
0.0000000001
 40
0.0
 40
0.0
 40
0.0
 40
0.0
 40
0.2533789231
 40
0.5038796305
 40
0.7524307028
 40
1.0
 40
1.0
 40
1.0
 40
1.0
 10
13.4891291708
 20
13.3743698021
 30
0.0
 10
13.4784777938
 20
13.3588571122
 30
0.0
 10
13.4583976699
 20
13.3272329466
 30
0.0
 10
13.4320162975
 20
13.2779142789
 30
0.0
 10
13.4096319503
 20
13.2271279026
 30
0.0
 10
13.3973887492
 20
13.1923312038
 30
0.0
 10
13.391959686
 20
13.1747650722
 30
0.0
  0
SPLINE
  5
58D
100
AcDbEntity
  8
DRAWING
100
AcDbSpline
 62
7
  6
CONTINUOUS
 70
0
 71
3
 72
12
 73
8
 74
0
 42
0.0000001
 43
0.0000001
 44
0.0000000001
 40
0.0
 40
0.0
 40
0.0
 40
0.0
 40
0.116347425
 40
0.2344350946
 40
0.4773549872
 40
0.7318976861
 40
1.0
 40
1.0
 40
1.0
 40
1.0
 10
17.5916425475
 20
12.034725074
 30
0.0
 10
17.5934408268
 20
12.0545233764
 30
0.0
 10
17.5954738864
 20
12.0945790152
 30
0.0
 10
17.5933017343
 20
12.1761782536
 30
0.0
 10
17.5785675369
 20
12.280729658
 30
0.0
 10
17.5425899318
 20
12.4068537449
 30
0.0
 10
17.5075608022
 20
12.489263497
 30
0.0
 10
17.487379746
 20
12.5303881656
 30
0.0
  0
SPLINE
  5
58E
100
AcDbEntity
  8
DRAWING
100
AcDbSpline
 62
7
  6
CONTINUOUS
 70
0
 71
3
 72
9
 73
5
 74
0
 42
0.0000001
 43
0.0000001
 44
0.0000000001
 40
0.0
 40
0.0
 40
0.0
 40
0.0
 40
0.4890330052
 40
1.0
 40
1.0
 40
1.0
 40
1.0
 10
13.454845191
 20
12.4912218202
 30
0.0
 10
13.4716997542
 20
12.4568758314
 30
0.0
 10
13.5093677419
 20
12.3881842048
 30
0.0
 10
13.5524603727
 20
12.3227861352
 30
0.0
 10
13.5756596052
 20
12.2902321105
 30
0.0
  0
SPLINE
  5
58F
100
AcDbEntity
  8
DRAWING
100
AcDbSpline
 62
7
  6
CONTINUOUS
 70
0
 71
3
 72
9
 73
5
 74
0
 42
0.0000001
 43
0.0000001
 44
0.0000000001
 40
0.0
 40
0.0
 40
0.0
 40
0.0
 40
0.4912409086
 40
1.0
 40
1.0
 40
1.0
 40
1.0
 10
13.9633599805
 20
11.8856763559
 30
0.0
 10
14.0154788394
 20
11.8432975052
 30
0.0
 10
14.1249212335
 20
11.7610851203
 30
0.0
 10
14.2398107204
 20
11.6867182843
 30
0.0
 10
14.299402377
 20
11.6508191847
 30
0.0
  0
SPLINE
  5
590
100
AcDbEntity
  8
DRAWING
100
AcDbSpline
 62
7
  6
CONTINUOUS
 70
0
 71
3
 72
9
 73
5
 74
0
 42
0.0000001
 43
0.0000001
 44
0.0000000001
 40
0.0
 40
0.0
 40
0.0
 40
0.0
 40
0.5077759738
 40
1.0
 40
1.0
 40
1.0
 40
1.0
 10
15.8447437261
 20
11.1477467269
 30
0.0
 10
15.9143564955
 20
11.141440991
 30
0.0
 10
16.0518763745
 20
11.1332939029
 30
0.0
 10
16.1896527725
 20
11.1343319644
 30
0.0
 10
16.2573444529
 20
11.1373060341
 30
0.0
  0
SPLINE
  5
591
100
AcDbEntity
  8
DRAWING
100
AcDbSpline
 62
7
  6
CONTINUOUS
 70
0
 71
3
 72
9
 73
5
 74
0
 42
0.0000001
 43
0.0000001
 44
0.0000000001
 40
0.0
 40
0.0
 40
0.0
 40
0.0
 40
0.5142433997
 40
1.0
 40
1.0
 40
1.0
 40
1.0
 10
16.8215683479
 20
11.2290595517
 30
0.0
 10
16.8736755125
 20
11.2450013174
 30
0.0
 10
16.9736738206
 20
11.2806051542
 30
0.0
 10
17.069501545
 20
11.3264129773
 30
0.0
 10
17.1145257227
 20
11.3513581179
 30
0.0
  0
SPLINE
  5
592
100
AcDbEntity
  8
DRAWING
100
AcDbSpline
 62
7
  6
CONTINUOUS
 70
0
 71
3
 72
11
 73
7
 74
0
 42
0.0000001
 43
0.0000001
 44
0.0000000001
 40
0.0
 40
0.0
 40
0.0
 40
0.0
 40
0.2533789231
 40
0.5038796305
 40
0.7524307028
 40
1.0
 40
1.0
 40
1.0
 40
1.0
 10
17.4530957662
 20
11.6472401837
 30
0.0
 10
17.4637471431
 20
11.6627528736
 30
0.0
 10
17.4838272671
 20
11.6943770392
 30
0.0
 10
17.5102086395
 20
11.7436957069
 30
0.0
 10
17.5325929866
 20
11.7944820832
 30
0.0
 10
17.5448361878
 20
11.829278782
 30
0.0
 10
17.550265251
 20
11.8468449136
 30
0.0
  0
SPLINE
  5
593
100
AcDbEntity
  8
DRAWING
100
AcDbSpline
 62
7
  6
CONTINUOUS
 70
0
 71
3
 72
9
 73
5
 74
0
 42
0.0000001
 43
0.0000001
 44
0.0000000001
 40
0.0
 40
0.0
 40
0.0
 40
0.0
 40
0.489060049
 40
1.0
 40
1.0
 40
1.0
 40
1.0
 10
17.0663938612
 20
11.3674362747
 30
0.0
 10
17.0303008083
 20
11.3495331571
 30
0.0
 10
16.9548583254
 20
11.3161732109
 30
0.0
 10
16.8770461953
 20
11.2888606698
 30
0.0
 10
16.8368610787
 20
11.2763355823
 30
0.0
  0
SPLINE
  5
594
100
AcDbEntity
  8
DRAWING
100
AcDbSpline
 62
7
  6
CONTINUOUS
 70
0
 71
3
 72
9
 73
5
 74
0
 42
0.0000001
 43
0.0000001
 44
0.0000000001
 40
0.0
 40
0.0
 40
0.0
 40
0.0
 40
0.5068787696
 40
1.0
 40
1.0
 40
1.0
 40
1.0
 10
14.3132181615
 20
11.6954944991
 30
0.0
 10
14.2649430577
 20
11.7246536065
 30
0.0
 10
14.1711986271
 20
11.7847001476
 30
0.0
 10
14.0809628377
 20
11.8499171675
 30
0.0
 10
14.0374839703
 20
11.8833837069
 30
0.0
  0
SPLINE
  5
595
100
AcDbEntity
  8
DRAWING
100
AcDbSpline
 62
7
  6
CONTINUOUS
 70
0
 71
3
 72
9
 73
5
 74
0
 42
0.0000001
 43
0.0000001
 44
0.0000000001
 40
0.0
 40
0.0
 40
0.0
 40
0.0
 40
0.5105212699
 40
1.0
 40
1.0
 40
1.0
 40
1.0
 10
13.5898121985
 20
12.3386679096
 30
0.0
 10
13.5679466053
 20
12.3697672238
 30
0.0
 10
13.5272487565
 20
12.4322191894
 30
0.0
 10
13.4915259985
 20
12.49766606
 30
0.0
 10
13.4754683213
 20
12.5303881656
 30
0.0
  0
SPLINE
  5
596
100
AcDbEntity
  8
DRAWING
100
AcDbSpline
 62
7
  6
CONTINUOUS
 70
0
 71
3
 72
15
 73
11
 74
0
 42
0.0000001
 43
0.0000001
 44
0.0000000001
 40
0.0
 40
0.0
 40
0.0
 40
0.0
 40
0.108906241
 40
0.2236026708
 40
0.3436657332
 40
0.4685104201
 40
0.5974193405
 40
0.7295749966
 40
0.8640843486
 40
1.0
 40
1.0
 40
1.0
 40
1.0
 10
14.1053638583
 20
13.7452744035
 30
0.0
 10
14.1627018768
 20
13.7631457888
 30
0.0
 10
14.2823345233
 20
13.7939062324
 30
0.0
 10
14.4695237643
 20
13.8248303113
 30
0.0
 10
14.6673324209
 20
13.8414795353
 30
0.0
 10
14.8736399646
 20
13.8436735059
 30
0.0
 10
15.0862593582
 20
13.8314018819
 30
0.0
 10
15.3029258708
 20
13.8047982478
 30
0.0
 10
15.5213165303
 20
13.7641441951
 30
0.0
 10
15.66612441
 20
13.7280590929
 30
0.0
 10
15.7382851562
 20
13.707789594
 30
0.0
  0
SPLINE
  5
597
100
AcDbEntity
  8
DRAWING
100
AcDbSpline
 62
7
  6
CONTINUOUS
 70
0
 71
3
 72
14
 73
10
 74
0
 42
0.0000001
 43
0.0000001
 44
0.0000000001
 40
0.0
 40
0.0
 40
0.0
 40
0.0
 40
0.2705139753
 40
0.401269475
 40
0.5286245845
 40
0.6523425972
 40
0.7722243696
 40
0.8881316539
 40
1.0
 40
1.0
 40
1.0
 40
1.0
 10
16.6290067754
 20
13.3261154867
 30
0.0
 10
16.704228383
 20
13.2806801638
 30
0.0
 10
16.8131414601
 20
13.2086505358
 30
0.0
 10
16.9495549519
 20
13.1042580743
 30
0.0
 10
17.0443771088
 20
13.0242086834
 30
0.0
 10
17.1324516841
 20
12.9418811675
 30
0.0
 10
17.2134091561
 20
12.8576206807
 30
0.0
 10
17.2868968206
 20
12.77177855
 30
0.0
 10
17.331510756
 20
12.712670852
 30
0.0
 10
17.3524127384
 20
12.6829420762
 30
0.0
  0
SPLINE
  5
598
100
AcDbEntity
  8
DRAWING
100
AcDbSpline
 62
7
  6
CONTINUOUS
 70
0
 71
3
 72
9
 73
5
 74
0
 42
0.0000001
 43
0.0000001
 44
0.0000000001
 40
0.0
 40
0.0
 40
0.0
 40
0.0
 40
0.5105212699
 40
1.0
 40
1.0
 40
1.0
 40
1.0
 10
17.3524127384
 20
12.6829420762
 30
0.0
 10
17.3742783316
 20
12.651842762
 30
0.0
 10
17.4149761805
 20
12.5893907964
 30
0.0
 10
17.4506989384
 20
12.5239439258
 30
0.0
 10
17.4667566156
 20
12.4912218202
 30
0.0
  0
SPLINE
  5
599
100
AcDbEntity
  8
DRAWING
100
AcDbSpline
 62
7
  6
CONTINUOUS
 70
0
 71
3
 72
9
 73
5
 74
0
 42
0.0000001
 43
0.0000001
 44
0.0000000001
 40
0.0
 40
0.0
 40
0.0
 40
0.0
 40
0.4890330052
 40
1.0
 40
1.0
 40
1.0
 40
1.0
 10
17.4752764298
 20
12.4912218202
 30
0.0
 10
17.4584218666
 20
12.5255678089
 30
0.0
 10
17.4207538788
 20
12.5942594356
 30
0.0
 10
17.3776612481
 20
12.6596575052
 30
0.0
 10
17.3544620156
 20
12.6922115298
 30
0.0
  0
SPLINE
  5
59A
100
AcDbEntity
  8
DRAWING
100
AcDbSpline
 62
7
  6
CONTINUOUS
 70
0
 71
3
 72
14
 73
10
 74
0
 42
0.0000001
 43
0.0000001
 44
0.0000000001
 40
0.0
 40
0.0
 40
0.0
 40
0.0
 40
0.1120369606
 40
0.228067554
 40
0.3480240871
 40
0.4717646886
 40
0.5990915672
 40
0.7297699287
 40
1.0
 40
1.0
 40
1.0
 40
1.0
 10
17.3544620156
 20
12.6922115298
 30
0.0
 10
17.3333919625
 20
12.721777811
 30
0.0
 10
17.2884898967
 20
12.7805525753
 30
0.0
 10
17.21468826
 20
12.8659093024
 30
0.0
 10
17.1335363115
 20
12.9496764654
 30
0.0
 10
17.0453838508
 20
13.0315124706
 30
0.0
 10
16.9505925711
 20
13.111076916
 30
0.0
 10
16.8143813289
 20
13.2148222643
 30
0.0
 10
16.7057285778
 20
13.2864374663
 30
0.0
 10
16.6307192438
 20
13.3316244556
 30
0.0
  0
SPLINE
  5
59B
100
AcDbEntity
  8
DRAWING
100
AcDbSpline
 62
7
  6
CONTINUOUS
 70
0
 71
3
 72
9
 73
5
 74
0
 42
0.0000001
 43
0.0000001
 44
0.0000000001
 40
0.0
 40
0.0
 40
0.0
 40
0.0
 40
0.4933947852
 40
1.0
 40
1.0
 40
1.0
 40
1.0
 10
16.6307192438
 20
13.3316244556
 30
0.0
 10
16.5368935349
 20
13.3881467719
 30
0.0
 10
16.3408264814
 20
13.4931090595
 30
0.0
 10
16.135928687
 20
13.5794397253
 30
0.0
 10
16.0304462579
 20
13.618459957
 30
0.0
  0
SPLINE
  5
59C
100
AcDbEntity
  8
DRAWING
100
AcDbSpline
 62
7
  6
CONTINUOUS
 70
0
 71
3
 72
15
 73
11
 74
0
 42
0.0000001
 43
0.0000001
 44
0.0000000001
 40
0.0
 40
0.0
 40
0.0
 40
0.0
 40
0.1357804815
 40
0.2701726334
 40
0.4022418332
 40
0.5311064636
 40
0.6559582261
 40
0.7760863203
 40
0.8909087681
 40
1.0
 40
1.0
 40
1.0
 40
1.0
 10
15.739715528
 20
13.7128925343
 30
0.0
 10
15.6677180961
 20
13.7331218266
 30
0.0
 10
15.5232369893
 20
13.7691661582
 30
0.0
 10
15.3053314422
 20
13.8098793071
 30
0.0
 10
15.0891025361
 20
13.8366692616
 30
0.0
 10
14.8768388662
 20
13.8492563508
 30
0.0
 10
14.6707724381
 20
13.8475046754
 30
0.0
 10
14.4730601127
 20
13.8314204177
 30
0.0
 10
14.2857940556
 20
13.8011771187
 30
0.0
 10
14.1660098725
 20
13.7709624706
 30
0.0
 10
14.1085532729
 20
13.7533840886
 30
0.0
  0
SPLINE
  5
59D
100
AcDbEntity
  8
DRAWING
100
AcDbSpline
 62
7
  6
CONTINUOUS
 70
0
 71
3
 72
15
 73
11
 74
0
 42
0.0000001
 43
0.0000001
 44
0.0000000001
 40
0.0
 40
0.0
 40
0.0
 40
0.0
 40
0.1417338783
 40
0.2782907564
 40
0.4097302887
 40
0.5362225463
 40
0.6580412037
 40
0.7755799715
 40
0.8893553807
 40
1.0
 40
1.0
 40
1.0
 40
1.0
 10
14.1085532729
 20
13.7533840886
 30
0.0
 10
14.0736987875
 20
13.7427206406
 30
0.0
 10
14.0058751114
 20
13.7196996395
 30
0.0
 10
13.9084840234
 20
13.6792714571
 30
0.0
 10
13.8177269756
 20
13.6337275424
 30
0.0
 10
13.7339925657
 20
13.5832665678
 30
0.0
 10
13.6576433913
 20
13.5280874319
 30
0.0
 10
13.5890160579
 20
13.4684076139
 30
0.0
 10
13.5284157347
 20
13.4044919411
 30
0.0
 10
13.4931319501
 20
13.3586604112
 30
0.0
 10
13.4770258546
 20
13.3352034566
 30
0.0
  0
SPLINE
  5
59E
100
AcDbEntity
  8
DRAWING
100
AcDbSpline
 62
7
  6
CONTINUOUS
 70
0
 71
3
 72
9
 73
5
 74
0
 42
0.0000001
 43
0.0000001
 44
0.0000000001
 40
0.0
 40
0.0
 40
0.0
 40
0.0
 40
0.5037347811
 40
1.0
 40
1.0
 40
1.0
 40
1.0
 10
13.4770258546
 20
13.3352034566
 30
0.0
 10
13.4597272881
 20
13.3100097845
 30
0.0
 10
13.4282807
 20
13.2579342412
 30
0.0
 10
13.4034931306
 20
13.2023648588
 30
0.0
 10
13.3929833703
 20
13.1741511462
 30
0.0
  0
SPLINE
  5
59F
100
AcDbEntity
  8
DRAWING
100
AcDbSpline
 62
7
  6
CONTINUOUS
 70
0
 71
3
 72
9
 73
5
 74
0
 42
0.0000001
 43
0.0000001
 44
0.0000000001
 40
0.0
 40
0.0
 40
0.0
 40
0.0
 40
0.4863094357
 40
1.0
 40
1.0
 40
1.0
 40
1.0
 10
17.1045095168
 20
11.3545183303
 30
0.0
 10
17.0613751847
 20
11.3307721333
 30
0.0
 10
16.9698222338
 20
11.2870216396
 30
0.0
 10
16.8744127922
 20
11.2526459517
 30
0.0
 10
16.8247577625
 20
11.2371692368
 30
0.0
  0
SPLINE
  5
5A0
100
AcDbEntity
  8
DRAWING
100
AcDbSpline
 62
7
  6
CONTINUOUS
 70
0
 71
3
 72
9
 73
5
 74
0
 42
0.0000001
 43
0.0000001
 44
0.0000000001
 40
0.0
 40
0.0
 40
0.0
 40
0.0
 40
0.4923867615
 40
1.0
 40
1.0
 40
1.0
 40
1.0
 10
16.2494534641
 20
11.1428488321
 30
0.0
 10
16.1833911158
 20
11.1400546034
 30
0.0
 10
16.0489893187
 20
11.1391518817
 30
0.0
 10
15.9148330615
 20
11.1470264332
 30
0.0
 10
15.8469378908
 20
11.153098392
 30
0.0
  0
SPLINE
  5
5A1
100
AcDbEntity
  8
DRAWING
100
AcDbSpline
 62
7
  6
CONTINUOUS
 70
0
 71
3
 72
9
 73
5
 74
0
 42
0.0000001
 43
0.0000001
 44
0.0000000001
 40
0.0
 40
0.0
 40
0.0
 40
0.0
 40
0.508577615
 40
1.0
 40
1.0
 40
1.0
 40
1.0
 10
14.3011148454
 20
11.6563281536
 30
0.0
 10
14.2430332347
 20
11.691410583
 30
0.0
 10
14.1309803051
 20
11.7640311921
 30
0.0
 10
14.0241339047
 20
11.8441514675
 30
0.0
 10
13.973191921
 20
11.8854283904
 30
0.0
  0
SPLINE
  5
5A2
100
AcDbEntity
  8
DRAWING
100
AcDbSpline
 62
7
  6
CONTINUOUS
 70
0
 71
3
 72
9
 73
5
 74
0
 42
0.0000001
 43
0.0000001
 44
0.0000000001
 40
0.0
 40
0.0
 40
0.0
 40
0.0
 40
0.5105212699
 40
1.0
 40
1.0
 40
1.0
 40
1.0
 10
13.5777088823
 20
12.2995015641
 30
0.0
 10
13.5558432891
 20
12.3306008783
 30
0.0
 10
13.5151454403
 20
12.393052844
 30
0.0
 10
13.4794226823
 20
12.4584997145
 30
0.0
 10
13.4633650052
 20
12.4912218202
 30
0.0
  0
SPLINE
  5
5A3
100
AcDbEntity
  8
DRAWING
100
AcDbSpline
 62
7
  6
CONTINUOUS
 70
0
 71
3
 72
12
 73
8
 74
0
 42
0.0000001
 43
0.0000001
 44
0.0000000001
 40
0.0
 40
0.0
 40
0.0
 40
0.0
 40
0.116347425
 40
0.2344350946
 40
0.4773549872
 40
0.7318976861
 40
1.0
 40
1.0
 40
1.0
 40
1.0
 10
17.5795392313
 20
11.9955587285
 30
0.0
 10
17.5813375106
 20
12.0153570309
 30
0.0
 10
17.5833705702
 20
12.0554126697
 30
0.0
 10
17.5811984181
 20
12.1370119081
 30
0.0
 10
17.5664642207
 20
12.2415633125
 30
0.0
 10
17.5304866157
 20
12.3676873994
 30
0.0
 10
17.495457486
 20
12.4500971515
 30
0.0
 10
17.4752764298
 20
12.4912218202
 30
0.0
  0
ENDSEC
  0
SECTION
  2
OBJECTS
  0
DICTIONARY
  5
C
100
AcDbDictionary
280
0
281
1
  3
ACAD_GROUP
350
D
  3
ACAD_MLINESTYLE
350
17
  3
ACAD_LAYOUT
350
1A
  3
ACAD_PLOTSETTINGS
350
19
  3
ACAD_PLOTSTYLENAME
350
E
  0
DICTIONARY
  5
D
102
{ACAD_REACTORS
330
C
102
}
100
AcDbDictionary
280
0
281
1
  0
ACDBDICTIONARYWDFLT
  5
E
102
{ACAD_REACTORS
330
C
102
}
100
AcDbDictionary
281
1
  3
Normal
350
F
100
AcDbDictionaryWithDefault
340
F
  0
DICTIONARY
  5
17
102
{ACAD_REACTORS
330
C
102
}
100
AcDbDictionary
280
0
281
1
  3
Standard
350
18
  0
DICTIONARY
  5
19
102
{ACAD_REACTORS
330
C
102
}
100
AcDbDictionary
281
1
  0
DICTIONARY
  5
1A
102
{ACAD_REACTORS
330
C
102
}
100
AcDbDictionary
281
1
  3
Model
350
5A4
  3
Layout1
350
5A5
  0
ACDBPLACEHOLDER
  5
F
102
{ACAD_REACTORS
330
E
102
}
  0
MLINESTYLE
  5
18
102
{ACAD_REACTORS
330
17
102
}
100
AcDbMlineStyle
  2
STANDARD
 70
0
  3

 62
256
 51
90.0
 52
90.0
 71
2
 49
0.5
 62
256
  6
BYLAYER
 49
-0.5
 62
256
  6
BYLAYER
  0
LAYOUT
  5
5A4
102
{ACAD_REACTORS
330
1A
102
}
100
AcDbPlotSettings
  1

  2
none_device
  4
ANSI_C_(22.00_x_17.00_Inches)
  6

 40
0.0
 41
0.0
 42
0.0
 43
0.0
 44
558.8
 45
431.8
 46
0.0
 47
0.0
 48
0.0
 49
0.0
140
0.0
141
0.0
142
1.0
143
1.0
 70
1024
 72
0
 73
0
 74
0
  7

 75
0
147
1.0
148
0.0
149
0.0
100
AcDbLayout
  1
Model
 70
0
 71
0
 10
0.0
 20
0.0
 11
22.0
 21
17.0
 12
0.0
 22
0.0
 32
0.0
 14
0.0
 24
0.0
 34
0.0
 15
0.0
 25
0.0
 35
0.0
146
0.0
 13
0.0
 23
0.0
 33
0.0
 16
1.0
 26
0.0
 36
0.0
 17
0.0
 27
1.0
 37
0.0
 76
0
330
218
345
0
346
0
  0
LAYOUT
  5
5A5
102
{ACAD_REACTORS
330
1A
102
}
100
AcDbPlotSettings
  1

  2
none_device
  4
ANSI_C_(22.00_x_17.00_Inches)
  6

 40
0.0
 41
0.0
 42
0.0
 43
0.0
 44
558.8
 45
431.8
 46
0.0
 47
0.0
 48
0.0
 49
0.0
140
0.0
141
0.0
142
1.0
143
1.0
 70
0
 72
0
 73
0
 74
0
  7

 75
0
147
1.0
148
0.0
149
0.0
100
AcDbLayout
  1
Layout1
 70
0
 71
1
 10
0.0
 20
0.0
 11
22.0
 21
17.0
 12
0.0
 22
0.0
 32
0.0
 14
0.0
 24
0.0
 34
0.0
 15
0.0
 25
0.0
 35
0.0
146
0.0
 13
0.0
 23
0.0
 33
0.0
 16
1.0
 26
0.0
 36
0.0
 17
0.0
 27
1.0
 37
0.0
 76
0
330
219
345
0
346
0
  0
ENDSEC
  0
EOF