999
DXF file: _cgs_temp_output.dxf
999
Pro/ENGINEER 2016360 by Parametric Technology Corporation
  0
SECTION
  2
HEADER
  9
$ACADVER
  1
AC1021
  9
$DWGCODEPAGE
  3
ANSI_1252
  9
$EXTMAX
 10
22.0
 20
17.0
 30
0.0
  9
$EXTMIN
 10
0.0
 20
0.0
 30
0.0
  9
$LIMMIN
 10
0.0
 20
0.0
  9
$LIMMAX
 10
22.0
 20
17.0
  9
$VIEWCTR
 10
11.0
 20
8.5
  9
$VIEWSIZE
 40
17.0
  9
$CLAYER
  8
0
  9
$LTSCALE
 40
1.21
  9
$CELTYPE
  6
BYLAYER
  9
$DIMSCALE
 40
1.0
  9
$DIMASZ
 40
0.1875
  9
$DIMEXO
 40
0.0625
  9
$DIMDLI
 40
0.836
  9
$DIMEXE
 40
0.125
  9
$DIMCEN
 40
0.198
  9
$DIMLFAC
 40
1.0
  9
$DIMBLK
  1
_CLOSED
  9
$DIMALT
 70
0
  9
$DIMALTF
 40
25.4
  9
$DIMTXT
 40
0.15625
  9
$DIMTOL
 70
0
  9
$DIMLIM
 70
0
  9
$DIMTFAC
 40
1.0
  9
$DIMGAP
 40
0.09
  9
$DIMDSEP
 70
46
  9
$AUNITS
 70
0
  9
$PDMODE
 70
3
  9
$PDSIZE
 40
0.3125
  9
$HANDSEED
  5
279
  9
$TILEMODE
 70
1
  9
$MEASUREMENT
 70
0
  9
$INSUNITS
 70
1
  0
ENDSEC
  0
SECTION
  2
CLASSES
  0
CLASS
  1
ACDBDICTIONARYWDFLT
  2
AcDbDictionaryWithDefault
  3
AutoCAD 2000
 90
0
 91
1
280
0
281
0
  0
CLASS
  1
ACDBPLACEHOLDER
  2
AcDbPlaceHolder
  3
AutoCAD 2000
 90
0
 91
1
280
0
281
0
  0
CLASS
  1
LAYOUT
  2
AcDbLayout
  3
AutoCAD 2000
 90
0
 91
0
280
0
281
0
  0
ENDSEC
  0
SECTION
  2
TABLES
  0
TABLE
  2
VPORT
  5
8
100
AcDbSymbolTable
 70
2
  0
VPORT
  5
1F4
100
AcDbSymbolTableRecord
100
AcDbViewportTableRecord
  2
*ACTIVE
 70
0
 10
0.0
 20
0.0
 11
1.0
 21
1.0
 12
11.0
 22
8.5
 13
0.0
 23
0.0
 14
1.0
 24
1.0
 15
0.0
 25
0.0
 16
0.0
 26
0.0
 36
1.0
 17
0.0
 27
0.0
 37
0.0
 40
17.0
 41
1.2941176471
 42
50.0
 43
0.0
 44
0.0
 50
0.0
 51
0.0
 71
0
 72
100
 73
1
 74
1
 75
0
 76
0
 77
0
 78
0
  0
ENDTAB
  0
TABLE
  2
LTYPE
  5
5
100
AcDbSymbolTable
 70
6
  0
LTYPE
  5
14
100
AcDbSymbolTableRecord
100
AcDbLinetypeTableRecord
  2
BYBLOCK
 70
0
  3

 72
65
 73
0
 40
0.0
  0
LTYPE
  5
15
100
AcDbSymbolTableRecord
100
AcDbLinetypeTableRecord
  2
BYLAYER
 70
0
  3

 72
65
 73
0
 40
0.0
  0
LTYPE
  5
16
100
AcDbSymbolTableRecord
100
AcDbLinetypeTableRecord
  2
CONTINUOUS
 70
64
  3
Solid line
 72
65
 73
0
 40
0.0
  0
LTYPE
  5
1F5
100
AcDbSymbolTableRecord
100
AcDbLinetypeTableRecord
  2
CENTER
 70
64
  3
____ _ ____ _ ____ _ ____ _ ____ _ ____ _ ____
 72
65
 73
4
 40
0.6
 49
0.375
 74
0
 49
-0.075
 74
0
 49
0.075
 74
0
 49
-0.075
 74
0
  0
LTYPE
  5
1F6
100
AcDbSymbolTableRecord
100
AcDbLinetypeTableRecord
  2
HIDDEN
 70
64
  3
- - - - - - - - - - - - - - - - - - - -
 72
65
 73
2
 40
0.2
 49
0.1
 74
0
 49
-0.1
 74
0
  0
LTYPE
  5
1F7
100
AcDbSymbolTableRecord
100
AcDbLinetypeTableRecord
  2
PHANTOM
 70
64
  3
_____ _ _ _____ _ _ _____ _ _ _____
 72
65
 73
6
 40
0.8
 49
0.45
 74
0
 49
-0.05
 74
0
 49
0.1
 74
0
 49
-0.05
 74
0
 49
0.1
 74
0
 49
-0.05
 74
0
  0
LTYPE
  5
1F8
100
AcDbSymbolTableRecord
100
AcDbLinetypeTableRecord
  2
DOT
 70
64
  3
. . . . . . . . . . . . . . . . . . . .
 72
65
 73
2
 40
0.2
 49
0.1
 74
0
 49
-0.1
 74
0
  0
LTYPE
  5
1F9
100
AcDbSymbolTableRecord
100
AcDbLinetypeTableRecord
  2
DASHED
 70
64
  3
- - - - - - - - - - - - - - - - - - - -
 72
65
 73
2
 40
0.2
 49
0.1
 74
0
 49
-0.1
 74
0
  0
ENDTAB
  0
TABLE
  2
LAYER
  5
2
100
AcDbSymbolTable
 70
36
  0
LAYER
  5
10
100
AcDbSymbolTableRecord
100
AcDbLayerTableRecord
  2
0
 70
0
 62
7
  6
CONTINUOUS
370
-3
390
F
  0
LAYER
  5
1FA
100
AcDbSymbolTableRecord
100
AcDbLayerTableRecord
  2
DEFAULT_1
 70
0
 62
7
  6
CENTER
370
-3
390
F
  0
LAYER
  5
1FB
100
AcDbSymbolTableRecord
100
AcDbLayerTableRecord
  2
DEFAULT_2
 70
0
 62
8
  6
HIDDEN
370
-3
390
F
  0
LAYER
  5
1FC
100
AcDbSymbolTableRecord
100
AcDbLayerTableRecord
  2
DEFAULT_3
 70
0
 62
7
  6
PHANTOM
370
-3
390
F
  0
LAYER
  5
1FD
100
AcDbSymbolTableRecord
100
AcDbLayerTableRecord
  2
01_ALL_DTM_PLN
 70
0
 62
7
  6
CONTINUOUS
370
-3
390
F
  0
LAYER
  5
1FE
100
AcDbSymbolTableRecord
100
AcDbLayerTableRecord
  2
01__ASM_ALL_DTM_PLN
 70
0
 62
7
  6
CONTINUOUS
370
-3
390
F
  0
LAYER
  5
1FF
100
AcDbSymbolTableRecord
100
AcDbLayerTableRecord
  2
01__ASM_DEF_DTM_PLN
 70
0
 62
7
  6
CONTINUOUS
370
-3
390
F
  0
LAYER
  5
200
100
AcDbSymbolTableRecord
100
AcDbLayerTableRecord
  2
01___PRT_ALL_DTM_PLN
 70
0
 62
7
  6
CONTINUOUS
370
-3
390
F
  0
LAYER
  5
201
100
AcDbSymbolTableRecord
100
AcDbLayerTableRecord
  2
01___PRT_DEF_DTM_PLN
 70
0
 62
7
  6
CONTINUOUS
370
-3
390
F
  0
LAYER
  5
202
100
AcDbSymbolTableRecord
100
AcDbLayerTableRecord
  2
02_ALL_AXES
 70
0
 62
7
  6
CONTINUOUS
370
-3
390
F
  0
LAYER
  5
203
100
AcDbSymbolTableRecord
100
AcDbLayerTableRecord
  2
02__ASM_ALL_AXES
 70
0
 62
7
  6
CONTINUOUS
370
-3
390
F
  0
LAYER
  5
204
100
AcDbSymbolTableRecord
100
AcDbLayerTableRecord
  2
02___PRT_ALL_AXES
 70
0
 62
7
  6
CONTINUOUS
370
-3
390
F
  0
LAYER
  5
205
100
AcDbSymbolTableRecord
100
AcDbLayerTableRecord
  2
03_ALL_CURVES
 70
0
 62
7
  6
CONTINUOUS
370
-3
390
F
  0
LAYER
  5
206
100
AcDbSymbolTableRecord
100
AcDbLayerTableRecord
  2
03__ASM_ALL_CURVES
 70
0
 62
7
  6
CONTINUOUS
370
-3
390
F
  0
LAYER
  5
207
100
AcDbSymbolTableRecord
100
AcDbLayerTableRecord
  2
03___PRT_ALL_CURVES
 70
0
 62
7
  6
CONTINUOUS
370
-3
390
F
  0
LAYER
  5
208
100
AcDbSymbolTableRecord
100
AcDbLayerTableRecord
  2
04_ALL_DTM_PNT
 70
0
 62
7
  6
CONTINUOUS
370
-3
390
F
  0
LAYER
  5
209
100
AcDbSymbolTableRecord
100
AcDbLayerTableRecord
  2
04__ASM_ALL_DTM_PNT
 70
0
 62
7
  6
CONTINUOUS
370
-3
390
F
  0
LAYER
  5
20A
100
AcDbSymbolTableRecord
100
AcDbLayerTableRecord
  2
04___PRT_ALL_DTM_PNT
 70
0
 62
7
  6
CONTINUOUS
370
-3
390
F
  0
LAYER
  5
20B
100
AcDbSymbolTableRecord
100
AcDbLayerTableRecord
  2
05_ALL_DTM_CSYS
 70
0
 62
7
  6
CONTINUOUS
370
-3
390
F
  0
LAYER
  5
20C
100
AcDbSymbolTableRecord
100
AcDbLayerTableRecord
  2
05__ASM_ALL_DTM_CSYS
 70
0
 62
7
  6
CONTINUOUS
370
-3
390
F
  0
LAYER
  5
20D
100
AcDbSymbolTableRecord
100
AcDbLayerTableRecord
  2
05__ASM_DEF_DTM_CSYS
 70
0
 62
7
  6
CONTINUOUS
370
-3
390
F
  0
LAYER
  5
20E
100
AcDbSymbolTableRecord
100
AcDbLayerTableRecord
  2
05___PRT_ALL_DTM_CSYS
 70
0
 62
7
  6
CONTINUOUS
370
-3
390
F
  0
LAYER
  5
20F
100
AcDbSymbolTableRecord
100
AcDbLayerTableRecord
  2
05___PRT_DEF_DTM_CSYS
 70
0
 62
7
  6
CONTINUOUS
370
-3
390
F
  0
LAYER
  5
210
100
AcDbSymbolTableRecord
100
AcDbLayerTableRecord
  2
06_ALL_SURFS
 70
0
 62
7
  6
CONTINUOUS
370
-3
390
F
  0
LAYER
  5
211
100
AcDbSymbolTableRecord
100
AcDbLayerTableRecord
  2
06__ASM_ALL_SURFS
 70
0
 62
7
  6
CONTINUOUS
370
-3
390
F
  0
LAYER
  5
212
100
AcDbSymbolTableRecord
100
AcDbLayerTableRecord
  2
06___PRT_ALL_SURFS
 70
0
 62
7
  6
CONTINUOUS
370
-3
390
F
  0
LAYER
  5
213
100
AcDbSymbolTableRecord
100
AcDbLayerTableRecord
  2
07__ASM_ALL_SKELETONS
 70
0
 62
7
  6
CONTINUOUS
370
-3
390
F
  0
LAYER
  5
214
100
AcDbSymbolTableRecord
100
AcDbLayerTableRecord
  2
DRAWING
 70
0
 62
7
  6
CONTINUOUS
370
-3
390
F
  0
LAYER
  5
215
100
AcDbSymbolTableRecord
100
AcDbLayerTableRecord
  2
SHELL
 70
0
 62
7
  6
CONTINUOUS
370
-3
390
F
  0
ENDTAB
  0
TABLE
  2
STYLE
  5
3
100
AcDbSymbolTable
 70
1
  0
STYLE
  5
11
100
AcDbSymbolTableRecord
100
AcDbTextStyleTableRecord
  2
STANDARD
 70
0
 40
0.0
 41
0.8
 50
0.0
 71
0
 42
0.2
  3
txt
  4

  0
STYLE
  5
216
100
AcDbSymbolTableRecord
100
AcDbTextStyleTableRecord
  2
TEXTSTYLE_1
 70
0
 40
0.0
 41
0.8
 50
0.0
 71
0
 42
0.2
  3
gdt
  4

  0
ENDTAB
  0
TABLE
  2
VIEW
  5
6
100
AcDbSymbolTable
 70
0
  0
ENDTAB
  0
TABLE
  2
UCS
  5
7
100
AcDbSymbolTable
 70
0
  0
ENDTAB
  0
TABLE
  2
APPID
  5
9
100
AcDbSymbolTable
 70
1
  0
APPID
  5
217
100
AcDbSymbolTableRecord
100
AcDbRegAppTableRecord
  2
ACAD
 70
0
  0
ENDTAB
  0
TABLE
  2
BLOCK_RECORD
  5
1
100
AcDbSymbolTable
 70
0
  0
BLOCK_RECORD
  5
218
100
AcDbSymbolTableRecord
100
AcDbBlockTableRecord
  2
*Model_Space
  0
BLOCK_RECORD
  5
219
100
AcDbSymbolTableRecord
100
AcDbBlockTableRecord
  2
*Paper_Space
  0
ENDTAB
  0
TABLE
  2
DIMSTYLE
  5
A
100
AcDbSymbolTable
 70
1
100
AcDbDimStyleTable
 71
0
  0
DIMSTYLE
105
21A
100
AcDbSymbolTableRecord
100
AcDbDimStyleTableRecord
  2
STANDARD
 70
0
  3

  4

 40
1.0
 41
0.1875
 42
0.0625
 43
0.38
 44
0.125
 45
0.0
 46
0.0
 47
0.0001
 48
0.0001
140
0.15625
141
0.09
142
0.0
143
25.4
144
1.0
145
0.0
146
1.0
147
0.09
 71
0.0
 72
0.0
 73
1
 74
1
 75
0
 76
0
 77
0
 78
4
 79
1
170
0
171
3
172
0
173
0
174
0
175
0
176
0
177
0
178
0
270
2
179
4
271
4
272
4
273
2
274
2
275
0
280
0
281
0
282
0
283
1
284
4
285
0
286
0
287
3
288
0
340
11
278
46
  0
ENDTAB
  0
ENDSEC
  0
SECTION
  2
BLOCKS
  0
BLOCK
  5
20
100
AcDbEntity
  8
0
100
AcDbBlockBegin
  2
*Model_Space
 70
0
 10
0.0
 20
0.0
 30
0.0
  3
*Model_Space
  1

  0
ENDBLK
  5
21
100
AcDbEntity
  8
0
100
AcDbBlockEnd
  0
BLOCK
  5
1C
100
AcDbEntity
  8
0
100
AcDbBlockBegin
  2
*Paper_Space
 70
0
 10
0.0
 20
0.0
 30
0.0
  3
*Paper_Space
  1

  0
ENDBLK
  5
1D
100
AcDbEntity
  8
0
100
AcDbBlockEnd
  0
ENDSEC
  0
SECTION
  2
ENTITIES
  0
MTEXT
  5
21B
100
AcDbEntity
  8
0
100
AcDbMText
 62
7
  6
CONTINUOUS
  7
STANDARD
 71
1
 72
1
 10
15.9560215477
 20
0.9479130325
 30
0.0
 11
1.0
 21
0.0
 31
0.0
 44
0.9
  1
SCALE: 1:0.167
 40
0.3
 41
3.36
  0
LINE
  5
21C
100
AcDbEntity
  8
0
100
AcDbLine
 62
7
  6
CONTINUOUS
 10
0.0
 20
0.0
 11
0.0
 21
17.0
  0
LINE
  5
21D
100
AcDbEntity
  8
0
100
AcDbLine
 62
7
  6
CONTINUOUS
 10
0.0
 20
0.0
 11
22.0
 21
0.0
  0
LINE
  5
21E
100
AcDbEntity
  8
0
100
AcDbLine
 62
7
  6
CONTINUOUS
 10
0.0
 20
17.0
 11
22.0
 21
17.0
  0
LINE
  5
21F
100
AcDbEntity
  8
0
100
AcDbLine
 62
7
  6
CONTINUOUS
 10
22.0
 20
0.0
 11
22.0
 21
17.0
  0
LINE
  5
220
100
AcDbEntity
  8
02___PRT_ALL_AXES
100
AcDbLine
 62
7
  6
CONTINUOUS
 10
6.1095339428
 20
8.6997032301
 11
6.1128672762
 21
8.7030365634
  0
LINE
  5
221
100
AcDbEntity
  8
02___PRT_ALL_AXES
100
AcDbLine
 62
7
  6
CONTINUOUS
 10
6.1478672762
 20
8.6197032301
 11
6.1512006095
 21
8.6230365634
  0
LINE
  5
222
100
AcDbEntity
  8
02___PRT_ALL_AXES
100
AcDbLine
 62
7
  6
CONTINUOUS
 10
6.1095339428
 20
8.6230365634
 11
6.1095339428
 21
8.6997032301
  0
LINE
  5
223
100
AcDbEntity
  8
02___PRT_ALL_AXES
100
AcDbLine
 62
7
  6
CONTINUOUS
 10
6.1512006095
 20
8.6230365634
 11
6.1512006095
 21
8.6997032301
  0
LINE
  5
224
100
AcDbEntity
  8
02___PRT_ALL_AXES
100
AcDbLine
 62
7
  6
CONTINUOUS
 10
6.1128672762
 20
8.6197032301
 11
6.1095339428
 21
8.6230365634
  0
LINE
  5
225
100
AcDbEntity
  8
02___PRT_ALL_AXES
100
AcDbLine
 62
7
  6
CONTINUOUS
 10
6.1512006095
 20
8.6997032301
 11
6.1478672762
 21
8.7030365634
  0
LINE
  5
226
100
AcDbEntity
  8
02___PRT_ALL_AXES
100
AcDbLine
 62
7
  6
CONTINUOUS
 10
6.1129291312
 20
8.6197032301
 11
6.1478054211
 21
8.6197032301
  0
LINE
  5
227
100
AcDbEntity
  8
02___PRT_ALL_AXES
100
AcDbLine
 62
7
  6
CONTINUOUS
 10
6.1095339428
 20
8.6230365634
 11
6.1512006095
 21
8.6230365634
  0
LINE
  5
228
100
AcDbEntity
  8
02___PRT_ALL_AXES
100
AcDbLine
 62
7
  6
CONTINUOUS
 10
6.1095339428
 20
8.6997032301
 11
6.1512006095
 21
8.6997032301
  0
LINE
  5
229
100
AcDbEntity
  8
02___PRT_ALL_AXES
100
AcDbLine
 62
7
  6
CONTINUOUS
 10
6.1129291312
 20
8.7030365634
 11
6.1478054211
 21
8.7030365634
  0
LINE
  5
22A
100
AcDbEntity
  8
DRAWING
100
AcDbLine
 62
7
  6
CONTINUOUS
 10
5.6425387505
 20
12.6083811147
 11
5.6425387505
 21
12.591714448
  0
LINE
  5
22B
100
AcDbEntity
  8
0
100
AcDbLine
 62
7
  6
CONTINUOUS
 10
6.0650387505
 20
12.6101514111
 11
6.0592054172
 21
12.6000477814
  0
LINE
  5
22C
100
AcDbEntity
  8
0
100
AcDbLine
 62
7
  6
CONTINUOUS
 10
6.0650387505
 20
12.5899441517
 11
6.0767054172
 21
12.5899441517
  0
LINE
  5
22D
100
AcDbEntity
  8
DRAWING
100
AcDbLine
 62
7
  6
CONTINUOUS
 10
6.4992054172
 20
12.591714448
 11
6.089308615
 21
12.591714448
  0
LINE
  5
22E
100
AcDbEntity
  8
DRAWING
100
AcDbLine
 62
7
  6
CONTINUOUS
 10
6.0524355527
 20
12.591714448
 11
5.6425387505
 21
12.591714448
  0
LINE
  5
22F
100
AcDbEntity
  8
0
100
AcDbLine
 62
7
  6
CONTINUOUS
 10
6.0592054172
 20
12.6000477814
 11
6.0650387505
 21
12.5899441517
  0
LINE
  5
230
100
AcDbEntity
  8
0
100
AcDbLine
 62
7
  6
CONTINUOUS
 10
6.0767054172
 20
12.5899441517
 11
6.0825387505
 21
12.6000477814
  0
LINE
  5
231
100
AcDbEntity
  8
DRAWING
100
AcDbLine
 62
7
  6
CONTINUOUS
 10
6.4992054172
 20
12.6083811147
 11
6.089308615
 21
12.6083811147
  0
LINE
  5
232
100
AcDbEntity
  8
DRAWING
100
AcDbLine
 62
7
  6
CONTINUOUS
 10
6.0524355527
 20
12.6083811147
 11
5.6425387505
 21
12.6083811147
  0
LINE
  5
233
100
AcDbEntity
  8
0
100
AcDbLine
 62
7
  6
CONTINUOUS
 10
6.0767054172
 20
12.6101514111
 11
6.0650387505
 21
12.6101514111
  0
LINE
  5
234
100
AcDbEntity
  8
0
100
AcDbLine
 62
7
  6
CONTINUOUS
 10
6.0825387505
 20
12.6000477814
 11
6.0767054172
 21
12.6101514111
  0
LINE
  5
235
100
AcDbEntity
  8
DRAWING
100
AcDbLine
 62
7
  6
CONTINUOUS
 10
6.4992054172
 20
12.6083811147
 11
6.4992054172
 21
12.591714448
  0
LINE
  5
236
100
AcDbEntity
  8
DRAWING
100
AcDbLine
 62
7
  6
CONTINUOUS
 10
15.5686885903
 20
2.2777080378
 11
15.5520219236
 21
2.2777080378
  0
LINE
  5
237
100
AcDbEntity
  8
DRAWING
100
AcDbLine
 62
7
  6
CONTINUOUS
 10
15.5686885903
 20
3.1343747044
 11
15.5520219236
 21
3.1343747044
  0
LINE
  5
238
100
AcDbEntity
  8
02___PRT_ALL_AXES
100
AcDbLine
 62
7
  6
CONTINUOUS
 10
15.5428552569
 20
8.6435413711
 11
15.5395219236
 21
8.6402080378
  0
LINE
  5
239
100
AcDbEntity
  8
02___PRT_ALL_AXES
100
AcDbLine
 62
7
  6
CONTINUOUS
 10
15.5811885903
 20
8.5635413711
 11
15.5778552569
 21
8.5602080378
  0
LINE
  5
23A
100
AcDbEntity
  8
02___PRT_ALL_AXES
100
AcDbLine
 62
7
  6
CONTINUOUS
 10
15.5395219236
 20
8.6402080378
 11
15.5395219236
 21
8.5635413711
  0
LINE
  5
23B
100
AcDbEntity
  8
DRAWING
100
AcDbLine
 62
7
  6
CONTINUOUS
 10
15.5520219236
 20
2.2777130566
 11
15.5520219236
 21
3.1343696856
  0
LINE
  5
23C
100
AcDbEntity
  8
DRAWING
100
AcDbLine
 62
7
  6
CONTINUOUS
 10
15.5686885903
 20
2.2777130566
 11
15.5686885903
 21
3.1343696856
  0
LINE
  5
23D
100
AcDbEntity
  8
02___PRT_ALL_AXES
100
AcDbLine
 62
7
  6
CONTINUOUS
 10
15.5811885903
 20
8.6402080378
 11
15.5811885903
 21
8.5635413711
  0
LINE
  5
23E
100
AcDbEntity
  8
02___PRT_ALL_AXES
100
AcDbLine
 62
7
  6
CONTINUOUS
 10
15.5395219236
 20
8.5635413711
 11
15.5428552569
 21
8.5602080378
  0
LINE
  5
23F
100
AcDbEntity
  8
02___PRT_ALL_AXES
100
AcDbLine
 62
7
  6
CONTINUOUS
 10
15.5778552569
 20
8.6435413711
 11
15.5811885903
 21
8.6402080378
  0
LINE
  5
240
100
AcDbEntity
  8
02___PRT_ALL_AXES
100
AcDbLine
 62
7
  6
CONTINUOUS
 10
15.5428552569
 20
8.5602080378
 11
15.5778552569
 21
8.5602080378
  0
LINE
  5
241
100
AcDbEntity
  8
02___PRT_ALL_AXES
100
AcDbLine
 62
7
  6
CONTINUOUS
 10
15.5395219236
 20
8.5635413711
 11
15.5811885903
 21
8.5635413711
  0
LINE
  5
242
100
AcDbEntity
  8
02___PRT_ALL_AXES
100
AcDbLine
 62
7
  6
CONTINUOUS
 10
15.5395219236
 20
8.6402080378
 11
15.5811885903
 21
8.6402080378
  0
LINE
  5
243
100
AcDbEntity
  8
02___PRT_ALL_AXES
100
AcDbLine
 62
7
  6
CONTINUOUS
 10
15.5428552569
 20
8.6435413711
 11
15.5778552569
 21
8.6435413711
  0
LINE
  5
244
100
AcDbEntity
  8
0
100
AcDbLine
 62
7
  6
CONTINUOUS
 10
14.3632261773
 20
14.4930201363
 11
14.355407573
 21
14.4851056912
  0
LINE
  5
245
100
AcDbEntity
  8
0
100
AcDbLine
 62
7
  6
CONTINUOUS
 10
14.3683102084
 20
14.4826599701
 11
14.3629077085
 21
14.4771912462
  0
LINE
  5
246
100
AcDbEntity
  8
0
100
AcDbLine
 62
7
  6
CONTINUOUS
 10
14.3690803919
 20
14.4771912462
 11
14.3768989962
 21
14.4851056912
  0
LINE
  5
247
100
AcDbEntity
  8
0
100
AcDbLine
 62
7
  6
CONTINUOUS
 10
14.355407573
 20
14.4851056912
 11
14.3583346803
 21
14.4771912462
  0
LINE
  5
248
100
AcDbEntity
  8
0
100
AcDbLine
 62
7
  6
CONTINUOUS
 10
14.3768989962
 20
14.4851056912
 11
14.3739718889
 21
14.4930201363
  0
LINE
  5
249
100
AcDbEntity
  8
02___PRT_ALL_AXES
100
AcDbLine
 62
7
  6
CONTINUOUS
 10
14.3718538911
 20
14.4261989207
 11
14.348467348
 21
14.4738556849
  0
LINE
  5
24A
100
AcDbEntity
  8
0
100
AcDbLine
 62
7
  6
CONTINUOUS
 10
14.355407573
 20
14.4851056912
 11
14.3592914185
 21
14.4771912462
  0
LINE
  5
24B
100
AcDbEntity
  8
0
100
AcDbLine
 62
7
  6
CONTINUOUS
 10
14.3632261773
 20
14.4930201363
 11
14.3683102084
 21
14.4826599701
  0
LINE
  5
24C
100
AcDbEntity
  8
02___PRT_ALL_AXES
100
AcDbLine
 62
7
  6
CONTINUOUS
 10
14.4092593767
 20
14.4445548669
 11
14.3858728336
 21
14.4922116311
  0
LINE
  5
24D
100
AcDbEntity
  8
DRAWING
100
AcDbLine
 62
7
  6
CONTINUOUS
 10
15.7681342324
 20
10.913802856
 11
15.7681561394
 21
10.9140440986
  0
LINE
  5
24E
100
AcDbEntity
  8
DRAWING
100
AcDbLine
 62
7
  6
CONTINUOUS
 10
15.7678734209
 20
10.9138745073
 11
15.767921946
 21
10.9141085783
  0
LINE
  5
24F
100
AcDbEntity
  8
DRAWING
100
AcDbLine
 62
7
  6
CONTINUOUS
 10
15.7701179921
 20
10.9272885197
 11
15.7660835534
 21
10.9142330712
  0
LINE
  5
250
100
AcDbEntity
  8
DRAWING
100
AcDbLine
 62
7
  6
CONTINUOUS
 10
16.588595182
 20
10.6743599381
 11
16.5845607433
 21
10.6613044896
  0
LINE
  5
251
100
AcDbEntity
  8
DRAWING
100
AcDbLine
 62
7
  6
CONTINUOUS
 10
16.582345804
 20
10.6622139847
 11
16.5823059396
 21
10.6621169387
  0
LINE
  5
252
100
AcDbEntity
  8
DRAWING
100
AcDbLine
 62
7
  6
CONTINUOUS
 10
16.5828846603
 20
10.6620286488
 11
16.5828441136
 21
10.6619316896
  0
LINE
  5
253
100
AcDbEntity
  8
0
100
AcDbLine
 62
7
  6
CONTINUOUS
 10
14.3583346803
 20
14.4771912462
 11
14.3690803919
 21
14.4771912462
  0
LINE
  5
254
100
AcDbEntity
  8
0
100
AcDbLine
 62
7
  6
CONTINUOUS
 10
14.3744828918
 20
14.4826599701
 11
14.3683102084
 21
14.4826599701
  0
LINE
  5
255
100
AcDbEntity
  8
0
100
AcDbLine
 62
7
  6
CONTINUOUS
 10
14.3739718889
 20
14.4930201363
 11
14.3632261773
 21
14.4930201363
  0
CIRCLE
  5
256
100
AcDbEntity
  8
DRAWING
100
AcDbCircle
 62
7
  6
CONTINUOUS
 10
6.1303672762
 20
2.7655365634
 40
0.4283333333
  0
CIRCLE
  5
257
100
AcDbEntity
  8
DRAWING
100
AcDbCircle
 62
7
  6
CONTINUOUS
 10
6.1303672762
 20
2.7655365634
 40
0.4271666667
  0
CIRCLE
  5
258
100
AcDbEntity
  8
02___PRT_ALL_AXES
100
AcDbCircle
 62
7
  6
CONTINUOUS
 10
6.0708720839
 20
12.6000477814
 40
0.0208333333
  0
CIRCLE
  5
259
100
AcDbEntity
  8
02___PRT_ALL_AXES
100
AcDbCircle
 62
7
  6
CONTINUOUS
 10
6.0708720839
 20
12.6000477814
 40
0.0175
  0
ARC
  5
25A
100
AcDbEntity
  8
DRAWING
100
AcDbCircle
 62
7
  6
CONTINUOUS
 10
15.9008205822
 20
10.8725754582
 40
0.141029549
100
AcDbArc
 50
157.2970501486
 51
162.8195853684
  0
ARC
  5
25B
100
AcDbEntity
  8
DRAWING
100
AcDbCircle
 62
7
  6
CONTINUOUS
 10
15.9058397147
 20
10.8853955781
 40
0.140874935
100
AcDbArc
 50
167.4386114348
 51
168.2396219195
  0
ARC
  5
25C
100
AcDbEntity
  8
DRAWING
100
AcDbCircle
 62
7
  6
CONTINUOUS
 10
16.4488390208
 20
10.7031974312
 40
0.1408749349
100
AcDbArc
 50
347.4386114346
 51
348.2396219196
  0
ARC
  5
25D
100
AcDbEntity
  8
DRAWING
100
AcDbCircle
 62
7
  6
CONTINUOUS
 10
16.4531189192
 20
10.7162486346
 40
0.1406376707
100
AcDbArc
 50
337.323377211
 51
341.1087718531
  0
ARC
  5
25E
100
AcDbEntity
  8
DRAWING
100
AcDbCircle
 62
7
  6
CONTINUOUS
 10
15.9015598163
 20
10.8723443747
 40
0.1406376707
100
AcDbArc
 50
157.323377211
 51
161.1087718531
  0
ARC
  5
25F
100
AcDbEntity
  8
DRAWING
100
AcDbCircle
 62
7
  6
CONTINUOUS
 10
16.4502180794
 20
10.7028230761
 40
0.140611716
100
AcDbArc
 50
342.8262414598
 51
348.3273169966
  0
ARC
  5
260
100
AcDbEntity
  8
DRAWING
100
AcDbCircle
 62
7
  6
CONTINUOUS
 10
15.9055320739
 20
10.8854638021
 40
0.1405598203
100
AcDbArc
 50
166.7003380936
 51
167.4384824623
  0
ARC
  5
261
100
AcDbEntity
  8
DRAWING
100
AcDbCircle
 62
7
  6
CONTINUOUS
 10
16.4491466615
 20
10.7031292072
 40
0.1405598203
100
AcDbArc
 50
346.7003380936
 51
347.4384824623
  0
ARC
  5
262
100
AcDbEntity
  8
DRAWING
100
AcDbCircle
 62
7
  6
CONTINUOUS
 10
16.4494987577
 20
10.7030445136
 40
0.140197684
100
AcDbArc
 50
342.8265691248
 51
346.7009202424
  0
ARC
  5
263
100
AcDbEntity
  8
DRAWING
100
AcDbCircle
 62
7
  6
CONTINUOUS
 10
15.9011113835
 20
10.8725002529
 40
0.1401629237
100
AcDbArc
 50
161.1097086151
 51
162.8252608482
  0
SPLINE
  5
264
100
AcDbEntity
  8
02___PRT_ALL_AXES
100
AcDbSpline
 62
7
  6
CONTINUOUS
 70
0
 71
3
 72
13
 73
9
 74
0
 42
0.0000001
 43
0.0000001
 44
0.0000000001
 40
0.0
 40
0.0
 40
0.0
 40
0.0
 40
0.2702212121
 40
0.5446798886
 40
0.6725193792
 40
0.7902972373
 40
0.8982922355
 40
1.0
 40
1.0
 40
1.0
 40
1.0
 10
14.3855135855
 20
14.4190575832
 30
0.0
 10
14.38913712
 20
14.4190575832
 30
0.0
 10
14.3964704633
 20
14.4207933526
 30
0.0
 10
14.4040982347
 20
14.4260432478
 30
0.0
 10
14.4083319261
 20
14.431660645
 30
0.0
 10
14.410166274
 20
14.4360957404
 30
0.0
 10
14.4106195826
 20
14.4405406971
 30
0.0
 10
14.4098584451
 20
14.4433296274
 30
0.0
 10
14.4092576053
 20
14.4445539976
 30
0.0
  0
SPLINE
  5
265
100
AcDbEntity
  8
02___PRT_ALL_AXES
100
AcDbSpline
 62
7
  6
CONTINUOUS
 70
0
 71
3
 72
10
 73
6
 74
0
 42
0.0000001
 43
0.0000001
 44
0.0000000001
 40
0.0
 40
0.0
 40
0.0
 40
0.0
 40
0.5322509602
 40
0.7722120775
 40
1.0
 40
1.0
 40
1.0
 40
1.0
 10
14.3855135855
 20
14.4190575832
 30
0.0
 10
14.3826520101
 20
14.4190575832
 30
0.0
 10
14.3783652446
 20
14.4198905019
 30
0.0
 10
14.373900713
 20
14.4230134841
 30
0.0
 10
14.3723951869
 20
14.4251003662
 30
0.0
 10
14.3718556625
 20
14.42619979
 30
0.0
  0
SPLINE
  5
266
100
AcDbEntity
  8
02___PRT_ALL_AXES
100
AcDbSpline
 62
7
  6
CONTINUOUS
 70
0
 71
3
 72
10
 73
6
 74
0
 42
0.0000001
 43
0.0000001
 44
0.0000000001
 40
0.0
 40
0.0
 40
0.0
 40
0.0
 40
0.2277879225
 40
0.4677490398
 40
1.0
 40
1.0
 40
1.0
 40
1.0
 10
14.3858710622
 20
14.4922107618
 30
0.0
 10
14.3853315379
 20
14.4933101856
 30
0.0
 10
14.3838260118
 20
14.4953970677
 30
0.0
 10
14.3793614802
 20
14.4985200499
 30
0.0
 10
14.3750747146
 20
14.4993529686
 30
0.0
 10
14.3722131392
 20
14.4993529686
 30
0.0
  0
SPLINE
  5
267
100
AcDbEntity
  8
02___PRT_ALL_AXES
100
AcDbSpline
 62
7
  6
CONTINUOUS
 70
0
 71
3
 72
14
 73
10
 74
0
 42
0.0000001
 43
0.0000001
 44
0.0000000001
 40
0.0
 40
0.0
 40
0.0
 40
0.0
 40
0.1254096009
 40
0.2367990175
 40
0.3412069406
 40
0.4527114492
 40
0.5790948196
 40
0.7188312798
 40
1.0
 40
1.0
 40
1.0
 40
1.0
 10
14.3619171239
 20
14.4713974703
 30
0.0
 10
14.3599450142
 20
14.4713974703
 30
0.0
 10
14.356176742
 20
14.4719935045
 30
0.0
 10
14.3514706023
 20
14.4749967623
 30
0.0
 10
14.349140102
 20
14.4799036658
 30
0.0
 10
14.3497485104
 20
14.4854674797
 30
0.0
 10
14.3527564797
 20
14.4907389417
 30
0.0
 10
14.3592241149
 20
14.4965354153
 30
0.0
 10
14.365967969
 20
14.4988139122
 30
0.0
 10
14.3703894452
 20
14.4988139122
 30
0.0
  0
SPLINE
  5
268
100
AcDbEntity
  8
02___PRT_ALL_AXES
100
AcDbSpline
 62
7
  6
CONTINUOUS
 70
0
 71
3
 72
10
 73
6
 74
0
 42
0.0000001
 43
0.0000001
 44
0.0000000001
 40
0.0
 40
0.0
 40
0.0
 40
0.0
 40
0.5322509602
 40
0.7722120775
 40
1.0
 40
1.0
 40
1.0
 40
1.0
 10
14.3621270424
 20
14.4667143474
 30
0.0
 10
14.359265467
 20
14.4667143474
 30
0.0
 10
14.3549787014
 20
14.4675472662
 30
0.0
 10
14.3505141699
 20
14.4706702483
 30
0.0
 10
14.3490086438
 20
14.4727571304
 30
0.0
 10
14.3484691194
 20
14.4738565542
 30
0.0
  0
SPLINE
  5
269
100
AcDbEntity
  8
02___PRT_ALL_AXES
100
AcDbSpline
 62
7
  6
CONTINUOUS
 70
0
 71
3
 72
14
 73
10
 74
0
 42
0.0000001
 43
0.0000001
 44
0.0000000001
 40
0.0
 40
0.0
 40
0.0
 40
0.0
 40
0.2811687202
 40
0.4209051804
 40
0.5472885508
 40
0.6587930594
 40
0.7632009825
 40
0.8745903991
 40
1.0
 40
1.0
 40
1.0
 40
1.0
 10
14.3619171239
 20
14.4713974703
 30
0.0
 10
14.3663386002
 20
14.4713974703
 30
0.0
 10
14.3730824542
 20
14.4736759671
 30
0.0
 10
14.3795500895
 20
14.4794724407
 30
0.0
 10
14.3825580587
 20
14.4847439028
 30
0.0
 10
14.3831664672
 20
14.4903077167
 30
0.0
 10
14.3808359669
 20
14.4952146202
 30
0.0
 10
14.3761298272
 20
14.498217878
 30
0.0
 10
14.372361555
 20
14.4988139122
 30
0.0
 10
14.3703894452
 20
14.4988139122
 30
0.0
  0
SPLINE
  5
26A
100
AcDbEntity
  8
02___PRT_ALL_AXES
100
AcDbSpline
 62
7
  6
CONTINUOUS
 70
0
 71
3
 72
13
 73
9
 74
0
 42
0.0000001
 43
0.0000001
 44
0.0000000001
 40
0.0
 40
0.0
 40
0.0
 40
0.0
 40
0.2702212121
 40
0.5446798886
 40
0.6725193792
 40
0.7902972373
 40
0.8982922355
 40
1.0
 40
1.0
 40
1.0
 40
1.0
 10
14.3621270424
 20
14.4667143474
 30
0.0
 10
14.3657505769
 20
14.4667143474
 30
0.0
 10
14.3730839202
 20
14.4684501168
 30
0.0
 10
14.3807116916
 20
14.473700012
 30
0.0
 10
14.384945383
 20
14.4793174092
 30
0.0
 10
14.3867797309
 20
14.4837525047
 30
0.0
 10
14.3872330395
 20
14.4881974613
 30
0.0
 10
14.386471902
 20
14.4909863916
 30
0.0
 10
14.3858710622
 20
14.4922107618
 30
0.0
  0
SPLINE
  5
26B
100
AcDbEntity
  8
DRAWING
100
AcDbSpline
 62
7
  6
CONTINUOUS
 70
0
 71
3
 72
13
 73
9
 74
0
 42
0.0000001
 43
0.0000001
 44
0.0000000001
 40
0.0
 40
0.0
 40
0.0
 40
0.0
 40
0.2701119338
 40
0.5244139922
 40
0.6466613853
 40
0.7662682593
 40
0.8838331993
 40
1.0
 40
1.0
 40
1.0
 40
1.0
 10
15.7859100325
 20
10.8008242289
 30
0.0
 10
15.7812877283
 20
10.8102434944
 30
0.0
 10
15.7734603297
 20
10.8291300079
 30
0.0
 10
15.7673664641
 20
10.8536154481
 30
0.0
 10
15.7651146128
 20
10.872777725
 30
0.0
 10
15.7647038116
 20
10.8867523618
 30
0.0
 10
15.7655521242
 20
10.9004698145
 30
0.0
 10
15.7669611741
 20
10.9094552688
 30
0.0
 10
15.7678734209
 20
10.9138745073
 30
0.0
  0
SPLINE
  5
26C
100
AcDbEntity
  8
DRAWING
100
AcDbSpline
 62
7
  6
CONTINUOUS
 70
0
 71
3
 72
35
 73
31
 74
0
 42
0.0000001
 43
0.0000001
 44
0.0000000001
 40
0.0
 40
0.0
 40
0.0
 40
0.0
 40
0.0265280232
 40
0.0543764442
 40
0.0835387105
 40
0.1139968938
 40
0.1457027654
 40
0.178575459
 40
0.2125133287
 40
0.2473974379
 40
0.3194278427
 40
0.3934783583
 40
0.4682185587
 40
0.5422799801
 40
0.5786478743
 40
0.6143548898
 40
0.6492527992
 40
0.6832070352
 40
0.7160970239
 40
0.7478220015
 40
0.7783023059
 40
0.8074849253
 40
0.8353473434
 40
0.8619018474
 40
0.8872021959
 40
0.9113457986
 40
0.9344801692
 40
0.9568005242
 40
0.9785483431
 40
1.0
 40
1.0
 40
1.0
 40
1.0
 10
16.5738777128
 20
10.8008242289
 30
0.0
 10
16.5701889403
 20
10.8083411569
 30
0.0
 10
16.5618438898
 20
10.8233736847
 30
0.0
 10
16.5470252385
 20
10.8452196069
 30
0.0
 10
16.5297018264
 20
10.8667532377
 30
0.0
 10
16.5099994781
 20
10.8878280461
 30
0.0
 10
16.4880499889
 20
10.9083061108
 30
0.0
 10
16.4640016538
 20
10.9280495234
 30
0.0
 10
16.4380176593
 20
10.9469260613
 30
0.0
 10
16.4006313666
 20
10.9710196056
 30
0.0
 10
16.3502019034
 20
10.9980742935
 30
0.0
 10
16.285760631
 20
11.0249031303
 30
0.0
 10
16.2184665159
 20
11.0457262549
 30
0.0
 10
16.1611553179
 20
11.0576845566
 30
0.0
 10
16.1154119561
 20
11.0637399152
 30
0.0
 10
16.0817417619
 20
11.0664660261
 30
0.0
 10
16.0487356291
 20
11.0673826135
 30
0.0
 10
16.0166168426
 20
11.0664868154
 30
0.0
 10
15.985603201
 20
11.0637806293
 30
0.0
 10
15.955904347
 20
11.0592850601
 30
0.0
 10
15.9277210515
 20
11.0530268558
 30
0.0
 10
15.9012432207
 20
11.0450478506
 30
0.0
 10
15.8766492544
 20
11.0353989695
 30
0.0
 10
15.8541060706
 20
11.0241397162
 30
0.0
 10
15.8337660945
 20
11.0113429488
 30
0.0
 10
15.8157730689
 20
10.9970843455
 30
0.0
 10
15.8002534678
 20
10.981457689
 30
0.0
 10
15.7873281888
 20
10.9645585367
 30
0.0
 10
15.7770975119
 20
10.94651119
 30
0.0
 10
15.7721176442
 20
10.9337574603
 30
0.0
 10
15.7701182967
 20
10.9272884251
 30
0.0
  0
SPLINE
  5
26D
100
AcDbEntity
  8
DRAWING
100
AcDbSpline
 62
7
  6
CONTINUOUS
 70
0
 71
3
 72
14
 73
10
 74
0
 42
0.0000001
 43
0.0000001
 44
0.0000000001
 40
0.0
 40
0.0
 40
0.0
 40
0.0
 40
0.116458251
 40
0.2338241554
 40
0.3529618368
 40
0.47467673
 40
0.5997020086
 40
0.7286782534
 40
1.0
 40
1.0
 40
1.0
 40
1.0
 10
16.5885948774
 20
10.6743600326
 30
0.0
 10
16.5900894635
 20
10.6791958753
 30
0.0
 10
16.5925656427
 20
10.6890762941
 30
0.0
 10
16.5946773174
 20
10.7042985598
 30
0.0
 10
16.5951917222
 20
10.7198871618
 30
0.0
 10
16.5941040759
 20
10.7357774008
 30
0.0
 10
16.5914235525
 20
10.7519107553
 30
0.0
 10
16.5856457216
 20
10.774023394
 30
0.0
 10
16.5790727041
 20
10.7902379498
 30
0.0
 10
16.5738777128
 20
10.8008242289
 30
0.0
  0
SPLINE
  5
26E
100
AcDbEntity
  8
DRAWING
100
AcDbSpline
 62
7
  6
CONTINUOUS
 70
0
 71
3
 72
13
 73
9
 74
0
 42
0.0000001
 43
0.0000001
 44
0.0000000001
 40
0.0
 40
0.0
 40
0.0
 40
0.0
 40
0.2701381999
 40
0.5244341547
 40
0.6466729895
 40
0.766271367
 40
0.8838312502
 40
1.0
 40
1.0
 40
1.0
 40
1.0
 10
16.568768703
 20
10.7877687804
 30
0.0
 10
16.5734009181
 20
10.7783293184
 30
0.0
 10
16.5812422478
 20
10.7594020564
 30
0.0
 10
16.5873363825
 20
10.7348623855
 30
0.0
 10
16.5895764556
 20
10.7156597594
 30
0.0
 10
16.5899728338
 20
10.7016568381
 30
0.0
 10
16.5891045288
 20
10.6879128059
 30
0.0
 10
16.5876784186
 20
10.678911234
 30
0.0
 10
16.5867567894
 20
10.674484431
 30
0.0
  0
SPLINE
  5
26F
100
AcDbEntity
  8
DRAWING
100
AcDbSpline
 62
7
  6
CONTINUOUS
 70
0
 71
3
 72
35
 73
31
 74
0
 42
0.0000001
 43
0.0000001
 44
0.0000000001
 40
0.0
 40
0.0
 40
0.0
 40
0.0
 40
0.0265280232
 40
0.0543764442
 40
0.0835387105
 40
0.1139968938
 40
0.1457027654
 40
0.178575459
 40
0.2125133287
 40
0.2473974379
 40
0.3194278427
 40
0.3934783583
 40
0.4682185587
 40
0.5422799801
 40
0.5786478743
 40
0.6143548898
 40
0.6492527992
 40
0.6832070352
 40
0.7160970239
 40
0.7478220015
 40
0.7783023059
 40
0.8074849253
 40
0.8353473434
 40
0.8619018474
 40
0.8872021959
 40
0.9113457986
 40
0.9344801692
 40
0.9568005242
 40
0.9785483431
 40
1.0
 40
1.0
 40
1.0
 40
1.0
 10
15.7808010226
 20
10.7877687804
 30
0.0
 10
15.7844897951
 20
10.7802518523
 30
0.0
 10
15.7928348456
 20
10.7652193246
 30
0.0
 10
15.8076534969
 20
10.7433734024
 30
0.0
 10
15.824976909
 20
10.7218397716
 30
0.0
 10
15.8446792573
 20
10.7007649632
 30
0.0
 10
15.8666287465
 20
10.6802868985
 30
0.0
 10
15.8906770817
 20
10.6605434858
 30
0.0
 10
15.9166610761
 20
10.6416669479
 30
0.0
 10
15.9540473688
 20
10.6175734037
 30
0.0
 10
16.004476832
 20
10.5905187158
 30
0.0
 10
16.0689181044
 20
10.563689879
 30
0.0
 10
16.1362122195
 20
10.5428667544
 30
0.0
 10
16.1935234175
 20
10.5309084526
 30
0.0
 10
16.2392667793
 20
10.5248530941
 30
0.0
 10
16.2729369735
 20
10.5221269831
 30
0.0
 10
16.3059431063
 20
10.5212103958
 30
0.0
 10
16.3380618928
 20
10.5221061939
 30
0.0
 10
16.3690755345
 20
10.52481238
 30
0.0
 10
16.3987743885
 20
10.5293079492
 30
0.0
 10
16.426957684
 20
10.5355661534
 30
0.0
 10
16.4534355147
 20
10.5435451587
 30
0.0
 10
16.4780294811
 20
10.5531940398
 30
0.0
 10
16.5005726648
 20
10.5644532931
 30
0.0
 10
16.520912641
 20
10.5772500605
 30
0.0
 10
16.5389056665
 20
10.5915086637
 30
0.0
 10
16.5544252677
 20
10.6071353203
 30
0.0
 10
16.5673505467
 20
10.6240344725
 30
0.0
 10
16.5775812235
 20
10.6420818192
 30
0.0
 10
16.5825610912
 20
10.654835549
 30
0.0
 10
16.5845604387
 20
10.6613045841
 30
0.0
  0
SPLINE
  5
270
100
AcDbEntity
  8
DRAWING
100
AcDbSpline
 62
7
  6
CONTINUOUS
 70
0
 71
3
 72
33
 73
29
 74
0
 42
0.0000001
 43
0.0000001
 44
0.0000000001
 40
0.0
 40
0.0
 40
0.0
 40
0.0
 40
0.0214720407
 40
0.0434104214
 40
0.0660580799
 40
0.0896186583
 40
0.1400036464
 40
0.1670740193
 40
0.1954267988
 40
0.2250571493
 40
0.2559276114
 40
0.2879762478
 40
0.3211168542
 40
0.3552455512
 40
0.3902413974
 40
0.462268066
 40
0.5360381241
 40
0.6102734891
 40
0.6836715905
 40
0.7549741984
 40
0.7894882922
 40
0.8230642248
 40
0.8555906246
 40
0.886973046
 40
0.9171364938
 40
0.946037821
 40
0.9736609859
 40
1.0
 40
1.0
 40
1.0
 40
1.0
 10
16.5828441136
 20
10.6619316896
 30
0.0
 10
16.5802718768
 20
10.6557871175
 30
0.0
 10
16.5741803849
 20
10.6437184749
 30
0.0
 10
16.5625031772
 20
10.626808033
 30
0.0
 10
16.5483066584
 20
10.6110655774
 30
0.0
 10
16.5256691294
 20
10.5913415975
 30
0.0
 10
16.4987003824
 20
10.5748836025
 30
0.0
 10
16.4686342208
 20
10.5616605464
 30
0.0
 10
16.4436531549
 20
10.5530657933
 30
0.0
 10
16.4169595667
 20
10.5460983049
 30
0.0
 10
16.3887202958
 20
10.5407931922
 30
0.0
 10
16.3591193771
 20
10.5371884452
 30
0.0
 10
16.3283485835
 20
10.5353032041
 30
0.0
 10
16.2966069409
 20
10.535151471
 30
0.0
 10
16.2528524498
 20
10.5372809613
 30
0.0
 10
16.1971081862
 20
10.5443213646
 30
0.0
 10
16.1304098111
 20
10.5592815068
 30
0.0
 10
16.0649645248
 20
10.5804542854
 30
0.0
 10
16.0024661459
 20
10.6072915027
 30
0.0
 10
15.9536385734
 20
10.634095846
 30
0.0
 10
15.9174774058
 20
10.6578431643
 30
0.0
 10
15.8923551603
 20
10.6763976356
 30
0.0
 10
15.8691044571
 20
10.6957655955
 30
0.0
 10
15.8478756332
 20
10.7158213877
 30
0.0
 10
15.8288070025
 20
10.7364367029
 30
0.0
 10
15.8120202678
 20
10.7574815342
 30
0.0
 10
15.797632958
 20
10.7788186771
 30
0.0
 10
15.7895097593
 20
10.793488757
 30
0.0
 10
15.7859100325
 20
10.8008242289
 30
0.0
  0
SPLINE
  5
271
100
AcDbEntity
  8
DRAWING
100
AcDbSpline
 62
7
  6
CONTINUOUS
 70
0
 71
3
 72
14
 73
10
 74
0
 42
0.0000001
 43
0.0000001
 44
0.0000000001
 40
0.0
 40
0.0
 40
0.0
 40
0.0
 40
0.116458251
 40
0.2338241554
 40
0.3529618368
 40
0.47467673
 40
0.5997020086
 40
0.7286782534
 40
1.0
 40
1.0
 40
1.0
 40
1.0
 10
15.766083858
 20
10.9142329766
 30
0.0
 10
15.7645892719
 20
10.909397134
 30
0.0
 10
15.7621130927
 20
10.8995167152
 30
0.0
 10
15.760001418
 20
10.8842944494
 30
0.0
 10
15.7594870133
 20
10.8687058475
 30
0.0
 10
15.7605746595
 20
10.8528156085
 30
0.0
 10
15.763255183
 20
10.836682254
 30
0.0
 10
15.7690330139
 20
10.8145696153
 30
0.0
 10
15.7756060314
 20
10.7983550594
 30
0.0
 10
15.7808010226
 20
10.7877687804
 30
0.0
  0
SPLINE
  5
272
100
AcDbEntity
  8
DRAWING
100
AcDbSpline
 62
7
  6
CONTINUOUS
 70
0
 71
3
 72
33
 73
29
 74
0
 42
0.0000001
 43
0.0000001
 44
0.0000000001
 40
0.0
 40
0.0
 40
0.0
 40
0.0
 40
0.0214714335
 40
0.0434079796
 40
0.0660528377
 40
0.0896099481
 40
0.1399869916
 40
0.1670534134
 40
0.1954024779
 40
0.2250294771
 40
0.2558970483
 40
0.2879433241
 40
0.3210821364
 40
0.3552096312
 40
0.3902048614
 40
0.4622319857
 40
0.5360045213
 40
0.6102439716
 40
0.6836472582
 40
0.7549555996
 40
0.7894725972
 40
0.8230513658
 40
0.8555804768
 40
0.8869654303
 40
0.9171311861
 40
0.9460345596
 40
0.9736594951
 40
1.0
 40
1.0
 40
1.0
 40
1.0
 10
15.7717940752
 20
10.9265643605
 30
0.0
 10
15.7743619616
 20
10.9327113609
 30
0.0
 10
15.7804450181
 20
10.9447851487
 30
0.0
 10
15.792111283
 20
10.9617040367
 30
0.0
 10
15.8062981393
 20
10.9774551004
 30
0.0
 10
15.8289242398
 20
10.9971907191
 30
0.0
 10
15.8558848617
 20
11.0136601955
 30
0.0
 10
15.8859451497
 20
11.0268938114
 30
0.0
 10
15.9109230654
 20
11.0354964486
 30
0.0
 10
15.9376147268
 20
11.0424714648
 30
0.0
 10
15.965853252
 20
11.0477837115
 30
0.0
 10
15.9954545548
 20
11.0513951187
 30
0.0
 10
16.0262267955
 20
11.0532865305
 30
0.0
 10
16.0579708758
 20
11.0534438657
 30
0.0
 10
16.1017302225
 20
11.0513211314
 30
0.0
 10
16.1574824925
 20
11.0442874466
 30
0.0
 10
16.224192267
 20
11.0293328195
 30
0.0
 10
16.2896505202
 20
11.0081629916
 30
0.0
 10
16.3521625477
 20
10.9813262659
 30
0.0
 10
16.4010014061
 20
10.95452047
 30
0.0
 10
16.4371712114
 20
10.9307709339
 30
0.0
 10
16.4622995316
 20
10.9122143448
 30
0.0
 10
16.4855558546
 20
10.8928438812
 30
0.0
 10
16.5067897496
 20
10.8727852464
 30
0.0
 10
16.5258628309
 20
10.8521668194
 30
0.0
 10
16.5426533227
 20
10.8311186643
 30
0.0
 10
16.5570436361
 20
10.8097780531
 30
0.0
 10
16.565168367
 20
10.7951054937
 30
0.0
 10
16.568768703
 20
10.7877687804
 30
0.0
  0
SPLINE
  5
273
100
AcDbEntity
  8
DRAWING
100
AcDbSpline
 62
7
  6
CONTINUOUS
 70
0
 71
3
 72
14
 73
10
 74
0
 42
0.0000001
 43
0.0000001
 44
0.0000000001
 40
0.0
 40
0.0
 40
0.0
 40
0.0
 40
0.2713217466
 40
0.4002979914
 40
0.52532327
 40
0.6470381632
 40
0.7661758446
 40
0.883541749
 40
1.0
 40
1.0
 40
1.0
 40
1.0
 10
15.7818755938
 20
10.7877687804
 30
0.0
 10
15.7766947523
 20
10.7983262252
 30
0.0
 10
15.770139638
 20
10.8144966169
 30
0.0
 10
15.7643775443
 20
10.8365490266
 30
0.0
 10
15.7617043219
 20
10.8526384381
 30
0.0
 10
15.7606196381
 20
10.8684853964
 30
0.0
 10
15.7611326418
 20
10.884031539
 30
0.0
 10
15.7632385649
 20
10.8992123434
 30
0.0
 10
15.7657079996
 20
10.9090658505
 30
0.0
 10
15.7671985148
 20
10.9138885216
 30
0.0
  0
SPLINE
  5
274
100
AcDbEntity
  8
DRAWING
100
AcDbSpline
 62
7
  6
CONTINUOUS
 70
0
 71
3
 72
33
 73
29
 74
0
 42
0.0000001
 43
0.0000001
 44
0.0000000001
 40
0.0
 40
0.0
 40
0.0
 40
0.0
 40
0.0263395409
 40
0.0539633313
 40
0.0828653815
 40
0.1130296448
 40
0.1444129608
 40
0.1769403186
 40
0.2105172532
 40
0.245032373
 40
0.3163370067
 40
0.3897369403
 40
0.4639737489
 40
0.5377446826
 40
0.6097715126
 40
0.6447671414
 40
0.6788954138
 40
0.7120353865
 40
0.7440831891
 40
0.77495263
 40
0.8045817966
 40
0.8329332635
 40
0.8600022405
 40
0.9103844214
 40
0.9339437742
 40
0.9565904428
 40
0.9785281746
 40
1.0
 40
1.0
 40
1.0
 40
1.0
 10
16.5698432741
 20
10.7877687804
 30
0.0
 10
16.5662335
 20
10.7951247266
 30
0.0
 10
16.5580875726
 20
10.8098357515
 30
0.0
 10
16.5436599045
 20
10.8312323985
 30
0.0
 10
16.5268259912
 20
10.8523358845
 30
0.0
 10
16.5077037041
 20
10.8730086062
 30
0.0
 10
16.486415104
 20
10.8931201813
 30
0.0
 10
16.4630989082
 20
10.9125419256
 30
0.0
 10
16.4379058973
 20
10.9311478227
 30
0.0
 10
16.4016429072
 20
10.9549607849
 30
0.0
 10
16.3526779797
 20
10.9818388503
 30
0.0
 10
16.2900040714
 20
11.0087491909
 30
0.0
 10
16.2243754486
 20
11.0299787509
 30
0.0
 10
16.1574908697
 20
11.0449777984
 30
0.0
 10
16.1015915219
 20
11.0520350504
 30
0.0
 10
16.057715809
 20
11.0541679634
 30
0.0
 10
16.0258866105
 20
11.0540138314
 30
0.0
 10
15.9950312634
 20
11.0521212554
 30
0.0
 10
15.9653493629
 20
11.0485043039
 30
0.0
 10
15.9370332294
 20
11.0431821747
 30
0.0
 10
15.9102674184
 20
11.0361929901
 30
0.0
 10
15.8852192403
 20
11.0275719702
 30
0.0
 10
15.8550730429
 20
11.0143090587
 30
0.0
 10
15.8280335173
 20
10.9978020466
 30
0.0
 10
15.8053382091
 20
10.9780200736
 30
0.0
 10
15.7911063396
 20
10.9622315729
 30
0.0
 10
15.7794011155
 20
10.9452719533
 30
0.0
 10
15.7732959747
 20
10.9331685261
 30
0.0
 10
15.7707182537
 20
10.9270063117
 30
0.0
  0
SPLINE
  5
275
100
AcDbEntity
  8
DRAWING
100
AcDbSpline
 62
7
  6
CONTINUOUS
 70
0
 71
3
 72
35
 73
31
 74
0
 42
0.0000001
 43
0.0000001
 44
0.0000000001
 40
0.0
 40
0.0
 40
0.0
 40
0.0
 40
0.0214516569
 40
0.0431994758
 40
0.0655198308
 40
0.0886542014
 40
0.1127978041
 40
0.1380981526
 40
0.1646526566
 40
0.1925150747
 40
0.2216976941
 40
0.2521779985
 40
0.2839029761
 40
0.3167929648
 40
0.3507472008
 40
0.3856451102
 40
0.4213521257
 40
0.4577200199
 40
0.5317814413
 40
0.6065216417
 40
0.6805721573
 40
0.7526025621
 40
0.7874866713
 40
0.821424541
 40
0.8542972346
 40
0.8860031062
 40
0.9164612895
 40
0.9456235558
 40
0.9734719768
 40
1.0
 40
1.0
 40
1.0
 40
1.0
 10
16.5834457819
 20
10.6616490391
 30
0.0
 10
16.5814518801
 20
10.6551976239
 30
0.0
 10
16.5764855763
 20
10.642478632
 30
0.0
 10
16.5662827651
 20
10.6244804415
 30
0.0
 10
16.5533926911
 20
10.6076273181
 30
0.0
 10
16.5379153612
 20
10.5920432244
 30
0.0
 10
16.5199713439
 20
10.5778234578
 30
0.0
 10
16.4996867685
 20
10.5650615454
 30
0.0
 10
16.4772049864
 20
10.5538329593
 30
0.0
 10
16.4526780075
 20
10.5442103592
 30
0.0
 10
16.4262722953
 20
10.5362530867
 30
0.0
 10
16.3981657637
 20
10.5300119281
 30
0.0
 10
16.3685478015
 20
10.5255286037
 30
0.0
 10
16.3376186328
 20
10.5228297885
 30
0.0
 10
16.3055873294
 20
10.5219364303
 30
0.0
 10
16.2726710965
 20
10.5228505211
 30
0.0
 10
16.2390926111
 20
10.5255692069
 30
0.0
 10
16.1934738421
 20
10.5316080722
 30
0.0
 10
16.1363187446
 20
10.5435338027
 30
0.0
 10
16.0692079209
 20
10.5643002106
 30
0.0
 10
16.0049421694
 20
10.5910559728
 30
0.0
 10
15.9546500628
 20
10.6180369709
 30
0.0
 10
15.9173656004
 20
10.6420648907
 30
0.0
 10
15.8914523795
 20
10.6608900139
 30
0.0
 10
15.8674695457
 20
10.6805796507
 30
0.0
 10
15.8455798411
 20
10.7010019385
 30
0.0
 10
15.8259311567
 20
10.7220193447
 30
0.0
 10
15.8086549291
 20
10.7434943236
 30
0.0
 10
15.7938766398
 20
10.7652807433
 30
0.0
 10
15.785554319
 20
10.7802723265
 30
0.0
 10
15.7818755938
 20
10.7877687804
 30
0.0
  0
SPLINE
  5
276
100
AcDbEntity
  8
DRAWING
100
AcDbSpline
 62
7
  6
CONTINUOUS
 70
0
 71
3
 72
13
 73
9
 74
0
 42
0.0000001
 43
0.0000001
 44
0.0000000001
 40
0.0
 40
0.0
 40
0.0
 40
0.0
 40
0.1161670853
 40
0.2337312606
 40
0.3533368558
 40
0.4755829632
 40
0.7298841101
 40
1.0
 40
1.0
 40
1.0
 40
1.0
 10
16.5879218583
 20
10.6743744565
 30
0.0
 10
16.5888380087
 20
10.6788069058
 30
0.0
 10
16.5902534743
 20
10.6878193318
 30
0.0
 10
16.5911071119
 20
10.7015782568
 30
0.0
 10
16.5906973581
 20
10.7155953249
 30
0.0
 10
16.5884411269
 20
10.7348160197
 30
0.0
 10
16.5823305735
 20
10.7593765075
 30
0.0
 10
16.5744796964
 20
10.7783207451
 30
0.0
 10
16.5698432741
 20
10.7877687804
 30
0.0
  0
ENDSEC
  0
SECTION
  2
OBJECTS
  0
DICTIONARY
  5
C
100
AcDbDictionary
280
0
281
1
  3
ACAD_GROUP
350
D
  3
ACAD_MLINESTYLE
350
17
  3
ACAD_LAYOUT
350
1A
  3
ACAD_PLOTSETTINGS
350
19
  3
ACAD_PLOTSTYLENAME
350
E
  0
DICTIONARY
  5
D
102
{ACAD_REACTORS
330
C
102
}
100
AcDbDictionary
280
0
281
1
  0
ACDBDICTIONARYWDFLT
  5
E
102
{ACAD_REACTORS
330
C
102
}
100
AcDbDictionary
281
1
  3
Normal
350
F
100
AcDbDictionaryWithDefault
340
F
  0
DICTIONARY
  5
17
102
{ACAD_REACTORS
330
C
102
}
100
AcDbDictionary
280
0
281
1
  3
Standard
350
18
  0
DICTIONARY
  5
19
102
{ACAD_REACTORS
330
C
102
}
100
AcDbDictionary
281
1
  0
DICTIONARY
  5
1A
102
{ACAD_REACTORS
330
C
102
}
100
AcDbDictionary
281
1
  3
Model
350
277
  3
Layout1
350
278
  0
ACDBPLACEHOLDER
  5
F
102
{ACAD_REACTORS
330
E
102
}
  0
MLINESTYLE
  5
18
102
{ACAD_REACTORS
330
17
102
}
100
AcDbMlineStyle
  2
STANDARD
 70
0
  3

 62
256
 51
90.0
 52
90.0
 71
2
 49
0.5
 62
256
  6
BYLAYER
 49
-0.5
 62
256
  6
BYLAYER
  0
LAYOUT
  5
277
102
{ACAD_REACTORS
330
1A
102
}
100
AcDbPlotSettings
  1

  2
none_device
  4
ANSI_C_(22.00_x_17.00_Inches)
  6

 40
0.0
 41
0.0
 42
0.0
 43
0.0
 44
558.8
 45
431.8
 46
0.0
 47
0.0
 48
0.0
 49
0.0
140
0.0
141
0.0
142
1.0
143
1.0
 70
1024
 72
0
 73
0
 74
0
  7

 75
0
147
1.0
148
0.0
149
0.0
100
AcDbLayout
  1
Model
 70
0
 71
0
 10
0.0
 20
0.0
 11
22.0
 21
17.0
 12
0.0
 22
0.0
 32
0.0
 14
0.0
 24
0.0
 34
0.0
 15
0.0
 25
0.0
 35
0.0
146
0.0
 13
0.0
 23
0.0
 33
0.0
 16
1.0
 26
0.0
 36
0.0
 17
0.0
 27
1.0
 37
0.0
 76
0
330
218
345
0
346
0
  0
LAYOUT
  5
278
102
{ACAD_REACTORS
330
1A
102
}
100
AcDbPlotSettings
  1

  2
none_device
  4
ANSI_C_(22.00_x_17.00_Inches)
  6

 40
0.0
 41
0.0
 42
0.0
 43
0.0
 44
558.8
 45
431.8
 46
0.0
 47
0.0
 48
0.0
 49
0.0
140
0.0
141
0.0
142
1.0
143
1.0
 70
0
 72
0
 73
0
 74
0
  7

 75
0
147
1.0
148
0.0
149
0.0
100
AcDbLayout
  1
Layout1
 70
0
 71
1
 10
0.0
 20
0.0
 11
22.0
 21
17.0
 12
0.0
 22
0.0
 32
0.0
 14
0.0
 24
0.0
 34
0.0
 15
0.0
 25
0.0
 35
0.0
146
0.0
 13
0.0
 23
0.0
 33
0.0
 16
1.0
 26
0.0
 36
0.0
 17
0.0
 27
1.0
 37
0.0
 76
0
330
219
345
0
346
0
  0
ENDSEC
  0
EOF