999
DXF file: _cgs_temp_output.dxf
999
Pro/ENGINEER 2016360 by Parametric Technology Corporation
  0
SECTION
  2
HEADER
  9
$ACADVER
  1
AC1021
  9
$DWGCODEPAGE
  3
ANSI_1252
  9
$EXTMAX
 10
22.0
 20
17.0
 30
0.0
  9
$EXTMIN
 10
0.0
 20
0.0
 30
0.0
  9
$LIMMIN
 10
0.0
 20
0.0
  9
$LIMMAX
 10
22.0
 20
17.0
  9
$VIEWCTR
 10
11.0
 20
8.5
  9
$VIEWSIZE
 40
17.0
  9
$CLAYER
  8
0
  9
$LTSCALE
 40
1.21
  9
$CELTYPE
  6
BYLAYER
  9
$DIMSCALE
 40
1.0
  9
$DIMASZ
 40
0.1875
  9
$DIMEXO
 40
0.0625
  9
$DIMDLI
 40
0.836
  9
$DIMEXE
 40
0.125
  9
$DIMCEN
 40
0.198
  9
$DIMLFAC
 40
1.0
  9
$DIMBLK
  1
_CLOSED
  9
$DIMALT
 70
0
  9
$DIMALTF
 40
25.4
  9
$DIMTXT
 40
0.15625
  9
$DIMTOL
 70
0
  9
$DIMLIM
 70
0
  9
$DIMTFAC
 40
1.0
  9
$DIMGAP
 40
0.09
  9
$DIMDSEP
 70
46
  9
$AUNITS
 70
0
  9
$PDMODE
 70
3
  9
$PDSIZE
 40
0.3125
  9
$HANDSEED
  5
276
  9
$TILEMODE
 70
1
  9
$MEASUREMENT
 70
0
  9
$INSUNITS
 70
1
  0
ENDSEC
  0
SECTION
  2
CLASSES
  0
CLASS
  1
ACDBDICTIONARYWDFLT
  2
AcDbDictionaryWithDefault
  3
AutoCAD 2000
 90
0
 91
1
280
0
281
0
  0
CLASS
  1
ACDBPLACEHOLDER
  2
AcDbPlaceHolder
  3
AutoCAD 2000
 90
0
 91
1
280
0
281
0
  0
CLASS
  1
LAYOUT
  2
AcDbLayout
  3
AutoCAD 2000
 90
0
 91
0
280
0
281
0
  0
ENDSEC
  0
SECTION
  2
TABLES
  0
TABLE
  2
VPORT
  5
8
100
AcDbSymbolTable
 70
2
  0
VPORT
  5
1F4
100
AcDbSymbolTableRecord
100
AcDbViewportTableRecord
  2
*ACTIVE
 70
0
 10
0.0
 20
0.0
 11
1.0
 21
1.0
 12
11.0
 22
8.5
 13
0.0
 23
0.0
 14
1.0
 24
1.0
 15
0.0
 25
0.0
 16
0.0
 26
0.0
 36
1.0
 17
0.0
 27
0.0
 37
0.0
 40
17.0
 41
1.2941176471
 42
50.0
 43
0.0
 44
0.0
 50
0.0
 51
0.0
 71
0
 72
100
 73
1
 74
1
 75
0
 76
0
 77
0
 78
0
  0
ENDTAB
  0
TABLE
  2
LTYPE
  5
5
100
AcDbSymbolTable
 70
6
  0
LTYPE
  5
14
100
AcDbSymbolTableRecord
100
AcDbLinetypeTableRecord
  2
BYBLOCK
 70
0
  3

 72
65
 73
0
 40
0.0
  0
LTYPE
  5
15
100
AcDbSymbolTableRecord
100
AcDbLinetypeTableRecord
  2
BYLAYER
 70
0
  3

 72
65
 73
0
 40
0.0
  0
LTYPE
  5
16
100
AcDbSymbolTableRecord
100
AcDbLinetypeTableRecord
  2
CONTINUOUS
 70
64
  3
Solid line
 72
65
 73
0
 40
0.0
  0
LTYPE
  5
1F5
100
AcDbSymbolTableRecord
100
AcDbLinetypeTableRecord
  2
CENTER
 70
64
  3
____ _ ____ _ ____ _ ____ _ ____ _ ____ _ ____
 72
65
 73
4
 40
0.6
 49
0.375
 74
0
 49
-0.075
 74
0
 49
0.075
 74
0
 49
-0.075
 74
0
  0
LTYPE
  5
1F6
100
AcDbSymbolTableRecord
100
AcDbLinetypeTableRecord
  2
HIDDEN
 70
64
  3
- - - - - - - - - - - - - - - - - - - -
 72
65
 73
2
 40
0.2
 49
0.1
 74
0
 49
-0.1
 74
0
  0
LTYPE
  5
1F7
100
AcDbSymbolTableRecord
100
AcDbLinetypeTableRecord
  2
PHANTOM
 70
64
  3
_____ _ _ _____ _ _ _____ _ _ _____
 72
65
 73
6
 40
0.8
 49
0.45
 74
0
 49
-0.05
 74
0
 49
0.1
 74
0
 49
-0.05
 74
0
 49
0.1
 74
0
 49
-0.05
 74
0
  0
LTYPE
  5
1F8
100
AcDbSymbolTableRecord
100
AcDbLinetypeTableRecord
  2
DOT
 70
64
  3
. . . . . . . . . . . . . . . . . . . .
 72
65
 73
2
 40
0.2
 49
0.1
 74
0
 49
-0.1
 74
0
  0
LTYPE
  5
1F9
100
AcDbSymbolTableRecord
100
AcDbLinetypeTableRecord
  2
DASHED
 70
64
  3
- - - - - - - - - - - - - - - - - - - -
 72
65
 73
2
 40
0.2
 49
0.1
 74
0
 49
-0.1
 74
0
  0
ENDTAB
  0
TABLE
  2
LAYER
  5
2
100
AcDbSymbolTable
 70
36
  0
LAYER
  5
10
100
AcDbSymbolTableRecord
100
AcDbLayerTableRecord
  2
0
 70
0
 62
7
  6
CONTINUOUS
370
-3
390
F
  0
LAYER
  5
1FA
100
AcDbSymbolTableRecord
100
AcDbLayerTableRecord
  2
DEFAULT_1
 70
0
 62
7
  6
CENTER
370
-3
390
F
  0
LAYER
  5
1FB
100
AcDbSymbolTableRecord
100
AcDbLayerTableRecord
  2
DEFAULT_2
 70
0
 62
8
  6
HIDDEN
370
-3
390
F
  0
LAYER
  5
1FC
100
AcDbSymbolTableRecord
100
AcDbLayerTableRecord
  2
DEFAULT_3
 70
0
 62
7
  6
PHANTOM
370
-3
390
F
  0
LAYER
  5
1FD
100
AcDbSymbolTableRecord
100
AcDbLayerTableRecord
  2
01_ALL_DTM_PLN
 70
0
 62
7
  6
CONTINUOUS
370
-3
390
F
  0
LAYER
  5
1FE
100
AcDbSymbolTableRecord
100
AcDbLayerTableRecord
  2
01__ASM_ALL_DTM_PLN
 70
0
 62
7
  6
CONTINUOUS
370
-3
390
F
  0
LAYER
  5
1FF
100
AcDbSymbolTableRecord
100
AcDbLayerTableRecord
  2
01__ASM_DEF_DTM_PLN
 70
0
 62
7
  6
CONTINUOUS
370
-3
390
F
  0
LAYER
  5
200
100
AcDbSymbolTableRecord
100
AcDbLayerTableRecord
  2
01___PRT_ALL_DTM_PLN
 70
0
 62
7
  6
CONTINUOUS
370
-3
390
F
  0
LAYER
  5
201
100
AcDbSymbolTableRecord
100
AcDbLayerTableRecord
  2
01___PRT_DEF_DTM_PLN
 70
0
 62
7
  6
CONTINUOUS
370
-3
390
F
  0
LAYER
  5
202
100
AcDbSymbolTableRecord
100
AcDbLayerTableRecord
  2
02_ALL_AXES
 70
0
 62
7
  6
CONTINUOUS
370
-3
390
F
  0
LAYER
  5
203
100
AcDbSymbolTableRecord
100
AcDbLayerTableRecord
  2
02__ASM_ALL_AXES
 70
0
 62
7
  6
CONTINUOUS
370
-3
390
F
  0
LAYER
  5
204
100
AcDbSymbolTableRecord
100
AcDbLayerTableRecord
  2
02___PRT_ALL_AXES
 70
0
 62
7
  6
CONTINUOUS
370
-3
390
F
  0
LAYER
  5
205
100
AcDbSymbolTableRecord
100
AcDbLayerTableRecord
  2
03_ALL_CURVES
 70
0
 62
7
  6
CONTINUOUS
370
-3
390
F
  0
LAYER
  5
206
100
AcDbSymbolTableRecord
100
AcDbLayerTableRecord
  2
03__ASM_ALL_CURVES
 70
0
 62
7
  6
CONTINUOUS
370
-3
390
F
  0
LAYER
  5
207
100
AcDbSymbolTableRecord
100
AcDbLayerTableRecord
  2
03___PRT_ALL_CURVES
 70
0
 62
7
  6
CONTINUOUS
370
-3
390
F
  0
LAYER
  5
208
100
AcDbSymbolTableRecord
100
AcDbLayerTableRecord
  2
04_ALL_DTM_PNT
 70
0
 62
7
  6
CONTINUOUS
370
-3
390
F
  0
LAYER
  5
209
100
AcDbSymbolTableRecord
100
AcDbLayerTableRecord
  2
04__ASM_ALL_DTM_PNT
 70
0
 62
7
  6
CONTINUOUS
370
-3
390
F
  0
LAYER
  5
20A
100
AcDbSymbolTableRecord
100
AcDbLayerTableRecord
  2
04___PRT_ALL_DTM_PNT
 70
0
 62
7
  6
CONTINUOUS
370
-3
390
F
  0
LAYER
  5
20B
100
AcDbSymbolTableRecord
100
AcDbLayerTableRecord
  2
05_ALL_DTM_CSYS
 70
0
 62
7
  6
CONTINUOUS
370
-3
390
F
  0
LAYER
  5
20C
100
AcDbSymbolTableRecord
100
AcDbLayerTableRecord
  2
05__ASM_ALL_DTM_CSYS
 70
0
 62
7
  6
CONTINUOUS
370
-3
390
F
  0
LAYER
  5
20D
100
AcDbSymbolTableRecord
100
AcDbLayerTableRecord
  2
05__ASM_DEF_DTM_CSYS
 70
0
 62
7
  6
CONTINUOUS
370
-3
390
F
  0
LAYER
  5
20E
100
AcDbSymbolTableRecord
100
AcDbLayerTableRecord
  2
05___PRT_ALL_DTM_CSYS
 70
0
 62
7
  6
CONTINUOUS
370
-3
390
F
  0
LAYER
  5
20F
100
AcDbSymbolTableRecord
100
AcDbLayerTableRecord
  2
05___PRT_DEF_DTM_CSYS
 70
0
 62
7
  6
CONTINUOUS
370
-3
390
F
  0
LAYER
  5
210
100
AcDbSymbolTableRecord
100
AcDbLayerTableRecord
  2
06_ALL_SURFS
 70
0
 62
7
  6
CONTINUOUS
370
-3
390
F
  0
LAYER
  5
211
100
AcDbSymbolTableRecord
100
AcDbLayerTableRecord
  2
06__ASM_ALL_SURFS
 70
0
 62
7
  6
CONTINUOUS
370
-3
390
F
  0
LAYER
  5
212
100
AcDbSymbolTableRecord
100
AcDbLayerTableRecord
  2
06___PRT_ALL_SURFS
 70
0
 62
7
  6
CONTINUOUS
370
-3
390
F
  0
LAYER
  5
213
100
AcDbSymbolTableRecord
100
AcDbLayerTableRecord
  2
07__ASM_ALL_SKELETONS
 70
0
 62
7
  6
CONTINUOUS
370
-3
390
F
  0
LAYER
  5
214
100
AcDbSymbolTableRecord
100
AcDbLayerTableRecord
  2
DRAWING
 70
0
 62
7
  6
CONTINUOUS
370
-3
390
F
  0
LAYER
  5
215
100
AcDbSymbolTableRecord
100
AcDbLayerTableRecord
  2
SHELL
 70
0
 62
7
  6
CONTINUOUS
370
-3
390
F
  0
ENDTAB
  0
TABLE
  2
STYLE
  5
3
100
AcDbSymbolTable
 70
1
  0
STYLE
  5
11
100
AcDbSymbolTableRecord
100
AcDbTextStyleTableRecord
  2
STANDARD
 70
0
 40
0.0
 41
0.8
 50
0.0
 71
0
 42
0.2
  3
txt
  4

  0
STYLE
  5
216
100
AcDbSymbolTableRecord
100
AcDbTextStyleTableRecord
  2
TEXTSTYLE_1
 70
0
 40
0.0
 41
0.8
 50
0.0
 71
0
 42
0.2
  3
gdt
  4

  0
ENDTAB
  0
TABLE
  2
VIEW
  5
6
100
AcDbSymbolTable
 70
0
  0
ENDTAB
  0
TABLE
  2
UCS
  5
7
100
AcDbSymbolTable
 70
0
  0
ENDTAB
  0
TABLE
  2
APPID
  5
9
100
AcDbSymbolTable
 70
1
  0
APPID
  5
217
100
AcDbSymbolTableRecord
100
AcDbRegAppTableRecord
  2
ACAD
 70
0
  0
ENDTAB
  0
TABLE
  2
BLOCK_RECORD
  5
1
100
AcDbSymbolTable
 70
0
  0
BLOCK_RECORD
  5
218
100
AcDbSymbolTableRecord
100
AcDbBlockTableRecord
  2
*Model_Space
  0
BLOCK_RECORD
  5
219
100
AcDbSymbolTableRecord
100
AcDbBlockTableRecord
  2
*Paper_Space
  0
ENDTAB
  0
TABLE
  2
DIMSTYLE
  5
A
100
AcDbSymbolTable
 70
1
100
AcDbDimStyleTable
 71
0
  0
DIMSTYLE
105
21A
100
AcDbSymbolTableRecord
100
AcDbDimStyleTableRecord
  2
STANDARD
 70
0
  3

  4

 40
1.0
 41
0.1875
 42
0.0625
 43
0.38
 44
0.125
 45
0.0
 46
0.0
 47
0.0001
 48
0.0001
140
0.15625
141
0.09
142
0.0
143
25.4
144
1.0
145
0.0
146
1.0
147
0.09
 71
0.0
 72
0.0
 73
1
 74
1
 75
0
 76
0
 77
0
 78
4
 79
1
170
0
171
3
172
0
173
0
174
0
175
0
176
0
177
0
178
0
270
2
179
4
271
4
272
4
273
2
274
2
275
0
280
0
281
0
282
0
283
1
284
4
285
0
286
0
287
3
288
0
340
11
278
46
  0
ENDTAB
  0
ENDSEC
  0
SECTION
  2
BLOCKS
  0
BLOCK
  5
20
100
AcDbEntity
  8
0
100
AcDbBlockBegin
  2
*Model_Space
 70
0
 10
0.0
 20
0.0
 30
0.0
  3
*Model_Space
  1

  0
ENDBLK
  5
21
100
AcDbEntity
  8
0
100
AcDbBlockEnd
  0
BLOCK
  5
1C
100
AcDbEntity
  8
0
100
AcDbBlockBegin
  2
*Paper_Space
 70
0
 10
0.0
 20
0.0
 30
0.0
  3
*Paper_Space
  1

  0
ENDBLK
  5
1D
100
AcDbEntity
  8
0
100
AcDbBlockEnd
  0
ENDSEC
  0
SECTION
  2
ENTITIES
  0
MTEXT
  5
21B
100
AcDbEntity
  8
0
100
AcDbMText
 62
7
  6
CONTINUOUS
  7
STANDARD
 71
1
 72
1
 10
15.9560215477
 20
0.9479130325
 30
0.0
 11
1.0
 21
0.0
 31
0.0
 44
0.9
  1
SCALE: 1:0.167
 40
0.3
 41
3.36
  0
LINE
  5
21C
100
AcDbEntity
  8
0
100
AcDbLine
 62
7
  6
CONTINUOUS
 10
0.0
 20
0.0
 11
0.0
 21
17.0
  0
LINE
  5
21D
100
AcDbEntity
  8
0
100
AcDbLine
 62
7
  6
CONTINUOUS
 10
0.0
 20
0.0
 11
22.0
 21
0.0
  0
LINE
  5
21E
100
AcDbEntity
  8
0
100
AcDbLine
 62
7
  6
CONTINUOUS
 10
0.0
 20
17.0
 11
22.0
 21
17.0
  0
LINE
  5
21F
100
AcDbEntity
  8
0
100
AcDbLine
 62
7
  6
CONTINUOUS
 10
22.0
 20
0.0
 11
22.0
 21
17.0
  0
LINE
  5
220
100
AcDbEntity
  8
02___PRT_ALL_AXES
100
AcDbLine
 62
7
  6
CONTINUOUS
 10
6.1095339428
 20
8.7655365634
 11
6.1128672762
 21
8.7688698968
  0
LINE
  5
221
100
AcDbEntity
  8
02___PRT_ALL_AXES
100
AcDbLine
 62
7
  6
CONTINUOUS
 10
6.1478672762
 20
8.6855365634
 11
6.1512006095
 21
8.6888698968
  0
LINE
  5
222
100
AcDbEntity
  8
02___PRT_ALL_AXES
100
AcDbLine
 62
7
  6
CONTINUOUS
 10
6.1095339428
 20
8.6888698968
 11
6.1095339428
 21
8.7655365634
  0
LINE
  5
223
100
AcDbEntity
  8
02___PRT_ALL_AXES
100
AcDbLine
 62
7
  6
CONTINUOUS
 10
6.1512006095
 20
8.6888698968
 11
6.1512006095
 21
8.7655365634
  0
LINE
  5
224
100
AcDbEntity
  8
02___PRT_ALL_AXES
100
AcDbLine
 62
7
  6
CONTINUOUS
 10
6.1128672762
 20
8.6855365634
 11
6.1095339428
 21
8.6888698968
  0
LINE
  5
225
100
AcDbEntity
  8
02___PRT_ALL_AXES
100
AcDbLine
 62
7
  6
CONTINUOUS
 10
6.1512006095
 20
8.7655365634
 11
6.1478672762
 21
8.7688698968
  0
LINE
  5
226
100
AcDbEntity
  8
02___PRT_ALL_AXES
100
AcDbLine
 62
7
  6
CONTINUOUS
 10
6.1129291312
 20
8.6855365634
 11
6.1478054211
 21
8.6855365634
  0
LINE
  5
227
100
AcDbEntity
  8
02___PRT_ALL_AXES
100
AcDbLine
 62
7
  6
CONTINUOUS
 10
6.1095339428
 20
8.6888698968
 11
6.1512006095
 21
8.6888698968
  0
LINE
  5
228
100
AcDbEntity
  8
02___PRT_ALL_AXES
100
AcDbLine
 62
7
  6
CONTINUOUS
 10
6.1095339428
 20
8.7655365634
 11
6.1512006095
 21
8.7655365634
  0
LINE
  5
229
100
AcDbEntity
  8
02___PRT_ALL_AXES
100
AcDbLine
 62
7
  6
CONTINUOUS
 10
6.1129291312
 20
8.7688698968
 11
6.1478054211
 21
8.7688698968
  0
LINE
  5
22A
100
AcDbEntity
  8
DRAWING
100
AcDbLine
 62
7
  6
CONTINUOUS
 10
5.5108720839
 20
12.6083811147
 11
5.5108720839
 21
12.591714448
  0
LINE
  5
22B
100
AcDbEntity
  8
0
100
AcDbLine
 62
7
  6
CONTINUOUS
 10
6.0650387505
 20
12.6101514111
 11
6.0592054172
 21
12.6000477814
  0
LINE
  5
22C
100
AcDbEntity
  8
0
100
AcDbLine
 62
7
  6
CONTINUOUS
 10
6.0650387505
 20
12.5899441517
 11
6.0767054172
 21
12.5899441517
  0
LINE
  5
22D
100
AcDbEntity
  8
DRAWING
100
AcDbLine
 62
7
  6
CONTINUOUS
 10
6.6308720839
 20
12.591714448
 11
6.089308615
 21
12.591714448
  0
LINE
  5
22E
100
AcDbEntity
  8
DRAWING
100
AcDbLine
 62
7
  6
CONTINUOUS
 10
6.0524355527
 20
12.591714448
 11
5.5108720839
 21
12.591714448
  0
LINE
  5
22F
100
AcDbEntity
  8
0
100
AcDbLine
 62
7
  6
CONTINUOUS
 10
6.0592054172
 20
12.6000477814
 11
6.0650387505
 21
12.5899441517
  0
LINE
  5
230
100
AcDbEntity
  8
0
100
AcDbLine
 62
7
  6
CONTINUOUS
 10
6.0767054172
 20
12.5899441517
 11
6.0825387505
 21
12.6000477814
  0
LINE
  5
231
100
AcDbEntity
  8
DRAWING
100
AcDbLine
 62
7
  6
CONTINUOUS
 10
6.6308720839
 20
12.6083811147
 11
6.089308615
 21
12.6083811147
  0
LINE
  5
232
100
AcDbEntity
  8
DRAWING
100
AcDbLine
 62
7
  6
CONTINUOUS
 10
6.0524355527
 20
12.6083811147
 11
5.5108720839
 21
12.6083811147
  0
LINE
  5
233
100
AcDbEntity
  8
0
100
AcDbLine
 62
7
  6
CONTINUOUS
 10
6.0767054172
 20
12.6101514111
 11
6.0650387505
 21
12.6101514111
  0
LINE
  5
234
100
AcDbEntity
  8
0
100
AcDbLine
 62
7
  6
CONTINUOUS
 10
6.0825387505
 20
12.6000477814
 11
6.0767054172
 21
12.6101514111
  0
LINE
  5
235
100
AcDbEntity
  8
DRAWING
100
AcDbLine
 62
7
  6
CONTINUOUS
 10
6.6308720839
 20
12.6083811147
 11
6.6308720839
 21
12.591714448
  0
LINE
  5
236
100
AcDbEntity
  8
DRAWING
100
AcDbLine
 62
7
  6
CONTINUOUS
 10
15.5686885903
 20
2.2118747044
 11
15.5520219236
 21
2.2118747044
  0
LINE
  5
237
100
AcDbEntity
  8
02___PRT_ALL_AXES
100
AcDbLine
 62
7
  6
CONTINUOUS
 10
15.5428552569
 20
8.7093747044
 11
15.5395219236
 21
8.7060413711
  0
LINE
  5
238
100
AcDbEntity
  8
02___PRT_ALL_AXES
100
AcDbLine
 62
7
  6
CONTINUOUS
 10
15.5811885903
 20
8.6293747044
 11
15.5778552569
 21
8.6260413711
  0
LINE
  5
239
100
AcDbEntity
  8
DRAWING
100
AcDbLine
 62
7
  6
CONTINUOUS
 10
15.5686885903
 20
3.3318747044
 11
15.5520219236
 21
3.3318747044
  0
LINE
  5
23A
100
AcDbEntity
  8
02___PRT_ALL_AXES
100
AcDbLine
 62
7
  6
CONTINUOUS
 10
15.5395219236
 20
8.7060413711
 11
15.5395219236
 21
8.6293747044
  0
LINE
  5
23B
100
AcDbEntity
  8
DRAWING
100
AcDbLine
 62
7
  6
CONTINUOUS
 10
15.5520219236
 20
2.2118812661
 11
15.5520219236
 21
3.3318681428
  0
LINE
  5
23C
100
AcDbEntity
  8
DRAWING
100
AcDbLine
 62
7
  6
CONTINUOUS
 10
15.5686885903
 20
2.2118812661
 11
15.5686885903
 21
3.3318681428
  0
LINE
  5
23D
100
AcDbEntity
  8
02___PRT_ALL_AXES
100
AcDbLine
 62
7
  6
CONTINUOUS
 10
15.5811885903
 20
8.7060413711
 11
15.5811885903
 21
8.6293747044
  0
LINE
  5
23E
100
AcDbEntity
  8
02___PRT_ALL_AXES
100
AcDbLine
 62
7
  6
CONTINUOUS
 10
15.5395219236
 20
8.6293747044
 11
15.5428552569
 21
8.6260413711
  0
LINE
  5
23F
100
AcDbEntity
  8
02___PRT_ALL_AXES
100
AcDbLine
 62
7
  6
CONTINUOUS
 10
15.5778552569
 20
8.7093747044
 11
15.5811885903
 21
8.7060413711
  0
LINE
  5
240
100
AcDbEntity
  8
02___PRT_ALL_AXES
100
AcDbLine
 62
7
  6
CONTINUOUS
 10
15.5428552569
 20
8.6260413711
 11
15.5778552569
 21
8.6260413711
  0
LINE
  5
241
100
AcDbEntity
  8
02___PRT_ALL_AXES
100
AcDbLine
 62
7
  6
CONTINUOUS
 10
15.5395219236
 20
8.6293747044
 11
15.5811885903
 21
8.6293747044
  0
LINE
  5
242
100
AcDbEntity
  8
02___PRT_ALL_AXES
100
AcDbLine
 62
7
  6
CONTINUOUS
 10
15.5395219236
 20
8.7060413711
 11
15.5811885903
 21
8.7060413711
  0
LINE
  5
243
100
AcDbEntity
  8
02___PRT_ALL_AXES
100
AcDbLine
 62
7
  6
CONTINUOUS
 10
15.5428552569
 20
8.7093747044
 11
15.5778552569
 21
8.7093747044
  0
LINE
  5
244
100
AcDbEntity
  8
0
100
AcDbLine
 62
7
  6
CONTINUOUS
 10
14.2993643214
 20
14.5338283645
 11
14.2915457171
 21
14.5259139194
  0
LINE
  5
245
100
AcDbEntity
  8
0
100
AcDbLine
 62
7
  6
CONTINUOUS
 10
14.3044483525
 20
14.5234681983
 11
14.2990458526
 21
14.5179994744
  0
LINE
  5
246
100
AcDbEntity
  8
0
100
AcDbLine
 62
7
  6
CONTINUOUS
 10
14.305218536
 20
14.5179994744
 11
14.3130371403
 21
14.5259139194
  0
LINE
  5
247
100
AcDbEntity
  8
0
100
AcDbLine
 62
7
  6
CONTINUOUS
 10
14.2915457171
 20
14.5259139194
 11
14.2944728244
 21
14.5179994744
  0
LINE
  5
248
100
AcDbEntity
  8
0
100
AcDbLine
 62
7
  6
CONTINUOUS
 10
14.3130371403
 20
14.5259139194
 11
14.310110033
 21
14.5338283645
  0
LINE
  5
249
100
AcDbEntity
  8
02___PRT_ALL_AXES
100
AcDbLine
 62
7
  6
CONTINUOUS
 10
14.3079920353
 20
14.4670071489
 11
14.2846054922
 21
14.5146639131
  0
LINE
  5
24A
100
AcDbEntity
  8
0
100
AcDbLine
 62
7
  6
CONTINUOUS
 10
14.2915457171
 20
14.5259139194
 11
14.2954295626
 21
14.5179994744
  0
LINE
  5
24B
100
AcDbEntity
  8
0
100
AcDbLine
 62
7
  6
CONTINUOUS
 10
14.2993643214
 20
14.5338283645
 11
14.3044483525
 21
14.5234681983
  0
LINE
  5
24C
100
AcDbEntity
  8
02___PRT_ALL_AXES
100
AcDbLine
 62
7
  6
CONTINUOUS
 10
14.3453975208
 20
14.4853630951
 11
14.3220109777
 21
14.5330198593
  0
LINE
  5
24D
100
AcDbEntity
  8
DRAWING
100
AcDbLine
 62
7
  6
CONTINUOUS
 10
15.5804590584
 20
11.0069709851
 11
15.5764246197
 21
10.9939155366
  0
LINE
  5
24E
100
AcDbEntity
  8
DRAWING
100
AcDbLine
 62
7
  6
CONTINUOUS
 10
16.650530404
 20
10.6762939291
 11
16.6464959653
 21
10.6632384806
  0
LINE
  5
24F
100
AcDbEntity
  8
0
100
AcDbLine
 62
7
  6
CONTINUOUS
 10
14.2944728244
 20
14.5179994744
 11
14.305218536
 21
14.5179994744
  0
LINE
  5
250
100
AcDbEntity
  8
0
100
AcDbLine
 62
7
  6
CONTINUOUS
 10
14.3106210359
 20
14.5234681983
 11
14.3044483525
 21
14.5234681983
  0
LINE
  5
251
100
AcDbEntity
  8
0
100
AcDbLine
 62
7
  6
CONTINUOUS
 10
14.310110033
 20
14.5338283645
 11
14.2993643214
 21
14.5338283645
  0
CIRCLE
  5
252
100
AcDbEntity
  8
DRAWING
100
AcDbCircle
 62
7
  6
CONTINUOUS
 10
6.1303672762
 20
2.8313698968
 40
0.56
  0
CIRCLE
  5
253
100
AcDbEntity
  8
DRAWING
100
AcDbCircle
 62
7
  6
CONTINUOUS
 10
6.1303672762
 20
2.8313698968
 40
0.5591666667
  0
CIRCLE
  5
254
100
AcDbEntity
  8
02___PRT_ALL_AXES
100
AcDbCircle
 62
7
  6
CONTINUOUS
 10
6.0708720839
 20
12.6000477814
 40
0.0208333333
  0
CIRCLE
  5
255
100
AcDbEntity
  8
02___PRT_ALL_AXES
100
AcDbCircle
 62
7
  6
CONTINUOUS
 10
6.0708720839
 20
12.6000477814
 40
0.0175
  0
ARC
  5
256
100
AcDbEntity
  8
DRAWING
100
AcDbCircle
 62
7
  6
CONTINUOUS
 10
16.4703707544
 20
10.7176319595
 40
0.1843339652
100
AcDbArc
 50
347.0822983917
 51
347.4384210568
  0
ARC
  5
257
100
AcDbEntity
  8
DRAWING
100
AcDbCircle
 62
7
  6
CONTINUOUS
 10
15.752320355
 20
10.9395430243
 40
0.184107377
100
AcDbArc
 50
158.5952080807
 51
162.8226873158
  0
ARC
  5
258
100
AcDbEntity
  8
DRAWING
100
AcDbCircle
 62
7
  6
CONTINUOUS
 10
15.7571176624
 20
10.9524125668
 40
0.1840589415
100
AcDbArc
 50
167.0782566544
 51
167.4384215099
  0
ARC
  5
259
100
AcDbEntity
  8
DRAWING
100
AcDbCircle
 62
7
  6
CONTINUOUS
 10
16.4698373613
 20
10.7177968989
 40
0.1840589415
100
AcDbArc
 50
347.0782566544
 51
347.4384215099
  0
ARC
  5
25A
100
AcDbEntity
  8
DRAWING
100
AcDbCircle
 62
7
  6
CONTINUOUS
 10
16.4739899471
 20
10.7308735563
 40
0.1839514114
100
AcDbArc
 50
338.5892588588
 51
341.5134362848
  0
ARC
  5
25B
100
AcDbEntity
  8
DRAWING
100
AcDbCircle
 62
7
  6
CONTINUOUS
 10
15.7529606418
 20
10.9393374915
 40
0.1839467038
100
AcDbArc
 50
158.6125637637
 51
161.5134656658
  0
ARC
  5
25C
100
AcDbEntity
  8
DRAWING
100
AcDbCircle
 62
7
  6
CONTINUOUS
 10
16.4708529441
 20
10.7175184312
 40
0.1838385994
100
AcDbArc
 50
342.8269879458
 51
347.0831900628
  0
ARC
  5
25D
100
AcDbEntity
  8
DRAWING
100
AcDbCircle
 62
7
  6
CONTINUOUS
 10
15.7568662228
 20
10.9524708296
 40
0.1838008404
100
AcDbArc
 50
165.7863395636
 51
167.0784313673
  0
ARC
  5
25E
100
AcDbEntity
  8
DRAWING
100
AcDbCircle
 62
7
  6
CONTINUOUS
 10
16.4700888009
 20
10.7177386361
 40
0.1838008404
100
AcDbArc
 50
345.7863395636
 51
347.0784313673
  0
ARC
  5
25F
100
AcDbEntity
  8
DRAWING
100
AcDbCircle
 62
7
  6
CONTINUOUS
 10
16.4704207683
 20
10.7176550343
 40
0.1834585082
100
AcDbArc
 50
342.8260763483
 51
345.7861932976
  0
ARC
  5
260
100
AcDbEntity
  8
DRAWING
100
AcDbCircle
 62
7
  6
CONTINUOUS
 10
15.7524817874
 20
10.9395022154
 40
0.1834403283
100
AcDbArc
 50
161.5148361577
 51
162.8253782177
  0
SPLINE
  5
261
100
AcDbEntity
  8
02___PRT_ALL_AXES
100
AcDbSpline
 62
7
  6
CONTINUOUS
 70
0
 71
3
 72
13
 73
9
 74
0
 42
0.0000001
 43
0.0000001
 44
0.0000000001
 40
0.0
 40
0.0
 40
0.0
 40
0.0
 40
0.2702212121
 40
0.5446798886
 40
0.6725193792
 40
0.7902972373
 40
0.8982922355
 40
1.0
 40
1.0
 40
1.0
 40
1.0
 10
14.3216517296
 20
14.4598658114
 30
0.0
 10
14.3252752642
 20
14.4598658114
 30
0.0
 10
14.3326086074
 20
14.4616015808
 30
0.0
 10
14.3402363789
 20
14.466851476
 30
0.0
 10
14.3444700703
 20
14.4724688732
 30
0.0
 10
14.3463044182
 20
14.4769039686
 30
0.0
 10
14.3467577268
 20
14.4813489253
 30
0.0
 10
14.3459965892
 20
14.4841378556
 30
0.0
 10
14.3453957494
 20
14.4853622258
 30
0.0
  0
SPLINE
  5
262
100
AcDbEntity
  8
02___PRT_ALL_AXES
100
AcDbSpline
 62
7
  6
CONTINUOUS
 70
0
 71
3
 72
10
 73
6
 74
0
 42
0.0000001
 43
0.0000001
 44
0.0000000001
 40
0.0
 40
0.0
 40
0.0
 40
0.0
 40
0.5322509602
 40
0.7722120775
 40
1.0
 40
1.0
 40
1.0
 40
1.0
 10
14.3216517296
 20
14.4598658114
 30
0.0
 10
14.3187901542
 20
14.4598658114
 30
0.0
 10
14.3145033887
 20
14.4606987301
 30
0.0
 10
14.3100388571
 20
14.4638217123
 30
0.0
 10
14.308533331
 20
14.4659085944
 30
0.0
 10
14.3079938067
 20
14.4670080182
 30
0.0
  0
SPLINE
  5
263
100
AcDbEntity
  8
02___PRT_ALL_AXES
100
AcDbSpline
 62
7
  6
CONTINUOUS
 70
0
 71
3
 72
10
 73
6
 74
0
 42
0.0000001
 43
0.0000001
 44
0.0000000001
 40
0.0
 40
0.0
 40
0.0
 40
0.0
 40
0.2277879225
 40
0.4677490398
 40
1.0
 40
1.0
 40
1.0
 40
1.0
 10
14.3220092063
 20
14.53301899
 30
0.0
 10
14.321469682
 20
14.5341184138
 30
0.0
 10
14.3199641559
 20
14.5362052959
 30
0.0
 10
14.3154996243
 20
14.539328278
 30
0.0
 10
14.3112128588
 20
14.5401611968
 30
0.0
 10
14.3083512833
 20
14.5401611968
 30
0.0
  0
SPLINE
  5
264
100
AcDbEntity
  8
02___PRT_ALL_AXES
100
AcDbSpline
 62
7
  6
CONTINUOUS
 70
0
 71
3
 72
14
 73
10
 74
0
 42
0.0000001
 43
0.0000001
 44
0.0000000001
 40
0.0
 40
0.0
 40
0.0
 40
0.0
 40
0.1254096009
 40
0.2367990175
 40
0.3412069406
 40
0.4527114492
 40
0.5790948196
 40
0.7188312798
 40
1.0
 40
1.0
 40
1.0
 40
1.0
 10
14.2980552681
 20
14.5122056985
 30
0.0
 10
14.2960831583
 20
14.5122056985
 30
0.0
 10
14.2923148861
 20
14.5128017327
 30
0.0
 10
14.2876087464
 20
14.5158049905
 30
0.0
 10
14.2852782461
 20
14.520711894
 30
0.0
 10
14.2858866546
 20
14.5262757079
 30
0.0
 10
14.2888946238
 20
14.5315471699
 30
0.0
 10
14.2953622591
 20
14.5373436435
 30
0.0
 10
14.3021061131
 20
14.5396221404
 30
0.0
 10
14.3065275894
 20
14.5396221404
 30
0.0
  0
SPLINE
  5
265
100
AcDbEntity
  8
02___PRT_ALL_AXES
100
AcDbSpline
 62
7
  6
CONTINUOUS
 70
0
 71
3
 72
10
 73
6
 74
0
 42
0.0000001
 43
0.0000001
 44
0.0000000001
 40
0.0
 40
0.0
 40
0.0
 40
0.0
 40
0.5322509602
 40
0.7722120775
 40
1.0
 40
1.0
 40
1.0
 40
1.0
 10
14.2982651865
 20
14.5075225756
 30
0.0
 10
14.2954036111
 20
14.5075225756
 30
0.0
 10
14.2911168456
 20
14.5083554944
 30
0.0
 10
14.286652314
 20
14.5114784765
 30
0.0
 10
14.2851467879
 20
14.5135653586
 30
0.0
 10
14.2846072636
 20
14.5146647824
 30
0.0
  0
SPLINE
  5
266
100
AcDbEntity
  8
02___PRT_ALL_AXES
100
AcDbSpline
 62
7
  6
CONTINUOUS
 70
0
 71
3
 72
14
 73
10
 74
0
 42
0.0000001
 43
0.0000001
 44
0.0000000001
 40
0.0
 40
0.0
 40
0.0
 40
0.0
 40
0.2811687202
 40
0.4209051804
 40
0.5472885508
 40
0.6587930594
 40
0.7632009825
 40
0.8745903991
 40
1.0
 40
1.0
 40
1.0
 40
1.0
 10
14.2980552681
 20
14.5122056985
 30
0.0
 10
14.3024767443
 20
14.5122056985
 30
0.0
 10
14.3092205984
 20
14.5144841953
 30
0.0
 10
14.3156882336
 20
14.5202806689
 30
0.0
 10
14.3186962029
 20
14.525552131
 30
0.0
 10
14.3193046113
 20
14.5311159449
 30
0.0
 10
14.316974111
 20
14.5360228484
 30
0.0
 10
14.3122679713
 20
14.5390261062
 30
0.0
 10
14.3084996991
 20
14.5396221404
 30
0.0
 10
14.3065275894
 20
14.5396221404
 30
0.0
  0
SPLINE
  5
267
100
AcDbEntity
  8
02___PRT_ALL_AXES
100
AcDbSpline
 62
7
  6
CONTINUOUS
 70
0
 71
3
 72
13
 73
9
 74
0
 42
0.0000001
 43
0.0000001
 44
0.0000000001
 40
0.0
 40
0.0
 40
0.0
 40
0.0
 40
0.2702212121
 40
0.5446798886
 40
0.6725193792
 40
0.7902972373
 40
0.8982922355
 40
1.0
 40
1.0
 40
1.0
 40
1.0
 10
14.2982651865
 20
14.5075225756
 30
0.0
 10
14.3018887211
 20
14.5075225756
 30
0.0
 10
14.3092220643
 20
14.509258345
 30
0.0
 10
14.3168498358
 20
14.5145082402
 30
0.0
 10
14.3210835272
 20
14.5201256374
 30
0.0
 10
14.322917875
 20
14.5245607329
 30
0.0
 10
14.3233711837
 20
14.5290056895
 30
0.0
 10
14.3226100461
 20
14.5317946198
 30
0.0
 10
14.3220092063
 20
14.53301899
 30
0.0
  0
SPLINE
  5
268
100
AcDbEntity
  8
DRAWING
100
AcDbSpline
 62
7
  6
CONTINUOUS
 70
0
 71
3
 72
13
 73
9
 74
0
 42
0.0000001
 43
0.0000001
 44
0.0000000001
 40
0.0
 40
0.0
 40
0.0
 40
0.0
 40
0.2703498721
 40
0.5245919315
 40
0.6467598208
 40
0.7662891742
 40
0.8838101671
 40
1.0
 40
1.0
 40
1.0
 40
1.0
 10
15.6004681254
 20
10.8416324571
 30
0.0
 10
15.5942976308
 20
10.8542066031
 30
0.0
 10
15.5838835748
 20
10.8794221247
 30
0.0
 10
15.5759063478
 20
10.9121299565
 30
0.0
 10
15.5731049564
 20
10.9377010123
 30
0.0
 10
15.5727451291
 20
10.9563353284
 30
0.0
 10
15.5741014693
 20
10.9746119809
 30
0.0
 10
15.5761553555
 20
10.9865677255
 30
0.0
 10
15.577464572
 20
10.9924433178
 30
0.0
  0
SPLINE
  5
269
100
AcDbEntity
  8
DRAWING
100
AcDbSpline
 62
7
  6
CONTINUOUS
 70
0
 71
3
 72
35
 73
31
 74
0
 42
0.0000001
 43
0.0000001
 44
0.0000000001
 40
0.0
 40
0.0
 40
0.0
 40
0.0
 40
0.0265280232
 40
0.0543764442
 40
0.0835387105
 40
0.1139968938
 40
0.1457027654
 40
0.178575459
 40
0.2125133287
 40
0.2473974379
 40
0.3194278427
 40
0.3934783583
 40
0.4682185587
 40
0.5422799801
 40
0.5786478743
 40
0.6143548898
 40
0.6492527992
 40
0.6832070352
 40
0.7160970239
 40
0.7478220015
 40
0.7783023059
 40
0.8074849253
 40
0.8353473434
 40
0.8619018474
 40
0.8872021959
 40
0.9113457986
 40
0.9344801692
 40
0.9568005242
 40
0.9785483431
 40
1.0
 40
1.0
 40
1.0
 40
1.0
 10
16.6312888878
 20
10.8416324571
 30
0.0
 10
16.6264662125
 20
10.8514600362
 30
0.0
 10
16.6155559519
 20
10.8711134577
 30
0.0
 10
16.596182151
 20
10.8996746633
 30
0.0
 10
16.5735336434
 20
10.9278275815
 30
0.0
 10
16.5477749312
 20
10.9553806383
 30
0.0
 10
16.5190783227
 20
10.9821535167
 30
0.0
 10
16.4876376978
 20
11.0079659161
 30
0.0
 10
16.4536664054
 20
11.0326449696
 30
0.0
 10
16.4047878282
 20
11.0641447006
 30
0.0
 10
16.3388567012
 20
11.09951581
 30
0.0
 10
16.254606633
 20
11.1345916434
 30
0.0
 10
16.1666267782
 20
11.1618156506
 30
0.0
 10
16.0916985194
 20
11.1774498506
 30
0.0
 10
16.0318939686
 20
11.1853665839
 30
0.0
 10
15.9878737925
 20
11.1889306823
 30
0.0
 10
15.9447218056
 20
11.1901290221
 30
0.0
 10
15.9027299291
 20
11.188957862
 30
0.0
 10
15.8621829112
 20
11.1854198132
 30
0.0
 10
15.8233548375
 20
11.1795423376
 30
0.0
 10
15.7865081944
 20
11.1713604051
 30
0.0
 10
15.7518912639
 20
11.1609287096
 30
0.0
 10
15.7197372845
 20
11.14831383
 30
0.0
 10
15.690264484
 20
11.1335935611
 30
0.0
 10
15.6636721417
 20
11.116863157
 30
0.0
 10
15.6401481861
 20
11.098221559
 30
0.0
 10
15.6198579682
 20
11.0777913777
 30
0.0
 10
15.602959549
 20
11.0556975444
 30
0.0
 10
15.5895840337
 20
11.0321025697
 30
0.0
 10
15.5830733895
 20
11.0154284328
 30
0.0
 10
15.5804594567
 20
11.0069708615
 30
0.0
  0
SPLINE
  5
26A
100
AcDbEntity
  8
DRAWING
100
AcDbSpline
 62
7
  6
CONTINUOUS
 70
0
 71
3
 72
14
 73
10
 74
0
 42
0.0000001
 43
0.0000001
 44
0.0000000001
 40
0.0
 40
0.0
 40
0.0
 40
0.0
 40
0.116458251
 40
0.2338241554
 40
0.3529618368
 40
0.47467673
 40
0.5997020086
 40
0.7286782534
 40
1.0
 40
1.0
 40
1.0
 40
1.0
 10
16.6505300058
 20
10.6762940526
 30
0.0
 10
16.6524840171
 20
10.6826163995
 30
0.0
 10
16.6557213565
 20
10.6955339898
 30
0.0
 10
16.6584821452
 20
10.7154354734
 30
0.0
 10
16.6591546744
 20
10.7358159024
 30
0.0
 10
16.6577326933
 20
10.7565906896
 30
0.0
 10
16.6542281957
 20
10.7776833243
 30
0.0
 10
16.6466743
 20
10.8065932332
 30
0.0
 10
16.638080783
 20
10.82779203
 30
0.0
 10
16.6312888878
 20
10.8416324571
 30
0.0
  0
SPLINE
  5
26B
100
AcDbEntity
  8
DRAWING
100
AcDbSpline
 62
7
  6
CONTINUOUS
 70
0
 71
3
 72
13
 73
9
 74
0
 42
0.0000001
 43
0.0000001
 44
0.0000000001
 40
0.0
 40
0.0
 40
0.0
 40
0.0
 40
0.2703498721
 40
0.5245919315
 40
0.6467598208
 40
0.7662891742
 40
0.8838101671
 40
1.0
 40
1.0
 40
1.0
 40
1.0
 10
16.6264868983
 20
10.8285770086
 30
0.0
 10
16.6326573929
 20
10.8160028626
 30
0.0
 10
16.6430714488
 20
10.790787341
 30
0.0
 10
16.6510486759
 20
10.7580795091
 30
0.0
 10
16.6538500673
 20
10.7325084533
 30
0.0
 10
16.6542098946
 20
10.7138741372
 30
0.0
 10
16.6528535544
 20
10.6955974848
 30
0.0
 10
16.6507996682
 20
10.6836417402
 30
0.0
 10
16.6494904517
 20
10.6777661479
 30
0.0
  0
SPLINE
  5
26C
100
AcDbEntity
  8
DRAWING
100
AcDbSpline
 62
7
  6
CONTINUOUS
 70
0
 71
3
 72
35
 73
31
 74
0
 42
0.0000001
 43
0.0000001
 44
0.0000000001
 40
0.0
 40
0.0
 40
0.0
 40
0.0
 40
0.0265280232
 40
0.0543764442
 40
0.0835387105
 40
0.1139968938
 40
0.1457027654
 40
0.178575459
 40
0.2125133287
 40
0.2473974379
 40
0.3194278427
 40
0.3934783583
 40
0.4682185587
 40
0.5422799801
 40
0.5786478743
 40
0.6143548898
 40
0.6492527992
 40
0.6832070352
 40
0.7160970239
 40
0.7478220015
 40
0.7783023059
 40
0.8074849253
 40
0.8353473434
 40
0.8619018474
 40
0.8872021959
 40
0.9113457986
 40
0.9344801692
 40
0.9568005242
 40
0.9785483431
 40
1.0
 40
1.0
 40
1.0
 40
1.0
 10
15.5956661358
 20
10.8285770086
 30
0.0
 10
15.6004888112
 20
10.8187494295
 30
0.0
 10
15.6113990718
 20
10.799096008
 30
0.0
 10
15.6307728727
 20
10.7705348023
 30
0.0
 10
15.6534213803
 20
10.7423818842
 30
0.0
 10
15.6791800925
 20
10.7148288273
 30
0.0
 10
15.707876701
 20
10.688055949
 30
0.0
 10
15.7393173259
 20
10.6622435495
 30
0.0
 10
15.7732886183
 20
10.6375644961
 30
0.0
 10
15.8221671955
 20
10.6060647651
 30
0.0
 10
15.8880983225
 20
10.5706936557
 30
0.0
 10
15.9723483907
 20
10.5356178223
 30
0.0
 10
16.0603282455
 20
10.5083938151
 30
0.0
 10
16.1352565043
 20
10.4927596151
 30
0.0
 10
16.1950610551
 20
10.4848428818
 30
0.0
 10
16.2390812312
 20
10.4812787834
 30
0.0
 10
16.282233218
 20
10.4800804435
 30
0.0
 10
16.3242250946
 20
10.4812516037
 30
0.0
 10
16.3647721125
 20
10.4847896525
 30
0.0
 10
16.4036001862
 20
10.4906671281
 30
0.0
 10
16.4404468293
 20
10.4988490605
 30
0.0
 10
16.4750637598
 20
10.5092807561
 30
0.0
 10
16.5072177392
 20
10.5218956356
 30
0.0
 10
16.5366905397
 20
10.5366159045
 30
0.0
 10
16.563282882
 20
10.5533463087
 30
0.0
 10
16.5868068376
 20
10.5719879066
 30
0.0
 10
16.6070970555
 20
10.592418088
 30
0.0
 10
16.6239954747
 20
10.6145119213
 30
0.0
 10
16.63737099
 20
10.6381068959
 30
0.0
 10
16.6438816342
 20
10.6547810329
 30
0.0
 10
16.646495567
 20
10.6632386042
 30
0.0
  0
SPLINE
  5
26D
100
AcDbEntity
  8
DRAWING
100
AcDbSpline
 62
7
  6
CONTINUOUS
 70
0
 71
3
 72
34
 73
30
 74
0
 42
0.0000001
 43
0.0000001
 44
0.0000000001
 40
0.0
 40
0.0
 40
0.0
 40
0.0
 40
0.0214552773
 40
0.0433386572
 40
0.0659010544
 40
0.0893552212
 40
0.1138682494
 40
0.1395605327
 40
0.166508036
 40
0.1947448513
 40
0.2242700419
 40
0.2550492697
 40
0.2870227253
 40
0.3201054087
 40
0.3541942256
 40
0.3891681184
 40
0.4612025499
 40
0.535042425
 40
0.6093970819
 40
0.682948482
 40
0.7544215363
 40
0.7890221271
 40
0.8226825761
 40
0.8552897627
 40
0.8867475718
 40
0.916979643
 40
0.945941659
 40
0.9736171508
 40
1.0
 40
1.0
 40
1.0
 40
1.0
 10
16.6452463928
 20
10.6637218505
 30
0.0
 10
16.642054725
 20
10.655581751
 30
0.0
 10
16.6344214935
 20
10.6395786659
 30
0.0
 10
16.6195780675
 20
10.6171043319
 30
0.0
 10
16.6013871848
 20
10.5961535387
 30
0.0
 10
16.5799861797
 20
10.5768690608
 30
0.0
 10
16.5555274558
 20
10.5593678466
 30
0.0
 10
16.5281792585
 20
10.5437547969
 30
0.0
 10
16.4981225811
 20
10.5301267917
 30
0.0
 10
16.4655566437
 20
10.5185625897
 30
0.0
 10
16.4306928812
 20
10.5091384418
 30
0.0
 10
16.3937601785
 20
10.5019074341
 30
0.0
 10
16.3549989936
 20
10.4969206435
 30
0.0
 10
16.3146637303
 20
10.494204504
 30
0.0
 10
16.27301761
 20
10.4937802167
 30
0.0
 10
16.2155498085
 20
10.4962954342
 30
0.0
 10
16.1422607831
 20
10.5052403195
 30
0.0
 10
16.0544963319
 20
10.5246003999
 30
0.0
 10
15.9683086085
 20
10.5521959562
 30
0.0
 10
15.8859505192
 20
10.5873052313
 30
0.0
 10
15.8215820609
 20
10.6224498674
 30
0.0
 10
15.773900123
 20
10.6536238228
 30
0.0
 10
15.7407710227
 20
10.6779964827
 30
0.0
 10
15.7101100249
 20
10.7034495471
 30
0.0
 10
15.6821176931
 20
10.7298166448
 30
0.0
 10
15.6569779803
 20
10.756927002
 30
0.0
 10
15.6348531482
 20
10.7846081404
 30
0.0
 10
15.6158994601
 20
10.8126777428
 30
0.0
 10
15.6052046363
 20
10.8319804627
 30
0.0
 10
15.6004681254
 20
10.8416324571
 30
0.0
  0
SPLINE
  5
26E
100
AcDbEntity
  8
DRAWING
100
AcDbSpline
 62
7
  6
CONTINUOUS
 70
0
 71
3
 72
14
 73
10
 74
0
 42
0.0000001
 43
0.0000001
 44
0.0000000001
 40
0.0
 40
0.0
 40
0.0
 40
0.0
 40
0.116458251
 40
0.2338241554
 40
0.3529618368
 40
0.47467673
 40
0.5997020086
 40
0.7286782534
 40
1.0
 40
1.0
 40
1.0
 40
1.0
 10
15.5764250179
 20
10.993915413
 30
0.0
 10
15.5744710066
 20
10.9875930662
 30
0.0
 10
15.5712336672
 20
10.9746754759
 30
0.0
 10
15.5684728785
 20
10.9547739922
 30
0.0
 10
15.5678003493
 20
10.9343935633
 30
0.0
 10
15.5692223304
 20
10.9136187761
 30
0.0
 10
15.572726828
 20
10.8925261413
 30
0.0
 10
15.5802807237
 20
10.8636162324
 30
0.0
 10
15.5888742407
 20
10.8424174357
 30
0.0
 10
15.5956661358
 20
10.8285770086
 30
0.0
  0
SPLINE
  5
26F
100
AcDbEntity
  8
DRAWING
100
AcDbSpline
 62
7
  6
CONTINUOUS
 70
0
 71
3
 72
34
 73
30
 74
0
 42
0.0000001
 43
0.0000001
 44
0.0000000001
 40
0.0
 40
0.0
 40
0.0
 40
0.0
 40
0.0214550641
 40
0.0433375384
 40
0.0658984797
 40
0.0893508025
 40
0.1138617466
 40
0.1395518521
 40
0.1664971951
 40
0.1947319699
 40
0.2242553094
 40
0.2550329339
 40
0.2870050715
 40
0.3200867453
 40
0.354174875
 40
0.3891484016
 40
0.4611830261
 40
0.5350242066
 40
0.6093810562
 40
0.6829352592
 40
0.7544114236
 40
0.7890135922
 40
0.8226755832
 40
0.8552842445
 40
0.8867434312
 40
0.9169767581
 40
0.945939887
 40
0.9736163413
 40
1.0
 40
1.0
 40
1.0
 40
1.0
 10
15.5816812799
 20
11.006417817
 30
0.0
 10
15.5848698025
 20
11.0145596303
 30
0.0
 10
15.5924969219
 20
11.0305663496
 30
0.0
 10
15.6073323886
 20
11.0530466976
 30
0.0
 10
15.6255162284
 20
11.0740036319
 30
0.0
 10
15.6469111671
 20
11.0932942497
 30
0.0
 10
15.6713647534
 20
11.1108015831
 30
0.0
 10
15.6987087648
 20
11.1264206277
 30
0.0
 10
15.7287621715
 20
11.1400544955
 30
0.0
 10
15.7613257502
 20
11.1516243462
 30
0.0
 10
15.7961880345
 20
11.1610539081
 30
0.0
 10
15.8331201117
 20
11.1682900413
 30
0.0
 10
15.8718814861
 20
11.173281629
 30
0.0
 10
15.912217707
 20
11.1760022124
 30
0.0
 10
15.9538655018
 20
11.1764305415
 30
0.0
 10
16.0113366973
 20
11.1739202043
 30
0.0
 10
16.0846313729
 20
11.164980183
 30
0.0
 10
16.1724039105
 20
11.1456241101
 30
0.0
 10
16.2586008672
 20
11.1180307201
 30
0.0
 10
16.3409686981
 20
11.0829218431
 30
0.0
 10
16.4053452226
 20
11.0477761995
 30
0.0
 10
16.4530333398
 20
11.016600678
 30
0.0
 10
16.4861667883
 20
10.9922265153
 30
0.0
 10
16.5168318097
 20
10.9667716701
 30
0.0
 10
16.5448277728
 20
10.9404025472
 30
0.0
 10
16.5699706728
 20
10.9132899706
 30
0.0
 10
16.5920981949
 20
10.8856064599
 30
0.0
 10
16.6110540327
 20
10.857534381
 30
0.0
 10
16.6217499522
 20
10.8382298898
 30
0.0
 10
16.6264868983
 20
10.8285770086
 30
0.0
  0
SPLINE
  5
270
100
AcDbEntity
  8
DRAWING
100
AcDbSpline
 62
7
  6
CONTINUOUS
 70
0
 71
3
 72
14
 73
10
 74
0
 42
0.0000001
 43
0.0000001
 44
0.0000000001
 40
0.0
 40
0.0
 40
0.0
 40
0.0
 40
0.2713217466
 40
0.4002979914
 40
0.52532327
 40
0.6470381632
 40
0.7661758446
 40
0.883541749
 40
1.0
 40
1.0
 40
1.0
 40
1.0
 10
15.5964336867
 20
10.8285770086
 30
0.0
 10
15.5896518985
 20
10.8423968398
 30
0.0
 10
15.5810711695
 20
10.8635640907
 30
0.0
 10
15.5735285147
 20
10.8924309789
 30
0.0
 10
15.5700292322
 20
10.9134922258
 30
0.0
 10
15.5686093671
 20
10.9342360982
 30
0.0
 10
15.5692808955
 20
10.9545861991
 30
0.0
 10
15.5720375759
 20
10.9744580674
 30
0.0
 10
15.5752700978
 20
10.9873564351
 30
0.0
 10
15.5772212014
 20
10.9936693737
 30
0.0
  0
SPLINE
  5
271
100
AcDbEntity
  8
DRAWING
100
AcDbSpline
 62
7
  6
CONTINUOUS
 70
0
 71
3
 72
34
 73
30
 74
0
 42
0.0000001
 43
0.0000001
 44
0.0000000001
 40
0.0
 40
0.0
 40
0.0
 40
0.0
 40
0.026383068
 40
0.0540588199
 40
0.0830211366
 40
0.1132535472
 40
0.1447117285
 40
0.1773193137
 40
0.2109801795
 40
0.2455811967
 40
0.3170550915
 40
0.3906072491
 40
0.4649624986
 40
0.5388027265
 40
0.6108372103
 40
0.6458110042
 40
0.6798996355
 40
0.712982046
 40
0.7449551455
 40
0.7757339401
 40
0.8052586305
 40
0.8334948943
 40
0.8604418139
 40
0.8861335086
 40
0.9106459735
 40
0.9340996419
 40
0.9566616456
 40
0.9785447805
 40
1.0
 40
1.0
 40
1.0
 40
1.0
 10
16.6272544491
 20
10.8285770086
 30
0.0
 10
16.6225107616
 20
10.8382436274
 30
0.0
 10
16.6117997025
 20
10.8575755938
 30
0.0
 10
16.5928171858
 20
10.885687699
 30
0.0
 10
16.5706586527
 20
10.913410733
 30
0.0
 10
16.5454806112
 20
10.9405620938
 30
0.0
 10
16.5174455794
 20
10.9669690349
 30
0.0
 10
16.4867377981
 20
10.9924605143
 30
0.0
 10
16.4535581483
 20
11.0168699039
 30
0.0
 10
16.4058034769
 20
11.0480907421
 30
0.0
 10
16.3413369064
 20
11.0832880275
 30
0.0
 10
16.2588534412
 20
11.1184495187
 30
0.0
 10
16.1725347722
 20
11.1460856148
 30
0.0
 10
16.0846373358
 20
11.1654734633
 30
0.0
 10
16.0112375574
 20
11.1744303629
 30
0.0
 10
15.9536831923
 20
11.1769480081
 30
0.0
 10
15.9119745528
 20
11.1765219947
 30
0.0
 10
15.8715789181
 20
11.1738006047
 30
0.0
 10
15.8327599154
 20
11.1688050839
 30
0.0
 10
15.7957723406
 20
11.1615619126
 30
0.0
 10
15.7608570201
 20
11.1521222545
 30
0.0
 10
15.7282431874
 20
11.1405392895
 30
0.0
 10
15.6981426012
 20
11.1268893876
 30
0.0
 10
15.6707547792
 20
11.1112514471
 30
0.0
 10
15.6462609944
 20
11.0937224945
 30
0.0
 10
15.6248297367
 20
11.074407615
 30
0.0
 10
15.6066136498
 20
11.0534239364
 30
0.0
 10
15.5917502563
 20
11.0309144809
 30
0.0
 10
15.584107303
 20
11.0148865626
 30
0.0
 10
15.5809117298
 20
11.0067338679
 30
0.0
  0
SPLINE
  5
272
100
AcDbEntity
  8
DRAWING
100
AcDbSpline
 62
7
  6
CONTINUOUS
 70
0
 71
3
 72
35
 73
31
 74
0
 42
0.0000001
 43
0.0000001
 44
0.0000000001
 40
0.0
 40
0.0
 40
0.0
 40
0.0
 40
0.0214516569
 40
0.0431994758
 40
0.0655198308
 40
0.0886542014
 40
0.1127978041
 40
0.1380981526
 40
0.1646526566
 40
0.1925150747
 40
0.2216976941
 40
0.2521779985
 40
0.2839029761
 40
0.3167929648
 40
0.3507472008
 40
0.3856451102
 40
0.4213521257
 40
0.4577200199
 40
0.5317814413
 40
0.6065216417
 40
0.6805721573
 40
0.7526025621
 40
0.7874866713
 40
0.821424541
 40
0.8542972346
 40
0.8860031062
 40
0.9164612895
 40
0.9456235558
 40
0.9734719768
 40
1.0
 40
1.0
 40
1.0
 40
1.0
 10
16.6456993836
 20
10.6634846434
 30
0.0
 10
16.6430893405
 20
10.6550396578
 30
0.0
 10
16.6365883848
 20
10.6383903336
 30
0.0
 10
16.6232327736
 20
10.6148304705
 30
0.0
 10
16.6063595008
 20
10.592769515
 30
0.0
 10
16.5860994767
 20
10.5723697357
 30
0.0
 10
16.562610527
 20
10.5537558782
 30
0.0
 10
16.5360577566
 20
10.5370503705
 30
0.0
 10
16.5066288144
 20
10.5223520067
 30
0.0
 10
16.4745226832
 20
10.5097558993
 30
0.0
 10
16.439957266
 20
10.4993397271
 30
0.0
 10
16.4031654542
 20
10.4911699702
 30
0.0
 10
16.3643951603
 20
10.4853012408
 30
0.0
 10
16.3239084803
 20
10.481768457
 30
0.0
 10
16.2819790917
 20
10.4805990396
 30
0.0
 10
16.2388913191
 20
10.4817955962
 30
0.0
 10
16.1949366492
 20
10.4853543909
 30
0.0
 10
16.1352210933
 20
10.4932593434
 30
0.0
 10
16.0604043348
 20
10.5088702782
 30
0.0
 10
15.9725554024
 20
10.5360537735
 30
0.0
 10
15.8884307063
 20
10.5710774106
 30
0.0
 10
15.8225976912
 20
10.6063958845
 30
0.0
 10
15.7737918499
 20
10.6378487409
 30
0.0
 10
15.7398711101
 20
10.6624910696
 30
0.0
 10
15.7084772718
 20
10.6882650577
 30
0.0
 10
15.6798233666
 20
10.7149980954
 30
0.0
 10
15.6541029859
 20
10.7425101508
 30
0.0
 10
15.6314881814
 20
10.7706211747
 30
0.0
 10
15.6121432105
 20
10.7991398785
 30
0.0
 10
15.6012491854
 20
10.8187640539
 30
0.0
 10
15.5964336867
 20
10.8285770086
 30
0.0
  0
SPLINE
  5
273
100
AcDbEntity
  8
DRAWING
100
AcDbSpline
 62
7
  6
CONTINUOUS
 70
0
 71
3
 72
13
 73
9
 74
0
 42
0.0000001
 43
0.0000001
 44
0.0000000001
 40
0.0
 40
0.0
 40
0.0
 40
0.0
 40
0.1161898329
 40
0.2337108258
 40
0.3532401792
 40
0.4754080685
 40
0.7296501279
 40
1.0
 40
1.0
 40
1.0
 40
1.0
 10
16.650292285
 20
10.6775413925
 30
0.0
 10
16.6516034526
 20
10.6834257413
 30
0.0
 10
16.6536603997
 20
10.6953993037
 30
0.0
 10
16.6550187614
 20
10.7137031941
 30
0.0
 10
16.6546583978
 20
10.7323652811
 30
0.0
 10
16.6518528315
 20
10.7579744458
 30
0.0
 10
16.6438637158
 20
10.7907310226
 30
0.0
 10
16.6334341397
 20
10.8159841232
 30
0.0
 10
16.6272544491
 20
10.8285770086
 30
0.0
  0
ENDSEC
  0
SECTION
  2
OBJECTS
  0
DICTIONARY
  5
C
100
AcDbDictionary
280
0
281
1
  3
ACAD_GROUP
350
D
  3
ACAD_MLINESTYLE
350
17
  3
ACAD_LAYOUT
350
1A
  3
ACAD_PLOTSETTINGS
350
19
  3
ACAD_PLOTSTYLENAME
350
E
  0
DICTIONARY
  5
D
102
{ACAD_REACTORS
330
C
102
}
100
AcDbDictionary
280
0
281
1
  0
ACDBDICTIONARYWDFLT
  5
E
102
{ACAD_REACTORS
330
C
102
}
100
AcDbDictionary
281
1
  3
Normal
350
F
100
AcDbDictionaryWithDefault
340
F
  0
DICTIONARY
  5
17
102
{ACAD_REACTORS
330
C
102
}
100
AcDbDictionary
280
0
281
1
  3
Standard
350
18
  0
DICTIONARY
  5
19
102
{ACAD_REACTORS
330
C
102
}
100
AcDbDictionary
281
1
  0
DICTIONARY
  5
1A
102
{ACAD_REACTORS
330
C
102
}
100
AcDbDictionary
281
1
  3
Model
350
274
  3
Layout1
350
275
  0
ACDBPLACEHOLDER
  5
F
102
{ACAD_REACTORS
330
E
102
}
  0
MLINESTYLE
  5
18
102
{ACAD_REACTORS
330
17
102
}
100
AcDbMlineStyle
  2
STANDARD
 70
0
  3

 62
256
 51
90.0
 52
90.0
 71
2
 49
0.5
 62
256
  6
BYLAYER
 49
-0.5
 62
256
  6
BYLAYER
  0
LAYOUT
  5
274
102
{ACAD_REACTORS
330
1A
102
}
100
AcDbPlotSettings
  1

  2
none_device
  4
ANSI_C_(22.00_x_17.00_Inches)
  6

 40
0.0
 41
0.0
 42
0.0
 43
0.0
 44
558.8
 45
431.8
 46
0.0
 47
0.0
 48
0.0
 49
0.0
140
0.0
141
0.0
142
1.0
143
1.0
 70
1024
 72
0
 73
0
 74
0
  7

 75
0
147
1.0
148
0.0
149
0.0
100
AcDbLayout
  1
Model
 70
0
 71
0
 10
0.0
 20
0.0
 11
22.0
 21
17.0
 12
0.0
 22
0.0
 32
0.0
 14
0.0
 24
0.0
 34
0.0
 15
0.0
 25
0.0
 35
0.0
146
0.0
 13
0.0
 23
0.0
 33
0.0
 16
1.0
 26
0.0
 36
0.0
 17
0.0
 27
1.0
 37
0.0
 76
0
330
218
345
0
346
0
  0
LAYOUT
  5
275
102
{ACAD_REACTORS
330
1A
102
}
100
AcDbPlotSettings
  1

  2
none_device
  4
ANSI_C_(22.00_x_17.00_Inches)
  6

 40
0.0
 41
0.0
 42
0.0
 43
0.0
 44
558.8
 45
431.8
 46
0.0
 47
0.0
 48
0.0
 49
0.0
140
0.0
141
0.0
142
1.0
143
1.0
 70
0
 72
0
 73
0
 74
0
  7

 75
0
147
1.0
148
0.0
149
0.0
100
AcDbLayout
  1
Layout1
 70
0
 71
1
 10
0.0
 20
0.0
 11
22.0
 21
17.0
 12
0.0
 22
0.0
 32
0.0
 14
0.0
 24
0.0
 34
0.0
 15
0.0
 25
0.0
 35
0.0
146
0.0
 13
0.0
 23
0.0
 33
0.0
 16
1.0
 26
0.0
 36
0.0
 17
0.0
 27
1.0
 37
0.0
 76
0
330
219
345
0
346
0
  0
ENDSEC
  0
EOF