999
DXF file: _cgs_temp_output.dxf
999
Pro/ENGINEER 2016360 by Parametric Technology Corporation
  0
SECTION
  2
HEADER
  9
$ACADVER
  1
AC1021
  9
$DWGCODEPAGE
  3
ANSI_1252
  9
$EXTMAX
 10
22.0
 20
17.0
 30
0.0
  9
$EXTMIN
 10
0.0
 20
0.0
 30
0.0
  9
$LIMMIN
 10
0.0
 20
0.0
  9
$LIMMAX
 10
22.0
 20
17.0
  9
$VIEWCTR
 10
11.0
 20
8.5
  9
$VIEWSIZE
 40
17.0
  9
$CLAYER
  8
0
  9
$LTSCALE
 40
1.21
  9
$CELTYPE
  6
BYLAYER
  9
$DIMSCALE
 40
1.0
  9
$DIMASZ
 40
0.1875
  9
$DIMEXO
 40
0.0625
  9
$DIMDLI
 40
0.836
  9
$DIMEXE
 40
0.125
  9
$DIMCEN
 40
0.198
  9
$DIMLFAC
 40
1.0
  9
$DIMBLK
  1
_CLOSED
  9
$DIMALT
 70
0
  9
$DIMALTF
 40
25.4
  9
$DIMTXT
 40
0.15625
  9
$DIMTOL
 70
0
  9
$DIMLIM
 70
0
  9
$DIMTFAC
 40
1.0
  9
$DIMGAP
 40
0.09
  9
$DIMDSEP
 70
46
  9
$AUNITS
 70
0
  9
$PDMODE
 70
3
  9
$PDSIZE
 40
0.3125
  9
$HANDSEED
  5
246
  9
$TILEMODE
 70
1
  9
$MEASUREMENT
 70
0
  9
$INSUNITS
 70
1
  0
ENDSEC
  0
SECTION
  2
CLASSES
  0
CLASS
  1
ACDBDICTIONARYWDFLT
  2
AcDbDictionaryWithDefault
  3
AutoCAD 2000
 90
0
 91
1
280
0
281
0
  0
CLASS
  1
ACDBPLACEHOLDER
  2
AcDbPlaceHolder
  3
AutoCAD 2000
 90
0
 91
1
280
0
281
0
  0
CLASS
  1
LAYOUT
  2
AcDbLayout
  3
AutoCAD 2000
 90
0
 91
0
280
0
281
0
  0
ENDSEC
  0
SECTION
  2
TABLES
  0
TABLE
  2
VPORT
  5
8
100
AcDbSymbolTable
 70
2
  0
VPORT
  5
1F4
100
AcDbSymbolTableRecord
100
AcDbViewportTableRecord
  2
*ACTIVE
 70
0
 10
0.0
 20
0.0
 11
1.0
 21
1.0
 12
11.0
 22
8.5
 13
0.0
 23
0.0
 14
1.0
 24
1.0
 15
0.0
 25
0.0
 16
0.0
 26
0.0
 36
1.0
 17
0.0
 27
0.0
 37
0.0
 40
17.0
 41
1.2941176471
 42
50.0
 43
0.0
 44
0.0
 50
0.0
 51
0.0
 71
0
 72
100
 73
1
 74
1
 75
0
 76
0
 77
0
 78
0
  0
ENDTAB
  0
TABLE
  2
LTYPE
  5
5
100
AcDbSymbolTable
 70
6
  0
LTYPE
  5
14
100
AcDbSymbolTableRecord
100
AcDbLinetypeTableRecord
  2
BYBLOCK
 70
0
  3

 72
65
 73
0
 40
0.0
  0
LTYPE
  5
15
100
AcDbSymbolTableRecord
100
AcDbLinetypeTableRecord
  2
BYLAYER
 70
0
  3

 72
65
 73
0
 40
0.0
  0
LTYPE
  5
16
100
AcDbSymbolTableRecord
100
AcDbLinetypeTableRecord
  2
CONTINUOUS
 70
64
  3
Solid line
 72
65
 73
0
 40
0.0
  0
LTYPE
  5
1F5
100
AcDbSymbolTableRecord
100
AcDbLinetypeTableRecord
  2
CENTER
 70
64
  3
____ _ ____ _ ____ _ ____ _ ____ _ ____ _ ____
 72
65
 73
4
 40
0.6
 49
0.375
 74
0
 49
-0.075
 74
0
 49
0.075
 74
0
 49
-0.075
 74
0
  0
LTYPE
  5
1F6
100
AcDbSymbolTableRecord
100
AcDbLinetypeTableRecord
  2
HIDDEN
 70
64
  3
- - - - - - - - - - - - - - - - - - - -
 72
65
 73
2
 40
0.2
 49
0.1
 74
0
 49
-0.1
 74
0
  0
LTYPE
  5
1F7
100
AcDbSymbolTableRecord
100
AcDbLinetypeTableRecord
  2
PHANTOM
 70
64
  3
_____ _ _ _____ _ _ _____ _ _ _____
 72
65
 73
6
 40
0.8
 49
0.45
 74
0
 49
-0.05
 74
0
 49
0.1
 74
0
 49
-0.05
 74
0
 49
0.1
 74
0
 49
-0.05
 74
0
  0
LTYPE
  5
1F8
100
AcDbSymbolTableRecord
100
AcDbLinetypeTableRecord
  2
DOT
 70
64
  3
. . . . . . . . . . . . . . . . . . . .
 72
65
 73
2
 40
0.2
 49
0.1
 74
0
 49
-0.1
 74
0
  0
LTYPE
  5
1F9
100
AcDbSymbolTableRecord
100
AcDbLinetypeTableRecord
  2
DASHED
 70
64
  3
- - - - - - - - - - - - - - - - - - - -
 72
65
 73
2
 40
0.2
 49
0.1
 74
0
 49
-0.1
 74
0
  0
ENDTAB
  0
TABLE
  2
LAYER
  5
2
100
AcDbSymbolTable
 70
36
  0
LAYER
  5
10
100
AcDbSymbolTableRecord
100
AcDbLayerTableRecord
  2
0
 70
0
 62
7
  6
CONTINUOUS
370
-3
390
F
  0
LAYER
  5
1FA
100
AcDbSymbolTableRecord
100
AcDbLayerTableRecord
  2
DEFAULT_1
 70
0
 62
7
  6
CENTER
370
-3
390
F
  0
LAYER
  5
1FB
100
AcDbSymbolTableRecord
100
AcDbLayerTableRecord
  2
DEFAULT_2
 70
0
 62
8
  6
HIDDEN
370
-3
390
F
  0
LAYER
  5
1FC
100
AcDbSymbolTableRecord
100
AcDbLayerTableRecord
  2
DEFAULT_3
 70
0
 62
7
  6
PHANTOM
370
-3
390
F
  0
LAYER
  5
1FD
100
AcDbSymbolTableRecord
100
AcDbLayerTableRecord
  2
01_ALL_DTM_PLN
 70
0
 62
7
  6
CONTINUOUS
370
-3
390
F
  0
LAYER
  5
1FE
100
AcDbSymbolTableRecord
100
AcDbLayerTableRecord
  2
01__ASM_ALL_DTM_PLN
 70
0
 62
7
  6
CONTINUOUS
370
-3
390
F
  0
LAYER
  5
1FF
100
AcDbSymbolTableRecord
100
AcDbLayerTableRecord
  2
01__ASM_DEF_DTM_PLN
 70
0
 62
7
  6
CONTINUOUS
370
-3
390
F
  0
LAYER
  5
200
100
AcDbSymbolTableRecord
100
AcDbLayerTableRecord
  2
01___PRT_ALL_DTM_PLN
 70
0
 62
7
  6
CONTINUOUS
370
-3
390
F
  0
LAYER
  5
201
100
AcDbSymbolTableRecord
100
AcDbLayerTableRecord
  2
01___PRT_DEF_DTM_PLN
 70
0
 62
7
  6
CONTINUOUS
370
-3
390
F
  0
LAYER
  5
202
100
AcDbSymbolTableRecord
100
AcDbLayerTableRecord
  2
02_ALL_AXES
 70
0
 62
7
  6
CONTINUOUS
370
-3
390
F
  0
LAYER
  5
203
100
AcDbSymbolTableRecord
100
AcDbLayerTableRecord
  2
02__ASM_ALL_AXES
 70
0
 62
7
  6
CONTINUOUS
370
-3
390
F
  0
LAYER
  5
204
100
AcDbSymbolTableRecord
100
AcDbLayerTableRecord
  2
02___PRT_ALL_AXES
 70
0
 62
7
  6
CONTINUOUS
370
-3
390
F
  0
LAYER
  5
205
100
AcDbSymbolTableRecord
100
AcDbLayerTableRecord
  2
03_ALL_CURVES
 70
0
 62
7
  6
CONTINUOUS
370
-3
390
F
  0
LAYER
  5
206
100
AcDbSymbolTableRecord
100
AcDbLayerTableRecord
  2
03__ASM_ALL_CURVES
 70
0
 62
7
  6
CONTINUOUS
370
-3
390
F
  0
LAYER
  5
207
100
AcDbSymbolTableRecord
100
AcDbLayerTableRecord
  2
03___PRT_ALL_CURVES
 70
0
 62
7
  6
CONTINUOUS
370
-3
390
F
  0
LAYER
  5
208
100
AcDbSymbolTableRecord
100
AcDbLayerTableRecord
  2
04_ALL_DTM_PNT
 70
0
 62
7
  6
CONTINUOUS
370
-3
390
F
  0
LAYER
  5
209
100
AcDbSymbolTableRecord
100
AcDbLayerTableRecord
  2
04__ASM_ALL_DTM_PNT
 70
0
 62
7
  6
CONTINUOUS
370
-3
390
F
  0
LAYER
  5
20A
100
AcDbSymbolTableRecord
100
AcDbLayerTableRecord
  2
04___PRT_ALL_DTM_PNT
 70
0
 62
7
  6
CONTINUOUS
370
-3
390
F
  0
LAYER
  5
20B
100
AcDbSymbolTableRecord
100
AcDbLayerTableRecord
  2
05_ALL_DTM_CSYS
 70
0
 62
7
  6
CONTINUOUS
370
-3
390
F
  0
LAYER
  5
20C
100
AcDbSymbolTableRecord
100
AcDbLayerTableRecord
  2
05__ASM_ALL_DTM_CSYS
 70
0
 62
7
  6
CONTINUOUS
370
-3
390
F
  0
LAYER
  5
20D
100
AcDbSymbolTableRecord
100
AcDbLayerTableRecord
  2
05__ASM_DEF_DTM_CSYS
 70
0
 62
7
  6
CONTINUOUS
370
-3
390
F
  0
LAYER
  5
20E
100
AcDbSymbolTableRecord
100
AcDbLayerTableRecord
  2
05___PRT_ALL_DTM_CSYS
 70
0
 62
7
  6
CONTINUOUS
370
-3
390
F
  0
LAYER
  5
20F
100
AcDbSymbolTableRecord
100
AcDbLayerTableRecord
  2
05___PRT_DEF_DTM_CSYS
 70
0
 62
7
  6
CONTINUOUS
370
-3
390
F
  0
LAYER
  5
210
100
AcDbSymbolTableRecord
100
AcDbLayerTableRecord
  2
06_ALL_SURFS
 70
0
 62
7
  6
CONTINUOUS
370
-3
390
F
  0
LAYER
  5
211
100
AcDbSymbolTableRecord
100
AcDbLayerTableRecord
  2
06__ASM_ALL_SURFS
 70
0
 62
7
  6
CONTINUOUS
370
-3
390
F
  0
LAYER
  5
212
100
AcDbSymbolTableRecord
100
AcDbLayerTableRecord
  2
06___PRT_ALL_SURFS
 70
0
 62
7
  6
CONTINUOUS
370
-3
390
F
  0
LAYER
  5
213
100
AcDbSymbolTableRecord
100
AcDbLayerTableRecord
  2
07__ASM_ALL_SKELETONS
 70
0
 62
7
  6
CONTINUOUS
370
-3
390
F
  0
LAYER
  5
214
100
AcDbSymbolTableRecord
100
AcDbLayerTableRecord
  2
DRAWING
 70
0
 62
7
  6
CONTINUOUS
370
-3
390
F
  0
LAYER
  5
215
100
AcDbSymbolTableRecord
100
AcDbLayerTableRecord
  2
SHELL
 70
0
 62
7
  6
CONTINUOUS
370
-3
390
F
  0
ENDTAB
  0
TABLE
  2
STYLE
  5
3
100
AcDbSymbolTable
 70
1
  0
STYLE
  5
11
100
AcDbSymbolTableRecord
100
AcDbTextStyleTableRecord
  2
STANDARD
 70
0
 40
0.0
 41
0.8
 50
0.0
 71
0
 42
0.2
  3
txt
  4

  0
STYLE
  5
216
100
AcDbSymbolTableRecord
100
AcDbTextStyleTableRecord
  2
TEXTSTYLE_1
 70
0
 40
0.0
 41
0.8
 50
0.0
 71
0
 42
0.2
  3
gdt
  4

  0
ENDTAB
  0
TABLE
  2
VIEW
  5
6
100
AcDbSymbolTable
 70
0
  0
ENDTAB
  0
TABLE
  2
UCS
  5
7
100
AcDbSymbolTable
 70
0
  0
ENDTAB
  0
TABLE
  2
APPID
  5
9
100
AcDbSymbolTable
 70
1
  0
APPID
  5
217
100
AcDbSymbolTableRecord
100
AcDbRegAppTableRecord
  2
ACAD
 70
0
  0
ENDTAB
  0
TABLE
  2
BLOCK_RECORD
  5
1
100
AcDbSymbolTable
 70
0
  0
BLOCK_RECORD
  5
218
100
AcDbSymbolTableRecord
100
AcDbBlockTableRecord
  2
*Model_Space
  0
BLOCK_RECORD
  5
219
100
AcDbSymbolTableRecord
100
AcDbBlockTableRecord
  2
*Paper_Space
  0
ENDTAB
  0
TABLE
  2
DIMSTYLE
  5
A
100
AcDbSymbolTable
 70
1
100
AcDbDimStyleTable
 71
0
  0
DIMSTYLE
105
21A
100
AcDbSymbolTableRecord
100
AcDbDimStyleTableRecord
  2
STANDARD
 70
0
  3

  4

 40
1.0
 41
0.1875
 42
0.0625
 43
0.38
 44
0.125
 45
0.0
 46
0.0
 47
0.0001
 48
0.0001
140
0.15625
141
0.09
142
0.0
143
25.4
144
1.0
145
0.0
146
1.0
147
0.09
 71
0.0
 72
0.0
 73
1
 74
1
 75
0
 76
0
 77
0
 78
4
 79
1
170
0
171
3
172
0
173
0
174
0
175
0
176
0
177
0
178
0
270
2
179
4
271
4
272
4
273
2
274
2
275
0
280
0
281
0
282
0
283
1
284
4
285
0
286
0
287
3
288
0
340
11
278
46
  0
ENDTAB
  0
ENDSEC
  0
SECTION
  2
BLOCKS
  0
BLOCK
  5
20
100
AcDbEntity
  8
0
100
AcDbBlockBegin
  2
*Model_Space
 70
0
 10
0.0
 20
0.0
 30
0.0
  3
*Model_Space
  1

  0
ENDBLK
  5
21
100
AcDbEntity
  8
0
100
AcDbBlockEnd
  0
BLOCK
  5
1C
100
AcDbEntity
  8
0
100
AcDbBlockBegin
  2
*Paper_Space
 70
0
 10
0.0
 20
0.0
 30
0.0
  3
*Paper_Space
  1

  0
ENDBLK
  5
1D
100
AcDbEntity
  8
0
100
AcDbBlockEnd
  0
ENDSEC
  0
SECTION
  2
ENTITIES
  0
MTEXT
  5
21B
100
AcDbEntity
  8
0
100
AcDbMText
 62
7
  6
CONTINUOUS
  7
STANDARD
 71
1
 72
1
 10
15.9560215477
 20
0.9479130325
 30
0.0
 11
1.0
 21
0.0
 31
0.0
 44
0.9
  1
SCALE: 1:1.000
 40
0.3
 41
3.36
  0
LINE
  5
21C
100
AcDbEntity
  8
0
100
AcDbLine
 62
7
  6
CONTINUOUS
 10
0.0
 20
0.0
 11
0.0
 21
17.0
  0
LINE
  5
21D
100
AcDbEntity
  8
0
100
AcDbLine
 62
7
  6
CONTINUOUS
 10
0.0
 20
0.0
 11
22.0
 21
0.0
  0
LINE
  5
21E
100
AcDbEntity
  8
0
100
AcDbLine
 62
7
  6
CONTINUOUS
 10
0.0
 20
17.0
 11
22.0
 21
17.0
  0
LINE
  5
21F
100
AcDbEntity
  8
0
100
AcDbLine
 62
7
  6
CONTINUOUS
 10
22.0
 20
0.0
 11
22.0
 21
17.0
  0
LINE
  5
220
100
AcDbEntity
  8
DRAWING
100
AcDbLine
 62
7
  6
CONTINUOUS
 10
3.5008720839
 20
12.6500477814
 11
3.5008720839
 21
12.5500477814
  0
LINE
  5
221
100
AcDbEntity
  8
DRAWING
100
AcDbLine
 62
7
  6
CONTINUOUS
 10
8.6408720839
 20
12.5500477814
 11
3.5008720839
 21
12.5500477814
  0
LINE
  5
222
100
AcDbEntity
  8
DRAWING
100
AcDbLine
 62
7
  6
CONTINUOUS
 10
8.6408720839
 20
12.6500477814
 11
3.5008720839
 21
12.6500477814
  0
LINE
  5
223
100
AcDbEntity
  8
DRAWING
100
AcDbLine
 62
7
  6
CONTINUOUS
 10
8.6408720839
 20
12.6500477814
 11
8.6408720839
 21
12.5500477814
  0
LINE
  5
224
100
AcDbEntity
  8
DRAWING
100
AcDbLine
 62
7
  6
CONTINUOUS
 10
15.6103552569
 20
2.8906247044
 11
15.5103552569
 21
2.8906247044
  0
LINE
  5
225
100
AcDbEntity
  8
DRAWING
100
AcDbLine
 62
7
  6
CONTINUOUS
 10
15.5103552569
 20
2.8906548176
 11
15.5103552569
 21
8.0305945913
  0
LINE
  5
226
100
AcDbEntity
  8
DRAWING
100
AcDbLine
 62
7
  6
CONTINUOUS
 10
15.6103552569
 20
2.8906548176
 11
15.6103552569
 21
8.0305945913
  0
LINE
  5
227
100
AcDbEntity
  8
DRAWING
100
AcDbLine
 62
7
  6
CONTINUOUS
 10
15.6103552569
 20
8.0306247044
 11
15.5103552569
 21
8.0306247044
  0
LINE
  5
228
100
AcDbEntity
  8
DRAWING
100
AcDbLine
 62
7
  6
CONTINUOUS
 10
13.0277842149
 20
13.3087570831
 11
13.0035775826
 21
13.2304243921
  0
LINE
  5
229
100
AcDbEntity
  8
DRAWING
100
AcDbLine
 62
7
  6
CONTINUOUS
 10
13.0158816563
 20
13.2278431009
 11
13.0160130986
 21
13.2292905565
  0
LINE
  5
22A
100
AcDbEntity
  8
DRAWING
100
AcDbLine
 62
7
  6
CONTINUOUS
 10
13.0143167875
 20
13.2282730087
 11
13.0146079382
 21
13.2296774346
  0
LINE
  5
22B
100
AcDbEntity
  8
DRAWING
100
AcDbLine
 62
7
  6
CONTINUOUS
 10
17.9386473544
 20
11.7911855937
 11
17.914440722
 21
11.7128529027
  0
LINE
  5
22C
100
AcDbEntity
  8
DRAWING
100
AcDbLine
 62
7
  6
CONTINUOUS
 10
17.9011510861
 20
11.7183098734
 11
17.9009118995
 21
11.7177275973
  0
LINE
  5
22D
100
AcDbEntity
  8
DRAWING
100
AcDbLine
 62
7
  6
CONTINUOUS
 10
17.9043842238
 20
11.7171978579
 11
17.9041409438
 21
11.7166161026
  0
CIRCLE
  5
22E
100
AcDbEntity
  8
DRAWING
100
AcDbCircle
 62
7
  6
CONTINUOUS
 10
6.1303672762
 20
5.5201198968
 40
2.57
  0
CIRCLE
  5
22F
100
AcDbEntity
  8
DRAWING
100
AcDbCircle
 62
7
  6
CONTINUOUS
 10
6.1303672762
 20
5.5201198968
 40
2.563
  0
ARC
  5
230
100
AcDbEntity
  8
DRAWING
100
AcDbCircle
 62
7
  6
CONTINUOUS
 10
13.8119997555
 20
12.9804787143
 40
0.8461772941
100
AcDbArc
 50
157.2970501486
 51
162.8195853683
  0
ARC
  5
231
100
AcDbEntity
  8
DRAWING
100
AcDbCircle
 62
7
  6
CONTINUOUS
 10
13.8421145504
 20
13.0573994334
 40
0.8452496099
100
AcDbArc
 50
167.4386114348
 51
168.2396219196
  0
ARC
  5
232
100
AcDbEntity
  8
DRAWING
100
AcDbCircle
 62
7
  6
CONTINUOUS
 10
17.1001103865
 20
11.9642105524
 40
0.8452496098
100
AcDbArc
 50
347.4386114348
 51
348.2396219196
  0
ARC
  5
233
100
AcDbEntity
  8
DRAWING
100
AcDbCircle
 62
7
  6
CONTINUOUS
 10
17.1257897772
 20
12.0425177726
 40
0.8438260242
100
AcDbArc
 50
337.3233772111
 51
341.108771853
  0
ARC
  5
234
100
AcDbEntity
  8
DRAWING
100
AcDbCircle
 62
7
  6
CONTINUOUS
 10
17.1083847387
 20
11.9619644215
 40
0.8436702959
100
AcDbArc
 50
342.8262414599
 51
348.3273169966
  0
ARC
  5
235
100
AcDbEntity
  8
DRAWING
100
AcDbCircle
 62
7
  6
CONTINUOUS
 10
13.8402687055
 20
13.0578087778
 40
0.8433589214
100
AcDbArc
 50
166.7003380934
 51
167.4384824623
  0
ARC
  5
236
100
AcDbEntity
  8
DRAWING
100
AcDbCircle
 62
7
  6
CONTINUOUS
 10
13.8152103672
 20
12.9795549404
 40
0.8425175198
100
AcDbArc
 50
157.3203008129
 51
162.8239933475
  0
ARC
  5
237
100
AcDbEntity
  8
DRAWING
100
AcDbCircle
 62
7
  6
CONTINUOUS
 10
17.1036676067
 20
11.9634032885
 40
0.8416019688
100
AcDbArc
 50
342.8274632902
 51
347.4395847611
  0
SPLINE
  5
238
100
AcDbEntity
  8
DRAWING
100
AcDbSpline
 62
7
  6
CONTINUOUS
 70
0
 71
3
 72
15
 73
11
 74
0
 42
0.0000001
 43
0.0000001
 44
0.0000000001
 40
0.0
 40
0.0
 40
0.0
 40
0.0
 40
0.1371809851
 40
0.2701787025
 40
0.399205673
 40
0.5245870547
 40
0.6467899628
 40
0.7663533126
 40
0.8838754716
 40
1.0
 40
1.0
 40
1.0
 40
1.0
 10
13.122536457
 20
12.5499713384
 30
0.0
 10
13.1084462303
 20
12.5786842015
 30
0.0
 10
13.0825167559
 20
12.6361543125
 30
0.0
 10
13.0502243136
 20
12.7235299951
 30
0.0
 10
13.0252706618
 20
12.8104317781
 30
0.0
 10
13.0077700884
 20
12.8965757809
 30
0.0
 10
12.9977627718
 20
12.9816941059
 30
0.0
 10
12.9952994374
 20
13.0655396672
 30
0.0
 10
13.000388922
 20
13.1478449831
 30
0.0
 10
13.0088433069
 20
13.2017575776
 30
0.0
 10
13.0143167875
 20
13.2282730087
 30
0.0
  0
SPLINE
  5
239
100
AcDbEntity
  8
DRAWING
100
AcDbSpline
 62
7
  6
CONTINUOUS
 70
0
 71
3
 72
48
 73
44
 74
0
 42
0.0000001
 43
0.0000001
 44
0.0000000001
 40
0.0
 40
0.0
 40
0.0
 40
0.0
 40
0.026523778
 40
0.0543677427
 40
0.0687858536
 40
0.0835308724
 40
0.1139841817
 40
0.129685452
 40
0.1456892742
 40
0.1785567073
 40
0.1953987296
 40
0.2124926503
 40
0.2473711772
 40
0.2830604996
 40
0.3194134982
 40
0.3562725655
 40
0.3934737364
 40
0.4308476047
 40
0.4682229495
 40
0.5054280662
 40
0.5422940643
 40
0.5786561387
 40
0.6143574402
 40
0.6492497651
 40
0.6831985676
 40
0.7160832932
 40
0.747803194
 40
0.7632026475
 40
0.7782834569
 40
0.8074614064
 40
0.8215584275
 40
0.835325697
 40
0.8618759517
 40
0.874679874
 40
0.8871807109
 40
0.91132045
 40
0.9344511186
 40
0.9457030841
 40
0.9567802232
 40
0.9677139828
 40
0.978537905
 40
0.9892876183
 40
1.0
 40
1.0
 40
1.0
 40
1.0
 10
17.8503425392
 20
12.5499713384
 30
0.0
 10
17.8282099042
 20
12.5950729067
 30
0.0
 10
17.778140668
 20
12.6852656559
 30
0.0
 10
17.7049146178
 20
12.7932201277
 30
0.0
 10
17.6389982882
 20
12.8787751662
 30
0.0
 10
17.5666374142
 20
12.9654960063
 30
0.0
 10
17.4877817164
 20
13.0498452181
 30
0.0
 10
17.4031046474
 20
13.1316695196
 30
0.0
 10
17.3123898586
 20
13.2137362179
 30
0.0
 10
17.2161163038
 20
13.2927751319
 30
0.0
 10
17.1148681493
 20
13.3686893109
 30
0.0
 10
17.0083675273
 20
13.443864564
 30
0.0
 10
16.8687220461
 20
13.5338595807
 30
0.0
 10
16.6928443602
 20
13.6344473521
 30
0.0
 10
16.5087282781
 20
13.7276447998
 30
0.0
 10
16.3176391493
 20
13.8128366181
 30
0.0
 10
16.1208679519
 20
13.8894255178
 30
0.0
 10
15.9197595532
 20
13.9569055032
 30
0.0
 10
15.7156791661
 20
14.014806893
 30
0.0
 10
15.5100169178
 20
14.0627400762
 30
0.0
 10
15.3041728232
 20
14.1003810867
 30
0.0
 10
15.0995452248
 20
14.1274649877
 30
0.0
 10
14.8975274914
 20
14.1438222471
 30
0.0
 10
14.6994900909
 20
14.1493216006
 30
0.0
 10
14.5067765053
 20
14.1439469155
 30
0.0
 10
14.3206985112
 20
14.1277095601
 30
0.0
 10
14.170748206
 20
14.1050137551
 30
0.0
 10
14.0553063271
 20
14.0813702746
 30
0.0
 10
13.9454640948
 20
14.0547693346
 30
0.0
 10
13.839504541
 20
14.0228391396
 30
0.0
 10
13.7381451636
 20
13.9853383041
 30
0.0
 10
13.6430701002
 20
13.945483821
 30
0.0
 10
13.5528966909
 20
13.9004452151
 30
0.0
 10
13.4685168203
 20
13.8501010332
 30
0.0
 10
13.3906456468
 20
13.7980061147
 30
0.0
 10
13.3017166094
 20
13.727536379
 30
0.0
 10
13.2233900076
 20
13.6486614274
 30
0.0
 10
13.1689212912
 20
13.5819017297
 30
0.0
 10
13.1323935788
 20
13.5305066005
 30
0.0
 10
13.0998885386
 20
13.4774257634
 30
0.0
 10
13.0714697593
 20
13.4227441202
 30
0.0
 10
13.0471907941
 20
13.3665619635
 30
0.0
 10
13.0337775241
 20
13.3281423934
 30
0.0
 10
13.0277860425
 20
13.3087565159
 30
0.0
  0
SPLINE
  5
23A
100
AcDbEntity
  8
DRAWING
100
AcDbSpline
 62
7
  6
CONTINUOUS
 70
0
 71
3
 72
16
 73
12
 74
0
 42
0.0000001
 43
0.0000001
 44
0.0000000001
 40
0.0
 40
0.0
 40
0.0
 40
0.0
 40
0.0581782013
 40
0.116470866
 40
0.2338067559
 40
0.3529139697
 40
0.4745977362
 40
0.5995910415
 40
0.7285343026
 40
0.861906359
 40
1.0
 40
1.0
 40
1.0
 40
1.0
 10
17.9386455268
 20
11.7911861609
 30
0.0
 10
17.9431265097
 20
11.8056847091
 30
0.0
 10
17.9513146689
 20
11.8349597373
 30
0.0
 10
17.9645521899
 20
11.8945157897
 30
0.0
 10
17.9751419783
 20
11.9708226745
 30
0.0
 10
17.9782262017
 20
12.0643471152
 30
0.0
 10
17.9717004166
 20
12.1596922076
 30
0.0
 10
17.9556192604
 20
12.2564847983
 30
0.0
 10
17.9300451413
 20
12.3543562285
 30
0.0
 10
17.8951080588
 20
12.4529016531
 30
0.0
 10
17.8662110519
 20
12.5176347095
 30
0.0
 10
17.8503425392
 20
12.5499713384
 30
0.0
  0
SPLINE
  5
23B
100
AcDbEntity
  8
DRAWING
100
AcDbSpline
 62
7
  6
CONTINUOUS
 70
0
 71
3
 72
15
 73
11
 74
0
 42
0.0000001
 43
0.0000001
 44
0.0000000001
 40
0.0
 40
0.0
 40
0.0
 40
0.0
 40
0.1371990431
 40
0.2702052614
 40
0.3992324117
 40
0.5246080752
 40
0.6468022057
 40
0.7663568446
 40
0.8838737346
 40
1.0
 40
1.0
 40
1.0
 40
1.0
 10
17.8196884799
 20
12.4716386474
 30
0.0
 10
17.8338094297
 20
12.4428631772
 30
0.0
 10
17.8597906226
 20
12.3852676098
 30
0.0
 10
17.8921310108
 20
12.2976991391
 30
0.0
 10
17.9170994455
 20
12.2106077092
 30
0.0
 10
17.9345812767
 20
12.1242790616
 30
0.0
 10
17.9445361705
 20
12.038982718
 30
0.0
 10
17.9469129576
 20
11.9549674659
 30
0.0
 10
17.9417035211
 20
11.872502668
 30
0.0
 10
17.9331467735
 20
11.8184933691
 30
0.0
 10
17.9276169988
 20
11.7919325512
 30
0.0
  0
SPLINE
  5
23C
100
AcDbEntity
  8
DRAWING
100
AcDbSpline
 62
7
  6
CONTINUOUS
 70
0
 71
3
 72
48
 73
44
 74
0
 42
0.0000001
 43
0.0000001
 44
0.0000000001
 40
0.0
 40
0.0
 40
0.0
 40
0.0
 40
0.026523778
 40
0.0543677427
 40
0.0687858536
 40
0.0835308724
 40
0.1139841817
 40
0.129685452
 40
0.1456892742
 40
0.1785567073
 40
0.1953987296
 40
0.2124926503
 40
0.2473711772
 40
0.2830604996
 40
0.3194134982
 40
0.3562725655
 40
0.3934737364
 40
0.4308476047
 40
0.4682229495
 40
0.5054280662
 40
0.5422940643
 40
0.5786561387
 40
0.6143574402
 40
0.6492497651
 40
0.6831985676
 40
0.7160832932
 40
0.747803194
 40
0.7632026475
 40
0.7782834569
 40
0.8074614064
 40
0.8215584275
 40
0.835325697
 40
0.8618759517
 40
0.874679874
 40
0.8871807109
 40
0.91132045
 40
0.9344511186
 40
0.9457030841
 40
0.9567802232
 40
0.9677139828
 40
0.978537905
 40
0.9892876183
 40
1.0
 40
1.0
 40
1.0
 40
1.0
 10
13.0918823977
 20
12.4716386474
 30
0.0
 10
13.1140150328
 20
12.4265370792
 30
0.0
 10
13.164084269
 20
12.3363443299
 30
0.0
 10
13.2373103191
 20
12.2283898581
 30
0.0
 10
13.3032266488
 20
12.1428348196
 30
0.0
 10
13.3755875227
 20
12.0561139795
 30
0.0
 10
13.4544432206
 20
11.9717647677
 30
0.0
 10
13.5391202896
 20
11.8899404662
 30
0.0
 10
13.6298350783
 20
11.8078737679
 30
0.0
 10
13.7261086331
 20
11.7288348539
 30
0.0
 10
13.8273567876
 20
11.6529206749
 30
0.0
 10
13.9338574096
 20
11.5777454218
 30
0.0
 10
14.0735028908
 20
11.4877504051
 30
0.0
 10
14.2493805768
 20
11.3871626337
 30
0.0
 10
14.4334966588
 20
11.293965186
 30
0.0
 10
14.6245857876
 20
11.2087733677
 30
0.0
 10
14.821356985
 20
11.132184468
 30
0.0
 10
15.0224653838
 20
11.0647044826
 30
0.0
 10
15.2265457708
 20
11.0068030928
 30
0.0
 10
15.4322080191
 20
10.9588699096
 30
0.0
 10
15.6380521137
 20
10.9212288991
 30
0.0
 10
15.8426797121
 20
10.8941449981
 30
0.0
 10
16.0446974456
 20
10.8777877388
 30
0.0
 10
16.242734846
 20
10.8722883853
 30
0.0
 10
16.4354484316
 20
10.8776630703
 30
0.0
 10
16.6215264258
 20
10.8939004257
 30
0.0
 10
16.771476731
 20
10.9165962307
 30
0.0
 10
16.8869186098
 20
10.9402397112
 30
0.0
 10
16.9967608421
 20
10.9668406512
 30
0.0
 10
17.102720396
 20
10.9987708462
 30
0.0
 10
17.2040797733
 20
11.0362716817
 30
0.0
 10
17.2991548368
 20
11.0761261648
 30
0.0
 10
17.389328246
 20
11.1211647707
 30
0.0
 10
17.4737081166
 20
11.1715089526
 30
0.0
 10
17.5515792901
 20
11.2236038711
 30
0.0
 10
17.6405083275
 20
11.2940736068
 30
0.0
 10
17.7188349294
 20
11.3729485584
 30
0.0
 10
17.7733036457
 20
11.4397082561
 30
0.0
 10
17.8098313582
 20
11.4911033853
 30
0.0
 10
17.8423363984
 20
11.5441842224
 30
0.0
 10
17.8707551777
 20
11.5988658656
 30
0.0
 10
17.8950341429
 20
11.6550480223
 30
0.0
 10
17.9084474129
 20
11.6934675924
 30
0.0
 10
17.9144388945
 20
11.7128534699
 30
0.0
  0
SPLINE
  5
23D
100
AcDbEntity
  8
DRAWING
100
AcDbSpline
 62
7
  6
CONTINUOUS
 70
0
 71
3
 72
47
 73
43
 74
0
 42
0.0000001
 43
0.0000001
 44
0.0000000001
 40
0.0
 40
0.0
 40
0.0
 40
0.0
 40
0.0106983221
 40
0.0214801522
 40
0.0323788228
 40
0.0434256903
 40
0.0546501498
 40
0.0660792852
 40
0.0896345551
 40
0.1142613815
 40
0.1400720388
 40
0.1671363124
 40
0.1954827036
 40
0.2251063781
 40
0.2559698847
 40
0.2718503226
 40
0.2880151843
 40
0.3211483237
 40
0.3380942892
 40
0.3552725463
 40
0.3902605074
 40
0.4259820585
 40
0.4622928212
 40
0.4990404449
 40
0.5360666232
 40
0.5732094101
 40
0.6103052507
 40
0.647191382
 40
0.6837074949
 40
0.7196986403
 40
0.7550165916
 40
0.789522909
 40
0.8064332174
 40
0.8230946534
 40
0.8556137246
 40
0.8714515121
 40
0.8869932086
 40
0.9171498602
 40
0.9317589747
 40
0.9460499793
 40
0.9736669204
 40
1.0
 40
1.0
 40
1.0
 40
1.0
 10
17.9041409438
 20
11.7166161026
 30
0.0
 10
17.8964495966
 20
11.6982429745
 30
0.0
 10
17.8797010235
 20
11.6618849452
 30
0.0
 10
17.8507098132
 20
11.6089795836
 30
0.0
 10
17.817830463
 20
11.557624863
 30
0.0
 10
17.7811249928
 20
11.5079070152
 30
0.0
 10
17.740650129
 20
11.4599071797
 30
0.0
 10
17.681157995
 20
11.3976966668
 30
0.0
 10
17.5972799671
 20
11.3246038274
 30
0.0
 10
17.4838719831
 20
11.2459658087
 30
0.0
 10
17.3574560967
 20
11.1759395415
 30
0.0
 10
17.2188628783
 20
11.114979457
 30
0.0
 10
17.0690001357
 20
11.0634233509
 30
0.0
 10
16.908833907
 20
11.021615753
 30
0.0
 10
16.7689861117
 20
10.9953423286
 30
0.0
 10
16.6529562562
 20
10.9792613734
 30
0.0
 10
16.5322802039
 20
10.9663472594
 30
0.0
 10
16.4090954847
 20
10.9588000433
 30
0.0
 10
16.2838876101
 20
10.9564023765
 30
0.0
 10
16.1552048559
 20
10.9574671938
 30
0.0
 10
15.9916882684
 20
10.9654243808
 30
0.0
 10
15.7933463991
 20
10.9852497765
 30
0.0
 10
15.5929800957
 20
11.0152878547
 30
0.0
 10
15.391897914
 20
11.0553326598
 30
0.0
 10
15.1914130994
 20
11.1051366502
 30
0.0
 10
14.9928295494
 20
11.1643579013
 30
0.0
 10
14.7974486769
 20
11.2326294409
 30
0.0
 10
14.6065381752
 20
11.3094853522
 30
0.0
 10
14.4213513413
 20
11.3944442899
 30
0.0
 10
14.2430867534
 20
11.4869345637
 30
0.0
 10
14.0729178781
 20
11.5863675607
 30
0.0
 10
13.9378691492
 20
11.6750558824
 30
0.0
 10
13.8348997829
 20
11.7489888269
 30
0.0
 10
13.7370119121
 20
11.8235649476
 30
0.0
 10
13.6439357296
 20
11.9010977061
 30
0.0
 10
13.5562187826
 20
11.981489904
 30
0.0
 10
13.474301114
 20
12.0616058417
 30
0.0
 10
13.3979847981
 20
12.1441129022
 30
0.0
 10
13.3279010802
 20
12.2288626677
 30
0.0
 10
13.263983815
 20
12.3124763408
 30
0.0
 10
13.1928729701
 20
12.4179402824
 30
0.0
 10
13.1441348177
 20
12.5059585069
 30
0.0
 10
13.122536457
 20
12.5499713384
 30
0.0
  0
SPLINE
  5
23E
100
AcDbEntity
  8
DRAWING
100
AcDbSpline
 62
7
  6
CONTINUOUS
 70
0
 71
3
 72
16
 73
12
 74
0
 42
0.0000001
 43
0.0000001
 44
0.0000000001
 40
0.0
 40
0.0
 40
0.0
 40
0.0
 40
0.0581782013
 40
0.116470866
 40
0.2338067559
 40
0.3529139697
 40
0.4745977362
 40
0.5995910415
 40
0.7285343026
 40
0.861906359
 40
1.0
 40
1.0
 40
1.0
 40
1.0
 10
13.0035794101
 20
13.2304238249
 30
0.0
 10
12.9990984273
 20
13.2159252767
 30
0.0
 10
12.9909102681
 20
13.1866502485
 30
0.0
 10
12.977672747
 20
13.1270941961
 30
0.0
 10
12.9670829586
 20
13.0507873114
 30
0.0
 10
12.9639987353
 20
12.9572628706
 30
0.0
 10
12.9705245204
 20
12.8619177782
 30
0.0
 10
12.9866056766
 20
12.7651251875
 30
0.0
 10
13.0121797956
 20
12.6672537573
 30
0.0
 10
13.0471168781
 20
12.5687083327
 30
0.0
 10
13.0760138851
 20
12.5039752763
 30
0.0
 10
13.0918823977
 20
12.4716386474
 30
0.0
  0
SPLINE
  5
23F
100
AcDbEntity
  8
DRAWING
100
AcDbSpline
 62
7
  6
CONTINUOUS
 70
0
 71
3
 72
48
 73
44
 74
0
 42
0.0000001
 43
0.0000001
 44
0.0000000001
 40
0.0
 40
0.0
 40
0.0
 40
0.0
 40
0.010698111
 40
0.0214793902
 40
0.0323772031
 40
0.0434229373
 40
0.0546460191
 40
0.0660735709
 40
0.089625195
 40
0.1142479662
 40
0.1270018307
 40
0.1400618575
 40
0.1671219758
 40
0.195464438
 40
0.2250845373
 40
0.2559449197
 40
0.2718239887
 40
0.2879876193
 40
0.3211187139
 40
0.3380638765
 40
0.3552414778
 40
0.3902285579
 40
0.4259497995
 40
0.4622607923
 40
0.4990091515
 40
0.5360365208
 40
0.5731809015
 40
0.6102786771
 40
0.6471670212
 40
0.6836855557
 40
0.7196792646
 40
0.7549998506
 40
0.7895088095
 40
0.80642042
 40
0.8230831357
 40
0.855604671
 40
0.8714436298
 40
0.8869864497
 40
0.9171451802
 40
0.9317552417
 40
0.9460471278
 40
0.9736656296
 40
1.0
 40
1.0
 40
1.0
 40
1.0
 10
13.0378407132
 20
13.3044121279
 30
0.0
 10
13.0455191758
 20
13.3227928135
 30
0.0
 10
13.0622424421
 20
13.3591662459
 30
0.0
 10
13.0911979664
 20
13.4120960144
 30
0.0
 10
13.1240435574
 20
13.4634754534
 30
0.0
 10
13.1607171538
 20
13.5132183261
 30
0.0
 10
13.2011618659
 20
13.5612433994
 30
0.0
 10
13.2606161828
 20
13.6234880828
 30
0.0
 10
13.3444486869
 20
13.6966216111
 30
0.0
 10
13.437824566
 20
13.7614361982
 30
0.0
 10
13.5187735488
 20
13.8091094156
 30
0.0
 10
13.6059357027
 20
13.8549603002
 30
0.0
 10
13.7227704274
 20
13.9064004982
 30
0.0
 10
13.8726084026
 20
13.9580014914
 30
0.0
 10
14.0327647583
 20
13.9998549543
 30
0.0
 10
14.1726077208
 20
14.0261633873
 30
0.0
 10
14.2886373697
 20
14.042271284
 30
0.0
 10
14.4093165535
 20
14.0552119169
 30
0.0
 10
14.5325070757
 20
14.0627838478
 30
0.0
 10
14.6577230486
 20
14.0652044185
 30
0.0
 10
14.7864171072
 20
14.0641616667
 30
0.0
 10
14.949951234
 20
14.056229775
 30
0.0
 10
15.1483180687
 20
14.0364307838
 30
0.0
 10
15.3487136748
 20
14.0064153922
 30
0.0
 10
15.5498288408
 20
13.9663892865
 30
0.0
 10
15.7503497114
 20
13.9166001209
 30
0.0
 10
15.9489716936
 20
13.8573897229
 30
0.0
 10
16.1443927193
 20
13.7891251844
 30
0.0
 10
16.3353444036
 20
13.7122725022
 30
0.0
 10
16.5205727658
 20
13.627313148
 30
0.0
 10
16.6988785777
 20
13.5348190455
 30
0.0
 10
16.8690876893
 20
13.435378964
 30
0.0
 10
17.0041688331
 20
13.3466822615
 30
0.0
 10
17.1071630965
 20
13.2727411813
 30
0.0
 10
17.2050746503
 20
13.1981562268
 30
0.0
 10
17.2981733611
 20
13.1206134218
 30
0.0
 10
17.3859114155
 20
13.0402099619
 30
0.0
 10
17.4678484879
 20
12.960082511
 30
0.0
 10
17.5441826391
 20
12.8775629729
 30
0.0
 10
17.6142823187
 20
12.7927998008
 30
0.0
 10
17.6782135546
 20
12.7091729296
 30
0.0
 10
17.749339119
 20
12.6036920276
 30
0.0
 10
17.798086464
 20
12.5156589275
 30
0.0
 10
17.8196884799
 20
12.4716386474
 30
0.0
  0
SPLINE
  5
240
100
AcDbEntity
  8
DRAWING
100
AcDbSpline
 62
7
  6
CONTINUOUS
 70
0
 71
3
 72
16
 73
12
 74
0
 42
0.0000001
 43
0.0000001
 44
0.0000000001
 40
0.0
 40
0.0
 40
0.0
 40
0.0
 40
0.138093641
 40
0.2714656974
 40
0.4004089585
 40
0.5254022638
 40
0.6470860303
 40
0.7661932441
 40
0.883529134
 40
0.9418217987
 40
1.0
 40
1.0
 40
1.0
 40
1.0
 10
13.0983298247
 20
12.4716386474
 30
0.0
 10
13.0825045337
 20
12.5038871999
 30
0.0
 10
13.0536862345
 20
12.5684439405
 30
0.0
 10
13.0188443114
 20
12.6667209535
 30
0.0
 10
12.9933398495
 20
12.7643258079
 30
0.0
 10
12.9773024941
 20
12.8608547611
 30
0.0
 10
12.9707944835
 20
12.9559401587
 30
0.0
 10
12.9738703062
 20
13.0492098636
 30
0.0
 10
12.9844312509
 20
13.1253089086
 30
0.0
 10
12.9976327164
 20
13.1847027461
 30
0.0
 10
13.0057985732
 20
13.2138980368
 30
0.0
 10
13.0102673511
 20
13.2283570949
 30
0.0
  0
SPLINE
  5
241
100
AcDbEntity
  8
DRAWING
100
AcDbSpline
 62
7
  6
CONTINUOUS
 70
0
 71
3
 72
48
 73
44
 74
0
 42
0.0000001
 43
0.0000001
 44
0.0000000001
 40
0.0
 40
0.0
 40
0.0
 40
0.0
 40
0.0263334091
 40
0.0539507689
 40
0.0682420163
 40
0.0828513952
 40
0.1130086364
 40
0.1285506551
 40
0.1443887804
 40
0.1769085659
 40
0.193570374
 40
0.2104810612
 40
0.2449881461
 40
0.2803068585
 40
0.3162987367
 40
0.3528155298
 40
0.3897022658
 40
0.4267986119
 40
0.4639417835
 40
0.5009682048
 40
0.5377159119
 40
0.5740265815
 40
0.6097478518
 40
0.6447353337
 40
0.6619132767
 40
0.6788588771
 40
0.7119911351
 40
0.7281554842
 40
0.7440353622
 40
0.7748976168
 40
0.8045198859
 40
0.8328647528
 40
0.8599274283
 40
0.8729887538
 40
0.8857439099
 40
0.910369185
 40
0.9339230532
 40
0.945351574
 40
0.9565754926
 40
0.9676219062
 40
0.9785202211
 40
0.9893018043
 40
1.0
 40
1.0
 40
1.0
 40
1.0
 10
17.8261359069
 20
12.4716386474
 30
0.0
 10
17.8044772624
 20
12.5157743245
 30
0.0
 10
17.7556027408
 20
12.6040382122
 30
0.0
 10
17.6842924651
 20
12.709796203
 30
0.0
 10
17.6201956813
 20
12.7936429154
 30
0.0
 10
17.5499148977
 20
12.8786288971
 30
0.0
 10
17.4733838302
 20
12.9613657194
 30
0.0
 10
17.391235556
 20
13.0417045467
 30
0.0
 10
17.303271561
 20
13.1223202997
 30
0.0
 10
17.2099331901
 20
13.2000683731
 30
0.0
 10
17.1117695802
 20
13.2748513041
 30
0.0
 10
17.0085101663
 20
13.3489890548
 30
0.0
 10
16.873081112
 20
13.4379225693
 30
0.0
 10
16.7024332212
 20
13.5376296456
 30
0.0
 10
16.5236671568
 20
13.6303738835
 30
0.0
 10
16.3379598328
 20
13.7155650071
 30
0.0
 10
16.1465133308
 20
13.7926296821
 30
0.0
 10
15.9505846133
 20
13.8610852038
 30
0.0
 10
15.7514450807
 20
13.9204643544
 30
0.0
 10
15.5503999325
 20
13.9703991171
 30
0.0
 10
15.3487568736
 20
14.0105466679
 30
0.0
 10
15.1478329523
 20
14.0406587492
 30
0.0
 10
14.9489405304
 20
14.0605289381
 30
0.0
 10
14.7849711354
 20
14.068498897
 30
0.0
 10
14.6559329197
 20
14.069558806
 30
0.0
 10
14.5303802108
 20
14.0671464775
 30
0.0
 10
14.4068569908
 20
14.0595698917
 30
0.0
 10
14.2858502498
 20
14.0466111167
 30
0.0
 10
14.1695035297
 20
14.0304766821
 30
0.0
 10
14.0292757738
 20
14.0041192115
 30
0.0
 10
13.8686745065
 20
13.962180738
 30
0.0
 10
13.7184150235
 20
13.9104694628
 30
0.0
 10
13.6012469272
 20
13.8589156523
 30
0.0
 10
13.5138325119
 20
13.812961428
 30
0.0
 10
13.4326467763
 20
13.7651794526
 30
0.0
 10
13.3389934177
 20
13.7002152592
 30
0.0
 10
13.2549044604
 20
13.6269099112
 30
0.0
 10
13.1952629849
 20
13.5645171933
 30
0.0
 10
13.1546883062
 20
13.5163773574
 30
0.0
 10
13.1178938643
 20
13.4665148457
 30
0.0
 10
13.0849366762
 20
13.4150111113
 30
0.0
 10
13.0558789255
 20
13.3619526079
 30
0.0
 10
13.0390935738
 20
13.3254898211
 30
0.0
 10
13.0313857843
 20
13.3070638351
 30
0.0
  0
SPLINE
  5
242
100
AcDbEntity
  8
DRAWING
100
AcDbSpline
 62
7
  6
CONTINUOUS
 70
0
 71
3
 72
48
 73
44
 74
0
 42
0.0000001
 43
0.0000001
 44
0.0000000001
 40
0.0
 40
0.0
 40
0.0
 40
0.0
 40
0.0107123817
 40
0.021462095
 40
0.0322860172
 40
0.0432197768
 40
0.0542969159
 40
0.0655488814
 40
0.08867955
 40
0.1128192891
 40
0.125320126
 40
0.1381240483
 40
0.164674303
 40
0.1784415725
 40
0.1925385936
 40
0.2217165431
 40
0.2367973525
 40
0.252196806
 40
0.2839167068
 40
0.3168014324
 40
0.3507502349
 40
0.3856425598
 40
0.4213438613
 40
0.4577059357
 40
0.4945719338
 40
0.5317770505
 40
0.5691523953
 40
0.6065262636
 40
0.6437274345
 40
0.6805865018
 40
0.7169395004
 40
0.7526288228
 40
0.7875073497
 40
0.8046012704
 40
0.8214432927
 40
0.8543107258
 40
0.870314548
 40
0.8860158183
 40
0.9164691276
 40
0.9312141464
 40
0.9456322573
 40
0.973476222
 40
1.0
 40
1.0
 40
1.0
 40
1.0
 10
17.9077509535
 20
11.7149202
 30
0.0
 10
17.9017757911
 20
11.6955871244
 30
0.0
 10
17.8883990553
 20
11.6572721991
 30
0.0
 10
17.8641862196
 20
11.6012430678
 30
0.0
 10
17.8358448456
 20
11.5467103628
 30
0.0
 10
17.8034283405
 20
11.4937741039
 30
0.0
 10
17.7670001199
 20
11.4425189614
 30
0.0
 10
17.7126797619
 20
11.3759410995
 30
0.0
 10
17.634566501
 20
11.2972809824
 30
0.0
 10
17.5458796828
 20
11.2270031876
 30
0.0
 10
17.4682206097
 20
11.1750501619
 30
0.0
 10
17.3840705676
 20
11.1248431042
 30
0.0
 10
17.2941427668
 20
11.0799271715
 30
0.0
 10
17.1993266627
 20
11.0401812415
 30
0.0
 10
17.0982433615
 20
11.0027825484
 30
0.0
 10
16.9925724134
 20
10.9709393228
 30
0.0
 10
16.8830293623
 20
10.9444108367
 30
0.0
 10
16.7679019166
 20
10.9208317548
 30
0.0
 10
16.6183600363
 20
10.8981977672
 30
0.0
 10
16.4327888694
 20
10.882004638
 30
0.0
 10
16.2406001846
 20
10.8766445922
 30
0.0
 10
16.0431021856
 20
10.8821289669
 30
0.0
 10
15.841634695
 20
10.8984416734
 30
0.0
 10
15.6375644481
 20
10.925451805
 30
0.0
 10
15.4322810183
 20
10.9629902914
 30
0.0
 10
15.2271789396
 20
11.0107929173
 30
0.0
 10
15.0236544135
 20
11.068536599
 30
0.0
 10
14.8230937808
 20
11.1358327868
 30
0.0
 10
14.6268585361
 20
11.2122130786
 30
0.0
 10
14.4362898835
 20
11.2971728569
 30
0.0
 10
14.252675285
 20
11.3901164594
 30
0.0
 10
14.0772766433
 20
11.4904302563
 30
0.0
 10
13.9380115194
 20
11.5801801504
 30
0.0
 10
13.8318009769
 20
11.655150646
 30
0.0
 10
13.7308285956
 20
11.7308580549
 30
0.0
 10
13.6348172645
 20
11.8096816878
 30
0.0
 10
13.5443495589
 20
11.8915248581
 30
0.0
 10
13.4599031278
 20
11.9731262919
 30
0.0
 10
13.381262212
 20
12.0572457588
 30
0.0
 10
13.3090984299
 20
12.1437303942
 30
0.0
 10
13.2433616389
 20
12.2290524035
 30
0.0
 10
13.1703350371
 20
12.3367128358
 30
0.0
 10
13.1204021763
 20
12.4266599239
 30
0.0
 10
13.0983298247
 20
12.4716386474
 30
0.0
  0
SPLINE
  5
243
100
AcDbEntity
  8
DRAWING
100
AcDbSpline
 62
7
  6
CONTINUOUS
 70
0
 71
3
 72
15
 73
11
 74
0
 42
0.0000001
 43
0.0000001
 44
0.0000000001
 40
0.0
 40
0.0
 40
0.0
 40
0.0
 40
0.1161247812
 40
0.2336461435
 40
0.3532081824
 40
0.4754097719
 40
0.6007902965
 40
0.7298172975
 40
0.8628162966
 40
1.0
 40
1.0
 40
1.0
 40
1.0
 10
17.934607412
 20
11.791272704
 30
0.0
 10
17.9401043141
 20
11.8178673998
 30
0.0
 10
17.948597194
 20
11.8719418243
 30
0.0
 10
17.953718627
 20
11.9544959767
 30
0.0
 10
17.9512615826
 20
12.0385961169
 30
0.0
 10
17.9412348138
 20
12.1239737497
 30
0.0
 10
17.9236892517
 20
12.2103808584
 30
0.0
 10
17.8986652074
 20
12.2975485696
 30
0.0
 10
17.8662773358
 20
12.3851919474
 30
0.0
 10
17.8402692471
 20
12.4428379282
 30
0.0
 10
17.8261359069
 20
12.4716386474
 30
0.0
  0
ENDSEC
  0
SECTION
  2
OBJECTS
  0
DICTIONARY
  5
C
100
AcDbDictionary
280
0
281
1
  3
ACAD_GROUP
350
D
  3
ACAD_MLINESTYLE
350
17
  3
ACAD_LAYOUT
350
1A
  3
ACAD_PLOTSETTINGS
350
19
  3
ACAD_PLOTSTYLENAME
350
E
  0
DICTIONARY
  5
D
102
{ACAD_REACTORS
330
C
102
}
100
AcDbDictionary
280
0
281
1
  0
ACDBDICTIONARYWDFLT
  5
E
102
{ACAD_REACTORS
330
C
102
}
100
AcDbDictionary
281
1
  3
Normal
350
F
100
AcDbDictionaryWithDefault
340
F
  0
DICTIONARY
  5
17
102
{ACAD_REACTORS
330
C
102
}
100
AcDbDictionary
280
0
281
1
  3
Standard
350
18
  0
DICTIONARY
  5
19
102
{ACAD_REACTORS
330
C
102
}
100
AcDbDictionary
281
1
  0
DICTIONARY
  5
1A
102
{ACAD_REACTORS
330
C
102
}
100
AcDbDictionary
281
1
  3
Model
350
244
  3
Layout1
350
245
  0
ACDBPLACEHOLDER
  5
F
102
{ACAD_REACTORS
330
E
102
}
  0
MLINESTYLE
  5
18
102
{ACAD_REACTORS
330
17
102
}
100
AcDbMlineStyle
  2
STANDARD
 70
0
  3

 62
256
 51
90.0
 52
90.0
 71
2
 49
0.5
 62
256
  6
BYLAYER
 49
-0.5
 62
256
  6
BYLAYER
  0
LAYOUT
  5
244
102
{ACAD_REACTORS
330
1A
102
}
100
AcDbPlotSettings
  1

  2
none_device
  4
ANSI_C_(22.00_x_17.00_Inches)
  6

 40
0.0
 41
0.0
 42
0.0
 43
0.0
 44
558.8
 45
431.8
 46
0.0
 47
0.0
 48
0.0
 49
0.0
140
0.0
141
0.0
142
1.0
143
1.0
 70
1024
 72
0
 73
0
 74
0
  7

 75
0
147
1.0
148
0.0
149
0.0
100
AcDbLayout
  1
Model
 70
0
 71
0
 10
0.0
 20
0.0
 11
22.0
 21
17.0
 12
0.0
 22
0.0
 32
0.0
 14
0.0
 24
0.0
 34
0.0
 15
0.0
 25
0.0
 35
0.0
146
0.0
 13
0.0
 23
0.0
 33
0.0
 16
1.0
 26
0.0
 36
0.0
 17
0.0
 27
1.0
 37
0.0
 76
0
330
218
345
0
346
0
  0
LAYOUT
  5
245
102
{ACAD_REACTORS
330
1A
102
}
100
AcDbPlotSettings
  1

  2
none_device
  4
ANSI_C_(22.00_x_17.00_Inches)
  6

 40
0.0
 41
0.0
 42
0.0
 43
0.0
 44
558.8
 45
431.8
 46
0.0
 47
0.0
 48
0.0
 49
0.0
140
0.0
141
0.0
142
1.0
143
1.0
 70
0
 72
0
 73
0
 74
0
  7

 75
0
147
1.0
148
0.0
149
0.0
100
AcDbLayout
  1
Layout1
 70
0
 71
1
 10
0.0
 20
0.0
 11
22.0
 21
17.0
 12
0.0
 22
0.0
 32
0.0
 14
0.0
 24
0.0
 34
0.0
 15
0.0
 25
0.0
 35
0.0
146
0.0
 13
0.0
 23
0.0
 33
0.0
 16
1.0
 26
0.0
 36
0.0
 17
0.0
 27
1.0
 37
0.0
 76
0
330
219
345
0
346
0
  0
ENDSEC
  0
EOF