999
DXF file: _cgs_temp_output.dxf
999
Pro/ENGINEER 2016360 by Parametric Technology Corporation
  0
SECTION
  2
HEADER
  9
$ACADVER
  1
AC1021
  9
$DWGCODEPAGE
  3
ANSI_1252
  9
$EXTMAX
 10
22.0
 20
17.0
 30
0.0
  9
$EXTMIN
 10
0.0
 20
0.0
 30
0.0
  9
$LIMMIN
 10
0.0
 20
0.0
  9
$LIMMAX
 10
22.0
 20
17.0
  9
$VIEWCTR
 10
11.0
 20
8.5
  9
$VIEWSIZE
 40
17.0
  9
$CLAYER
  8
0
  9
$LTSCALE
 40
1.21
  9
$CELTYPE
  6
BYLAYER
  9
$DIMSCALE
 40
1.0
  9
$DIMASZ
 40
0.1875
  9
$DIMEXO
 40
0.0625
  9
$DIMDLI
 40
0.836
  9
$DIMEXE
 40
0.125
  9
$DIMCEN
 40
0.198
  9
$DIMLFAC
 40
1.0
  9
$DIMBLK
  1
_CLOSED
  9
$DIMALT
 70
0
  9
$DIMALTF
 40
25.4
  9
$DIMTXT
 40
0.15625
  9
$DIMTOL
 70
0
  9
$DIMLIM
 70
0
  9
$DIMTFAC
 40
1.0
  9
$DIMGAP
 40
0.09
  9
$DIMDSEP
 70
46
  9
$AUNITS
 70
0
  9
$PDMODE
 70
3
  9
$PDSIZE
 40
0.3125
  9
$HANDSEED
  5
278
  9
$TILEMODE
 70
1
  9
$MEASUREMENT
 70
0
  9
$INSUNITS
 70
1
  0
ENDSEC
  0
SECTION
  2
CLASSES
  0
CLASS
  1
ACDBDICTIONARYWDFLT
  2
AcDbDictionaryWithDefault
  3
AutoCAD 2000
 90
0
 91
1
280
0
281
0
  0
CLASS
  1
ACDBPLACEHOLDER
  2
AcDbPlaceHolder
  3
AutoCAD 2000
 90
0
 91
1
280
0
281
0
  0
CLASS
  1
LAYOUT
  2
AcDbLayout
  3
AutoCAD 2000
 90
0
 91
0
280
0
281
0
  0
ENDSEC
  0
SECTION
  2
TABLES
  0
TABLE
  2
VPORT
  5
8
100
AcDbSymbolTable
 70
2
  0
VPORT
  5
1F4
100
AcDbSymbolTableRecord
100
AcDbViewportTableRecord
  2
*ACTIVE
 70
0
 10
0.0
 20
0.0
 11
1.0
 21
1.0
 12
11.0
 22
8.5
 13
0.0
 23
0.0
 14
1.0
 24
1.0
 15
0.0
 25
0.0
 16
0.0
 26
0.0
 36
1.0
 17
0.0
 27
0.0
 37
0.0
 40
17.0
 41
1.2941176471
 42
50.0
 43
0.0
 44
0.0
 50
0.0
 51
0.0
 71
0
 72
100
 73
1
 74
1
 75
0
 76
0
 77
0
 78
0
  0
ENDTAB
  0
TABLE
  2
LTYPE
  5
5
100
AcDbSymbolTable
 70
6
  0
LTYPE
  5
14
100
AcDbSymbolTableRecord
100
AcDbLinetypeTableRecord
  2
BYBLOCK
 70
0
  3

 72
65
 73
0
 40
0.0
  0
LTYPE
  5
15
100
AcDbSymbolTableRecord
100
AcDbLinetypeTableRecord
  2
BYLAYER
 70
0
  3

 72
65
 73
0
 40
0.0
  0
LTYPE
  5
16
100
AcDbSymbolTableRecord
100
AcDbLinetypeTableRecord
  2
CONTINUOUS
 70
64
  3
Solid line
 72
65
 73
0
 40
0.0
  0
LTYPE
  5
1F5
100
AcDbSymbolTableRecord
100
AcDbLinetypeTableRecord
  2
CENTER
 70
64
  3
____ _ ____ _ ____ _ ____ _ ____ _ ____ _ ____
 72
65
 73
4
 40
0.6
 49
0.375
 74
0
 49
-0.075
 74
0
 49
0.075
 74
0
 49
-0.075
 74
0
  0
LTYPE
  5
1F6
100
AcDbSymbolTableRecord
100
AcDbLinetypeTableRecord
  2
HIDDEN
 70
64
  3
- - - - - - - - - - - - - - - - - - - -
 72
65
 73
2
 40
0.2
 49
0.1
 74
0
 49
-0.1
 74
0
  0
LTYPE
  5
1F7
100
AcDbSymbolTableRecord
100
AcDbLinetypeTableRecord
  2
PHANTOM
 70
64
  3
_____ _ _ _____ _ _ _____ _ _ _____
 72
65
 73
6
 40
0.8
 49
0.45
 74
0
 49
-0.05
 74
0
 49
0.1
 74
0
 49
-0.05
 74
0
 49
0.1
 74
0
 49
-0.05
 74
0
  0
LTYPE
  5
1F8
100
AcDbSymbolTableRecord
100
AcDbLinetypeTableRecord
  2
DOT
 70
64
  3
. . . . . . . . . . . . . . . . . . . .
 72
65
 73
2
 40
0.2
 49
0.1
 74
0
 49
-0.1
 74
0
  0
LTYPE
  5
1F9
100
AcDbSymbolTableRecord
100
AcDbLinetypeTableRecord
  2
DASHED
 70
64
  3
- - - - - - - - - - - - - - - - - - - -
 72
65
 73
2
 40
0.2
 49
0.1
 74
0
 49
-0.1
 74
0
  0
ENDTAB
  0
TABLE
  2
LAYER
  5
2
100
AcDbSymbolTable
 70
36
  0
LAYER
  5
10
100
AcDbSymbolTableRecord
100
AcDbLayerTableRecord
  2
0
 70
0
 62
7
  6
CONTINUOUS
370
-3
390
F
  0
LAYER
  5
1FA
100
AcDbSymbolTableRecord
100
AcDbLayerTableRecord
  2
DEFAULT_1
 70
0
 62
7
  6
CENTER
370
-3
390
F
  0
LAYER
  5
1FB
100
AcDbSymbolTableRecord
100
AcDbLayerTableRecord
  2
DEFAULT_2
 70
0
 62
8
  6
HIDDEN
370
-3
390
F
  0
LAYER
  5
1FC
100
AcDbSymbolTableRecord
100
AcDbLayerTableRecord
  2
DEFAULT_3
 70
0
 62
7
  6
PHANTOM
370
-3
390
F
  0
LAYER
  5
1FD
100
AcDbSymbolTableRecord
100
AcDbLayerTableRecord
  2
01_ALL_DTM_PLN
 70
0
 62
7
  6
CONTINUOUS
370
-3
390
F
  0
LAYER
  5
1FE
100
AcDbSymbolTableRecord
100
AcDbLayerTableRecord
  2
01__ASM_ALL_DTM_PLN
 70
0
 62
7
  6
CONTINUOUS
370
-3
390
F
  0
LAYER
  5
1FF
100
AcDbSymbolTableRecord
100
AcDbLayerTableRecord
  2
01__ASM_DEF_DTM_PLN
 70
0
 62
7
  6
CONTINUOUS
370
-3
390
F
  0
LAYER
  5
200
100
AcDbSymbolTableRecord
100
AcDbLayerTableRecord
  2
01___PRT_ALL_DTM_PLN
 70
0
 62
7
  6
CONTINUOUS
370
-3
390
F
  0
LAYER
  5
201
100
AcDbSymbolTableRecord
100
AcDbLayerTableRecord
  2
01___PRT_DEF_DTM_PLN
 70
0
 62
7
  6
CONTINUOUS
370
-3
390
F
  0
LAYER
  5
202
100
AcDbSymbolTableRecord
100
AcDbLayerTableRecord
  2
02_ALL_AXES
 70
0
 62
7
  6
CONTINUOUS
370
-3
390
F
  0
LAYER
  5
203
100
AcDbSymbolTableRecord
100
AcDbLayerTableRecord
  2
02__ASM_ALL_AXES
 70
0
 62
7
  6
CONTINUOUS
370
-3
390
F
  0
LAYER
  5
204
100
AcDbSymbolTableRecord
100
AcDbLayerTableRecord
  2
02___PRT_ALL_AXES
 70
0
 62
7
  6
CONTINUOUS
370
-3
390
F
  0
LAYER
  5
205
100
AcDbSymbolTableRecord
100
AcDbLayerTableRecord
  2
03_ALL_CURVES
 70
0
 62
7
  6
CONTINUOUS
370
-3
390
F
  0
LAYER
  5
206
100
AcDbSymbolTableRecord
100
AcDbLayerTableRecord
  2
03__ASM_ALL_CURVES
 70
0
 62
7
  6
CONTINUOUS
370
-3
390
F
  0
LAYER
  5
207
100
AcDbSymbolTableRecord
100
AcDbLayerTableRecord
  2
03___PRT_ALL_CURVES
 70
0
 62
7
  6
CONTINUOUS
370
-3
390
F
  0
LAYER
  5
208
100
AcDbSymbolTableRecord
100
AcDbLayerTableRecord
  2
04_ALL_DTM_PNT
 70
0
 62
7
  6
CONTINUOUS
370
-3
390
F
  0
LAYER
  5
209
100
AcDbSymbolTableRecord
100
AcDbLayerTableRecord
  2
04__ASM_ALL_DTM_PNT
 70
0
 62
7
  6
CONTINUOUS
370
-3
390
F
  0
LAYER
  5
20A
100
AcDbSymbolTableRecord
100
AcDbLayerTableRecord
  2
04___PRT_ALL_DTM_PNT
 70
0
 62
7
  6
CONTINUOUS
370
-3
390
F
  0
LAYER
  5
20B
100
AcDbSymbolTableRecord
100
AcDbLayerTableRecord
  2
05_ALL_DTM_CSYS
 70
0
 62
7
  6
CONTINUOUS
370
-3
390
F
  0
LAYER
  5
20C
100
AcDbSymbolTableRecord
100
AcDbLayerTableRecord
  2
05__ASM_ALL_DTM_CSYS
 70
0
 62
7
  6
CONTINUOUS
370
-3
390
F
  0
LAYER
  5
20D
100
AcDbSymbolTableRecord
100
AcDbLayerTableRecord
  2
05__ASM_DEF_DTM_CSYS
 70
0
 62
7
  6
CONTINUOUS
370
-3
390
F
  0
LAYER
  5
20E
100
AcDbSymbolTableRecord
100
AcDbLayerTableRecord
  2
05___PRT_ALL_DTM_CSYS
 70
0
 62
7
  6
CONTINUOUS
370
-3
390
F
  0
LAYER
  5
20F
100
AcDbSymbolTableRecord
100
AcDbLayerTableRecord
  2
05___PRT_DEF_DTM_CSYS
 70
0
 62
7
  6
CONTINUOUS
370
-3
390
F
  0
LAYER
  5
210
100
AcDbSymbolTableRecord
100
AcDbLayerTableRecord
  2
06_ALL_SURFS
 70
0
 62
7
  6
CONTINUOUS
370
-3
390
F
  0
LAYER
  5
211
100
AcDbSymbolTableRecord
100
AcDbLayerTableRecord
  2
06__ASM_ALL_SURFS
 70
0
 62
7
  6
CONTINUOUS
370
-3
390
F
  0
LAYER
  5
212
100
AcDbSymbolTableRecord
100
AcDbLayerTableRecord
  2
06___PRT_ALL_SURFS
 70
0
 62
7
  6
CONTINUOUS
370
-3
390
F
  0
LAYER
  5
213
100
AcDbSymbolTableRecord
100
AcDbLayerTableRecord
  2
07__ASM_ALL_SKELETONS
 70
0
 62
7
  6
CONTINUOUS
370
-3
390
F
  0
LAYER
  5
214
100
AcDbSymbolTableRecord
100
AcDbLayerTableRecord
  2
DRAWING
 70
0
 62
7
  6
CONTINUOUS
370
-3
390
F
  0
LAYER
  5
215
100
AcDbSymbolTableRecord
100
AcDbLayerTableRecord
  2
SHELL
 70
0
 62
7
  6
CONTINUOUS
370
-3
390
F
  0
ENDTAB
  0
TABLE
  2
STYLE
  5
3
100
AcDbSymbolTable
 70
1
  0
STYLE
  5
11
100
AcDbSymbolTableRecord
100
AcDbTextStyleTableRecord
  2
STANDARD
 70
0
 40
0.0
 41
0.8
 50
0.0
 71
0
 42
0.2
  3
txt
  4

  0
STYLE
  5
216
100
AcDbSymbolTableRecord
100
AcDbTextStyleTableRecord
  2
TEXTSTYLE_1
 70
0
 40
0.0
 41
0.8
 50
0.0
 71
0
 42
0.2
  3
gdt
  4

  0
ENDTAB
  0
TABLE
  2
VIEW
  5
6
100
AcDbSymbolTable
 70
0
  0
ENDTAB
  0
TABLE
  2
UCS
  5
7
100
AcDbSymbolTable
 70
0
  0
ENDTAB
  0
TABLE
  2
APPID
  5
9
100
AcDbSymbolTable
 70
1
  0
APPID
  5
217
100
AcDbSymbolTableRecord
100
AcDbRegAppTableRecord
  2
ACAD
 70
0
  0
ENDTAB
  0
TABLE
  2
BLOCK_RECORD
  5
1
100
AcDbSymbolTable
 70
0
  0
BLOCK_RECORD
  5
218
100
AcDbSymbolTableRecord
100
AcDbBlockTableRecord
  2
*Model_Space
  0
BLOCK_RECORD
  5
219
100
AcDbSymbolTableRecord
100
AcDbBlockTableRecord
  2
*Paper_Space
  0
ENDTAB
  0
TABLE
  2
DIMSTYLE
  5
A
100
AcDbSymbolTable
 70
1
100
AcDbDimStyleTable
 71
0
  0
DIMSTYLE
105
21A
100
AcDbSymbolTableRecord
100
AcDbDimStyleTableRecord
  2
STANDARD
 70
0
  3

  4

 40
1.0
 41
0.1875
 42
0.0625
 43
0.38
 44
0.125
 45
0.0
 46
0.0
 47
0.0001
 48
0.0001
140
0.15625
141
0.09
142
0.0
143
25.4
144
1.0
145
0.0
146
1.0
147
0.09
 71
0.0
 72
0.0
 73
1
 74
1
 75
0
 76
0
 77
0
 78
4
 79
1
170
0
171
3
172
0
173
0
174
0
175
0
176
0
177
0
178
0
270
2
179
4
271
4
272
4
273
2
274
2
275
0
280
0
281
0
282
0
283
1
284
4
285
0
286
0
287
3
288
0
340
11
278
46
  0
ENDTAB
  0
ENDSEC
  0
SECTION
  2
BLOCKS
  0
BLOCK
  5
20
100
AcDbEntity
  8
0
100
AcDbBlockBegin
  2
*Model_Space
 70
0
 10
0.0
 20
0.0
 30
0.0
  3
*Model_Space
  1

  0
ENDBLK
  5
21
100
AcDbEntity
  8
0
100
AcDbBlockEnd
  0
BLOCK
  5
1C
100
AcDbEntity
  8
0
100
AcDbBlockBegin
  2
*Paper_Space
 70
0
 10
0.0
 20
0.0
 30
0.0
  3
*Paper_Space
  1

  0
ENDBLK
  5
1D
100
AcDbEntity
  8
0
100
AcDbBlockEnd
  0
ENDSEC
  0
SECTION
  2
ENTITIES
  0
MTEXT
  5
21B
100
AcDbEntity
  8
0
100
AcDbMText
 62
7
  6
CONTINUOUS
  7
STANDARD
 71
1
 72
1
 10
15.9560215477
 20
0.9479130325
 30
0.0
 11
1.0
 21
0.0
 31
0.0
 44
0.9
  1
SCALE: 1:0.333
 40
0.3
 41
3.36
  0
LINE
  5
21C
100
AcDbEntity
  8
0
100
AcDbLine
 62
7
  6
CONTINUOUS
 10
0.0
 20
0.0
 11
0.0
 21
17.0
  0
LINE
  5
21D
100
AcDbEntity
  8
0
100
AcDbLine
 62
7
  6
CONTINUOUS
 10
0.0
 20
0.0
 11
22.0
 21
0.0
  0
LINE
  5
21E
100
AcDbEntity
  8
0
100
AcDbLine
 62
7
  6
CONTINUOUS
 10
0.0
 20
17.0
 11
22.0
 21
17.0
  0
LINE
  5
21F
100
AcDbEntity
  8
0
100
AcDbLine
 62
7
  6
CONTINUOUS
 10
22.0
 20
0.0
 11
22.0
 21
17.0
  0
LINE
  5
220
100
AcDbEntity
  8
0
100
AcDbLine
 62
7
  6
CONTINUOUS
 10
6.1024506095
 20
8.2115782301
 11
6.0991172762
 21
8.2082448968
  0
LINE
  5
221
100
AcDbEntity
  8
0
100
AcDbLine
 62
7
  6
CONTINUOUS
 10
6.1582839428
 20
8.0449115634
 11
6.1616172762
 21
8.0482448968
  0
LINE
  5
222
100
AcDbEntity
  8
0
100
AcDbLine
 62
7
  6
CONTINUOUS
 10
6.0991172762
 20
8.2082448968
 11
6.0991172762
 21
8.0482448968
  0
LINE
  5
223
100
AcDbEntity
  8
0
100
AcDbLine
 62
7
  6
CONTINUOUS
 10
6.1616172762
 20
8.2082448968
 11
6.1616172762
 21
8.0482448968
  0
LINE
  5
224
100
AcDbEntity
  8
0
100
AcDbLine
 62
7
  6
CONTINUOUS
 10
6.1024506095
 20
8.0449115634
 11
6.0991172762
 21
8.0482448968
  0
LINE
  5
225
100
AcDbEntity
  8
0
100
AcDbLine
 62
7
  6
CONTINUOUS
 10
6.1582839428
 20
8.2115782301
 11
6.1616172762
 21
8.2082448968
  0
LINE
  5
226
100
AcDbEntity
  8
0
100
AcDbLine
 62
7
  6
CONTINUOUS
 10
6.158283492
 20
8.0449115634
 11
6.1024510604
 21
8.0449115634
  0
LINE
  5
227
100
AcDbEntity
  8
0
100
AcDbLine
 62
7
  6
CONTINUOUS
 10
6.1616172762
 20
8.0482448968
 11
6.0991172762
 21
8.0482448968
  0
LINE
  5
228
100
AcDbEntity
  8
0
100
AcDbLine
 62
7
  6
CONTINUOUS
 10
6.0991172762
 20
8.2082448968
 11
6.1616172762
 21
8.2082448968
  0
LINE
  5
229
100
AcDbEntity
  8
0
100
AcDbLine
 62
7
  6
CONTINUOUS
 10
6.1024510604
 20
8.2115782301
 11
6.158283492
 21
8.2115782301
  0
LINE
  5
22A
100
AcDbEntity
  8
DRAWING
100
AcDbLine
 62
7
  6
CONTINUOUS
 10
5.0592054172
 20
12.616714448
 11
5.0592054172
 21
12.5833811147
  0
LINE
  5
22B
100
AcDbEntity
  8
0
100
AcDbLine
 62
7
  6
CONTINUOUS
 10
6.0564383271
 20
12.6000477814
 11
6.0636552055
 21
12.6125477814
  0
LINE
  5
22C
100
AcDbEntity
  8
DRAWING
100
AcDbLine
 62
7
  6
CONTINUOUS
 10
7.0825387505
 20
12.5833811147
 11
6.0972637855
 21
12.5833811147
  0
LINE
  5
22D
100
AcDbEntity
  8
DRAWING
100
AcDbLine
 62
7
  6
CONTINUOUS
 10
6.0444803822
 20
12.5833811147
 11
5.0592054172
 21
12.5833811147
  0
LINE
  5
22E
100
AcDbEntity
  8
0
100
AcDbLine
 62
7
  6
CONTINUOUS
 10
6.0780889622
 20
12.5875477814
 11
6.0636552055
 21
12.5875477814
  0
LINE
  5
22F
100
AcDbEntity
  8
0
100
AcDbLine
 62
7
  6
CONTINUOUS
 10
6.0636552055
 20
12.5875477814
 11
6.0564383271
 21
12.6000477814
  0
LINE
  5
230
100
AcDbEntity
  8
0
100
AcDbLine
 62
7
  6
CONTINUOUS
 10
6.0853058406
 20
12.6000477814
 11
6.0780889622
 21
12.5875477814
  0
LINE
  5
231
100
AcDbEntity
  8
0
100
AcDbLine
 62
7
  6
CONTINUOUS
 10
6.0636552055
 20
12.6125477814
 11
6.0780889622
 21
12.6125477814
  0
LINE
  5
232
100
AcDbEntity
  8
DRAWING
100
AcDbLine
 62
7
  6
CONTINUOUS
 10
7.0825387505
 20
12.616714448
 11
6.0972637855
 21
12.616714448
  0
LINE
  5
233
100
AcDbEntity
  8
DRAWING
100
AcDbLine
 62
7
  6
CONTINUOUS
 10
6.0444803822
 20
12.616714448
 11
5.0592054172
 21
12.616714448
  0
LINE
  5
234
100
AcDbEntity
  8
0
100
AcDbLine
 62
7
  6
CONTINUOUS
 10
6.0780889622
 20
12.6125477814
 11
6.0853058406
 21
12.6000477814
  0
LINE
  5
235
100
AcDbEntity
  8
DRAWING
100
AcDbLine
 62
7
  6
CONTINUOUS
 10
7.0825387505
 20
12.616714448
 11
7.0825387505
 21
12.5833811147
  0
LINE
  5
236
100
AcDbEntity
  8
DRAWING
100
AcDbLine
 62
7
  6
CONTINUOUS
 10
15.5770219236
 20
2.7691663711
 11
15.5436885903
 21
2.7691663711
  0
LINE
  5
237
100
AcDbEntity
  8
0
100
AcDbLine
 62
7
  6
CONTINUOUS
 10
15.5324385903
 20
8.1520830378
 11
15.5291052569
 21
8.1487497044
  0
LINE
  5
238
100
AcDbEntity
  8
0
100
AcDbLine
 62
7
  6
CONTINUOUS
 10
15.5882719236
 20
7.9854163711
 11
15.5916052569
 21
7.9887497044
  0
LINE
  5
239
100
AcDbEntity
  8
DRAWING
100
AcDbLine
 62
7
  6
CONTINUOUS
 10
15.5770219236
 20
4.7924997044
 11
15.5436885903
 21
4.7924997044
  0
LINE
  5
23A
100
AcDbEntity
  8
0
100
AcDbLine
 62
7
  6
CONTINUOUS
 10
15.5291052569
 20
8.1487497044
 11
15.5291052569
 21
7.9887497044
  0
LINE
  5
23B
100
AcDbEntity
  8
DRAWING
100
AcDbLine
 62
7
  6
CONTINUOUS
 10
15.5436885903
 20
2.769178225
 11
15.5436885903
 21
4.7924878506
  0
LINE
  5
23C
100
AcDbEntity
  8
DRAWING
100
AcDbLine
 62
7
  6
CONTINUOUS
 10
15.5770219236
 20
2.769178225
 11
15.5770219236
 21
4.7924878506
  0
LINE
  5
23D
100
AcDbEntity
  8
0
100
AcDbLine
 62
7
  6
CONTINUOUS
 10
15.5916052569
 20
8.1487497044
 11
15.5916052569
 21
7.9887497044
  0
LINE
  5
23E
100
AcDbEntity
  8
0
100
AcDbLine
 62
7
  6
CONTINUOUS
 10
15.5324385903
 20
7.9854163711
 11
15.5291052569
 21
7.9887497044
  0
LINE
  5
23F
100
AcDbEntity
  8
0
100
AcDbLine
 62
7
  6
CONTINUOUS
 10
15.5882719236
 20
8.1520830378
 11
15.5916052569
 21
8.1487497044
  0
LINE
  5
240
100
AcDbEntity
  8
0
100
AcDbLine
 62
7
  6
CONTINUOUS
 10
15.5882719236
 20
7.9854163711
 11
15.5324385903
 21
7.9854163711
  0
LINE
  5
241
100
AcDbEntity
  8
0
100
AcDbLine
 62
7
  6
CONTINUOUS
 10
15.5916052569
 20
7.9887497044
 11
15.5291052569
 21
7.9887497044
  0
LINE
  5
242
100
AcDbEntity
  8
0
100
AcDbLine
 62
7
  6
CONTINUOUS
 10
15.5291052569
 20
8.1487497044
 11
15.5916052569
 21
8.1487497044
  0
LINE
  5
243
100
AcDbEntity
  8
0
100
AcDbLine
 62
7
  6
CONTINUOUS
 10
15.5324385903
 20
8.1520830378
 11
15.5882719236
 21
8.1520830378
  0
LINE
  5
244
100
AcDbEntity
  8
0
100
AcDbLine
 62
7
  6
CONTINUOUS
 10
14.312779643
 20
14.178287367
 11
14.3224526572
 21
14.1880789534
  0
LINE
  5
245
100
AcDbEntity
  8
0
100
AcDbLine
 62
7
  6
CONTINUOUS
 10
14.3275366883
 20
14.1777187873
 11
14.3184253686
 21
14.1684957807
  0
LINE
  5
246
100
AcDbEntity
  8
0
100
AcDbLine
 62
7
  6
CONTINUOUS
 10
14.3393683836
 20
14.178287367
 11
14.3296953694
 21
14.1684957807
  0
LINE
  5
247
100
AcDbEntity
  8
DRAWING
100
AcDbLine
 62
7
  6
CONTINUOUS
 10
14.6961415098
 20
11.7447302357
 11
14.6961909915
 21
11.7452751335
  0
LINE
  5
248
100
AcDbEntity
  8
DRAWING
100
AcDbLine
 62
7
  6
CONTINUOUS
 10
14.6960742192
 20
11.7447490581
 11
14.6961909915
 21
11.7452751335
  0
LINE
  5
249
100
AcDbEntity
  8
DRAWING
100
AcDbLine
 62
7
  6
CONTINUOUS
 10
14.6969552908
 20
11.7728221659
 11
14.6888864133
 21
11.7467112689
  0
LINE
  5
24A
100
AcDbEntity
  8
0
100
AcDbLine
 62
7
  6
CONTINUOUS
 10
14.3164009991
 20
14.1684957807
 11
14.312779643
 21
14.178287367
  0
LINE
  5
24B
100
AcDbEntity
  8
0
100
AcDbLine
 62
7
  6
CONTINUOUS
 10
14.3357470275
 20
14.1880789534
 11
14.3393683836
 21
14.178287367
  0
LINE
  5
24C
100
AcDbEntity
  8
0
100
AcDbLine
 62
7
  6
CONTINUOUS
 10
14.2990367053
 20
14.1624483741
 11
14.347843404
 21
14.0629907792
  0
LINE
  5
24D
100
AcDbEntity
  8
0
100
AcDbLine
 62
7
  6
CONTINUOUS
 10
14.3175846556
 20
14.1684957807
 11
14.312779643
 21
14.178287367
  0
LINE
  5
24E
100
AcDbEntity
  8
0
100
AcDbLine
 62
7
  6
CONTINUOUS
 10
14.3275366883
 20
14.1777187873
 11
14.3224526572
 21
14.1880789534
  0
LINE
  5
24F
100
AcDbEntity
  8
0
100
AcDbLine
 62
7
  6
CONTINUOUS
 10
14.3551449337
 20
14.1899822934
 11
14.4039516323
 21
14.0905246985
  0
LINE
  5
250
100
AcDbEntity
  8
DRAWING
100
AcDbLine
 62
7
  6
CONTINUOUS
 10
16.6288794873
 20
11.1751663121
 11
16.6289140498
 21
11.1755469179
  0
LINE
  5
251
100
AcDbEntity
  8
DRAWING
100
AcDbLine
 62
7
  6
CONTINUOUS
 10
16.6288794873
 20
11.1751663121
 11
16.6289611403
 21
11.1755337375
  0
LINE
  5
252
100
AcDbEntity
  8
DRAWING
100
AcDbLine
 62
7
  6
CONTINUOUS
 10
16.6300901323
 20
11.1754383176
 11
16.6220212548
 21
11.1493274206
  0
LINE
  5
253
100
AcDbEntity
  8
DRAWING
100
AcDbLine
 62
7
  6
CONTINUOUS
 10
16.6151672479
 20
11.1522336087
 11
16.6149552372
 21
11.1517045013
  0
LINE
  5
254
100
AcDbEntity
  8
DRAWING
100
AcDbLine
 62
7
  6
CONTINUOUS
 10
16.6139051396
 20
11.1526605101
 11
16.6136887327
 21
11.1521336889
  0
LINE
  5
255
100
AcDbEntity
  8
0
100
AcDbLine
 62
7
  6
CONTINUOUS
 10
14.3296953694
 20
14.1684957807
 11
14.3164009991
 21
14.1684957807
  0
LINE
  5
256
100
AcDbEntity
  8
0
100
AcDbLine
 62
7
  6
CONTINUOUS
 10
14.3275366883
 20
14.1777187873
 11
14.3388066891
 21
14.1777187873
  0
LINE
  5
257
100
AcDbEntity
  8
0
100
AcDbLine
 62
7
  6
CONTINUOUS
 10
14.3224526572
 20
14.1880789534
 11
14.3357470275
 21
14.1880789534
  0
CIRCLE
  5
258
100
AcDbEntity
  8
DRAWING
100
AcDbCircle
 62
7
  6
CONTINUOUS
 10
6.1303672762
 20
3.8403282301
 40
1.0116666667
  0
CIRCLE
  5
259
100
AcDbEntity
  8
DRAWING
100
AcDbCircle
 62
7
  6
CONTINUOUS
 10
6.1303672762
 20
3.8403282301
 40
1.0053333333
  0
CIRCLE
  5
25A
100
AcDbEntity
  8
0
100
AcDbCircle
 62
7
  6
CONTINUOUS
 10
6.0708720839
 20
12.6000477814
 40
0.03125
  0
CIRCLE
  5
25B
100
AcDbEntity
  8
0
100
AcDbCircle
 62
7
  6
CONTINUOUS
 10
6.0708720839
 20
12.6000477814
 40
0.0279166667
  0
ARC
  5
25C
100
AcDbEntity
  8
DRAWING
100
AcDbCircle
 62
7
  6
CONTINUOUS
 10
15.0068013361
 20
11.6484325509
 40
0.3327583256
100
AcDbArc
 50
158.1427361815
 51
162.8217761018
  0
ARC
  5
25D
100
AcDbEntity
  8
DRAWING
100
AcDbCircle
 62
7
  6
CONTINUOUS
 10
16.3048526787
 20
11.2473505002
 40
0.3319697723
100
AcDbArc
 50
342.8258846615
 51
347.4411633898
  0
ARC
  5
25E
100
AcDbEntity
  8
DRAWING
100
AcDbCircle
 62
7
  6
CONTINUOUS
 10
16.3081375478
 20
11.2749682341
 40
0.3306524232
100
AcDbArc
 50
338.211019817
 51
341.3669203713
  0
ARC
  5
25F
100
AcDbEntity
  8
DRAWING
100
AcDbCircle
 62
7
  6
CONTINUOUS
 10
15.0189244503
 20
11.6733640961
 40
0.330647974
100
AcDbArc
 50
166.1189821338
 51
167.438631111
  0
ARC
  5
260
100
AcDbEntity
  8
DRAWING
100
AcDbCircle
 62
7
  6
CONTINUOUS
 10
15.0104818971
 20
11.6473122621
 40
0.3302722427
100
AcDbArc
 50
158.2091124458
 51
162.8245647667
  0
ARC
  5
261
100
AcDbEntity
  8
DRAWING
100
AcDbCircle
 62
7
  6
CONTINUOUS
 10
16.3005689204
 20
11.2486647027
 40
0.3301172503
100
AcDbArc
 50
342.8274632901
 51
347.4395847611
  0
SPLINE
  5
262
100
AcDbEntity
  8
0
100
AcDbSpline
 62
7
  6
CONTINUOUS
 70
0
 71
3
 72
26
 73
22
 74
0
 42
0.0000001
 43
0.0000001
 44
0.0000000001
 40
0.0
 40
0.0
 40
0.0
 40
0.0
 40
0.0251933124
 40
0.0504925109
 40
0.075999849
 40
0.1018120704
 40
0.1280160661
 40
0.1546890447
 40
0.2096421194
 40
0.2670741936
 40
0.3271271247
 40
0.3897454895
 40
0.4547039728
 40
0.5216384099
 40
0.5900774025
 40
0.6594729258
 40
0.7292300207
 40
0.7987388446
 40
0.8673931633
 40
0.9346513247
 40
1.0
 40
1.0
 40
1.0
 40
1.0
 10
14.4039516238
 20
14.0905246943
 30
0.0
 10
14.40417604
 20
14.0900674285
 30
0.0
 10
14.4045828407
 20
14.0891291687
 30
0.0
 10
14.4050602754
 20
14.0876664147
 30
0.0
 10
14.4054034312
 20
14.0861535331
 30
0.0
 10
14.4056104493
 20
14.0845977824
 30
0.0
 10
14.4056809332
 20
14.0830063188
 30
0.0
 10
14.4055911781
 20
14.080825789
 30
0.0
 10
14.4051259593
 20
14.0780399288
 30
0.0
 10
14.4040376155
 20
14.0747154956
 30
0.0
 10
14.4024362736
 20
14.0714332983
 30
0.0
 10
14.4003525262
 20
14.0682522438
 30
0.0
 10
14.3978249626
 20
14.0652285527
 30
0.0
 10
14.3948996923
 20
14.0624161434
 30
0.0
 10
14.3916297753
 20
14.0598653356
 30
0.0
 10
14.388074406
 20
14.0576220168
 30
0.0
 10
14.3842979091
 20
14.0557265553
 30
0.0
 10
14.3803686861
 20
14.0542133865
 30
0.0
 10
14.3763573961
 20
14.0531095095
 30
0.0
 10
14.3723372859
 20
14.0524357624
 30
0.0
 10
14.3696541873
 20
14.0522787729
 30
0.0
 10
14.3683329456
 20
14.0522787729
 30
0.0
  0
SPLINE
  5
263
100
AcDbEntity
  8
0
100
AcDbSpline
 62
7
  6
CONTINUOUS
 70
0
 71
3
 72
20
 73
16
 74
0
 42
0.0000001
 43
0.0000001
 44
0.0000000001
 40
0.0
 40
0.0
 40
0.0
 40
0.0
 40
0.0563267517
 40
0.1128443876
 40
0.1697392518
 40
0.2271888293
 40
0.2853558296
 40
0.3443890361
 40
0.4654673677
 40
0.5277894371
 40
0.5913626021
 40
0.656227264
 40
0.7224097205
 40
0.8587004518
 40
1.0
 40
1.0
 40
1.0
 40
1.0
 10
14.3551449252
 20
14.1899822893
 30
0.0
 10
14.354943403
 20
14.1903929066
 30
0.0
 10
14.3545046793
 20
14.1911988742
 30
0.0
 10
14.3537455438
 20
14.1923511988
 30
0.0
 10
14.3528873797
 20
14.1934435185
 30
0.0
 10
14.3519336245
 20
14.1944716512
 30
0.0
 10
14.3508879326
 20
14.1954320444
 30
0.0
 10
14.3493639035
 20
14.1966267625
 30
0.0
 10
14.3476791373
 20
14.1976613282
 30
0.0
 10
14.3458689371
 20
14.1985271791
 30
0.0
 10
14.3444285857
 20
14.1991006004
 30
0.0
 10
14.3429244474
 20
14.1995891264
 30
0.0
 10
14.3408207972
 20
14.2001302737
 30
0.0
 10
14.3380589232
 20
14.200579616
 30
0.0
 10
14.3358028199
 20
14.2006942997
 30
0.0
 10
14.3346553921
 20
14.2006942997
 30
0.0
  0
SPLINE
  5
264
100
AcDbEntity
  8
0
100
AcDbSpline
 62
7
  6
CONTINUOUS
 70
0
 71
3
 72
26
 73
22
 74
0
 42
0.0000001
 43
0.0000001
 44
0.0000000001
 40
0.0
 40
0.0
 40
0.0
 40
0.0
 40
0.0653486753
 40
0.1326068367
 40
0.2012611554
 40
0.2707699793
 40
0.3405270742
 40
0.4099225975
 40
0.4783615901
 40
0.5452960272
 40
0.6102545105
 40
0.6728728753
 40
0.7329258064
 40
0.7903578806
 40
0.8453109553
 40
0.8719839339
 40
0.8981879296
 40
0.924000151
 40
0.9495074891
 40
0.9748066876
 40
1.0
 40
1.0
 40
1.0
 40
1.0
 10
14.3346553921
 20
14.2006942997
 30
0.0
 10
14.3333341504
 20
14.2006942997
 30
0.0
 10
14.3306510518
 20
14.2005373102
 30
0.0
 10
14.3266309415
 20
14.1998635632
 30
0.0
 10
14.3226196516
 20
14.1987596862
 30
0.0
 10
14.3186904286
 20
14.1972465174
 30
0.0
 10
14.3149139316
 20
14.1953510558
 30
0.0
 10
14.3113585623
 20
14.1931077371
 30
0.0
 10
14.3080886454
 20
14.1905569293
 30
0.0
 10
14.3051633751
 20
14.18774452
 30
0.0
 10
14.3026358115
 20
14.1847208288
 30
0.0
 10
14.3005520641
 20
14.1815397744
 30
0.0
 10
14.2989507222
 20
14.1782575771
 30
0.0
 10
14.2978623783
 20
14.1749331439
 30
0.0
 10
14.2973971596
 20
14.1721472837
 30
0.0
 10
14.2973074045
 20
14.1699667539
 30
0.0
 10
14.2973778883
 20
14.1683752903
 30
0.0
 10
14.2975849065
 20
14.1668195395
 30
0.0
 10
14.2979280623
 20
14.165306658
 30
0.0
 10
14.2984054969
 20
14.1638439039
 30
0.0
 10
14.2988122977
 20
14.1629056442
 30
0.0
 10
14.2990367139
 20
14.1624483783
 30
0.0
  0
SPLINE
  5
265
100
AcDbEntity
  8
0
100
AcDbSpline
 62
7
  6
CONTINUOUS
 70
0
 71
3
 72
20
 73
16
 74
0
 42
0.0000001
 43
0.0000001
 44
0.0000000001
 40
0.0
 40
0.0
 40
0.0
 40
0.0
 40
0.1412995482
 40
0.2775902795
 40
0.343772736
 40
0.4086373979
 40
0.4722105629
 40
0.5345326323
 40
0.6556109639
 40
0.7146441704
 40
0.7728111707
 40
0.8302607482
 40
0.8871556124
 40
0.9436732483
 40
1.0
 40
1.0
 40
1.0
 40
1.0
 10
14.3683329456
 20
14.0522787729
 30
0.0
 10
14.3671855177
 20
14.0522787729
 30
0.0
 10
14.3649294145
 20
14.0523934567
 30
0.0
 10
14.3621675405
 20
14.0528427989
 30
0.0
 10
14.3600638903
 20
14.0533839463
 30
0.0
 10
14.358559752
 20
14.0538724723
 30
0.0
 10
14.3571194005
 20
14.0544458936
 30
0.0
 10
14.3553092004
 20
14.0553117445
 30
0.0
 10
14.3536244341
 20
14.0563463102
 30
0.0
 10
14.352100405
 20
14.0575410283
 30
0.0
 10
14.3510547132
 20
14.0585014214
 30
0.0
 10
14.3501009579
 20
14.0595295542
 30
0.0
 10
14.3492427938
 20
14.0606218738
 30
0.0
 10
14.3484836584
 20
14.0617741985
 30
0.0
 10
14.3480449346
 20
14.062580166
 30
0.0
 10
14.3478434125
 20
14.0629907834
 30
0.0
  0
SPLINE
  5
266
100
AcDbEntity
  8
0
100
AcDbSpline
 62
7
  6
CONTINUOUS
 70
0
 71
3
 72
35
 73
31
 74
0
 42
0.0000001
 43
0.0000001
 44
0.0000000001
 40
0.0
 40
0.0
 40
0.0
 40
0.0
 40
0.0679947395
 40
0.1030279649
 40
0.1385535786
 40
0.21042458
 40
0.2823508274
 40
0.3530263926
 40
0.3875428387
 40
0.4213230977
 40
0.4542620401
 40
0.4862804848
 40
0.5173294095
 40
0.5473932412
 40
0.5764959522
 40
0.6047013901
 40
0.6321165927
 40
0.6588895108
 40
0.6852039119
 40
0.711271837
 40
0.7373205211
 40
0.7635784265
 40
0.7902608623
 40
0.8175566755
 40
0.8456208178
 40
0.8745682416
 40
0.9044664852
 40
0.9353496073
 40
0.9672193712
 40
1.0
 40
1.0
 40
1.0
 40
1.0
 10
14.3328316981
 20
14.2001552432
 30
0.0
 10
14.3311105403
 20
14.2001552432
 30
0.0
 10
14.3284975948
 20
14.1999327933
 30
0.0
 10
14.3250568727
 20
14.1992428065
 30
0.0
 10
14.3215809257
 20
14.1982742936
 30
0.0
 10
14.3173499715
 20
14.1965844777
 30
0.0
 10
14.3126253941
 20
14.1938757253
 30
0.0
 10
14.3090791205
 20
14.1911033605
 30
0.0
 10
14.3065707442
 20
14.1886327101
 30
0.0
 10
14.3048903231
 20
14.1866942086
 30
0.0
 10
14.3034130052
 20
14.1846745083
 30
0.0
 10
14.3021527779
 20
14.1825927624
 30
0.0
 10
14.3011218715
 20
14.1804686938
 30
0.0
 10
14.3003306567
 20
14.1783222994
 30
0.0
 10
14.2997867664
 20
14.1761740635
 30
0.0
 10
14.2994963646
 20
14.174044353
 30
0.0
 10
14.2994626452
 20
14.1719537509
 30
0.0
 10
14.299686676
 20
14.1699226473
 30
0.0
 10
14.3001670885
 20
14.1679712943
 30
0.0
 10
14.3008991236
 20
14.1661192472
 30
0.0
 10
14.301875998
 20
14.1643854486
 30
0.0
 10
14.3030873973
 20
14.1627872172
 30
0.0
 10
14.3045209331
 20
14.1613404009
 30
0.0
 10
14.3061619789
 20
14.160059019
 30
0.0
 10
14.3079939019
 20
14.1589548384
 30
0.0
 10
14.3099987645
 20
14.1580383851
 30
0.0
 10
14.3121568325
 20
14.1573174195
 30
0.0
 10
14.3144478076
 20
14.156798654
 30
0.0
 10
14.3168490939
 20
14.1564870285
 30
0.0
 10
14.318486549
 20
14.1564194908
 30
0.0
 10
14.3193163284
 20
14.1564194908
 30
0.0
  0
SPLINE
  5
267
100
AcDbEntity
  8
0
100
AcDbSpline
 62
7
  6
CONTINUOUS
 70
0
 71
3
 72
35
 73
31
 74
0
 42
0.0000001
 43
0.0000001
 44
0.0000000001
 40
0.0
 40
0.0
 40
0.0
 40
0.0
 40
0.0679947395
 40
0.1030279649
 40
0.1385535786
 40
0.21042458
 40
0.2823508274
 40
0.3530263926
 40
0.3875428387
 40
0.4213230977
 40
0.4542620401
 40
0.4862804848
 40
0.5173294095
 40
0.5473932412
 40
0.5764959522
 40
0.6047013901
 40
0.6321165927
 40
0.6588895108
 40
0.6852039119
 40
0.711271837
 40
0.7373205211
 40
0.7635784265
 40
0.7902608623
 40
0.8175566755
 40
0.8456208178
 40
0.8745682416
 40
0.9044664852
 40
0.9353496073
 40
0.9672193712
 40
1.0
 40
1.0
 40
1.0
 40
1.0
 10
14.3193163284
 20
14.1564194908
 30
0.0
 10
14.3210374863
 20
14.1564194908
 30
0.0
 10
14.3236504318
 20
14.1566419407
 30
0.0
 10
14.3270911539
 20
14.1573319276
 30
0.0
 10
14.3305671009
 20
14.1583004404
 30
0.0
 10
14.3347980551
 20
14.1599902563
 30
0.0
 10
14.3395226325
 20
14.1626990088
 30
0.0
 10
14.3430689061
 20
14.1654713735
 30
0.0
 10
14.3455772823
 20
14.167942024
 30
0.0
 10
14.3472577035
 20
14.1698805255
 30
0.0
 10
14.3487350214
 20
14.1719002257
 30
0.0
 10
14.3499952487
 20
14.1739819716
 30
0.0
 10
14.3510261551
 20
14.1761060403
 30
0.0
 10
14.3518173699
 20
14.1782524347
 30
0.0
 10
14.3523612601
 20
14.1804006706
 30
0.0
 10
14.352651662
 20
14.1825303811
 30
0.0
 10
14.3526853814
 20
14.1846209831
 30
0.0
 10
14.3524613505
 20
14.1866520868
 30
0.0
 10
14.3519809381
 20
14.1886034398
 30
0.0
 10
14.351248903
 20
14.1904554869
 30
0.0
 10
14.3502720285
 20
14.1921892854
 30
0.0
 10
14.3490606292
 20
14.1937875169
 30
0.0
 10
14.3476270934
 20
14.1952343331
 30
0.0
 10
14.3459860477
 20
14.1965157151
 30
0.0
 10
14.3441541247
 20
14.1976198956
 30
0.0
 10
14.3421492621
 20
14.1985363489
 30
0.0
 10
14.339991194
 20
14.1992573146
 30
0.0
 10
14.337700219
 20
14.19977608
 30
0.0
 10
14.3352989326
 20
14.2000877056
 30
0.0
 10
14.3336614776
 20
14.2001552432
 30
0.0
 10
14.3328316981
 20
14.2001552432
 30
0.0
  0
SPLINE
  5
268
100
AcDbEntity
  8
0
100
AcDbSpline
 62
7
  6
CONTINUOUS
 70
0
 71
3
 72
26
 73
22
 74
0
 42
0.0000001
 43
0.0000001
 44
0.0000000001
 40
0.0
 40
0.0
 40
0.0
 40
0.0
 40
0.0653486753
 40
0.1326068367
 40
0.2012611554
 40
0.2707699793
 40
0.3405270742
 40
0.4099225975
 40
0.4783615901
 40
0.5452960272
 40
0.6102545105
 40
0.6728728753
 40
0.7329258064
 40
0.7903578806
 40
0.8453109553
 40
0.8719839339
 40
0.8981879296
 40
0.924000151
 40
0.9495074891
 40
0.9748066876
 40
1.0
 40
1.0
 40
1.0
 40
1.0
 10
14.3195262469
 20
14.1517363679
 30
0.0
 10
14.3208474886
 20
14.1517363679
 30
0.0
 10
14.3235305873
 20
14.1518933574
 30
0.0
 10
14.3275506975
 20
14.1525671044
 30
0.0
 10
14.3315619874
 20
14.1536709814
 30
0.0
 10
14.3354912104
 20
14.1551841502
 30
0.0
 10
14.3392677074
 20
14.1570796118
 30
0.0
 10
14.3428230767
 20
14.1593229305
 30
0.0
 10
14.3460929936
 20
14.1618737383
 30
0.0
 10
14.3490182639
 20
14.1646861476
 30
0.0
 10
14.3515458275
 20
14.1677098388
 30
0.0
 10
14.3536295749
 20
14.1708908932
 30
0.0
 10
14.3552309168
 20
14.1741730905
 30
0.0
 10
14.3563192607
 20
14.1774975237
 30
0.0
 10
14.3567844794
 20
14.1802833839
 30
0.0
 10
14.3568742345
 20
14.1824639137
 30
0.0
 10
14.3568037507
 20
14.1840553773
 30
0.0
 10
14.3565967325
 20
14.1856111281
 30
0.0
 10
14.3562535767
 20
14.1871240096
 30
0.0
 10
14.3557761421
 20
14.1885867636
 30
0.0
 10
14.3553693413
 20
14.1895250234
 30
0.0
 10
14.3551449252
 20
14.1899822893
 30
0.0
  0
SPLINE
  5
269
100
AcDbEntity
  8
0
100
AcDbSpline
 62
7
  6
CONTINUOUS
 70
0
 71
3
 72
20
 73
16
 74
0
 42
0.0000001
 43
0.0000001
 44
0.0000000001
 40
0.0
 40
0.0
 40
0.0
 40
0.0
 40
0.0563267517
 40
0.1128443876
 40
0.1697392518
 40
0.2271888293
 40
0.2853558296
 40
0.3443890361
 40
0.4654673677
 40
0.5277894371
 40
0.5913626021
 40
0.656227264
 40
0.7224097205
 40
0.8587004518
 40
1.0
 40
1.0
 40
1.0
 40
1.0
 10
14.2990367139
 20
14.1624483783
 30
0.0
 10
14.299238236
 20
14.1620377609
 30
0.0
 10
14.2996769597
 20
14.1612317934
 30
0.0
 10
14.3004360952
 20
14.1600794688
 30
0.0
 10
14.3012942593
 20
14.1589871491
 30
0.0
 10
14.3022480145
 20
14.1579590164
 30
0.0
 10
14.3032937064
 20
14.1569986232
 30
0.0
 10
14.3048177355
 20
14.1558039051
 30
0.0
 10
14.3065025017
 20
14.1547693394
 30
0.0
 10
14.3083127019
 20
14.1539034885
 30
0.0
 10
14.3097530533
 20
14.1533300672
 30
0.0
 10
14.3112571916
 20
14.1528415412
 30
0.0
 10
14.3133608418
 20
14.1523003938
 30
0.0
 10
14.3161227158
 20
14.1518510516
 30
0.0
 10
14.3183788191
 20
14.1517363679
 30
0.0
 10
14.3195262469
 20
14.1517363679
 30
0.0
  0
SPLINE
  5
26A
100
AcDbEntity
  8
DRAWING
100
AcDbSpline
 62
7
  6
CONTINUOUS
 70
0
 71
3
 72
15
 73
11
 74
0
 42
0.0000001
 43
0.0000001
 44
0.0000000001
 40
0.0
 40
0.0
 40
0.0
 40
0.0
 40
0.1373286596
 40
0.2703949142
 40
0.3994217054
 40
0.524754603
 40
0.6468844599
 40
0.7663764281
 40
0.88385713
 40
1.0
 40
1.0
 40
1.0
 40
1.0
 10
14.7375493922
 20
11.4741302417
 30
0.0
 10
14.7319227131
 20
11.4855962082
 30
0.0
 10
14.7215841416
 20
11.5085463495
 30
0.0
 10
14.7087629086
 20
11.5434457355
 30
0.0
 10
14.6989289853
 20
11.5781488781
 30
0.0
 10
14.6921283384
 20
11.6125382755
 30
0.0
 10
14.6883773113
 20
11.6465034953
 30
0.0
 10
14.6876971642
 20
11.6799419588
 30
0.0
 10
14.6900889823
 20
11.7127425516
 30
0.0
 10
14.6937421114
 20
11.7342020292
 30
0.0
 10
14.6960742192
 20
11.7447490581
 30
0.0
  0
SPLINE
  5
26B
100
AcDbEntity
  8
DRAWING
100
AcDbSpline
 62
7
  6
CONTINUOUS
 70
0
 71
3
 72
40
 73
36
 74
0
 42
0.0000001
 43
0.0000001
 44
0.0000000001
 40
0.0
 40
0.0
 40
0.0
 40
0.0
 40
0.0265255512
 40
0.0543713774
 40
0.0835309263
 40
0.1139862715
 40
0.1456891887
 40
0.1785588192
 40
0.2124935265
 40
0.2473743852
 40
0.2830660935
 40
0.3194215225
 40
0.393465138
 40
0.4308415049
 40
0.4682193484
 40
0.5054269524
 40
0.5422954151
 40
0.5786599205
 40
0.6143636087
 40
0.6492582664
 40
0.6832093384
 40
0.7160962625
 40
0.7478182839
 40
0.7782957481
 40
0.8074756482
 40
0.83533547
 40
0.8618874997
 40
0.8871854907
 40
0.9113268436
 40
0.9344590586
 40
0.9567773338
 40
0.9677118244
 40
0.9785364702
 40
0.9892869021
 40
1.0
 40
1.0
 40
1.0
 40
1.0
 10
16.5953294171
 20
11.4741302417
 30
0.0
 10
16.5866170245
 20
11.4918842313
 30
0.0
 10
16.5669071194
 20
11.5273890729
 30
0.0
 10
16.5319074245
 20
11.578986252
 30
0.0
 10
16.4909918203
 20
11.6298458355
 30
0.0
 10
16.444457467
 20
11.6796217592
 30
0.0
 10
16.3926157293
 20
11.727988182
 30
0.0
 10
16.3358165388
 20
11.7746197345
 30
0.0
 10
16.274446581
 20
11.8192027443
 30
0.0
 10
16.2089209284
 20
11.8614320598
 30
0.0
 10
16.139684967
 20
11.9010292845
 30
0.0
 10
16.0424736214
 20
11.9502355689
 30
0.0
 10
15.9405707203
 20
11.9926610646
 30
0.0
 10
15.8353676753
 20
12.0279618203
 30
0.0
 10
15.7550301747
 20
12.0507550018
 30
0.0
 10
15.6740729641
 20
12.0696234786
 30
0.0
 10
15.5930433809
 20
12.0844407027
 30
0.0
 10
15.5124928626
 20
12.0951021238
 30
0.0
 10
15.4329696914
 20
12.1015410719
 30
0.0
 10
15.3550132166
 20
12.1037058691
 30
0.0
 10
15.2791529835
 20
12.1015901281
 30
0.0
 10
15.2059028416
 20
12.0951984707
 30
0.0
 10
15.1357580832
 20
12.0845805316
 30
0.0
 10
15.0691928671
 20
12.0697994827
 30
0.0
 10
15.0066557311
 20
12.0509541211
 30
0.0
 10
14.9485680464
 20
12.0281647642
 30
0.0
 10
14.8953239934
 20
12.0015718153
 30
0.0
 10
14.8472837835
 20
11.971347829
 30
0.0
 10
14.8047862098
 20
11.9376699
 30
0.0
 10
14.7681324647
 20
11.9007652918
 30
0.0
 10
14.7425118657
 20
11.8672631078
 30
0.0
 10
14.7253391978
 20
11.8392180699
 30
0.0
 10
14.7141517562
 20
11.8176924468
 30
0.0
 10
14.7045946185
 20
11.7955767751
 30
0.0
 10
14.6993145246
 20
11.7804530889
 30
0.0
 10
14.6969560102
 20
11.7728219426
 30
0.0
  0
SPLINE
  5
26C
100
AcDbEntity
  8
DRAWING
100
AcDbSpline
 62
7
  6
CONTINUOUS
 70
0
 71
3
 72
15
 73
11
 74
0
 42
0.0000001
 43
0.0000001
 44
0.0000000001
 40
0.0
 40
0.0
 40
0.0
 40
0.0
 40
0.1164334051
 40
0.2337742699
 40
0.3528865338
 40
0.4745754596
 40
0.5995740645
 40
0.7285227927
 40
0.861900504
 40
1.0
 40
1.0
 40
1.0
 40
1.0
 10
16.6300894129
 20
11.1754385408
 30
0.0
 10
16.6336194274
 20
11.1868601615
 30
0.0
 10
16.6394678384
 20
11.2101963927
 30
0.0
 10
16.6444553196
 20
11.2461494198
 30
0.0
 10
16.6456703325
 20
11.2829674506
 30
0.0
 10
16.6431012367
 20
11.3204988039
 30
0.0
 10
16.6367710473
 20
11.3586008894
 30
0.0
 10
16.626703913
 20
11.397127394
 30
0.0
 10
16.6129511243
 20
11.4359192864
 30
0.0
 10
16.6015759717
 20
11.4614011018
 30
0.0
 10
16.5953294171
 20
11.4741302417
 30
0.0
  0
SPLINE
  5
26D
100
AcDbEntity
  8
DRAWING
100
AcDbSpline
 62
7
  6
CONTINUOUS
 70
0
 71
3
 72
15
 73
11
 74
0
 42
0.0000001
 43
0.0000001
 44
0.0000000001
 40
0.0
 40
0.0
 40
0.0
 40
0.0
 40
0.1373454652
 40
0.2704193728
 40
0.3994458975
 40
0.5247730204
 40
0.6468943744
 40
0.7663781976
 40
0.8838544252
 40
1.0
 40
1.0
 40
1.0
 40
1.0
 10
16.5814271534
 20
11.4480193447
 30
0.0
 10
16.5870653784
 20
11.4365298502
 30
0.0
 10
16.5974233224
 20
11.413532559
 30
0.0
 10
16.6102622611
 20
11.3785606952
 30
0.0
 10
16.6201011787
 20
11.3437862956
 30
0.0
 10
16.626893983
 20
11.3093275887
 30
0.0
 10
16.6306242508
 20
11.2752956368
 30
0.0
 10
16.6312705775
 20
11.241793693
 30
0.0
 10
16.6288321575
 20
11.2089336005
 30
0.0
 10
16.6251394121
 20
11.1874382601
 30
0.0
 10
16.6227855541
 20
11.176874453
 30
0.0
  0
SPLINE
  5
26E
100
AcDbEntity
  8
DRAWING
100
AcDbSpline
 62
7
  6
CONTINUOUS
 70
0
 71
3
 72
40
 73
36
 74
0
 42
0.0000001
 43
0.0000001
 44
0.0000000001
 40
0.0
 40
0.0
 40
0.0
 40
0.0
 40
0.0265255512
 40
0.0543713774
 40
0.0835309263
 40
0.1139862715
 40
0.1456891887
 40
0.1785588192
 40
0.2124935265
 40
0.2473743852
 40
0.2830660935
 40
0.3194215225
 40
0.393465138
 40
0.4308415049
 40
0.4682193484
 40
0.5054269524
 40
0.5422954151
 40
0.5786599205
 40
0.6143636087
 40
0.6492582664
 40
0.6832093384
 40
0.7160962625
 40
0.7478182839
 40
0.7782957481
 40
0.8074756482
 40
0.83533547
 40
0.8618874997
 40
0.8871854907
 40
0.9113268436
 40
0.9344590586
 40
0.9567773338
 40
0.9677118244
 40
0.9785364702
 40
0.9892869021
 40
1.0
 40
1.0
 40
1.0
 40
1.0
 10
14.7236471285
 20
11.4480193447
 30
0.0
 10
14.7323595211
 20
11.4302653551
 30
0.0
 10
14.7520694262
 20
11.3947605135
 30
0.0
 10
14.7870691211
 20
11.3431633345
 30
0.0
 10
14.8279847253
 20
11.2923037509
 30
0.0
 10
14.8745190786
 20
11.2425278272
 30
0.0
 10
14.9263608163
 20
11.1941614045
 30
0.0
 10
14.9831600068
 20
11.1475298519
 30
0.0
 10
15.0445299646
 20
11.1029468421
 30
0.0
 10
15.1100556172
 20
11.0607175267
 30
0.0
 10
15.1792915786
 20
11.0211203019
 30
0.0
 10
15.2765029242
 20
10.9719140175
 30
0.0
 10
15.3784058253
 20
10.9294885219
 30
0.0
 10
15.4836088703
 20
10.8941877661
 30
0.0
 10
15.5639463709
 20
10.8713945847
 30
0.0
 10
15.6449035815
 20
10.8525261078
 30
0.0
 10
15.7259331647
 20
10.8377088837
 30
0.0
 10
15.806483683
 20
10.8270474626
 30
0.0
 10
15.8860068542
 20
10.8206085146
 30
0.0
 10
15.963963329
 20
10.8184437173
 30
0.0
 10
16.0398235621
 20
10.8205594583
 30
0.0
 10
16.113073704
 20
10.8269511157
 30
0.0
 10
16.1832184624
 20
10.8375690549
 30
0.0
 10
16.2497836785
 20
10.8523501038
 30
0.0
 10
16.3123208145
 20
10.8711954653
 30
0.0
 10
16.3704084992
 20
10.8939848222
 30
0.0
 10
16.4236525522
 20
10.9205777711
 30
0.0
 10
16.4716927621
 20
10.9508017574
 30
0.0
 10
16.5141903358
 20
10.9844796865
 30
0.0
 10
16.5508440809
 20
11.0213842947
 30
0.0
 10
16.5764646799
 20
11.0548864786
 30
0.0
 10
16.5936373478
 20
11.0829315165
 30
0.0
 10
16.6048247894
 20
11.1044571397
 30
0.0
 10
16.6143819271
 20
11.1265728114
 30
0.0
 10
16.619662021
 20
11.1416964975
 30
0.0
 10
16.6220205354
 20
11.1493276439
 30
0.0
  0
SPLINE
  5
26F
100
AcDbEntity
  8
DRAWING
100
AcDbSpline
 62
7
  6
CONTINUOUS
 70
0
 71
3
 72
37
 73
33
 74
0
 42
0.0000001
 43
0.0000001
 44
0.0000000001
 40
0.0
 40
0.0
 40
0.0
 40
0.0
 40
0.0106975523
 40
0.0214719576
 40
0.0433729361
 40
0.0659640348
 40
0.0894546795
 40
0.1140089417
 40
0.1397442353
 40
0.1667342625
 40
0.1950110445
 40
0.2245722264
 40
0.2553823016
 40
0.2873806959
 40
0.3204819544
 40
0.3545827071
 40
0.3895619363
 40
0.4252860937
 40
0.4616101455
 40
0.5354189262
 40
0.6097243858
 40
0.683214222
 40
0.7192642293
 40
0.7546422804
 40
0.789208642
 40
0.8228356505
 40
0.8554108331
 40
0.8868386914
 40
0.9170433692
 40
0.9459809805
 40
0.9736352142
 40
1.0
 40
1.0
 40
1.0
 40
1.0
 10
16.6149552372
 20
11.1517045013
 30
0.0
 10
16.6120371778
 20
11.1444400723
 30
0.0
 10
16.6056613015
 20
11.1300608481
 30
0.0
 10
16.5907882097
 20
11.1019970707
 30
0.0
 10
16.5681741614
 20
11.0683030123
 30
0.0
 10
16.5352131688
 20
11.0308668901
 30
0.0
 10
16.4965137081
 20
10.9964186409
 30
0.0
 10
16.4523515702
 20
10.9651779659
 30
0.0
 10
16.403029052
 20
10.9373268222
 30
0.0
 10
16.348870551
 20
10.9130398683
 30
0.0
 10
16.2902339936
 20
10.8924555737
 30
0.0
 10
16.2274984412
 20
10.8757102248
 30
0.0
 10
16.1610743132
 20
10.8628973897
 30
0.0
 10
16.0913926822
 20
10.8541073667
 30
0.0
 10
16.0189087534
 20
10.8493867377
 30
0.0
 10
15.9440957122
 20
10.8487722971
 30
0.0
 10
15.8674433793
 20
10.852262473
 30
0.0
 10
15.7894519016
 20
10.8598366684
 30
0.0
 10
15.6838164195
 20
10.8753959763
 30
0.0
 10
15.5518335855
 20
10.9046902017
 30
0.0
 10
15.3972325169
 20
10.9543776361
 30
0.0
 10
15.2733130028
 20
11.007343079
 30
0.0
 10
15.1790700902
 20
11.0560582866
 30
0.0
 10
15.1120118801
 20
11.0951156509
 30
0.0
 10
15.0485735535
 20
11.1366596692
 30
0.0
 10
14.9891705883
 20
11.180423501
 30
0.0
 10
14.9341921674
 20
11.2261207259
 30
0.0
 10
14.8839976339
 20
11.2734520651
 30
0.0
 10
14.8389155046
 20
11.3221126842
 30
0.0
 10
14.7992356533
 20
11.3717938985
 30
0.0
 10
14.7652374223
 20
11.4221697215
 30
0.0
 10
14.7460492571
 20
11.4568093381
 30
0.0
 10
14.7375493922
 20
11.4741302417
 30
0.0
  0
SPLINE
  5
270
100
AcDbEntity
  8
DRAWING
100
AcDbSpline
 62
7
  6
CONTINUOUS
 70
0
 71
3
 72
15
 73
11
 74
0
 42
0.0000001
 43
0.0000001
 44
0.0000000001
 40
0.0
 40
0.0
 40
0.0
 40
0.0
 40
0.1164334051
 40
0.2337742699
 40
0.3528865338
 40
0.4745754596
 40
0.5995740645
 40
0.7285227927
 40
0.861900504
 40
1.0
 40
1.0
 40
1.0
 40
1.0
 10
14.6888871327
 20
11.7467110456
 30
0.0
 10
14.6853571182
 20
11.735289425
 30
0.0
 10
14.6795087072
 20
11.7119531938
 30
0.0
 10
14.674521226
 20
11.6760001667
 30
0.0
 10
14.6733062131
 20
11.6391821358
 30
0.0
 10
14.6758753089
 20
11.6016507825
 30
0.0
 10
14.6822054983
 20
11.563548697
 30
0.0
 10
14.6922726326
 20
11.5250221924
 30
0.0
 10
14.7060254213
 20
11.4862303
 30
0.0
 10
14.7174005739
 20
11.4607484846
 30
0.0
 10
14.7236471285
 20
11.4480193447
 30
0.0
  0
SPLINE
  5
271
100
AcDbEntity
  8
DRAWING
100
AcDbSpline
 62
7
  6
CONTINUOUS
 70
0
 71
3
 72
37
 73
33
 74
0
 42
0.0000001
 43
0.0000001
 44
0.0000000001
 40
0.0
 40
0.0
 40
0.0
 40
0.0
 40
0.0106974229
 40
0.0214709023
 40
0.0433679132
 40
0.0659527512
 40
0.0894355286
 40
0.1139809388
 40
0.139707009
 40
0.1666879072
 40
0.19495608
 40
0.2245094658
 40
0.2553127973
 40
0.2873056597
 40
0.320402691
 40
0.3545005798
 40
0.3894783004
 40
0.4252022845
 40
0.4615274236
 40
0.5353417811
 40
0.6096565541
 40
0.6831582683
 40
0.7192147874
 40
0.7545995081
 40
0.7891725448
 40
0.8228060757
 40
0.8553874953
 40
0.886821179
 40
0.9170311671
 40
0.9459734851
 40
0.9736317895
 40
1.0
 40
1.0
 40
1.0
 40
1.0
 10
14.7038092977
 20
11.7699159777
 30
0.0
 10
14.7067155986
 20
11.7771872023
 30
0.0
 10
14.7130683827
 20
11.7915802759
 30
0.0
 10
14.727897234
 20
11.8196726398
 30
0.0
 10
14.7504602058
 20
11.8534040356
 30
0.0
 10
14.783368029
 20
11.8908868489
 30
0.0
 10
14.8220217257
 20
11.9253817576
 30
0.0
 10
14.8661451488
 20
11.9566689096
 30
0.0
 10
14.9154361623
 20
11.9845655793
 30
0.0
 10
14.9695701062
 20
12.0088970246
 30
0.0
 10
15.0281890114
 20
12.0295241935
 30
0.0
 10
15.090913592
 20
12.0463106003
 30
0.0
 10
15.1573332042
 20
12.059162314
 30
0.0
 10
15.2270164933
 20
12.0679886935
 30
0.0
 10
15.2995078964
 20
12.0727430068
 30
0.0
 10
15.3743338342
 20
12.0733880579
 30
0.0
 10
15.4510040415
 20
12.0699254105
 30
0.0
 10
15.5290178661
 20
12.0623753058
 30
0.0
 10
15.6346902174
 20
12.0468435134
 30
0.0
 10
15.7667266852
 20
12.0175741826
 30
0.0
 10
15.9213979821
 20
11.9679030793
 30
0.0
 10
16.0453788843
 20
11.9149403765
 30
0.0
 10
16.1396712511
 20
11.8662209612
 30
0.0
 10
16.2067659001
 20
11.8271572677
 30
0.0
 10
16.2702392467
 20
11.7856042612
 30
0.0
 10
16.3296752348
 20
11.7418289828
 30
0.0
 10
16.3846842121
 20
11.6961182038
 30
0.0
 10
16.4349063215
 20
11.6487714585
 30
0.0
 10
16.4800126535
 20
11.6000939632
 30
0.0
 10
16.5197129336
 20
11.5503947144
 30
0.0
 10
16.5537274915
 20
11.5000000667
 30
0.0
 10
16.5729239809
 20
11.4653469885
 30
0.0
 10
16.5814271534
 20
11.4480193447
 30
0.0
  0
SPLINE
  5
272
100
AcDbEntity
  8
DRAWING
100
AcDbSpline
 62
7
  6
CONTINUOUS
 70
0
 71
3
 72
15
 73
11
 74
0
 42
0.0000001
 43
0.0000001
 44
0.0000000001
 40
0.0
 40
0.0
 40
0.0
 40
0.0
 40
0.138099496
 40
0.2714772073
 40
0.4004259355
 40
0.5254245404
 40
0.6471134662
 40
0.7662257301
 40
0.8835665949
 40
1.0
 40
1.0
 40
1.0
 40
1.0
 10
14.7294805148
 20
11.4480193447
 30
0.0
 10
14.7232730655
 20
11.4606687964
 30
0.0
 10
14.7119691247
 20
11.4859910881
 30
0.0
 10
14.6983024325
 20
11.5245401317
 30
0.0
 10
14.6882983215
 20
11.562825449
 30
0.0
 10
14.682007761
 20
11.6006890042
 30
0.0
 10
14.6794547485
 20
11.6379854001
 30
0.0
 10
14.680662155
 20
11.6745729391
 30
0.0
 10
14.6856184131
 20
11.7103008896
 30
0.0
 10
14.6914302113
 20
11.7334910291
 30
0.0
 10
14.6949381269
 20
11.744841147
 30
0.0
  0
SPLINE
  5
273
100
AcDbEntity
  8
DRAWING
100
AcDbSpline
 62
7
  6
CONTINUOUS
 70
0
 71
3
 72
37
 73
33
 74
0
 42
0.0000001
 43
0.0000001
 44
0.0000000001
 40
0.0
 40
0.0
 40
0.0
 40
0.0
 40
0.0263658105
 40
0.0540212622
 40
0.0829602817
 40
0.1131665484
 40
0.1445961497
 40
0.1771731984
 40
0.2108021584
 40
0.2453705173
 40
0.280750564
 40
0.3168025198
 40
0.3902959105
 40
0.4646041577
 40
0.5384146084
 40
0.5747389863
 40
0.6104630928
 40
0.6454418717
 40
0.6795417686
 40
0.7126417633
 40
0.7446385036
 40
0.775446562
 40
0.8050054121
 40
0.8332796188
 40
0.8602669149
 40
0.8859994486
 40
0.9105510615
 40
0.9340393508
 40
0.9566285739
 40
0.9785283621
 40
0.9893024885
 40
1.0
 40
1.0
 40
1.0
 40
1.0
 10
16.5872605397
 20
11.4480193447
 30
0.0
 10
16.578706132
 20
11.4654513947
 30
0.0
 10
16.5593945804
 20
11.5003132846
 30
0.0
 10
16.5251772544
 20
11.5510121294
 30
0.0
 10
16.4852412805
 20
11.6010117519
 30
0.0
 10
16.4398678596
 20
11.6499840011
 30
0.0
 10
16.3893488121
 20
11.6976181538
 30
0.0
 10
16.3340148428
 20
11.7436073402
 30
0.0
 10
16.2742277131
 20
11.7876503193
 30
0.0
 10
16.2103791989
 20
11.8294587608
 30
0.0
 10
16.1428875697
 20
11.8687640826
 30
0.0
 10
16.0480360627
 20
11.9177874515
 30
0.0
 10
15.923317406
 20
11.9710857401
 30
0.0
 10
15.7677212465
 20
12.0210812791
 30
0.0
 10
15.6348908056
 20
12.0505525588
 30
0.0
 10
15.5285787448
 20
12.0662016054
 30
0.0
 10
15.4500892106
 20
12.0738162656
 30
0.0
 10
15.3729486034
 20
12.0773201431
 30
0.0
 10
15.297660373
 20
12.0766926183
 30
0.0
 10
15.2247175598
 20
12.0719321115
 30
0.0
 10
15.1545964486
 20
12.0630757703
 30
0.0
 10
15.0877552202
 20
12.0501705145
 30
0.0
 10
15.0246277474
 20
12.0333073152
 30
0.0
 10
14.9656271033
 20
12.0125804384
 30
0.0
 10
14.9111348043
 20
11.9881270897
 30
0.0
 10
14.861511045
 20
11.9600867856
 30
0.0
 10
14.8170823453
 20
11.9286353107
 30
0.0
 10
14.7781528582
 20
11.8939559992
 30
0.0
 10
14.7450002192
 20
11.8562699816
 30
0.0
 10
14.7222590788
 20
11.8223524168
 30
0.0
 10
14.7073056043
 20
11.7941032369
 30
0.0
 10
14.7008965116
 20
11.7796292567
 30
0.0
 10
14.6979636081
 20
11.7723170173
 30
0.0
  0
SPLINE
  5
274
100
AcDbEntity
  8
DRAWING
100
AcDbSpline
 62
7
  6
CONTINUOUS
 70
0
 71
3
 72
40
 73
36
 74
0
 42
0.0000001
 43
0.0000001
 44
0.0000000001
 40
0.0
 40
0.0
 40
0.0
 40
0.0
 40
0.0107130979
 40
0.0214635298
 40
0.0322881756
 40
0.0432226662
 40
0.0655409414
 40
0.0886731564
 40
0.1128145093
 40
0.1381125003
 40
0.16466453
 40
0.1925243518
 40
0.2217042519
 40
0.2521817161
 40
0.2839037375
 40
0.3167906616
 40
0.3507417336
 40
0.3856363913
 40
0.4213400795
 40
0.4577045849
 40
0.4945730476
 40
0.5317806516
 40
0.5691584951
 40
0.606534862
 40
0.6805784775
 40
0.7169339065
 40
0.7526256148
 40
0.7875064735
 40
0.8214411808
 40
0.8543108113
 40
0.8860137285
 40
0.9164690737
 40
0.9456286226
 40
0.9734744488
 40
1.0
 40
1.0
 40
1.0
 40
1.0
 10
16.6159695413
 20
11.1511975425
 30
0.0
 10
16.6136257918
 20
11.1436141694
 30
0.0
 10
16.6083787529
 20
11.128585162
 30
0.0
 10
16.5988814457
 20
11.1066079409
 30
0.0
 10
16.5877640408
 20
11.0852170746
 30
0.0
 10
16.5706988789
 20
11.057347607
 30
0.0
 10
16.5452386725
 20
11.0240551566
 30
0.0
 10
16.5088143906
 20
10.9873815822
 30
0.0
 10
16.4665828644
 20
10.9539144869
 30
0.0
 10
16.4188434004
 20
10.9238797118
 30
0.0
 10
16.365932671
 20
10.8974532426
 30
0.0
 10
16.3082086324
 20
10.8748065538
 30
0.0
 10
16.2460629974
 20
10.8560791698
 30
0.0
 10
16.1799144993
 20
10.8413906547
 30
0.0
 10
16.1102088679
 20
10.830839187
 30
0.0
 10
16.0374172936
 20
10.8244875433
 30
0.0
 10
15.9620319681
 20
10.8223850475
 30
0.0
 10
15.8845635239
 20
10.8245362924
 30
0.0
 10
15.8055381914
 20
10.8309349308
 30
0.0
 10
15.7254919432
 20
10.8415296082
 30
0.0
 10
15.6449696292
 20
10.856254072
 30
0.0
 10
15.5645192347
 20
10.8750044267
 30
0.0
 10
15.4846846708
 20
10.897654916
 30
0.0
 10
15.380140228
 20
10.9327346786
 30
0.0
 10
15.2788752693
 20
10.9748945781
 30
0.0
 10
15.1822724956
 20
11.0237928165
 30
0.0
 10
15.1134699718
 20
11.0631421509
 30
0.0
 10
15.0483545292
 20
11.1051070983
 30
0.0
 10
14.9873687655
 20
11.1494110053
 30
0.0
 10
14.9309251548
 20
11.1957506305
 30
0.0
 10
14.8794079617
 20
11.2438142651
 30
0.0
 10
14.8331649273
 20
11.2932785767
 30
0.0
 10
14.7925054669
 20
11.3438197642
 30
0.0
 10
14.7577248805
 20
11.3950939296
 30
0.0
 10
14.7381383653
 20
11.4303765004
 30
0.0
 10
14.7294805148
 20
11.4480193447
 30
0.0
  0
SPLINE
  5
275
100
AcDbEntity
  8
DRAWING
100
AcDbSpline
 62
7
  6
CONTINUOUS
 70
0
 71
3
 72
15
 73
11
 74
0
 42
0.0000001
 43
0.0000001
 44
0.0000000001
 40
0.0
 40
0.0
 40
0.0
 40
0.0
 40
0.1161436845
 40
0.2336230106
 40
0.3531124847
 40
0.4752397417
 40
0.6005708765
 40
0.7295975915
 40
0.8626661933
 40
1.0
 40
1.0
 40
1.0
 40
1.0
 10
16.6289611403
 20
11.1755337375
 30
0.0
 10
16.6313146278
 20
11.1861523783
 30
0.0
 10
16.6350029516
 20
11.2077580906
 30
0.0
 10
16.6374241642
 20
11.2407836398
 30
0.0
 10
16.6367501272
 20
11.2744523016
 30
0.0
 10
16.6329818469
 20
11.3086520376
 30
0.0
 10
16.6261407619
 20
11.3432794157
 30
0.0
 10
16.6162433432
 20
11.3782231143
 30
0.0
 10
16.6033358856
 20
11.4133646677
 30
0.0
 10
16.5929262196
 20
11.436473903
 30
0.0
 10
16.5872605397
 20
11.4480193447
 30
0.0
  0
ENDSEC
  0
SECTION
  2
OBJECTS
  0
DICTIONARY
  5
C
100
AcDbDictionary
280
0
281
1
  3
ACAD_GROUP
350
D
  3
ACAD_MLINESTYLE
350
17
  3
ACAD_LAYOUT
350
1A
  3
ACAD_PLOTSETTINGS
350
19
  3
ACAD_PLOTSTYLENAME
350
E
  0
DICTIONARY
  5
D
102
{ACAD_REACTORS
330
C
102
}
100
AcDbDictionary
280
0
281
1
  0
ACDBDICTIONARYWDFLT
  5
E
102
{ACAD_REACTORS
330
C
102
}
100
AcDbDictionary
281
1
  3
Normal
350
F
100
AcDbDictionaryWithDefault
340
F
  0
DICTIONARY
  5
17
102
{ACAD_REACTORS
330
C
102
}
100
AcDbDictionary
280
0
281
1
  3
Standard
350
18
  0
DICTIONARY
  5
19
102
{ACAD_REACTORS
330
C
102
}
100
AcDbDictionary
281
1
  0
DICTIONARY
  5
1A
102
{ACAD_REACTORS
330
C
102
}
100
AcDbDictionary
281
1
  3
Model
350
276
  3
Layout1
350
277
  0
ACDBPLACEHOLDER
  5
F
102
{ACAD_REACTORS
330
E
102
}
  0
MLINESTYLE
  5
18
102
{ACAD_REACTORS
330
17
102
}
100
AcDbMlineStyle
  2
STANDARD
 70
0
  3

 62
256
 51
90.0
 52
90.0
 71
2
 49
0.5
 62
256
  6
BYLAYER
 49
-0.5
 62
256
  6
BYLAYER
  0
LAYOUT
  5
276
102
{ACAD_REACTORS
330
1A
102
}
100
AcDbPlotSettings
  1

  2
none_device
  4
ANSI_C_(22.00_x_17.00_Inches)
  6

 40
0.0
 41
0.0
 42
0.0
 43
0.0
 44
558.8
 45
431.8
 46
0.0
 47
0.0
 48
0.0
 49
0.0
140
0.0
141
0.0
142
1.0
143
1.0
 70
1024
 72
0
 73
0
 74
0
  7

 75
0
147
1.0
148
0.0
149
0.0
100
AcDbLayout
  1
Model
 70
0
 71
0
 10
0.0
 20
0.0
 11
22.0
 21
17.0
 12
0.0
 22
0.0
 32
0.0
 14
0.0
 24
0.0
 34
0.0
 15
0.0
 25
0.0
 35
0.0
146
0.0
 13
0.0
 23
0.0
 33
0.0
 16
1.0
 26
0.0
 36
0.0
 17
0.0
 27
1.0
 37
0.0
 76
0
330
218
345
0
346
0
  0
LAYOUT
  5
277
102
{ACAD_REACTORS
330
1A
102
}
100
AcDbPlotSettings
  1

  2
none_device
  4
ANSI_C_(22.00_x_17.00_Inches)
  6

 40
0.0
 41
0.0
 42
0.0
 43
0.0
 44
558.8
 45
431.8
 46
0.0
 47
0.0
 48
0.0
 49
0.0
140
0.0
141
0.0
142
1.0
143
1.0
 70
0
 72
0
 73
0
 74
0
  7

 75
0
147
1.0
148
0.0
149
0.0
100
AcDbLayout
  1
Layout1
 70
0
 71
1
 10
0.0
 20
0.0
 11
22.0
 21
17.0
 12
0.0
 22
0.0
 32
0.0
 14
0.0
 24
0.0
 34
0.0
 15
0.0
 25
0.0
 35
0.0
146
0.0
 13
0.0
 23
0.0
 33
0.0
 16
1.0
 26
0.0
 36
0.0
 17
0.0
 27
1.0
 37
0.0
 76
0
330
219
345
0
346
0
  0
ENDSEC
  0
EOF