999
DXF file: _cgs_temp_output.dxf
999
Pro/ENGINEER 2016360 by Parametric Technology Corporation
  0
SECTION
  2
HEADER
  9
$ACADVER
  1
AC1021
  9
$DWGCODEPAGE
  3
ANSI_1252
  9
$EXTMAX
 10
22.0
 20
17.0
 30
0.0
  9
$EXTMIN
 10
0.0
 20
0.0
 30
0.0
  9
$LIMMIN
 10
0.0
 20
0.0
  9
$LIMMAX
 10
22.0
 20
17.0
  9
$VIEWCTR
 10
11.0
 20
8.5
  9
$VIEWSIZE
 40
17.0
  9
$CLAYER
  8
0
  9
$LTSCALE
 40
1.21
  9
$CELTYPE
  6
BYLAYER
  9
$DIMSCALE
 40
1.0
  9
$DIMASZ
 40
0.1875
  9
$DIMEXO
 40
0.0625
  9
$DIMDLI
 40
0.836
  9
$DIMEXE
 40
0.125
  9
$DIMCEN
 40
0.198
  9
$DIMLFAC
 40
1.0
  9
$DIMBLK
  1
_CLOSED
  9
$DIMALT
 70
0
  9
$DIMALTF
 40
25.4
  9
$DIMTXT
 40
0.15625
  9
$DIMTOL
 70
0
  9
$DIMLIM
 70
0
  9
$DIMTFAC
 40
1.0
  9
$DIMGAP
 40
0.09
  9
$DIMDSEP
 70
46
  9
$AUNITS
 70
0
  9
$PDMODE
 70
3
  9
$PDSIZE
 40
0.3125
  9
$HANDSEED
  5
61B
  9
$TILEMODE
 70
1
  9
$MEASUREMENT
 70
0
  9
$INSUNITS
 70
1
  0
ENDSEC
  0
SECTION
  2
CLASSES
  0
CLASS
  1
ACDBDICTIONARYWDFLT
  2
AcDbDictionaryWithDefault
  3
AutoCAD 2000
 90
0
 91
1
280
0
281
0
  0
CLASS
  1
ACDBPLACEHOLDER
  2
AcDbPlaceHolder
  3
AutoCAD 2000
 90
0
 91
1
280
0
281
0
  0
CLASS
  1
LAYOUT
  2
AcDbLayout
  3
AutoCAD 2000
 90
0
 91
0
280
0
281
0
  0
ENDSEC
  0
SECTION
  2
TABLES
  0
TABLE
  2
VPORT
  5
8
100
AcDbSymbolTable
 70
2
  0
VPORT
  5
1F4
100
AcDbSymbolTableRecord
100
AcDbViewportTableRecord
  2
*ACTIVE
 70
0
 10
0.0
 20
0.0
 11
1.0
 21
1.0
 12
11.0
 22
8.5
 13
0.0
 23
0.0
 14
1.0
 24
1.0
 15
0.0
 25
0.0
 16
0.0
 26
0.0
 36
1.0
 17
0.0
 27
0.0
 37
0.0
 40
17.0
 41
1.2941176471
 42
50.0
 43
0.0
 44
0.0
 50
0.0
 51
0.0
 71
0
 72
100
 73
1
 74
1
 75
0
 76
0
 77
0
 78
0
  0
ENDTAB
  0
TABLE
  2
LTYPE
  5
5
100
AcDbSymbolTable
 70
6
  0
LTYPE
  5
14
100
AcDbSymbolTableRecord
100
AcDbLinetypeTableRecord
  2
BYBLOCK
 70
0
  3

 72
65
 73
0
 40
0.0
  0
LTYPE
  5
15
100
AcDbSymbolTableRecord
100
AcDbLinetypeTableRecord
  2
BYLAYER
 70
0
  3

 72
65
 73
0
 40
0.0
  0
LTYPE
  5
16
100
AcDbSymbolTableRecord
100
AcDbLinetypeTableRecord
  2
CONTINUOUS
 70
64
  3
Solid line
 72
65
 73
0
 40
0.0
  0
LTYPE
  5
1F5
100
AcDbSymbolTableRecord
100
AcDbLinetypeTableRecord
  2
CENTER
 70
64
  3
____ _ ____ _ ____ _ ____ _ ____ _ ____ _ ____
 72
65
 73
4
 40
0.6
 49
0.375
 74
0
 49
-0.075
 74
0
 49
0.075
 74
0
 49
-0.075
 74
0
  0
LTYPE
  5
1F6
100
AcDbSymbolTableRecord
100
AcDbLinetypeTableRecord
  2
HIDDEN
 70
64
  3
- - - - - - - - - - - - - - - - - - - -
 72
65
 73
2
 40
0.2
 49
0.1
 74
0
 49
-0.1
 74
0
  0
LTYPE
  5
1F7
100
AcDbSymbolTableRecord
100
AcDbLinetypeTableRecord
  2
PHANTOM
 70
64
  3
_____ _ _ _____ _ _ _____ _ _ _____
 72
65
 73
6
 40
0.8
 49
0.45
 74
0
 49
-0.05
 74
0
 49
0.1
 74
0
 49
-0.05
 74
0
 49
0.1
 74
0
 49
-0.05
 74
0
  0
LTYPE
  5
1F8
100
AcDbSymbolTableRecord
100
AcDbLinetypeTableRecord
  2
DOT
 70
64
  3
. . . . . . . . . . . . . . . . . . . .
 72
65
 73
2
 40
0.2
 49
0.1
 74
0
 49
-0.1
 74
0
  0
LTYPE
  5
1F9
100
AcDbSymbolTableRecord
100
AcDbLinetypeTableRecord
  2
DASHED
 70
64
  3
- - - - - - - - - - - - - - - - - - - -
 72
65
 73
2
 40
0.2
 49
0.1
 74
0
 49
-0.1
 74
0
  0
ENDTAB
  0
TABLE
  2
LAYER
  5
2
100
AcDbSymbolTable
 70
36
  0
LAYER
  5
10
100
AcDbSymbolTableRecord
100
AcDbLayerTableRecord
  2
0
 70
0
 62
7
  6
CONTINUOUS
370
-3
390
F
  0
LAYER
  5
1FA
100
AcDbSymbolTableRecord
100
AcDbLayerTableRecord
  2
DEFAULT_1
 70
0
 62
7
  6
CENTER
370
-3
390
F
  0
LAYER
  5
1FB
100
AcDbSymbolTableRecord
100
AcDbLayerTableRecord
  2
DEFAULT_2
 70
0
 62
8
  6
HIDDEN
370
-3
390
F
  0
LAYER
  5
1FC
100
AcDbSymbolTableRecord
100
AcDbLayerTableRecord
  2
DEFAULT_3
 70
0
 62
7
  6
PHANTOM
370
-3
390
F
  0
LAYER
  5
1FD
100
AcDbSymbolTableRecord
100
AcDbLayerTableRecord
  2
01_ALL_DTM_PLN
 70
0
 62
7
  6
CONTINUOUS
370
-3
390
F
  0
LAYER
  5
1FE
100
AcDbSymbolTableRecord
100
AcDbLayerTableRecord
  2
01__ASM_ALL_DTM_PLN
 70
0
 62
7
  6
CONTINUOUS
370
-3
390
F
  0
LAYER
  5
1FF
100
AcDbSymbolTableRecord
100
AcDbLayerTableRecord
  2
01__ASM_DEF_DTM_PLN
 70
0
 62
7
  6
CONTINUOUS
370
-3
390
F
  0
LAYER
  5
200
100
AcDbSymbolTableRecord
100
AcDbLayerTableRecord
  2
01___PRT_ALL_DTM_PLN
 70
0
 62
7
  6
CONTINUOUS
370
-3
390
F
  0
LAYER
  5
201
100
AcDbSymbolTableRecord
100
AcDbLayerTableRecord
  2
01___PRT_DEF_DTM_PLN
 70
0
 62
7
  6
CONTINUOUS
370
-3
390
F
  0
LAYER
  5
202
100
AcDbSymbolTableRecord
100
AcDbLayerTableRecord
  2
02_ALL_AXES
 70
0
 62
7
  6
CONTINUOUS
370
-3
390
F
  0
LAYER
  5
203
100
AcDbSymbolTableRecord
100
AcDbLayerTableRecord
  2
02__ASM_ALL_AXES
 70
0
 62
7
  6
CONTINUOUS
370
-3
390
F
  0
LAYER
  5
204
100
AcDbSymbolTableRecord
100
AcDbLayerTableRecord
  2
02___PRT_ALL_AXES
 70
0
 62
7
  6
CONTINUOUS
370
-3
390
F
  0
LAYER
  5
205
100
AcDbSymbolTableRecord
100
AcDbLayerTableRecord
  2
03_ALL_CURVES
 70
0
 62
7
  6
CONTINUOUS
370
-3
390
F
  0
LAYER
  5
206
100
AcDbSymbolTableRecord
100
AcDbLayerTableRecord
  2
03__ASM_ALL_CURVES
 70
0
 62
7
  6
CONTINUOUS
370
-3
390
F
  0
LAYER
  5
207
100
AcDbSymbolTableRecord
100
AcDbLayerTableRecord
  2
03___PRT_ALL_CURVES
 70
0
 62
7
  6
CONTINUOUS
370
-3
390
F
  0
LAYER
  5
208
100
AcDbSymbolTableRecord
100
AcDbLayerTableRecord
  2
04_ALL_DTM_PNT
 70
0
 62
7
  6
CONTINUOUS
370
-3
390
F
  0
LAYER
  5
209
100
AcDbSymbolTableRecord
100
AcDbLayerTableRecord
  2
04__ASM_ALL_DTM_PNT
 70
0
 62
7
  6
CONTINUOUS
370
-3
390
F
  0
LAYER
  5
20A
100
AcDbSymbolTableRecord
100
AcDbLayerTableRecord
  2
04___PRT_ALL_DTM_PNT
 70
0
 62
7
  6
CONTINUOUS
370
-3
390
F
  0
LAYER
  5
20B
100
AcDbSymbolTableRecord
100
AcDbLayerTableRecord
  2
05_ALL_DTM_CSYS
 70
0
 62
7
  6
CONTINUOUS
370
-3
390
F
  0
LAYER
  5
20C
100
AcDbSymbolTableRecord
100
AcDbLayerTableRecord
  2
05__ASM_ALL_DTM_CSYS
 70
0
 62
7
  6
CONTINUOUS
370
-3
390
F
  0
LAYER
  5
20D
100
AcDbSymbolTableRecord
100
AcDbLayerTableRecord
  2
05__ASM_DEF_DTM_CSYS
 70
0
 62
7
  6
CONTINUOUS
370
-3
390
F
  0
LAYER
  5
20E
100
AcDbSymbolTableRecord
100
AcDbLayerTableRecord
  2
05___PRT_ALL_DTM_CSYS
 70
0
 62
7
  6
CONTINUOUS
370
-3
390
F
  0
LAYER
  5
20F
100
AcDbSymbolTableRecord
100
AcDbLayerTableRecord
  2
05___PRT_DEF_DTM_CSYS
 70
0
 62
7
  6
CONTINUOUS
370
-3
390
F
  0
LAYER
  5
210
100
AcDbSymbolTableRecord
100
AcDbLayerTableRecord
  2
06_ALL_SURFS
 70
0
 62
7
  6
CONTINUOUS
370
-3
390
F
  0
LAYER
  5
211
100
AcDbSymbolTableRecord
100
AcDbLayerTableRecord
  2
06__ASM_ALL_SURFS
 70
0
 62
7
  6
CONTINUOUS
370
-3
390
F
  0
LAYER
  5
212
100
AcDbSymbolTableRecord
100
AcDbLayerTableRecord
  2
06___PRT_ALL_SURFS
 70
0
 62
7
  6
CONTINUOUS
370
-3
390
F
  0
LAYER
  5
213
100
AcDbSymbolTableRecord
100
AcDbLayerTableRecord
  2
07__ASM_ALL_SKELETONS
 70
0
 62
7
  6
CONTINUOUS
370
-3
390
F
  0
LAYER
  5
214
100
AcDbSymbolTableRecord
100
AcDbLayerTableRecord
  2
RING
 70
0
 62
7
  6
CONTINUOUS
370
-3
390
F
  0
LAYER
  5
215
100
AcDbSymbolTableRecord
100
AcDbLayerTableRecord
  2
SHELL
 70
0
 62
7
  6
CONTINUOUS
370
-3
390
F
  0
ENDTAB
  0
TABLE
  2
STYLE
  5
3
100
AcDbSymbolTable
 70
1
  0
STYLE
  5
11
100
AcDbSymbolTableRecord
100
AcDbTextStyleTableRecord
  2
STANDARD
 70
0
 40
0.0
 41
0.8
 50
0.0
 71
0
 42
0.2
  3
txt
  4

  0
STYLE
  5
216
100
AcDbSymbolTableRecord
100
AcDbTextStyleTableRecord
  2
TEXTSTYLE_1
 70
0
 40
0.0
 41
0.8
 50
0.0
 71
0
 42
0.2
  3
gdt
  4

  0
ENDTAB
  0
TABLE
  2
VIEW
  5
6
100
AcDbSymbolTable
 70
0
  0
ENDTAB
  0
TABLE
  2
UCS
  5
7
100
AcDbSymbolTable
 70
0
  0
ENDTAB
  0
TABLE
  2
APPID
  5
9
100
AcDbSymbolTable
 70
1
  0
APPID
  5
217
100
AcDbSymbolTableRecord
100
AcDbRegAppTableRecord
  2
ACAD
 70
0
  0
ENDTAB
  0
TABLE
  2
BLOCK_RECORD
  5
1
100
AcDbSymbolTable
 70
0
  0
BLOCK_RECORD
  5
218
100
AcDbSymbolTableRecord
100
AcDbBlockTableRecord
  2
*Model_Space
  0
BLOCK_RECORD
  5
219
100
AcDbSymbolTableRecord
100
AcDbBlockTableRecord
  2
*Paper_Space
  0
ENDTAB
  0
TABLE
  2
DIMSTYLE
  5
A
100
AcDbSymbolTable
 70
1
100
AcDbDimStyleTable
 71
0
  0
DIMSTYLE
105
21A
100
AcDbSymbolTableRecord
100
AcDbDimStyleTableRecord
  2
STANDARD
 70
0
  3

  4

 40
1.0
 41
0.1875
 42
0.0625
 43
0.38
 44
0.125
 45
0.0
 46
0.0
 47
0.0001
 48
0.0001
140
0.15625
141
0.09
142
0.0
143
25.4
144
1.0
145
0.0
146
1.0
147
0.09
 71
0.0
 72
0.0
 73
1
 74
1
 75
0
 76
0
 77
0
 78
4
 79
1
170
0
171
3
172
0
173
0
174
0
175
0
176
0
177
0
178
0
270
2
179
4
271
4
272
4
273
2
274
2
275
0
280
0
281
0
282
0
283
1
284
4
285
0
286
0
287
3
288
0
340
11
278
46
  0
ENDTAB
  0
ENDSEC
  0
SECTION
  2
BLOCKS
  0
BLOCK
  5
20
100
AcDbEntity
  8
0
100
AcDbBlockBegin
  2
*Model_Space
 70
0
 10
0.0
 20
0.0
 30
0.0
  3
*Model_Space
  1

  0
ENDBLK
  5
21
100
AcDbEntity
  8
0
100
AcDbBlockEnd
  0
BLOCK
  5
1C
100
AcDbEntity
  8
0
100
AcDbBlockBegin
  2
*Paper_Space
 70
0
 10
0.0
 20
0.0
 30
0.0
  3
*Paper_Space
  1

  0
ENDBLK
  5
1D
100
AcDbEntity
  8
0
100
AcDbBlockEnd
  0
ENDSEC
  0
SECTION
  2
ENTITIES
  0
MTEXT
  5
21B
100
AcDbEntity
  8
0
100
AcDbMText
 62
7
  6
CONTINUOUS
  7
STANDARD
 71
1
 72
1
 10
15.9560215477
 20
0.9479130325
 30
0.0
 11
1.0
 21
0.0
 31
0.0
 44
0.9
  1
SCALE: 1:1.000
 40
0.3
 41
3.36
  0
LINE
  5
21C
100
AcDbEntity
  8
0
100
AcDbLine
 62
7
  6
CONTINUOUS
 10
0.0
 20
0.0
 11
0.0
 21
17.0
  0
LINE
  5
21D
100
AcDbEntity
  8
0
100
AcDbLine
 62
7
  6
CONTINUOUS
 10
0.0
 20
0.0
 11
22.0
 21
0.0
  0
LINE
  5
21E
100
AcDbEntity
  8
0
100
AcDbLine
 62
7
  6
CONTINUOUS
 10
0.0
 20
17.0
 11
22.0
 21
17.0
  0
LINE
  5
21F
100
AcDbEntity
  8
0
100
AcDbLine
 62
7
  6
CONTINUOUS
 10
22.0
 20
0.0
 11
22.0
 21
17.0
  0
LINE
  5
220
100
AcDbEntity
  8
0
100
AcDbLine
 62
7
  6
CONTINUOUS
 10
4.3803672762
 20
4.9651198968
 11
4.3803672762
 21
6.0751198968
  0
LINE
  5
221
100
AcDbEntity
  8
0
100
AcDbLine
 62
7
  6
CONTINUOUS
 10
4.3803672762
 20
6.0751198968
 11
4.3813029611
 21
6.0811657127
  0
LINE
  5
222
100
AcDbEntity
  8
0
100
AcDbLine
 62
7
  6
CONTINUOUS
 10
3.7379113633
 20
5.6491851839
 11
3.7336246951
 21
5.6451198968
  0
LINE
  5
223
100
AcDbEntity
  8
0
100
AcDbLine
 62
7
  6
CONTINUOUS
 10
3.7379560267
 20
5.6492272888
 11
3.7336246951
 21
5.6451198968
  0
LINE
  5
224
100
AcDbEntity
  8
0
100
AcDbLine
 62
7
  6
CONTINUOUS
 10
4.5553672762
 20
4.9651198968
 11
4.5553672762
 21
5.3051198968
  0
LINE
  5
225
100
AcDbEntity
  8
0
100
AcDbLine
 62
7
  6
CONTINUOUS
 10
4.5553672762
 20
5.7351198968
 11
4.5553672762
 21
6.0751198968
  0
LINE
  5
226
100
AcDbEntity
  8
0
100
AcDbLine
 62
7
  6
CONTINUOUS
 10
4.5853672762
 20
5.7151198968
 11
4.5853672762
 21
5.8526198968
  0
LINE
  5
227
100
AcDbEntity
  8
0
100
AcDbLine
 62
7
  6
CONTINUOUS
 10
4.5928672762
 20
5.2001195893
 11
4.5928672762
 21
5.3251198968
  0
LINE
  5
228
100
AcDbEntity
  8
0
100
AcDbLine
 62
7
  6
CONTINUOUS
 10
4.6403672762
 20
5.1876198968
 11
4.6403672762
 21
5.2001198968
  0
LINE
  5
229
100
AcDbEntity
  8
0
100
AcDbLine
 62
7
  6
CONTINUOUS
 10
5.0562162338
 20
3.2377661964
 11
5.0775524627
 21
2.8306466968
  0
LINE
  5
22A
100
AcDbEntity
  8
0
100
AcDbLine
 62
7
  6
CONTINUOUS
 10
4.8703672762
 20
5.1876198968
 11
4.8703672762
 21
5.2001198968
  0
LINE
  5
22B
100
AcDbEntity
  8
0
100
AcDbLine
 62
7
  6
CONTINUOUS
 10
4.9178672762
 20
5.200119632
 11
4.9178672762
 21
5.3251198968
  0
LINE
  5
22C
100
AcDbEntity
  8
0
100
AcDbLine
 62
7
  6
CONTINUOUS
 10
4.9253672762
 20
5.7151198968
 11
4.9253672762
 21
5.8526198968
  0
LINE
  5
22D
100
AcDbEntity
  8
0
100
AcDbLine
 62
7
  6
CONTINUOUS
 10
4.9553672762
 20
6.0751198968
 11
4.9553672762
 21
5.7351198968
  0
LINE
  5
22E
100
AcDbEntity
  8
0
100
AcDbLine
 62
7
  6
CONTINUOUS
 10
4.9553672762
 20
5.3051198968
 11
4.9553672762
 21
4.9651198968
  0
LINE
  5
22F
100
AcDbEntity
  8
0
100
AcDbLine
 62
7
  6
CONTINUOUS
 10
5.0775524627
 20
8.2095930967
 11
5.0562162338
 21
7.8024735971
  0
LINE
  5
230
100
AcDbEntity
  8
0
100
AcDbLine
 62
7
  6
CONTINUOUS
 10
4.0589483358
 20
4.080619133
 11
3.8738663022
 21
3.7173751895
  0
LINE
  5
231
100
AcDbEntity
  8
0
100
AcDbLine
 62
7
  6
CONTINUOUS
 10
6.5633395022
 20
8.3756794174
 11
6.3413020362
 21
8.0337717028
  0
LINE
  5
232
100
AcDbEntity
  8
0
100
AcDbLine
 62
7
  6
CONTINUOUS
 10
4.5978672762
 20
5.8651198968
 11
4.5853672762
 21
5.8526198968
  0
LINE
  5
233
100
AcDbEntity
  8
0
100
AcDbLine
 62
7
  6
CONTINUOUS
 10
4.3603672762
 20
5.3751198968
 11
4.3803672762
 21
5.3951198968
  0
LINE
  5
234
100
AcDbEntity
  8
0
100
AcDbLine
 62
7
  6
CONTINUOUS
 10
3.6167154701
 20
5.3091851368
 11
3.2748077555
 21
5.0871476707
  0
LINE
  5
235
100
AcDbEntity
  8
0
100
AcDbLine
 62
7
  6
CONTINUOUS
 10
7.9331119834
 20
7.7766208707
 11
7.5698680399
 21
7.5915388371
  0
LINE
  5
236
100
AcDbEntity
  8
0
100
AcDbLine
 62
7
  6
CONTINUOUS
 10
8.4127209765
 20
4.4459688544
 11
8.8198404761
 21
4.4673050833
  0
LINE
  5
237
100
AcDbEntity
  8
0
100
AcDbLine
 62
7
  6
CONTINUOUS
 10
3.4408940762
 20
4.4673050833
 11
3.8480135758
 21
4.4459688544
  0
LINE
  5
238
100
AcDbEntity
  8
0
100
AcDbLine
 62
7
  6
CONTINUOUS
 10
7.5698680399
 20
3.4487009564
 11
7.9331119834
 21
3.2636189228
  0
LINE
  5
239
100
AcDbEntity
  8
0
100
AcDbLine
 62
7
  6
CONTINUOUS
 10
3.2748077555
 20
5.9530921228
 11
3.6167154701
 21
5.7310546568
  0
LINE
  5
23A
100
AcDbEntity
  8
0
100
AcDbLine
 62
7
  6
CONTINUOUS
 10
4.6528672762
 20
5.1751198968
 11
4.6403672762
 21
5.1876198968
  0
LINE
  5
23B
100
AcDbEntity
  8
0
100
AcDbLine
 62
7
  6
CONTINUOUS
 10
4.3603672762
 20
5.6651198968
 11
4.3803672762
 21
5.6451198968
  0
LINE
  5
23C
100
AcDbEntity
  8
0
100
AcDbLine
 62
7
  6
CONTINUOUS
 10
6.3413020362
 20
3.0064680907
 11
6.5633395022
 21
2.6645603761
  0
LINE
  5
23D
100
AcDbEntity
  8
0
100
AcDbLine
 62
7
  6
CONTINUOUS
 10
3.8738663022
 20
7.322864604
 11
4.0589483358
 21
6.9596206605
  0
LINE
  5
23E
100
AcDbEntity
  8
0
100
AcDbLine
 62
7
  6
CONTINUOUS
 10
7.8603672762
 20
4.9451198968
 11
7.8664130921
 21
4.9460555817
  0
LINE
  5
23F
100
AcDbEntity
  8
02___PRT_ALL_AXES
100
AcDbLine
 62
7
  6
CONTINUOUS
 10
6.0153672762
 20
8.0288472193
 11
6.0154760232
 21
8.0294911327
  0
LINE
  5
240
100
AcDbEntity
  8
0
100
AcDbLine
 62
7
  6
CONTINUOUS
 10
4.8578672762
 20
5.1751198968
 11
4.8703672762
 21
5.1876198968
  0
LINE
  5
241
100
AcDbEntity
  8
0
100
AcDbLine
 62
7
  6
CONTINUOUS
 10
4.4003672762
 20
4.9451198968
 11
5.2290487975
 21
4.9451198968
  0
LINE
  5
242
100
AcDbEntity
  8
0
100
AcDbLine
 62
7
  6
CONTINUOUS
 10
7.0316857548
 20
4.9451198968
 11
7.8603672762
 21
4.9451198968
  0
LINE
  5
243
100
AcDbEntity
  8
0
100
AcDbLine
 62
7
  6
CONTINUOUS
 10
4.9128672762
 20
5.8651198968
 11
4.9253672762
 21
5.8526198968
  0
LINE
  5
244
100
AcDbEntity
  8
0
100
AcDbLine
 62
7
  6
CONTINUOUS
 10
5.6928672762
 20
6.666459179
 11
5.6928672762
 21
6.4984315802
  0
LINE
  5
245
100
AcDbEntity
  8
02___PRT_ALL_AXES
100
AcDbLine
 62
7
  6
CONTINUOUS
 10
6.2453672762
 20
7.9179988269
 11
6.2452585291
 21
7.9173683194
  0
LINE
  5
246
100
AcDbEntity
  8
0
100
AcDbLine
 62
7
  6
CONTINUOUS
 10
7.6078672527
 20
5.1751198968
 11
7.4028672996
 21
5.1751198968
  0
LINE
  5
247
100
AcDbEntity
  8
0
100
AcDbLine
 62
7
  6
CONTINUOUS
 10
4.8578672527
 20
5.1751198968
 11
4.6528672996
 21
5.1751198968
  0
LINE
  5
248
100
AcDbEntity
  8
0
100
AcDbLine
 62
7
  6
CONTINUOUS
 10
7.6203672762
 20
5.1876198968
 11
7.3903672762
 21
5.1876198968
  0
LINE
  5
249
100
AcDbEntity
  8
0
100
AcDbLine
 62
7
  6
CONTINUOUS
 10
4.8703672762
 20
5.1876198968
 11
4.6403672762
 21
5.1876198968
  0
LINE
  5
24A
100
AcDbEntity
  8
0
100
AcDbLine
 62
7
  6
CONTINUOUS
 10
7.6678672762
 20
5.2001198968
 11
7.3428672762
 21
5.2001198968
  0
LINE
  5
24B
100
AcDbEntity
  8
0
100
AcDbLine
 62
7
  6
CONTINUOUS
 10
4.9178672762
 20
5.2001198968
 11
4.5928672762
 21
5.2001198968
  0
LINE
  5
24C
100
AcDbEntity
  8
0
100
AcDbLine
 62
7
  6
CONTINUOUS
 10
5.9335172762
 20
6.2106710779
 11
5.9335172762
 21
6.076897029
  0
LINE
  5
24D
100
AcDbEntity
  8
02___PRT_ALL_AXES
100
AcDbLine
 62
7
  6
CONTINUOUS
 10
6.0163497337
 20
7.9374324541
 11
6.0163497337
 21
8.0095101835
  0
LINE
  5
24E
100
AcDbEntity
  8
0
100
AcDbLine
 62
7
  6
CONTINUOUS
 10
4.5753672762
 20
5.3251198968
 11
4.9353672762
 21
5.3251198968
  0
LINE
  5
24F
100
AcDbEntity
  8
0
100
AcDbLine
 62
7
  6
CONTINUOUS
 10
7.3253672762
 20
5.3251198968
 11
7.6853672762
 21
5.3251198968
  0
LINE
  5
250
100
AcDbEntity
  8
0
100
AcDbLine
 62
7
  6
CONTINUOUS
 10
3.7336246951
 20
5.3951198968
 11
4.3803672762
 21
5.3951198968
  0
LINE
  5
251
100
AcDbEntity
  8
0
100
AcDbLine
 62
7
  6
CONTINUOUS
 10
7.8803672762
 20
5.3951198968
 11
8.5271098573
 21
5.3951198968
  0
LINE
  5
252
100
AcDbEntity
  8
02___PRT_ALL_AXES
100
AcDbLine
 62
7
  6
CONTINUOUS
 10
6.2443848187
 20
7.9374324541
 11
6.2443848187
 21
8.0095101835
  0
LINE
  5
253
100
AcDbEntity
  8
0
100
AcDbLine
 62
7
  6
CONTINUOUS
 10
6.3272172762
 20
6.076897029
 11
6.3272172762
 21
6.2106710779
  0
LINE
  5
254
100
AcDbEntity
  8
0
100
AcDbLine
 62
7
  6
CONTINUOUS
 10
3.7336246951
 20
5.6451198968
 11
4.3803672762
 21
5.6451198968
  0
LINE
  5
255
100
AcDbEntity
  8
0
100
AcDbLine
 62
7
  6
CONTINUOUS
 10
7.8803672762
 20
5.6451198968
 11
8.5271098573
 21
5.6451198968
  0
LINE
  5
256
100
AcDbEntity
  8
0
100
AcDbLine
 62
7
  6
CONTINUOUS
 10
7.6853672762
 20
5.7151198968
 11
7.3253672762
 21
5.7151198968
  0
LINE
  5
257
100
AcDbEntity
  8
0
100
AcDbLine
 62
7
  6
CONTINUOUS
 10
4.9353672762
 20
5.7151198968
 11
4.5753672762
 21
5.7151198968
  0
LINE
  5
258
100
AcDbEntity
  8
02___PRT_ALL_AXES
100
AcDbLine
 62
7
  6
CONTINUOUS
 10
6.0154760232
 20
7.9173683194
 11
6.0153672762
 21
7.9179997829
  0
LINE
  5
259
100
AcDbEntity
  8
0
100
AcDbLine
 62
7
  6
CONTINUOUS
 10
6.5678672762
 20
6.4984315802
 11
6.5678672762
 21
6.666459179
  0
LINE
  5
25A
100
AcDbEntity
  8
0
100
AcDbLine
 62
7
  6
CONTINUOUS
 10
4.5853672762
 20
5.8526198968
 11
4.9253672762
 21
5.8526198968
  0
LINE
  5
25B
100
AcDbEntity
  8
0
100
AcDbLine
 62
7
  6
CONTINUOUS
 10
7.3353672762
 20
5.8526198968
 11
7.6753672762
 21
5.8526198968
  0
LINE
  5
25C
100
AcDbEntity
  8
0
100
AcDbLine
 62
7
  6
CONTINUOUS
 10
4.5978916613
 20
5.8651198968
 11
4.9128428926
 21
5.8651198968
  0
LINE
  5
25D
100
AcDbEntity
  8
0
100
AcDbLine
 62
7
  6
CONTINUOUS
 10
7.3478916613
 20
5.8651198968
 11
7.6628428926
 21
5.8651198968
  0
LINE
  5
25E
100
AcDbEntity
  8
0
100
AcDbLine
 62
7
  6
CONTINUOUS
 10
4.4003672762
 20
6.0951198968
 11
5.2290487975
 21
6.0951198968
  0
LINE
  5
25F
100
AcDbEntity
  8
0
100
AcDbLine
 62
7
  6
CONTINUOUS
 10
7.0316857548
 20
6.0951198968
 11
7.8603672762
 21
6.0951198968
  0
LINE
  5
260
100
AcDbEntity
  8
02___PRT_ALL_AXES
100
AcDbLine
 62
7
  6
CONTINUOUS
 10
6.2452585291
 20
8.0294911327
 11
6.2453672762
 21
8.0288481769
  0
LINE
  5
261
100
AcDbEntity
  8
0
100
AcDbLine
 62
7
  6
CONTINUOUS
 10
7.3478672762
 20
5.8651198968
 11
7.3353672762
 21
5.8526198968
  0
LINE
  5
262
100
AcDbEntity
  8
0
100
AcDbLine
 62
7
  6
CONTINUOUS
 10
6.3272172762
 20
6.2106710779
 11
5.9335172762
 21
6.2106710779
  0
LINE
  5
263
100
AcDbEntity
  8
0
100
AcDbLine
 62
7
  6
CONTINUOUS
 10
7.4028672762
 20
5.1751198968
 11
7.3903672762
 21
5.1876198968
  0
LINE
  5
264
100
AcDbEntity
  8
0
100
AcDbLine
 62
7
  6
CONTINUOUS
 10
7.2045183185
 20
7.8024735971
 11
7.1831820896
 21
8.2095930967
  0
LINE
  5
265
100
AcDbEntity
  8
0
100
AcDbLine
 62
7
  6
CONTINUOUS
 10
7.3053672762
 20
4.9651198968
 11
7.3053672762
 21
5.3051198968
  0
LINE
  5
266
100
AcDbEntity
  8
0
100
AcDbLine
 62
7
  6
CONTINUOUS
 10
7.3053672762
 20
5.7351198968
 11
7.3053672762
 21
6.0751198968
  0
LINE
  5
267
100
AcDbEntity
  8
0
100
AcDbLine
 62
7
  6
CONTINUOUS
 10
7.3353672762
 20
5.7151198968
 11
7.3353672762
 21
5.8526198968
  0
LINE
  5
268
100
AcDbEntity
  8
0
100
AcDbLine
 62
7
  6
CONTINUOUS
 10
7.3428672762
 20
5.200119632
 11
7.3428672762
 21
5.3251198968
  0
LINE
  5
269
100
AcDbEntity
  8
0
100
AcDbLine
 62
7
  6
CONTINUOUS
 10
7.3903672762
 20
5.1876198968
 11
7.3903672762
 21
5.2001198968
  0
LINE
  5
26A
100
AcDbEntity
  8
0
100
AcDbLine
 62
7
  6
CONTINUOUS
 10
7.1831820896
 20
2.8306466968
 11
7.2045183185
 21
3.2377661964
  0
LINE
  5
26B
100
AcDbEntity
  8
0
100
AcDbLine
 62
7
  6
CONTINUOUS
 10
8.2017862165
 20
6.9596206605
 11
8.3868682501
 21
7.322864604
  0
LINE
  5
26C
100
AcDbEntity
  8
0
100
AcDbLine
 62
7
  6
CONTINUOUS
 10
5.6973950501
 20
2.6645603761
 11
5.9194325162
 21
3.0064680907
  0
LINE
  5
26D
100
AcDbEntity
  8
0
100
AcDbLine
 62
7
  6
CONTINUOUS
 10
7.8803672762
 20
5.6451198968
 11
7.9003672762
 21
5.6651198968
  0
LINE
  5
26E
100
AcDbEntity
  8
0
100
AcDbLine
 62
7
  6
CONTINUOUS
 10
7.6078672762
 20
5.1751198968
 11
7.6203672762
 21
5.1876198968
  0
LINE
  5
26F
100
AcDbEntity
  8
0
100
AcDbLine
 62
7
  6
CONTINUOUS
 10
8.6440190823
 20
5.7310546568
 11
8.9859267969
 21
5.9530921228
  0
LINE
  5
270
100
AcDbEntity
  8
0
100
AcDbLine
 62
7
  6
CONTINUOUS
 10
4.3276225689
 20
3.2636189228
 11
4.6908665124
 21
3.4487009564
  0
LINE
  5
271
100
AcDbEntity
  8
0
100
AcDbLine
 62
7
  6
CONTINUOUS
 10
3.8480135758
 20
6.5942709391
 11
3.4408940762
 21
6.5729347102
  0
LINE
  5
272
100
AcDbEntity
  8
0
100
AcDbLine
 62
7
  6
CONTINUOUS
 10
8.8198404761
 20
6.5729347102
 11
8.4127209765
 21
6.5942709391
  0
LINE
  5
273
100
AcDbEntity
  8
0
100
AcDbLine
 62
7
  6
CONTINUOUS
 10
4.6908665124
 20
7.5915388371
 11
4.3276225689
 21
7.7766208707
  0
LINE
  5
274
100
AcDbEntity
  8
0
100
AcDbLine
 62
7
  6
CONTINUOUS
 10
8.9859267969
 20
5.0871476707
 11
8.6440190823
 21
5.3091851368
  0
LINE
  5
275
100
AcDbEntity
  8
0
100
AcDbLine
 62
7
  6
CONTINUOUS
 10
7.8803672762
 20
5.3951198968
 11
7.9003672762
 21
5.3751198968
  0
LINE
  5
276
100
AcDbEntity
  8
0
100
AcDbLine
 62
7
  6
CONTINUOUS
 10
7.6628672762
 20
5.8651198968
 11
7.6753672762
 21
5.8526198968
  0
LINE
  5
277
100
AcDbEntity
  8
0
100
AcDbLine
 62
7
  6
CONTINUOUS
 10
5.9194325162
 20
8.0337717028
 11
5.6973950501
 21
8.3756794174
  0
LINE
  5
278
100
AcDbEntity
  8
0
100
AcDbLine
 62
7
  6
CONTINUOUS
 10
8.3868682501
 20
3.7173751895
 11
8.2017862165
 21
4.080619133
  0
LINE
  5
279
100
AcDbEntity
  8
0
100
AcDbLine
 62
7
  6
CONTINUOUS
 10
7.6203672762
 20
5.1876198968
 11
7.6203672762
 21
5.2001198968
  0
LINE
  5
27A
100
AcDbEntity
  8
0
100
AcDbLine
 62
7
  6
CONTINUOUS
 10
7.6678672762
 20
5.2001195893
 11
7.6678672762
 21
5.3251198968
  0
LINE
  5
27B
100
AcDbEntity
  8
0
100
AcDbLine
 62
7
  6
CONTINUOUS
 10
7.6753672762
 20
5.7151198968
 11
7.6753672762
 21
5.8526198968
  0
LINE
  5
27C
100
AcDbEntity
  8
0
100
AcDbLine
 62
7
  6
CONTINUOUS
 10
7.7053672762
 20
6.0751198968
 11
7.7053672762
 21
5.7351198968
  0
LINE
  5
27D
100
AcDbEntity
  8
0
100
AcDbLine
 62
7
  6
CONTINUOUS
 10
7.7053672762
 20
5.3051198968
 11
7.7053672762
 21
4.9651198968
  0
LINE
  5
27E
100
AcDbEntity
  8
0
100
AcDbLine
 62
7
  6
CONTINUOUS
 10
7.8803672762
 20
6.0751198968
 11
7.8803672762
 21
4.9651198968
  0
LINE
  5
27F
100
AcDbEntity
  8
0
100
AcDbLine
 62
7
  6
CONTINUOUS
 10
8.5227785135
 20
5.6492273003
 11
8.5271098573
 21
5.6451198968
  0
LINE
  5
280
100
AcDbEntity
  8
0
100
AcDbLine
 62
7
  6
CONTINUOUS
 10
8.5228231764
 20
5.6491851959
 11
8.5271098573
 21
5.6451198968
  0
LINE
  5
281
100
AcDbEntity
  8
0
100
AcDbLine
 62
7
  6
CONTINUOUS
 10
7.8803672762
 20
6.0751198968
 11
7.8794315913
 21
6.0811657127
  0
LINE
  5
282
100
AcDbEntity
  8
RING
100
AcDbLine
 62
7
  6
CONTINUOUS
 10
3.1708720839
 20
12.7000477814
 11
3.1708720839
 21
12.5000477814
  0
LINE
  5
283
100
AcDbEntity
  8
0
100
AcDbLine
 62
7
  6
CONTINUOUS
 10
3.2062053439
 20
12.8792234252
 11
3.2062053439
 21
12.3208721376
  0
LINE
  5
284
100
AcDbEntity
  8
0
100
AcDbLine
 62
7
  6
CONTINUOUS
 10
3.8121912404
 20
12.8792234252
 11
3.8121912404
 21
12.7000477814
  0
LINE
  5
285
100
AcDbEntity
  8
0
100
AcDbLine
 62
7
  6
CONTINUOUS
 10
3.8121912404
 20
12.5000477814
 11
3.8121912404
 21
12.3208721376
  0
LINE
  5
286
100
AcDbEntity
  8
0
100
AcDbLine
 62
7
  6
CONTINUOUS
 10
4.3208720839
 20
13.3950477814
 11
4.3208720839
 21
12.9150477814
  0
LINE
  5
287
100
AcDbEntity
  8
0
100
AcDbLine
 62
7
  6
CONTINUOUS
 10
4.3208720839
 20
12.2850477814
 11
4.3208720839
 21
11.8050477814
  0
LINE
  5
288
100
AcDbEntity
  8
0
100
AcDbLine
 62
7
  6
CONTINUOUS
 10
4.4958720839
 20
11.8050477814
 11
4.4958720839
 21
12.0550477814
  0
LINE
  5
289
100
AcDbEntity
  8
0
100
AcDbLine
 62
7
  6
CONTINUOUS
 10
4.4958720839
 20
13.1450477814
 11
4.4958720839
 21
13.3950477814
  0
LINE
  5
28A
100
AcDbEntity
  8
0
100
AcDbLine
 62
7
  6
CONTINUOUS
 10
4.5958720839
 20
11.9473127544
 11
4.5958720839
 21
12.0627828083
  0
LINE
  5
28B
100
AcDbEntity
  8
0
100
AcDbLine
 62
7
  6
CONTINUOUS
 10
4.5958720839
 20
13.1373127544
 11
4.5958720839
 21
13.2527828083
  0
LINE
  5
28C
100
AcDbEntity
  8
0
100
AcDbLine
 62
7
  6
CONTINUOUS
 10
4.7958720839
 20
13.2527828083
 11
4.7958720839
 21
13.1373127544
  0
LINE
  5
28D
100
AcDbEntity
  8
0
100
AcDbLine
 62
7
  6
CONTINUOUS
 10
4.7958720839
 20
12.0627828083
 11
4.7958720839
 21
11.9473127544
  0
LINE
  5
28E
100
AcDbEntity
  8
0
100
AcDbLine
 62
7
  6
CONTINUOUS
 10
4.5958720839
 20
13.2527828083
 11
4.6958720839
 21
13.3105178352
  0
LINE
  5
28F
100
AcDbEntity
  8
0
100
AcDbLine
 62
7
  6
CONTINUOUS
 10
4.6958720839
 20
11.8895777275
 11
4.5958720839
 21
11.9473127544
  0
LINE
  5
290
100
AcDbEntity
  8
0
100
AcDbLine
 62
7
  6
CONTINUOUS
 10
4.8958720839
 20
13.3950477814
 11
4.8958720839
 21
13.1450477814
  0
LINE
  5
291
100
AcDbEntity
  8
0
100
AcDbLine
 62
7
  6
CONTINUOUS
 10
4.8958720839
 20
12.0550477814
 11
4.8958720839
 21
11.8050477814
  0
LINE
  5
292
100
AcDbEntity
  8
0
100
AcDbLine
 62
7
  6
CONTINUOUS
 10
4.7958720839
 20
13.1373127544
 11
4.6958720839
 21
13.0795777275
  0
LINE
  5
293
100
AcDbEntity
  8
0
100
AcDbLine
 62
7
  6
CONTINUOUS
 10
4.6958720839
 20
12.1205178352
 11
4.7958720839
 21
12.0627828083
  0
LINE
  5
294
100
AcDbEntity
  8
0
100
AcDbLine
 62
7
  6
CONTINUOUS
 10
4.3408720839
 20
11.7850477814
 11
7.8008720839
 21
11.7850477814
  0
LINE
  5
295
100
AcDbEntity
  8
0
100
AcDbLine
 62
7
  6
CONTINUOUS
 10
8.2840169721
 20
12.2960800749
 11
8.3130201764
 21
12.3011749757
  0
LWPOLYLINE
  5
296
100
AcDbEntity
  8
0
100
AcDbPolyline
 62
7
  6
CONTINUOUS
 90
3
 70
0
 10
8.2221184464
 20
12.28528135
 10
8.2498440373
 20
12.2901051444
 10
8.2840169721
 20
12.2960800749
  0
LWPOLYLINE
  5
297
100
AcDbEntity
  8
0
100
AcDbPolyline
 62
7
  6
CONTINUOUS
 90
4
 70
0
 10
3.8287239907
 20
12.3011749758
 10
3.85823058
 20
12.2959918358
 10
3.8923800479
 20
12.2900214604
 10
3.9196257223
 20
12.2852813499
  0
LINE
  5
298
100
AcDbEntity
  8
0
100
AcDbLine
 62
7
  6
CONTINUOUS
 10
5.6333720839
 20
13.3950477814
 11
5.6333720839
 21
12.9150477814
  0
LINE
  5
299
100
AcDbEntity
  8
0
100
AcDbLine
 62
7
  6
CONTINUOUS
 10
5.6333720839
 20
12.2850477814
 11
5.6333720839
 21
11.8050477814
  0
LINE
  5
29A
100
AcDbEntity
  8
0
100
AcDbLine
 62
7
  6
CONTINUOUS
 10
8.2194088654
 20
12.2850477814
 11
8.2221183489
 21
12.2852813498
  0
LINE
  5
29B
100
AcDbEntity
  8
0
100
AcDbLine
 62
7
  6
CONTINUOUS
 10
3.9196258198
 20
12.2852813497
 11
3.9223353023
 21
12.2850477814
  0
LINE
  5
29C
100
AcDbEntity
  8
0
100
AcDbLine
 62
7
  6
CONTINUOUS
 10
4.5958720839
 20
12.0627828083
 11
4.6958720839
 21
12.1205178352
  0
LINE
  5
29D
100
AcDbEntity
  8
0
100
AcDbLine
 62
7
  6
CONTINUOUS
 10
6.1083998514
 20
12.2350477814
 11
6.0333443164
 21
12.2350477814
  0
LINE
  5
29E
100
AcDbEntity
  8
0
100
AcDbLine
 62
7
  6
CONTINUOUS
 10
8.7491628168
 20
12.2850477814
 11
6.2619661126
 21
12.2850477814
  0
LINE
  5
29F
100
AcDbEntity
  8
02___PRT_ALL_AXES
100
AcDbLine
 62
7
  6
CONTINUOUS
 10
6.2619661126
 20
12.2850477814
 11
6.1848896264
 21
12.2850477814
  0
LINE
  5
2A0
100
AcDbEntity
  8
02___PRT_ALL_AXES
100
AcDbLine
 62
7
  6
CONTINUOUS
 10
5.9568545413
 20
12.2850477814
 11
5.8797780551
 21
12.2850477814
  0
LINE
  5
2A1
100
AcDbEntity
  8
0
100
AcDbLine
 62
7
  6
CONTINUOUS
 10
5.8797780551
 20
12.2850477814
 11
3.3925813509
 21
12.2850477814
  0
LINE
  5
2A2
100
AcDbEntity
  8
0
100
AcDbLine
 62
7
  6
CONTINUOUS
 10
6.0333443164
 20
12.3650477814
 11
6.1083998514
 21
12.3650477814
  0
LINE
  5
2A3
100
AcDbEntity
  8
0
100
AcDbLine
 62
7
  6
CONTINUOUS
 10
4.6958720839
 20
13.0795777275
 11
4.5958720839
 21
13.1373127544
  0
LINE
  5
2A4
100
AcDbEntity
  8
0
100
AcDbLine
 62
7
  6
CONTINUOUS
 10
6.0333443164
 20
12.2350477814
 11
5.9958165489
 21
12.3000477814
  0
LINE
  5
2A5
100
AcDbEntity
  8
0
100
AcDbLine
 62
7
  6
CONTINUOUS
 10
4.7958720839
 20
11.9473127544
 11
4.6958720839
 21
11.8895777275
  0
LINE
  5
2A6
100
AcDbEntity
  8
RING
100
AcDbLine
 62
7
  6
CONTINUOUS
 10
8.9708720839
 20
12.5000477814
 11
3.1708720839
 21
12.5000477814
  0
LINE
  5
2A7
100
AcDbEntity
  8
0
100
AcDbLine
 62
7
  6
CONTINUOUS
 10
4.6958720839
 20
13.3105178352
 11
4.7958720839
 21
13.2527828083
  0
LINE
  5
2A8
100
AcDbEntity
  8
0
100
AcDbLine
 62
7
  6
CONTINUOUS
 10
6.1083998514
 20
12.3650477814
 11
6.1459276189
 21
12.3000477814
  0
LINE
  5
2A9
100
AcDbEntity
  8
0
100
AcDbLine
 62
7
  6
CONTINUOUS
 10
5.9958165489
 20
12.3000477814
 11
6.0333443164
 21
12.3650477814
  0
LINE
  5
2AA
100
AcDbEntity
  8
0
100
AcDbLine
 62
7
  6
CONTINUOUS
 10
6.1459276189
 20
12.3000477814
 11
6.1083998514
 21
12.2350477814
  0
LINE
  5
2AB
100
AcDbEntity
  8
0
100
AcDbLine
 62
7
  6
CONTINUOUS
 10
7.3458720839
 20
13.2527828083
 11
7.4458720839
 21
13.3105178352
  0
LINE
  5
2AC
100
AcDbEntity
  8
RING
100
AcDbLine
 62
7
  6
CONTINUOUS
 10
8.9708720839
 20
12.7000477814
 11
3.1708720839
 21
12.7000477814
  0
LINE
  5
2AD
100
AcDbEntity
  8
0
100
AcDbLine
 62
7
  6
CONTINUOUS
 10
7.4458720839
 20
11.8895777275
 11
7.3458720839
 21
11.9473127544
  0
LINE
  5
2AE
100
AcDbEntity
  8
0
100
AcDbLine
 62
7
  6
CONTINUOUS
 10
7.5458720839
 20
13.1373127544
 11
7.4458720839
 21
13.0795777275
  0
LINE
  5
2AF
100
AcDbEntity
  8
0
100
AcDbLine
 62
7
  6
CONTINUOUS
 10
3.3925813509
 20
12.9150477814
 11
8.7491628168
 21
12.9150477814
  0
LINE
  5
2B0
100
AcDbEntity
  8
0
100
AcDbLine
 62
7
  6
CONTINUOUS
 10
7.4458720839
 20
12.1205178352
 11
7.5458720839
 21
12.0627828083
  0
LINE
  5
2B1
100
AcDbEntity
  8
0
100
AcDbLine
 62
7
  6
CONTINUOUS
 10
6.5083720839
 20
11.8050477814
 11
6.5083720839
 21
12.2850477814
  0
LINE
  5
2B2
100
AcDbEntity
  8
0
100
AcDbLine
 62
7
  6
CONTINUOUS
 10
6.5083720839
 20
12.9150477814
 11
6.5083720839
 21
13.3950477814
  0
LINE
  5
2B3
100
AcDbEntity
  8
0
100
AcDbLine
 62
7
  6
CONTINUOUS
 10
3.9223353023
 20
12.9150477814
 11
3.919625819
 21
12.9148142129
  0
LINE
  5
2B4
100
AcDbEntity
  8
0
100
AcDbLine
 62
7
  6
CONTINUOUS
 10
8.2221183484
 20
12.9148142131
 11
8.2194088652
 21
12.9150477814
  0
LINE
  5
2B5
100
AcDbEntity
  8
0
100
AcDbLine
 62
7
  6
CONTINUOUS
 10
3.8577265857
 20
12.904015381
 11
3.8287239913
 21
12.8989205869
  0
LWPOLYLINE
  5
2B6
100
AcDbEntity
  8
0
100
AcDbPolyline
 62
7
  6
CONTINUOUS
 90
3
 70
0
 10
3.9196257216
 20
12.9148142127
 10
3.8918966173
 20
12.9099898058
 10
3.8577265857
 20
12.904015381
  0
LINE
  5
2B7
100
AcDbEntity
  8
0
100
AcDbLine
 62
7
  6
CONTINUOUS
 10
4.3408720839
 20
13.4150477814
 11
7.8008720839
 21
13.4150477814
  0
LWPOLYLINE
  5
2B8
100
AcDbEntity
  8
0
100
AcDbPolyline
 62
7
  6
CONTINUOUS
 90
4
 70
0
 10
8.3130201768
 20
12.8989205869
 10
8.2835143757
 20
12.9041035889
 10
8.2493637347
 20
12.9100741695
 10
8.2221184464
 20
12.9148142129
  0
LINE
  5
2B9
100
AcDbEntity
  8
0
100
AcDbLine
 62
7
  6
CONTINUOUS
 10
7.2458720839
 20
11.8050477814
 11
7.2458720839
 21
12.0550477814
  0
LINE
  5
2BA
100
AcDbEntity
  8
0
100
AcDbLine
 62
7
  6
CONTINUOUS
 10
7.2458720839
 20
13.1450477814
 11
7.2458720839
 21
13.3950477814
  0
LINE
  5
2BB
100
AcDbEntity
  8
0
100
AcDbLine
 62
7
  6
CONTINUOUS
 10
7.3458720839
 20
12.0627828083
 11
7.4458720839
 21
12.1205178352
  0
LINE
  5
2BC
100
AcDbEntity
  8
0
100
AcDbLine
 62
7
  6
CONTINUOUS
 10
7.4458720839
 20
13.0795777275
 11
7.3458720839
 21
13.1373127544
  0
LINE
  5
2BD
100
AcDbEntity
  8
0
100
AcDbLine
 62
7
  6
CONTINUOUS
 10
7.3458720839
 20
11.9473127544
 11
7.3458720839
 21
12.0627828083
  0
LINE
  5
2BE
100
AcDbEntity
  8
0
100
AcDbLine
 62
7
  6
CONTINUOUS
 10
7.3458720839
 20
13.1373127544
 11
7.3458720839
 21
13.2527828083
  0
LINE
  5
2BF
100
AcDbEntity
  8
0
100
AcDbLine
 62
7
  6
CONTINUOUS
 10
7.5458720839
 20
11.9473127544
 11
7.4458720839
 21
11.8895777275
  0
LINE
  5
2C0
100
AcDbEntity
  8
0
100
AcDbLine
 62
7
  6
CONTINUOUS
 10
7.4458720839
 20
13.3105178352
 11
7.5458720839
 21
13.2527828083
  0
LINE
  5
2C1
100
AcDbEntity
  8
0
100
AcDbLine
 62
7
  6
CONTINUOUS
 10
7.5458720839
 20
13.2527828083
 11
7.5458720839
 21
13.1373127544
  0
LINE
  5
2C2
100
AcDbEntity
  8
0
100
AcDbLine
 62
7
  6
CONTINUOUS
 10
7.5458720839
 20
12.0627828083
 11
7.5458720839
 21
11.9473127544
  0
LINE
  5
2C3
100
AcDbEntity
  8
0
100
AcDbLine
 62
7
  6
CONTINUOUS
 10
7.6458720839
 20
13.3950477814
 11
7.6458720839
 21
13.1450477814
  0
LINE
  5
2C4
100
AcDbEntity
  8
0
100
AcDbLine
 62
7
  6
CONTINUOUS
 10
7.6458720839
 20
12.0550477814
 11
7.6458720839
 21
11.8050477814
  0
LINE
  5
2C5
100
AcDbEntity
  8
0
100
AcDbLine
 62
7
  6
CONTINUOUS
 10
7.8208720839
 20
11.8050477814
 11
7.8208720839
 21
12.2850477814
  0
LINE
  5
2C6
100
AcDbEntity
  8
0
100
AcDbLine
 62
7
  6
CONTINUOUS
 10
7.8208720839
 20
12.9150477814
 11
7.8208720839
 21
13.3950477814
  0
LINE
  5
2C7
100
AcDbEntity
  8
0
100
AcDbLine
 62
7
  6
CONTINUOUS
 10
8.3295529273
 20
12.8792234252
 11
8.3295529273
 21
12.7000477814
  0
LINE
  5
2C8
100
AcDbEntity
  8
0
100
AcDbLine
 62
7
  6
CONTINUOUS
 10
8.3295529273
 20
12.5000477814
 11
8.3295529273
 21
12.3208721376
  0
LINE
  5
2C9
100
AcDbEntity
  8
0
100
AcDbLine
 62
7
  6
CONTINUOUS
 10
8.9355388239
 20
12.8792234252
 11
8.9355388239
 21
12.3208721376
  0
LINE
  5
2CA
100
AcDbEntity
  8
RING
100
AcDbLine
 62
7
  6
CONTINUOUS
 10
8.9708720839
 20
12.7000477814
 11
8.9708720839
 21
12.5000477814
  0
LINE
  5
2CB
100
AcDbEntity
  8
RING
100
AcDbLine
 62
7
  6
CONTINUOUS
 10
15.6603552569
 20
2.5606247044
 11
15.4603552569
 21
2.5606247044
  0
LINE
  5
2CC
100
AcDbEntity
  8
0
100
AcDbLine
 62
7
  6
CONTINUOUS
 10
15.8395309008
 20
2.5959579644
 11
15.2811796131
 21
2.5959579644
  0
LINE
  5
2CD
100
AcDbEntity
  8
0
100
AcDbLine
 62
7
  6
CONTINUOUS
 10
15.8395309008
 20
3.201943861
 11
15.6603552569
 21
3.201943861
  0
LINE
  5
2CE
100
AcDbEntity
  8
0
100
AcDbLine
 62
7
  6
CONTINUOUS
 10
15.4603552569
 20
3.201943861
 11
15.2811796131
 21
3.201943861
  0
LINE
  5
2CF
100
AcDbEntity
  8
0
100
AcDbLine
 62
7
  6
CONTINUOUS
 10
16.3553552569
 20
4.4006247044
 11
15.8753552569
 21
4.4006247044
  0
LINE
  5
2D0
100
AcDbEntity
  8
0
100
AcDbLine
 62
7
  6
CONTINUOUS
 10
14.7653552569
 20
4.4006247044
 11
15.2453552569
 21
4.4006247044
  0
LINE
  5
2D1
100
AcDbEntity
  8
0
100
AcDbLine
 62
7
  6
CONTINUOUS
 10
14.7453552569
 20
4.4206256527
 11
14.7453552569
 21
6.6806133049
  0
LWPOLYLINE
  5
2D2
100
AcDbEntity
  8
0
100
AcDbPolyline
 62
7
  6
CONTINUOUS
 90
4
 70
0
 10
15.2614824514
 20
7.7027727976
 10
15.2562993113
 20
7.6732662083
 10
15.2503289359
 20
7.6391167404
 10
15.2455888254
 20
7.611871066
  0
LINE
  5
2D3
100
AcDbEntity
  8
0
100
AcDbLine
 62
7
  6
CONTINUOUS
 10
15.2563875504
 20
3.2474798162
 11
15.2614824513
 21
3.2184766119
  0
LWPOLYLINE
  5
2D4
100
AcDbEntity
  8
0
100
AcDbPolyline
 62
7
  6
CONTINUOUS
 90
3
 70
0
 10
15.2455888256
 20
3.3093783419
 10
15.25041262
 20
3.281652751
 10
15.2563875504
 20
3.2474798162
  0
LINE
  5
2D5
100
AcDbEntity
  8
0
100
AcDbLine
 62
7
  6
CONTINUOUS
 10
15.2453552569
 20
3.3120879229
 11
15.2455888254
 21
3.3093784394
  0
LINE
  5
2D6
100
AcDbEntity
  8
0
100
AcDbLine
 62
7
  6
CONTINUOUS
 10
15.2455888252
 20
7.6118709685
 11
15.2453552569
 21
7.609161486
  0
LINE
  5
2D7
100
AcDbEntity
  8
0
100
AcDbLine
 62
7
  6
CONTINUOUS
 10
14.7653552569
 20
4.8856247044
 11
15.2453552569
 21
4.8856247044
  0
LINE
  5
2D8
100
AcDbEntity
  8
0
100
AcDbLine
 62
7
  6
CONTINUOUS
 10
15.8753552569
 20
4.8856247044
 11
16.3553552569
 21
4.8856247044
  0
LINE
  5
2D9
100
AcDbEntity
  8
0
100
AcDbLine
 62
7
  6
CONTINUOUS
 10
15.2453552569
 20
2.7823339715
 11
15.2453552569
 21
8.1389154374
  0
LINE
  5
2DA
100
AcDbEntity
  8
RING
100
AcDbLine
 62
7
  6
CONTINUOUS
 10
15.4603552569
 20
2.5606586843
 11
15.4603552569
 21
8.3605907246
  0
LINE
  5
2DB
100
AcDbEntity
  8
RING
100
AcDbLine
 62
7
  6
CONTINUOUS
 10
15.6603552569
 20
2.5606586843
 11
15.6603552569
 21
8.3605907246
  0
LINE
  5
2DC
100
AcDbEntity
  8
0
100
AcDbLine
 62
7
  6
CONTINUOUS
 10
15.8753552569
 20
8.1389154374
 11
15.8753552569
 21
2.7823339715
  0
LINE
  5
2DD
100
AcDbEntity
  8
0
100
AcDbLine
 62
7
  6
CONTINUOUS
 10
15.8753552569
 20
7.609161486
 11
15.8751216885
 21
7.6118709693
  0
LINE
  5
2DE
100
AcDbEntity
  8
0
100
AcDbLine
 62
7
  6
CONTINUOUS
 10
15.8751216887
 20
3.3093784399
 11
15.8753552569
 21
3.3120879231
  0
LINE
  5
2DF
100
AcDbEntity
  8
0
100
AcDbLine
 62
7
  6
CONTINUOUS
 10
16.3553552569
 20
6.0356247044
 11
15.8753552569
 21
6.0356247044
  0
LINE
  5
2E0
100
AcDbEntity
  8
0
100
AcDbLine
 62
7
  6
CONTINUOUS
 10
15.2453552569
 20
6.0356247044
 11
14.7653552569
 21
6.0356247044
  0
LINE
  5
2E1
100
AcDbEntity
  8
0
100
AcDbLine
 62
7
  6
CONTINUOUS
 10
16.3753552569
 20
4.4206256527
 11
16.3753552569
 21
6.6806133049
  0
LWPOLYLINE
  5
2E2
100
AcDbEntity
  8
0
100
AcDbPolyline
 62
7
  6
CONTINUOUS
 90
4
 70
0
 10
15.8592280625
 20
3.2184766115
 10
15.8644110644
 20
3.2479824126
 10
15.8703816451
 20
3.2821330536
 10
15.8751216885
 20
3.3093783419
  0
LINE
  5
2E3
100
AcDbEntity
  8
0
100
AcDbLine
 62
7
  6
CONTINUOUS
 10
15.8643228566
 20
7.6737702026
 11
15.8592280625
 21
7.702772797
  0
LWPOLYLINE
  5
2E4
100
AcDbEntity
  8
0
100
AcDbPolyline
 62
7
  6
CONTINUOUS
 90
3
 70
0
 10
15.8751216883
 20
7.6118710668
 10
15.8702972814
 20
7.6396001711
 10
15.8643228566
 20
7.6737702026
  0
LINE
  5
2E5
100
AcDbEntity
  8
02___PRT_ALL_AXES
100
AcDbLine
 62
7
  6
CONTINUOUS
 10
15.1453571186
 20
6.7006239394
 11
15.1465047124
 21
6.7005186288
  0
LINE
  5
2E6
100
AcDbEntity
  8
0
100
AcDbLine
 62
7
  6
CONTINUOUS
 10
16.3553552569
 20
6.7006247044
 11
15.8753552569
 21
6.7006247044
  0
LINE
  5
2E7
100
AcDbEntity
  8
0
100
AcDbLine
 62
7
  6
CONTINUOUS
 10
14.7653552569
 20
6.7006247044
 11
15.1453552569
 21
6.7006247044
  0
LINE
  5
2E8
100
AcDbEntity
  8
0
100
AcDbLine
 62
7
  6
CONTINUOUS
 10
15.8395309008
 20
7.7193055479
 11
15.6603552569
 21
7.7193055479
  0
LINE
  5
2E9
100
AcDbEntity
  8
0
100
AcDbLine
 62
7
  6
CONTINUOUS
 10
15.4603552569
 20
7.7193055479
 11
15.2811796131
 21
7.7193055479
  0
LINE
  5
2EA
100
AcDbEntity
  8
0
100
AcDbLine
 62
7
  6
CONTINUOUS
 10
15.8395309008
 20
8.3252914444
 11
15.2811796131
 21
8.3252914444
  0
LINE
  5
2EB
100
AcDbEntity
  8
RING
100
AcDbLine
 62
7
  6
CONTINUOUS
 10
15.6603552569
 20
8.3606247044
 11
15.4603552569
 21
8.3606247044
  0
LINE
  5
2EC
100
AcDbEntity
  8
RING
100
AcDbLine
 62
7
  6
CONTINUOUS
 10
12.7245986525
 20
13.4453550612
 11
12.6761853878
 21
13.2886896792
  0
LINE
  5
2ED
100
AcDbEntity
  8
0
100
AcDbLine
 62
7
  6
CONTINUOUS
 10
12.728318187
 20
13.377420756
 11
12.6987439678
 21
13.2817185477
  0
LINE
  5
2EE
100
AcDbEntity
  8
0
100
AcDbLine
 62
7
  6
CONTINUOUS
 10
12.6475856161
 20
13.116170061
 11
12.5931601436
 21
12.9400491673
  0
LINE
  5
2EF
100
AcDbEntity
  8
0
100
AcDbLine
 62
7
  6
CONTINUOUS
 10
12.9049391376
 20
13.8616439153
 11
12.7697810942
 21
13.4242723267
  0
LINE
  5
2F0
100
AcDbEntity
  8
0
100
AcDbLine
 62
7
  6
CONTINUOUS
 10
13.0458997563
 20
13.1709335557
 11
12.9996857423
 21
13.0213849517
  0
LINE
  5
2F1
100
AcDbEntity
  8
0
100
AcDbLine
 62
7
  6
CONTINUOUS
 10
13.0388558844
 20
12.3792099991
 11
13.0381126256
 21
12.3811281373
  0
LINE
  5
2F2
100
AcDbEntity
  8
0
100
AcDbLine
 62
7
  6
CONTINUOUS
 10
13.0200028456
 20
12.4019179029
 11
12.9015047035
 21
12.0184577746
  0
LINE
  5
2F3
100
AcDbEntity
  8
0
100
AcDbLine
 62
7
  6
CONTINUOUS
 10
13.7481897569
 20
14.4065484341
 11
13.7058310491
 21
14.2694756055
  0
LINE
  5
2F4
100
AcDbEntity
  8
0
100
AcDbLine
 62
7
  6
CONTINUOUS
 10
13.6569367817
 20
14.1112536982
 11
13.6130317135
 21
13.9691768455
  0
LINE
  5
2F5
100
AcDbEntity
  8
0
100
AcDbLine
 62
7
  6
CONTINUOUS
 10
13.1661298818
 20
12.3965911461
 11
13.178233198
 21
12.4357574916
  0
LINE
  5
2F6
100
AcDbEntity
  8
0
100
AcDbLine
 62
7
  6
CONTINUOUS
 10
13.1523546343
 20
12.1505887514
 11
13.1526222691
 21
12.1500789089
  0
LINE
  5
2F7
100
AcDbEntity
  8
0
100
AcDbLine
 62
7
  6
CONTINUOUS
 10
13.0392555659
 20
12.3791974537
 11
13.0384593593
 21
12.3811169776
  0
LINE
  5
2F8
100
AcDbEntity
  8
0
100
AcDbLine
 62
7
  6
CONTINUOUS
 10
15.8550152539
 20
10.5039480126
 11
15.8521474048
 21
10.5042397154
  0
LINE
  5
2F9
100
AcDbEntity
  8
0
100
AcDbLine
 62
7
  6
CONTINUOUS
 10
15.8550152539
 20
10.5039480126
 11
15.8521314366
 21
10.5043031163
  0
LINE
  5
2FA
100
AcDbEntity
  8
0
100
AcDbLine
 62
7
  6
CONTINUOUS
 10
13.8870543429
 20
11.1469799914
 11
13.8840690139
 21
11.1486587415
  0
LINE
  5
2FB
100
AcDbEntity
  8
0
100
AcDbLine
 62
7
  6
CONTINUOUS
 10
13.8869902613
 20
11.1469316784
 11
13.8840690139
 21
11.1486587415
  0
LINE
  5
2FC
100
AcDbEntity
  8
0
100
AcDbLine
 62
7
  6
CONTINUOUS
 10
13.8365778247
 20
11.5342557132
 11
13.4979813527
 21
12.224242778
  0
LWPOLYLINE
  5
2FD
100
AcDbEntity
  8
0
100
AcDbPolyline
 62
7
  6
CONTINUOUS
 90
3
 70
0
 10
13.6421216825
 20
12.7095015242
 10
13.6420702753
 20
12.7089651271
 10
13.6420637109
 20
12.7089423413
  0
LINE
  5
2FE
100
AcDbEntity
  8
0
100
AcDbLine
 62
7
  6
CONTINUOUS
 10
13.4968275689
 20
12.2389585796
 11
13.6420673629
 21
12.7089547253
  0
LINE
  5
2FF
100
AcDbEntity
  8
0
100
AcDbLine
 62
7
  6
CONTINUOUS
 10
16.3347019306
 20
10.715260968
 11
16.3290122323
 21
10.7149630771
  0
LINE
  5
300
100
AcDbEntity
  8
0
100
AcDbLine
 62
7
  6
CONTINUOUS
 10
16.3347019306
 20
10.715260968
 11
16.3289553598
 21
10.7150589091
  0
LINE
  5
301
100
AcDbEntity
  8
0
100
AcDbLine
 62
7
  6
CONTINUOUS
 10
14.7241825756
 20
10.9824779214
 11
14.7231992945
 21
10.9828318305
  0
LINE
  5
302
100
AcDbEntity
  8
0
100
AcDbLine
 62
7
  6
CONTINUOUS
 10
14.7241754632
 20
10.9824642815
 11
14.7231992945
 21
10.9828318305
  0
LINE
  5
303
100
AcDbEntity
  8
0
100
AcDbLine
 62
7
  6
CONTINUOUS
 10
13.9492278894
 20
11.7592783553
 11
13.9573748098
 21
11.7426766771
  0
LINE
  5
304
100
AcDbEntity
  8
0
100
AcDbLine
 62
7
  6
CONTINUOUS
 10
13.8485265942
 20
12.091047165
 11
13.8065833375
 21
12.1765185356
  0
LINE
  5
305
100
AcDbEntity
  8
0
100
AcDbLine
 62
7
  6
CONTINUOUS
 10
13.8493028902
 20
12.2139555205
 11
13.8772543016
 21
12.3044063209
  0
LINE
  5
306
100
AcDbEntity
  8
0
100
AcDbLine
 62
7
  6
CONTINUOUS
 10
13.8914730241
 20
12.1895455427
 11
13.9077584883
 21
12.2422453241
  0
LINE
  5
307
100
AcDbEntity
  8
0
100
AcDbLine
 62
7
  6
CONTINUOUS
 10
13.9077584883
 20
12.2422453241
 11
13.8772543016
 21
12.3044063209
  0
LINE
  5
308
100
AcDbEntity
  8
0
100
AcDbLine
 62
7
  6
CONTINUOUS
 10
14.2567195849
 20
11.7426767747
 11
14.2509266517
 21
11.7544815315
  0
LINE
  5
309
100
AcDbEntity
  8
0
100
AcDbLine
 62
7
  6
CONTINUOUS
 10
14.2624736615
 20
11.7456031024
 11
14.3661878962
 21
11.5342557132
  0
LINE
  5
30A
100
AcDbEntity
  8
0
100
AcDbLine
 62
7
  6
CONTINUOUS
 10
14.1313056589
 20
12.0128953888
 11
14.0275914242
 21
12.224242778
  0
LINE
  5
30B
100
AcDbEntity
  8
0
100
AcDbLine
 62
7
  6
CONTINUOUS
 10
14.0138402934
 20
12.2874707243
 11
13.9833361067
 21
12.3496317212
  0
LINE
  5
30C
100
AcDbEntity
  8
0
100
AcDbLine
 62
7
  6
CONTINUOUS
 10
13.6401877263
 20
12.7161404663
 11
13.6401751878
 21
12.7161660359
  0
LWPOLYLINE
  5
30D
100
AcDbEntity
  8
0
100
AcDbPolyline
 62
7
  6
CONTINUOUS
 90
4
 70
0
 10
13.6401876925
 20
12.7161405129
 10
13.641105988
 20
12.7140434082
 10
13.6420775118
 20
12.7103476149
 10
13.6421216825
 20
12.7095015242
  0
LINE
  5
30E
100
AcDbEntity
  8
0
100
AcDbLine
 62
7
  6
CONTINUOUS
 10
13.9300821883
 20
11.381791527
 11
13.9004170805
 21
11.2695311754
  0
LINE
  5
30F
100
AcDbEntity
  8
0
100
AcDbLine
 62
7
  6
CONTINUOUS
 10
14.0264376404
 20
12.2389585796
 11
14.0869542213
 21
12.434790307
  0
LINE
  5
310
100
AcDbEntity
  8
0
100
AcDbLine
 62
7
  6
CONTINUOUS
 10
15.0219516984
 20
14.4148102755
 11
15.0001676787
 21
14.368610804
  0
LINE
  5
311
100
AcDbEntity
  8
0
100
AcDbLine
 62
7
  6
CONTINUOUS
 10
15.0220602851
 20
14.4150353838
 11
15.0219518135
 21
14.4148105196
  0
LINE
  5
312
100
AcDbEntity
  8
0
100
AcDbLine
 62
7
  6
CONTINUOUS
 10
15.0672586656
 20
14.5066177049
 11
15.0220601794
 21
14.415035159
  0
LINE
  5
313
100
AcDbEntity
  8
0
100
AcDbLine
 62
7
  6
CONTINUOUS
 10
16.3857797886
 20
14.0960779488
 11
16.385131501
 21
14.095836434
  0
LINE
  5
314
100
AcDbEntity
  8
0
100
AcDbLine
 62
7
  6
CONTINUOUS
 10
16.426094011
 20
14.1094740909
 11
16.3857798509
 21
14.0960779747
  0
LINE
  5
315
100
AcDbEntity
  8
0
100
AcDbLine
 62
7
  6
CONTINUOUS
 10
16.518311031
 20
14.1400622757
 11
16.426094011
 21
14.1094740909
  0
LINE
  5
316
100
AcDbEntity
  8
0
100
AcDbLine
 62
7
  6
CONTINUOUS
 10
18.1379140828
 20
11.6241343697
 11
18.1968484459
 21
11.6301995288
  0
LWPOLYLINE
  5
317
100
AcDbEntity
  8
0
100
AcDbPolyline
 62
7
  6
CONTINUOUS
 90
3
 70
0
 10
18.0122726072
 20
11.611260705
 10
18.0684609109
 20
11.6170079961
 10
18.1379140828
 20
11.6241343697
  0
LWPOLYLINE
  5
318
100
AcDbEntity
  8
0
100
AcDbPolyline
 62
7
  6
CONTINUOUS
 90
4
 70
0
 10
12.7753542818
 20
13.403643332
 10
12.8189233846
 20
13.3636028969
 10
12.8693554547
 20
13.3172838135
 10
12.9094690636
 20
13.280464952
  0
LINE
  5
319
100
AcDbEntity
  8
0
100
AcDbLine
 62
7
  6
CONTINUOUS
 10
15.2319031579
 20
10.6455198757
 11
15.2556653173
 21
10.6098711023
  0
LINE
  5
31A
100
AcDbEntity
  8
0
100
AcDbLine
 62
7
  6
CONTINUOUS
 10
15.1813008365
 20
10.7215205674
 11
15.2319031579
 21
10.6455198757
  0
LINE
  5
31B
100
AcDbEntity
  8
0
100
AcDbLine
 62
7
  6
CONTINUOUS
 10
15.1813008009
 20
10.7215206303
 11
15.1809167831
 21
10.722144251
  0
LINE
  5
31C
100
AcDbEntity
  8
0
100
AcDbLine
 62
7
  6
CONTINUOUS
 10
13.6608362486
 20
13.819747796
 11
13.7143610832
 21
13.6901710249
  0
LINE
  5
31D
100
AcDbEntity
  8
0
100
AcDbLine
 62
7
  6
CONTINUOUS
 10
13.6606272135
 20
13.8202978023
 11
13.6608362527
 21
13.819747786
  0
LWPOLYLINE
  5
31E
100
AcDbEntity
  8
0
100
AcDbPolyline
 62
7
  6
CONTINUOUS
 90
3
 70
0
 10
13.6132449229
 20
13.956716661
 10
13.6286462583
 20
13.9123389773
 10
13.6606271844
 20
13.820297873
  0
LINE
  5
31F
100
AcDbEntity
  8
0
100
AcDbLine
 62
7
  6
CONTINUOUS
 10
13.9979841088
 20
11.5371616199
 11
14.0554795771
 21
11.7232170236
  0
LINE
  5
320
100
AcDbEntity
  8
0
100
AcDbLine
 62
7
  6
CONTINUOUS
 10
14.525336885
 20
12.606540972
 11
14.6705766791
 21
13.0765371178
  0
LINE
  5
321
100
AcDbEntity
  8
0
100
AcDbLine
 62
7
  6
CONTINUOUS
 10
15.0219518135
 20
14.4148105196
 11
15.0212472089
 21
14.4130043575
  0
LINE
  5
322
100
AcDbEntity
  8
0
100
AcDbLine
 62
7
  6
CONTINUOUS
 10
16.3851315617
 20
14.0958364591
 11
16.3017369301
 21
14.0613379356
  0
LINE
  5
323
100
AcDbEntity
  8
0
100
AcDbLine
 62
7
  6
CONTINUOUS
 10
18.0120583823
 20
11.6112459267
 11
18.0122726543
 21
11.6112607067
  0
LINE
  5
324
100
AcDbEntity
  8
0
100
AcDbLine
 62
7
  6
CONTINUOUS
 10
17.8232137545
 20
11.6044486638
 11
18.0120584138
 21
11.6112459278
  0
LINE
  5
325
100
AcDbEntity
  8
0
100
AcDbLine
 62
7
  6
CONTINUOUS
 10
17.041403497
 20
11.5230665674
 11
16.9170602628
 21
11.5230665674
  0
LINE
  5
326
100
AcDbEntity
  8
0
100
AcDbLine
 62
7
  6
CONTINUOUS
 10
16.5117934254
 20
11.5230665674
 11
16.2781372712
 21
11.5230665674
  0
LINE
  5
327
100
AcDbEntity
  8
0
100
AcDbLine
 62
7
  6
CONTINUOUS
 10
14.6177986835
 20
11.5230665674
 11
14.3841425293
 21
11.5230665674
  0
LINE
  5
328
100
AcDbEntity
  8
0
100
AcDbLine
 62
7
  6
CONTINUOUS
 10
13.9788756919
 20
11.5230665674
 11
13.8545324577
 21
11.5230665674
  0
LINE
  5
329
100
AcDbEntity
  8
0
100
AcDbLine
 62
7
  6
CONTINUOUS
 10
13.4238251802
 20
11.6112454994
 11
13.619353694
 21
11.6044477963
  0
LINE
  5
32A
100
AcDbEntity
  8
0
100
AcDbLine
 62
7
  6
CONTINUOUS
 10
13.4238252629
 20
11.6112454966
 11
13.4236368487
 21
11.6112584443
  0
LINE
  5
32B
100
AcDbEntity
  8
0
100
AcDbLine
 62
7
  6
CONTINUOUS
 10
13.3687855081
 20
11.6169074461
 11
13.4236367614
 21
11.6112584473
  0
LWPOLYLINE
  5
32C
100
AcDbEntity
  8
0
100
AcDbPolyline
 62
7
  6
CONTINUOUS
 90
3
 70
0
 10
13.2403237244
 20
11.6302010764
 10
13.2998693178
 20
11.6240284967
 10
13.3687855081
 20
11.6169074461
  0
LWPOLYLINE
  5
32D
100
AcDbEntity
  8
0
100
AcDbPolyline
 62
7
  6
CONTINUOUS
 90
4
 70
0
 10
17.555160692
 20
10.9250259875
 10
17.6147482993
 20
10.9116053919
 10
17.6883614244
 20
10.895050506
 10
17.7508460618
 20
10.8810182969
  0
LINE
  5
32E
100
AcDbEntity
  8
0
100
AcDbLine
 62
7
  6
CONTINUOUS
 10
17.3547224151
 20
10.9839992945
 11
17.55516068
 21
10.9250259906
  0
LINE
  5
32F
100
AcDbEntity
  8
0
100
AcDbLine
 62
7
  6
CONTINUOUS
 10
12.8221200052
 20
12.4732039868
 11
13.0182626431
 21
12.4024556661
  0
LINE
  5
330
100
AcDbEntity
  8
0
100
AcDbLine
 62
7
  6
CONTINUOUS
 10
12.8221177816
 20
12.4732048734
 11
12.8221200753
 21
12.4732039615
  0
LWPOLYLINE
  5
331
100
AcDbEntity
  8
0
100
AcDbPolyline
 62
7
  6
CONTINUOUS
 90
4
 70
0
 10
12.6382313795
 20
12.553354937
 10
12.6979482698
 20
12.5273049191
 10
12.7670791454
 20
12.4971734593
 10
12.8221177082
 20
12.4732048999
  0
LINE
  5
332
100
AcDbEntity
  8
0
100
AcDbLine
 62
7
  6
CONTINUOUS
 10
13.9274332839
 20
12.1687301203
 11
13.8493028902
 21
12.2139555205
  0
LINE
  5
333
100
AcDbEntity
  8
0
100
AcDbLine
 62
7
  6
CONTINUOUS
 10
14.0372428545
 20
12.2739242651
 11
14.0138402934
 21
12.2874707243
  0
LWPOLYLINE
  5
334
100
AcDbEntity
  8
0
100
AcDbPolyline
 62
7
  6
CONTINUOUS
 90
4
 70
0
 10
16.520012093
 20
10.5984535497
 10
16.5673170478
 20
10.5704667728
 10
16.6257582717
 20
10.5359187117
 10
16.6753494673
 20
10.506624518
  0
LINE
  5
335
100
AcDbEntity
  8
0
100
AcDbLine
 62
7
  6
CONTINUOUS
 10
16.5200120208
 20
10.5984535995
 11
16.5198132623
 21
10.5985806028
  0
LINE
  5
336
100
AcDbEntity
  8
0
100
AcDbLine
 62
7
  6
CONTINUOUS
 10
16.3615434325
 20
10.7075084627
 11
16.5198133136
 21
10.5985805675
  0
LINE
  5
337
100
AcDbEntity
  8
0
100
AcDbLine
 62
7
  6
CONTINUOUS
 10
12.9096659799
 20
13.2802958901
 11
13.0538153371
 21
13.1645792843
  0
LINE
  5
338
100
AcDbEntity
  8
0
100
AcDbLine
 62
7
  6
CONTINUOUS
 10
12.9094690105
 20
13.2804649947
 11
12.9096659588
 21
13.280295907
  0
LINE
  5
339
100
AcDbEntity
  8
0
100
AcDbLine
 62
7
  6
CONTINUOUS
 10
15.1072467631
 20
10.85175756
 11
15.180916762
 21
10.7221442882
  0
LINE
  5
33A
100
AcDbEntity
  8
0
100
AcDbLine
 62
7
  6
CONTINUOUS
 10
16.7643019137
 20
11.7592783553
 11
16.4327199559
 21
11.7592783553
  0
LINE
  5
33B
100
AcDbEntity
  8
0
100
AcDbLine
 62
7
  6
CONTINUOUS
 10
14.2313841802
 20
11.7592783553
 11
13.8998022224
 21
11.7592783553
  0
LINE
  5
33C
100
AcDbEntity
  8
0
100
AcDbLine
 62
7
  6
CONTINUOUS
 10
13.9833361067
 20
12.3496317212
 11
14.0489088017
 21
12.3116752841
  0
LINE
  5
33D
100
AcDbEntity
  8
0
100
AcDbLine
 62
7
  6
CONTINUOUS
 10
14.5777461212
 20
12.4873775401
 11
14.5264906689
 21
12.5918251704
  0
LINE
  5
33E
100
AcDbEntity
  8
0
100
AcDbLine
 62
7
  6
CONTINUOUS
 10
14.9483741483
 20
12.3016470593
 11
14.9226772225
 21
12.2184917771
  0
LINE
  5
33F
100
AcDbEntity
  8
0
100
AcDbLine
 62
7
  6
CONTINUOUS
 10
14.2598407905
 20
11.7473583598
 11
14.2603949692
 21
11.7481896231
  0
LINE
  5
340
100
AcDbEntity
  8
0
100
AcDbLine
 62
7
  6
CONTINUOUS
 10
14.2598615615
 20
11.7472656423
 11
14.26041764
 21
11.7480888492
  0
LINE
  5
341
100
AcDbEntity
  8
0
100
AcDbLine
 62
7
  6
CONTINUOUS
 10
17.2085393584
 20
12.007829857
 11
17.2127880394
 21
12.0081983192
  0
LINE
  5
342
100
AcDbEntity
  8
0
100
AcDbLine
 62
7
  6
CONTINUOUS
 10
17.2127880696
 20
12.0081983144
 11
17.2127857308
 21
12.0081983144
  0
LINE
  5
343
100
AcDbEntity
  8
0
100
AcDbLine
 62
7
  6
CONTINUOUS
 10
14.8818705369
 20
12.3016470593
 11
14.9226772225
 21
12.2184917771
  0
LINE
  5
344
100
AcDbEntity
  8
0
100
AcDbLine
 62
7
  6
CONTINUOUS
 10
13.8772543016
 20
12.3044063209
 11
13.9833361067
 21
12.3496317212
  0
LINE
  5
345
100
AcDbEntity
  8
0
100
AcDbLine
 62
7
  6
CONTINUOUS
 10
14.0138402934
 20
12.2874707243
 11
13.9077584883
 21
12.2422453241
  0
LINE
  5
346
100
AcDbEntity
  8
0
100
AcDbLine
 62
7
  6
CONTINUOUS
 10
14.033515089
 20
12.2139555205
 11
13.9274332839
 21
12.1687301203
  0
LINE
  5
347
100
AcDbEntity
  8
0
100
AcDbLine
 62
7
  6
CONTINUOUS
 10
13.2423903485
 20
12.241188654
 11
13.4968275689
 21
12.241188654
  0
LINE
  5
348
100
AcDbEntity
  8
0
100
AcDbLine
 62
7
  6
CONTINUOUS
 10
17.0617931921
 20
12.241188654
 11
17.62057968
 21
12.241188654
  0
LINE
  5
349
100
AcDbEntity
  8
0
100
AcDbLine
 62
7
  6
CONTINUOUS
 10
15.2444922503
 20
12.3016470593
 11
14.8818705369
 21
12.3016470593
  0
LINE
  5
34A
100
AcDbEntity
  8
0
100
AcDbLine
 62
7
  6
CONTINUOUS
 10
15.2852989358
 20
12.2184917771
 11
15.2444922503
 21
12.3016470593
  0
LINE
  5
34B
100
AcDbEntity
  8
02___PRT_ALL_AXES
100
AcDbLine
 62
7
  6
CONTINUOUS
 10
14.5524629308
 20
13.7666825985
 11
14.5304762057
 21
13.8114868336
  0
LINE
  5
34C
100
AcDbEntity
  8
0
100
AcDbLine
 62
7
  6
CONTINUOUS
 10
13.1661298818
 20
12.3965911461
 11
13.5455397162
 21
12.3965911461
  0
LINE
  5
34D
100
AcDbEntity
  8
0
100
AcDbLine
 62
7
  6
CONTINUOUS
 10
16.9855327254
 20
12.3965911461
 11
17.5406507488
 21
12.3965911461
  0
LINE
  5
34E
100
AcDbEntity
  8
02___PRT_ALL_AXES
100
AcDbLine
 62
7
  6
CONTINUOUS
 10
14.7624971529
 20
13.7666825985
 11
14.7405104278
 21
13.8114868336
  0
LINE
  5
34F
100
AcDbEntity
  8
0
100
AcDbLine
 62
7
  6
CONTINUOUS
 10
16.4603510174
 20
12.1687301203
 11
16.3822206237
 21
12.2139555205
  0
LINE
  5
350
100
AcDbEntity
  8
0
100
AcDbLine
 62
7
  6
CONTINUOUS
 10
16.570160588
 20
12.2739242651
 11
16.5467580269
 21
12.2874707243
  0
LINE
  5
351
100
AcDbEntity
  8
0
100
AcDbLine
 62
7
  6
CONTINUOUS
 10
16.5162538402
 20
12.3496317212
 11
16.5818265352
 21
12.3116752841
  0
LINE
  5
352
100
AcDbEntity
  8
0
100
AcDbLine
 62
7
  6
CONTINUOUS
 10
16.4101720351
 20
12.3044063209
 11
16.5162538402
 21
12.3496317212
  0
LINE
  5
353
100
AcDbEntity
  8
0
100
AcDbLine
 62
7
  6
CONTINUOUS
 10
16.5467580269
 20
12.2874707243
 11
16.4406762218
 21
12.2422453241
  0
LINE
  5
354
100
AcDbEntity
  8
0
100
AcDbLine
 62
7
  6
CONTINUOUS
 10
16.5664328225
 20
12.2139555205
 11
16.4603510174
 21
12.1687301203
  0
LINE
  5
355
100
AcDbEntity
  8
0
100
AcDbLine
 62
7
  6
CONTINUOUS
 10
16.4821456229
 20
11.7592783553
 11
16.4902924954
 21
11.7426767747
  0
LINE
  5
356
100
AcDbEntity
  8
0
100
AcDbLine
 62
7
  6
CONTINUOUS
 10
16.3814443277
 20
12.091047165
 11
16.3395010711
 21
12.1765185356
  0
LINE
  5
357
100
AcDbEntity
  8
0
100
AcDbLine
 62
7
  6
CONTINUOUS
 10
16.3822206237
 20
12.2139555205
 11
16.4101720351
 21
12.3044063209
  0
LINE
  5
358
100
AcDbEntity
  8
0
100
AcDbLine
 62
7
  6
CONTINUOUS
 10
13.5875025219
 20
14.0376106914
 11
13.5169333952
 21
14.0583736657
  0
LINE
  5
359
100
AcDbEntity
  8
0
100
AcDbLine
 62
7
  6
CONTINUOUS
 10
18.0259349811
 20
12.5823729424
 11
17.9239622939
 21
12.6191543197
  0
LINE
  5
35A
100
AcDbEntity
  8
0
100
AcDbLine
 62
7
  6
CONTINUOUS
 10
16.4101720351
 20
12.3044063209
 11
16.4406762218
 21
12.2422453241
  0
LINE
  5
35B
100
AcDbEntity
  8
0
100
AcDbLine
 62
7
  6
CONTINUOUS
 10
16.7896373664
 20
11.7426766771
 11
16.7838443852
 21
11.7544815315
  0
LINE
  5
35C
100
AcDbEntity
  8
0
100
AcDbLine
 62
7
  6
CONTINUOUS
 10
16.7953913951
 20
11.7456031024
 11
16.8991056297
 21
11.5342557132
  0
LINE
  5
35D
100
AcDbEntity
  8
0
100
AcDbLine
 62
7
  6
CONTINUOUS
 10
16.6642233924
 20
12.0128953888
 11
16.5605091578
 21
12.224242778
  0
LINE
  5
35E
100
AcDbEntity
  8
0
100
AcDbLine
 62
7
  6
CONTINUOUS
 10
16.5162538402
 20
12.3496317212
 11
16.5467580269
 21
12.2874707243
  0
LINE
  5
35F
100
AcDbEntity
  8
0
100
AcDbLine
 62
7
  6
CONTINUOUS
 10
17.0418078565
 20
13.7520788104
 11
17.0302809395
 21
13.7084580097
  0
LINE
  5
360
100
AcDbEntity
  8
0
100
AcDbLine
 62
7
  6
CONTINUOUS
 10
16.4243907576
 20
12.1895455427
 11
16.4406762218
 21
12.2422453241
  0
LINE
  5
361
100
AcDbEntity
  8
0
100
AcDbLine
 62
7
  6
CONTINUOUS
 10
16.5593553739
 20
12.2389585796
 11
16.6198719548
 21
12.434790307
  0
LINE
  5
362
100
AcDbEntity
  8
0
100
AcDbLine
 62
7
  6
CONTINUOUS
 10
17.6451864212
 20
12.4038069472
 11
17.7717718585
 21
12.474487854
  0
LINE
  5
363
100
AcDbEntity
  8
0
100
AcDbLine
 62
7
  6
CONTINUOUS
 10
14.5570933753
 20
10.9257735267
 11
14.6995506736
 21
10.9847049753
  0
LINE
  5
364
100
AcDbEntity
  8
0
100
AcDbLine
 62
7
  6
CONTINUOUS
 10
14.557093436
 20
10.9257735518
 11
14.5564451485
 21
10.9255320371
  0
LINE
  5
365
100
AcDbEntity
  8
0
100
AcDbLine
 62
7
  6
CONTINUOUS
 10
17.2056534983
 20
12.0068399592
 11
17.2085393584
 21
12.007829857
  0
LINE
  5
366
100
AcDbEntity
  8
0
100
AcDbLine
 62
7
  6
CONTINUOUS
 10
12.7843058704
 20
13.3954167338
 11
12.745376491
 21
13.391410457
  0
LINE
  5
367
100
AcDbEntity
  8
0
100
AcDbLine
 62
7
  6
CONTINUOUS
 10
17.5183997568
 20
13.4103644864
 11
17.4628461051
 21
13.4122958529
  0
LINE
  5
368
100
AcDbEntity
  8
0
100
AcDbLine
 62
7
  6
CONTINUOUS
 10
17.5185880884
 20
13.4103515415
 11
17.5183996742
 21
13.4103644892
  0
LWPOLYLINE
  5
369
100
AcDbEntity
  8
0
100
AcDbPolyline
 62
7
  6
CONTINUOUS
 90
4
 70
0
 10
17.7019012131
 20
13.3914089093
 10
17.6433723402
 20
13.3974762445
 10
17.5744100834
 20
13.4046024213
 10
17.5185881757
 20
13.4103515385
  0
LWPOLYLINE
  5
36A
100
AcDbEntity
  8
0
100
AcDbPolyline
 62
7
  6
CONTINUOUS
 90
3
 70
0
 10
13.3263215407
 20
14.1102641856
 10
13.2549451439
 20
14.1263164196
 10
13.1913788752
 20
14.140591689
  0
LWPOLYLINE
  5
36B
100
AcDbEntity
  8
0
100
AcDbPolyline
 62
7
  6
CONTINUOUS
 90
3
 70
0
 10
18.3039935574
 20
12.4682550488
 10
18.2453019239
 20
12.4938579897
 10
18.1940987558
 20
12.5161757586
  0
LINE
  5
36C
100
AcDbEntity
  8
0
100
AcDbLine
 62
7
  6
CONTINUOUS
 10
14.3173843519
 20
14.4851489976
 11
14.2668754696
 21
14.5149854678
  0
LWPOLYLINE
  5
36D
100
AcDbEntity
  8
0
100
AcDbPolyline
 62
7
  6
CONTINUOUS
 90
3
 70
0
 10
14.4222128437
 20
14.4231564362
 10
14.3757734534
 20
14.4506313053
 10
14.3173843519
 20
14.4851489976
  0
LINE
  5
36E
100
AcDbEntity
  8
0
100
AcDbLine
 62
7
  6
CONTINUOUS
 10
14.4224116747
 20
14.423029383
 11
14.4222129159
 21
14.4231563864
  0
LINE
  5
36F
100
AcDbEntity
  8
0
100
AcDbLine
 62
7
  6
CONTINUOUS
 10
14.47510164
 20
14.386765964
 11
14.4224116234
 21
14.4230294183
  0
LINE
  5
370
100
AcDbEntity
  8
0
100
AcDbLine
 62
7
  6
CONTINUOUS
 10
18.1668706552
 20
11.6179666537
 11
18.1579191962
 21
11.6261931719
  0
LINE
  5
371
100
AcDbEntity
  8
0
100
AcDbLine
 62
7
  6
CONTINUOUS
 10
15.7613081537
 20
14.299465735
 11
15.7609241359
 21
14.3000893558
  0
LINE
  5
372
100
AcDbEntity
  8
0
100
AcDbLine
 62
7
  6
CONTINUOUS
 10
15.8046560953
 20
14.2232003812
 11
15.7613081748
 21
14.2994656979
  0
LINE
  5
373
100
AcDbEntity
  8
0
100
AcDbLine
 62
7
  6
CONTINUOUS
 10
16.5309018423
 20
11.5371616199
 11
16.5884128518
 21
11.723267315
  0
LINE
  5
374
100
AcDbEntity
  8
0
100
AcDbLine
 62
7
  6
CONTINUOUS
 10
15.9202732378
 20
10.6067997086
 11
15.9707330906
 21
10.7138147849
  0
LINE
  5
375
100
AcDbEntity
  8
0
100
AcDbLine
 62
7
  6
CONTINUOUS
 10
15.9202731229
 20
10.6067994651
 11
15.9201646515
 21
10.6065746012
  0
LINE
  5
376
100
AcDbEntity
  8
0
100
AcDbLine
 62
7
  6
CONTINUOUS
 10
15.8749662716
 20
10.5149922812
 11
15.9201647569
 21
10.6065748255
  0
LWPOLYLINE
  5
377
100
AcDbEntity
  8
0
100
AcDbPolyline
 62
7
  6
CONTINUOUS
 90
3
 70
0
 10
17.7722726299
 20
12.4747875495
 10
17.8102432746
 20
12.4990971929
 10
17.8972486156
 20
12.5548489617
  0
LINE
  5
378
100
AcDbEntity
  8
0
100
AcDbLine
 62
7
  6
CONTINUOUS
 10
17.7717719162
 20
12.4744878862
 11
17.7722726362
 21
12.474787553
  0
LINE
  5
379
100
AcDbEntity
  8
0
100
AcDbLine
 62
7
  6
CONTINUOUS
 10
14.5168328197
 20
10.9123689989
 11
14.5564450863
 21
10.9255320112
  0
LWPOLYLINE
  5
37A
100
AcDbEntity
  8
0
100
AcDbPolyline
 62
7
  6
CONTINUOUS
 90
3
 70
0
 10
14.4239139058
 20
10.88154771
 10
14.4669817441
 20
10.8958241212
 10
14.5168328197
 20
10.9123689989
  0
LINE
  5
37B
100
AcDbEntity
  8
0
100
AcDbLine
 62
7
  6
CONTINUOUS
 10
14.552857117
 20
13.761983396
 11
14.5569567178
 21
13.7623272854
  0
LINE
  5
37C
100
AcDbEntity
  8
0
100
AcDbLine
 62
7
  6
CONTINUOUS
 10
14.5527406068
 20
13.7621867366
 11
14.5569567182
 21
13.7623272848
  0
LINE
  5
37D
100
AcDbEntity
  8
0
100
AcDbLine
 62
7
  6
CONTINUOUS
 10
16.9565931155
 20
13.0101719715
 11
16.9614769956
 21
13.0065132318
  0
LINE
  5
37E
100
AcDbEntity
  8
0
100
AcDbLine
 62
7
  6
CONTINUOUS
 10
16.9565931155
 20
13.0101719715
 11
16.9611646946
 21
13.0063682639
  0
LINE
  5
37F
100
AcDbEntity
  8
0
100
AcDbLine
 62
7
  6
CONTINUOUS
 10
15.7107362592
 20
14.3754680758
 11
15.6865596197
 21
14.4117388835
  0
LWPOLYLINE
  5
380
100
AcDbEntity
  8
0
100
AcDbPolyline
 62
7
  6
CONTINUOUS
 90
3
 70
0
 10
15.7609241003
 20
14.3000894187
 10
15.7387127184
 20
14.3334641446
 10
15.7107362592
 20
14.3754680758
  0
LINE
  5
381
100
AcDbEntity
  8
0
100
AcDbLine
 62
7
  6
CONTINUOUS
 10
17.0617931921
 20
12.241188654
 11
16.9855327254
 21
12.3965911461
  0
LINE
  5
382
100
AcDbEntity
  8
0
100
AcDbLine
 62
7
  6
CONTINUOUS
 10
16.9855327254
 20
12.3965911461
 11
16.9976360416
 21
12.4357574916
  0
LINE
  5
383
100
AcDbEntity
  8
0
100
AcDbLine
 62
7
  6
CONTINUOUS
 10
16.792770862
 20
11.7473574536
 11
16.7933224952
 21
11.7481814465
  0
LINE
  5
384
100
AcDbEntity
  8
0
100
AcDbLine
 62
7
  6
CONTINUOUS
 10
16.7927883817
 20
11.7472792541
 11
16.7933413064
 21
11.7480978321
  0
LINE
  5
385
100
AcDbEntity
  8
0
100
AcDbLine
 62
7
  6
CONTINUOUS
 10
17.0605119139
 20
11.5371616199
 11
17.2057517079
 21
12.0071577657
  0
LINE
  5
386
100
AcDbEntity
  8
RING
100
AcDbLine
 62
7
  6
CONTINUOUS
 10
13.8585176452
 20
14.1594373521
 11
13.8575875034
 21
14.1592216889
  0
LINE
  5
387
100
AcDbEntity
  8
RING
100
AcDbLine
 62
7
  6
CONTINUOUS
 10
13.8543055772
 20
14.1640167728
 11
13.8533618537
 21
14.1638126163
  0
LINE
  5
388
100
AcDbEntity
  8
0
100
AcDbLine
 62
7
  6
CONTINUOUS
 10
15.6725570687
 20
14.4205197391
 11
15.6744027225
 21
14.4201345384
  0
LINE
  5
389
100
AcDbEntity
  8
0
100
AcDbLine
 62
7
  6
CONTINUOUS
 10
15.6725600767
 20
14.4205579999
 11
15.6744027225
 21
14.4201345384
  0
LINE
  5
38A
100
AcDbEntity
  8
0
100
AcDbLine
 62
7
  6
CONTINUOUS
 10
16.5325131202
 20
14.1394455207
 11
16.5349454364
 21
14.1383970259
  0
LINE
  5
38B
100
AcDbEntity
  8
0
100
AcDbLine
 62
7
  6
CONTINUOUS
 10
16.5325131202
 20
14.1394455207
 11
16.5349137565
 21
14.138352289
  0
LINE
  5
38C
100
AcDbEntity
  8
0
100
AcDbLine
 62
7
  6
CONTINUOUS
 10
17.302819257
 20
10.9670869537
 11
17.19403518
 21
10.6150615517
  0
LINE
  5
38D
100
AcDbEntity
  8
0
100
AcDbLine
 62
7
  6
CONTINUOUS
 10
18.0407202334
 20
13.0031522112
 11
17.9982261078
 21
12.8656411703
  0
LINE
  5
38E
100
AcDbEntity
  8
0
100
AcDbLine
 62
7
  6
CONTINUOUS
 10
17.949301163
 20
12.7073199908
 11
17.9055621901
 21
12.5657806226
  0
LINE
  5
38F
100
AcDbEntity
  8
0
100
AcDbLine
 62
7
  6
CONTINUOUS
 10
17.7135606629
 20
13.3860635712
 11
17.7194887029
 21
13.3804560036
  0
LINE
  5
390
100
AcDbEntity
  8
0
100
AcDbLine
 62
7
  6
CONTINUOUS
 10
17.7135606629
 20
13.3860635712
 11
17.7192477828
 21
13.3803833973
  0
LINE
  5
391
100
AcDbEntity
  8
0
100
AcDbLine
 62
7
  6
CONTINUOUS
 10
17.8201113786
 20
11.6040484761
 11
17.7997200638
 21
11.5380621574
  0
LINE
  5
392
100
AcDbEntity
  8
0
100
AcDbLine
 62
7
  6
CONTINUOUS
 10
17.7413182091
 20
11.3964311307
 11
17.7407816796
 21
11.395327038
  0
LINE
  5
393
100
AcDbEntity
  8
0
100
AcDbLine
 62
7
  6
CONTINUOUS
 10
17.7413521594
 20
11.3964181337
 11
17.7407816796
 21
11.395327038
  0
LINE
  5
394
100
AcDbEntity
  8
0
100
AcDbLine
 62
7
  6
CONTINUOUS
 10
18.3153673386
 20
12.4548929087
 11
18.3170476279
 21
12.4482687242
  0
LINE
  5
395
100
AcDbEntity
  8
0
100
AcDbLine
 62
7
  6
CONTINUOUS
 10
18.3153673386
 20
12.4548929087
 11
18.316704754
 21
12.4482999443
  0
LINE
  5
396
100
AcDbEntity
  8
0
100
AcDbLine
 62
7
  6
CONTINUOUS
 10
18.1724438427
 20
11.5973376591
 11
18.1383295642
 21
11.4869438135
  0
LINE
  5
397
100
AcDbEntity
  8
0
100
AcDbLine
 62
7
  6
CONTINUOUS
 10
18.0880150456
 20
11.3241259714
 11
18.0372857993
 21
11.1599660705
  0
LINE
  5
398
100
AcDbEntity
  8
0
100
AcDbLine
 62
7
  6
CONTINUOUS
 10
18.3490647934
 20
12.0815608185
 11
18.21390675
 21
11.6441892298
  0
LINE
  5
399
100
AcDbEntity
  8
RING
100
AcDbLine
 62
7
  6
CONTINUOUS
 10
18.2660395492
 20
11.7329203066
 11
18.2364653309
 21
11.6372181011
  0
ARC
  5
39A
100
AcDbEntity
  8
0
100
AcDbCircle
 62
7
  6
CONTINUOUS
 10
4.0083711197
 20
0.884669094
 40
6.5636035116
100
AcDbArc
 50
46.5437220016
 51
46.7463379383
  0
ARC
  5
39B
100
AcDbEntity
  8
0
100
AcDbCircle
 62
7
  6
CONTINUOUS
 10
4.4003672762
 20
4.9651198968
 40
0.02
100
AcDbArc
 50
180.0
 51
270.0
  0
ARC
  5
39C
100
AcDbEntity
  8
0
100
AcDbCircle
 62
7
  6
CONTINUOUS
 10
4.5353672762
 20
4.9651198968
 40
0.02
100
AcDbArc
 50
270.0
 51
360.0
  0
ARC
  5
39D
100
AcDbEntity
  8
0
100
AcDbCircle
 62
7
  6
CONTINUOUS
 10
4.3185427589
 20
3.2814390533
 40
0.02
100
AcDbArc
 50
231.0158239287
 51
297.0
  0
ARC
  5
39E
100
AcDbEntity
  8
0
100
AcDbCircle
 62
7
  6
CONTINUOUS
 10
3.8469668567
 20
4.4259962637
 40
0.02
100
AcDbArc
 50
25.6020705256
 51
87.0
  0
ARC
  5
39F
100
AcDbEntity
  8
0
100
AcDbCircle
 62
7
  6
CONTINUOUS
 10
3.4419407953
 20
4.487277674
 40
0.02
100
AcDbArc
 50
201.0158239287
 51
267.0
  0
ARC
  5
3A0
100
AcDbEntity
  8
0
100
AcDbCircle
 62
7
  6
CONTINUOUS
 10
3.2857005362
 20
5.0703742594
 40
0.02
100
AcDbArc
 50
123.0
 51
188.9841760714
  0
ARC
  5
3A1
100
AcDbEntity
  8
0
100
AcDbCircle
 62
7
  6
CONTINUOUS
 10
3.6058226894
 20
5.3259585481
 40
0.02
100
AcDbArc
 50
303.0
 51
4.3979294744
  0
ARC
  5
3A2
100
AcDbEntity
  8
0
100
AcDbCircle
 62
7
  6
CONTINUOUS
 10
4.5753672762
 20
5.3051198968
 40
0.02
100
AcDbArc
 50
90.0
 51
180.0
  0
ARC
  5
3A3
100
AcDbEntity
  8
0
100
AcDbCircle
 62
7
  6
CONTINUOUS
 10
4.0411282053
 20
4.089698943
 40
0.02
100
AcDbArc
 50
333.0
 51
34.3979294744
  0
ARC
  5
3A4
100
AcDbEntity
  8
0
100
AcDbCircle
 62
7
  6
CONTINUOUS
 10
3.8916864327
 20
3.7082953795
 40
0.02
100
AcDbArc
 50
153.0
 51
218.9841760713
  0
ARC
  5
3A5
100
AcDbEntity
  8
0
100
AcDbCircle
 62
7
  6
CONTINUOUS
 10
5.9362059275
 20
2.99557531
 40
0.02
100
AcDbArc
 50
85.6020705256
 51
147.0
  0
ARC
  5
3A6
100
AcDbEntity
  8
0
100
AcDbCircle
 62
7
  6
CONTINUOUS
 10
5.6806216388
 20
2.6754531568
 40
0.02
100
AcDbArc
 50
261.0158239286
 51
327.0
  0
ARC
  5
3A7
100
AcDbEntity
  8
0
100
AcDbCircle
 62
7
  6
CONTINUOUS
 10
5.0975250534
 20
2.8316934159
 40
0.02
100
AcDbArc
 50
183.0
 51
248.9841760713
  0
ARC
  5
3A8
100
AcDbEntity
  8
0
100
AcDbCircle
 62
7
  6
CONTINUOUS
 10
4.9753672762
 20
4.9651198968
 40
0.02
100
AcDbArc
 50
180.0
 51
270.0
  0
ARC
  5
3A9
100
AcDbEntity
  8
0
100
AcDbCircle
 62
7
  6
CONTINUOUS
 10
5.2290487975
 20
4.9251198968
 40
0.02
100
AcDbArc
 50
33.4305585701
 51
90.0
  0
ARC
  5
3AA
100
AcDbEntity
  8
0
100
AcDbCircle
 62
7
  6
CONTINUOUS
 10
4.6999463224
 20
3.4308808259
 40
0.02
100
AcDbArc
 50
55.6020705256
 51
117.0
  0
ARC
  5
3AB
100
AcDbEntity
  8
0
100
AcDbCircle
 62
7
  6
CONTINUOUS
 10
4.9353672762
 20
5.3051198968
 40
0.02
100
AcDbArc
 50
0.0
 51
90.0
  0
ARC
  5
3AC
100
AcDbEntity
  8
0
100
AcDbCircle
 62
7
  6
CONTINUOUS
 10
5.0362436431
 20
3.2367194773
 40
0.02
100
AcDbArc
 50
3.0
 51
64.3979294744
  0
ARC
  5
3AD
100
AcDbEntity
  8
0
100
AcDbCircle
 62
7
  6
CONTINUOUS
 10
4.5353672762
 20
6.0751198968
 40
0.02
100
AcDbArc
 50
0.0
 51
90.0
  0
ARC
  5
3AE
100
AcDbEntity
  8
0
100
AcDbCircle
 62
7
  6
CONTINUOUS
 10
3.6058226894
 20
5.7142812454
 40
0.02
100
AcDbArc
 50
355.6020705256
 51
57.0
  0
ARC
  5
3AF
100
AcDbEntity
  8
0
100
AcDbCircle
 62
7
  6
CONTINUOUS
 10
3.8916864327
 20
7.331944414
 40
0.02
100
AcDbArc
 50
141.0158239287
 51
207.0
  0
ARC
  5
3B0
100
AcDbEntity
  8
0
100
AcDbCircle
 62
7
  6
CONTINUOUS
 10
3.2857005362
 20
5.9698655342
 40
0.02
100
AcDbArc
 50
171.0158239287
 51
237.0
  0
ARC
  5
3B1
100
AcDbEntity
  8
0
100
AcDbCircle
 62
7
  6
CONTINUOUS
 10
4.0411282053
 20
6.9505408505
 40
0.02
100
AcDbArc
 50
325.6020705256
 51
27.0
  0
ARC
  5
3B2
100
AcDbEntity
  8
0
100
AcDbCircle
 62
7
  6
CONTINUOUS
 10
4.4003672762
 20
6.0751198968
 40
0.02
100
AcDbArc
 50
90.0
 51
180.0
  0
ARC
  5
3B3
100
AcDbEntity
  8
0
100
AcDbCircle
 62
7
  6
CONTINUOUS
 10
3.8469668567
 20
6.6142435298
 40
0.02
100
AcDbArc
 50
273.0
 51
334.3979294744
  0
ARC
  5
3B4
100
AcDbEntity
  8
0
100
AcDbCircle
 62
7
  6
CONTINUOUS
 10
4.5753672762
 20
5.7351198968
 40
0.02
100
AcDbArc
 50
180.0
 51
270.0
  0
ARC
  5
3B5
100
AcDbEntity
  8
0
100
AcDbCircle
 62
7
  6
CONTINUOUS
 10
3.4419407953
 20
6.5529621195
 40
0.02
100
AcDbArc
 50
93.0
 51
158.9841760713
  0
ARC
  5
3B6
100
AcDbEntity
  8
0
100
AcDbCircle
 62
7
  6
CONTINUOUS
 10
4.3185427589
 20
7.7588007402
 40
0.02
100
AcDbArc
 50
63.0
 51
128.9841760713
  0
ARC
  5
3B7
100
AcDbEntity
  8
0
100
AcDbCircle
 62
7
  6
CONTINUOUS
 10
4.0047808502
 20
10.1593802067
 40
6.5688382379
100
AcDbArc
 50
313.2537013475
 51
313.4927009936
  0
ARC
  5
3B8
100
AcDbEntity
  8
0
100
AcDbCircle
 62
7
  6
CONTINUOUS
 10
4.9753672762
 20
6.0751198968
 40
0.02
100
AcDbArc
 50
90.0
 51
180.0
  0
ARC
  5
3B9
100
AcDbEntity
  8
0
100
AcDbCircle
 62
7
  6
CONTINUOUS
 10
5.2290487975
 20
6.1151198968
 40
0.02
100
AcDbArc
 50
270.0
 51
326.5694414299
  0
ARC
  5
3BA
100
AcDbEntity
  8
0
100
AcDbCircle
 62
7
  6
CONTINUOUS
 10
5.6728672762
 20
6.4984315802
 40
0.02
100
AcDbArc
 50
295.0627828955
 51
360.0
  0
ARC
  5
3BB
100
AcDbEntity
  8
0
100
AcDbCircle
 62
7
  6
CONTINUOUS
 10
5.0362436431
 20
7.8035203162
 40
0.02
100
AcDbArc
 50
295.6020705256
 51
357.0
  0
ARC
  5
3BC
100
AcDbEntity
  8
0
100
AcDbCircle
 62
7
  6
CONTINUOUS
 10
5.7128672762
 20
6.666459179
 40
0.02
100
AcDbArc
 50
110.0117664665
 51
180.0
  0
ARC
  5
3BD
100
AcDbEntity
  8
0
100
AcDbCircle
 62
7
  6
CONTINUOUS
 10
4.9353672762
 20
5.7351198968
 40
0.02
100
AcDbArc
 50
270.0
 51
360.0
  0
ARC
  5
3BE
100
AcDbEntity
  8
0
100
AcDbCircle
 62
7
  6
CONTINUOUS
 10
4.6999463224
 20
7.6093589676
 40
0.02
100
AcDbArc
 50
243.0
 51
304.3979294744
  0
ARC
  5
3BF
100
AcDbEntity
  8
0
100
AcDbCircle
 62
7
  6
CONTINUOUS
 10
5.0975250534
 20
8.2085463776
 40
0.02
100
AcDbArc
 50
111.0158239287
 51
177.0
  0
ARC
  5
3C0
100
AcDbEntity
  8
0
100
AcDbCircle
 62
7
  6
CONTINUOUS
 10
5.9362059275
 20
8.0446644835
 40
0.02
100
AcDbArc
 50
213.0
 51
274.3979294744
  0
ARC
  5
3C1
100
AcDbEntity
  8
0
100
AcDbCircle
 62
7
  6
CONTINUOUS
 10
5.6806216388
 20
8.3647866367
 40
0.02
100
AcDbArc
 50
33.0
 51
98.9841760714
  0
ARC
  5
3C2
100
AcDbEntity
  8
0
100
AcDbCircle
 62
7
  6
CONTINUOUS
 10
7.1632094989
 20
2.8316934159
 40
0.02
100
AcDbArc
 50
291.0158239287
 51
357.0
  0
ARC
  5
3C3
100
AcDbEntity
  8
0
100
AcDbCircle
 62
7
  6
CONTINUOUS
 10
6.5801129136
 20
2.6754531568
 40
0.02
100
AcDbArc
 50
213.0
 51
278.9841760714
  0
ARC
  5
3C4
100
AcDbEntity
  8
0
100
AcDbCircle
 62
7
  6
CONTINUOUS
 10
6.3245286248
 20
2.99557531
 40
0.02
100
AcDbArc
 50
33.0
 51
94.3979294744
  0
ARC
  5
3C5
100
AcDbEntity
  8
RING
100
AcDbCircle
 62
7
  6
CONTINUOUS
 10
6.1303672762
 20
5.5201198968
 40
2.9
100
AcDbArc
 50
201.0146773462
 51
218.9853226538
  0
ARC
  5
3C6
100
AcDbEntity
  8
RING
100
AcDbCircle
 62
7
  6
CONTINUOUS
 10
6.1303672762
 20
5.5201198968
 40
2.9
100
AcDbArc
 50
231.0178081784
 51
248.9821918216
  0
ARC
  5
3C7
100
AcDbEntity
  8
RING
100
AcDbCircle
 62
7
  6
CONTINUOUS
 10
6.1303672762
 20
5.5201198968
 40
2.9
100
AcDbArc
 50
257.0996035504
 51
257.2527599154
  0
ARC
  5
3C8
100
AcDbEntity
  8
RING
100
AcDbCircle
 62
7
  6
CONTINUOUS
 10
6.1303672762
 20
5.5201198968
 40
2.9
100
AcDbArc
 50
261.0146773462
 51
278.9853226538
  0
ARC
  5
3C9
100
AcDbEntity
  8
RING
100
AcDbCircle
 62
7
  6
CONTINUOUS
 10
6.1303672762
 20
5.5201198968
 40
2.9
100
AcDbArc
 50
282.7472400846
 51
282.9003964496
  0
ARC
  5
3CA
100
AcDbEntity
  8
RING
100
AcDbCircle
 62
7
  6
CONTINUOUS
 10
6.1303672762
 20
5.5201198968
 40
2.9
100
AcDbArc
 50
291.0178081784
 51
308.9821918216
  0
ARC
  5
3CB
100
AcDbEntity
  8
RING
100
AcDbCircle
 62
7
  6
CONTINUOUS
 10
6.1303672762
 20
5.5201198968
 40
2.9
100
AcDbArc
 50
321.0146773462
 51
338.9853226538
  0
ARC
  5
3CC
100
AcDbEntity
  8
RING
100
AcDbCircle
 62
7
  6
CONTINUOUS
 10
6.1303672762
 20
5.5201198968
 40
2.9
100
AcDbArc
 50
351.0178081784
 51
8.9821918216
  0
ARC
  5
3CD
100
AcDbEntity
  8
RING
100
AcDbCircle
 62
7
  6
CONTINUOUS
 10
6.1303672762
 20
5.5201198968
 40
2.9
100
AcDbArc
 50
21.0146773462
 51
38.9853226538
  0
ARC
  5
3CE
100
AcDbEntity
  8
RING
100
AcDbCircle
 62
7
  6
CONTINUOUS
 10
6.1303672762
 20
5.5201198968
 40
2.9
100
AcDbArc
 50
51.0178081784
 51
68.9821918216
  0
ARC
  5
3CF
100
AcDbEntity
  8
RING
100
AcDbCircle
 62
7
  6
CONTINUOUS
 10
6.1303672762
 20
5.5201198968
 40
2.9
100
AcDbArc
 50
77.0996035504
 51
77.2527599154
  0
ARC
  5
3D0
100
AcDbEntity
  8
RING
100
AcDbCircle
 62
7
  6
CONTINUOUS
 10
6.1303672762
 20
5.5201198968
 40
2.9
100
AcDbArc
 50
81.0146773462
 51
98.9853226538
  0
ARC
  5
3D1
100
AcDbEntity
  8
RING
100
AcDbCircle
 62
7
  6
CONTINUOUS
 10
6.1303672762
 20
5.5201198968
 40
2.9
100
AcDbArc
 50
102.7472400846
 51
102.9003964496
  0
ARC
  5
3D2
100
AcDbEntity
  8
RING
100
AcDbCircle
 62
7
  6
CONTINUOUS
 10
6.1303672762
 20
5.5201198968
 40
2.9
100
AcDbArc
 50
111.0178081784
 51
128.9821918216
  0
ARC
  5
3D3
100
AcDbEntity
  8
RING
100
AcDbCircle
 62
7
  6
CONTINUOUS
 10
6.1303672762
 20
5.5201198968
 40
2.9
100
AcDbArc
 50
141.0146773462
 51
158.9853226538
  0
ARC
  5
3D4
100
AcDbEntity
  8
RING
100
AcDbCircle
 62
7
  6
CONTINUOUS
 10
6.1303672762
 20
5.5201198968
 40
2.9
100
AcDbArc
 50
171.0178081784
 51
188.9821918216
  0
ARC
  5
3D5
100
AcDbEntity
  8
0
100
AcDbCircle
 62
7
  6
CONTINUOUS
 10
6.1303672762
 20
5.5201198968
 40
2.9
100
AcDbArc
 50
68.9841760713
 51
81.0158239287
  0
ARC
  5
3D6
100
AcDbEntity
  8
0
100
AcDbCircle
 62
7
  6
CONTINUOUS
 10
6.1303672762
 20
5.5201198968
 40
2.9
100
AcDbArc
 50
38.9841760713
 51
51.0158239287
  0
ARC
  5
3D7
100
AcDbEntity
  8
0
100
AcDbCircle
 62
7
  6
CONTINUOUS
 10
6.1303672762
 20
5.5201198968
 40
2.9
100
AcDbArc
 50
8.9841760713
 51
21.0158239287
  0
ARC
  5
3D8
100
AcDbEntity
  8
0
100
AcDbCircle
 62
7
  6
CONTINUOUS
 10
6.1303672762
 20
5.5201198968
 40
2.9
100
AcDbArc
 50
338.9841760713
 51
351.0158239287
  0
ARC
  5
3D9
100
AcDbEntity
  8
0
100
AcDbCircle
 62
7
  6
CONTINUOUS
 10
6.1303672762
 20
5.5201198968
 40
2.9
100
AcDbArc
 50
308.9841760713
 51
321.0158239287
  0
ARC
  5
3DA
100
AcDbEntity
  8
0
100
AcDbCircle
 62
7
  6
CONTINUOUS
 10
6.1303672762
 20
5.5201198968
 40
2.9
100
AcDbArc
 50
278.9841760713
 51
291.0158239287
  0
ARC
  5
3DB
100
AcDbEntity
  8
0
100
AcDbCircle
 62
7
  6
CONTINUOUS
 10
6.1303672762
 20
5.5201198968
 40
2.9
100
AcDbArc
 50
248.9841760713
 51
261.0158239287
  0
ARC
  5
3DC
100
AcDbEntity
  8
0
100
AcDbCircle
 62
7
  6
CONTINUOUS
 10
6.1303672762
 20
5.5201198968
 40
2.9
100
AcDbArc
 50
218.9841760713
 51
231.0158239287
  0
ARC
  5
3DD
100
AcDbEntity
  8
0
100
AcDbCircle
 62
7
  6
CONTINUOUS
 10
6.1303672762
 20
5.5201198968
 40
2.9
100
AcDbArc
 50
188.9841760713
 51
201.0158239287
  0
ARC
  5
3DE
100
AcDbEntity
  8
0
100
AcDbCircle
 62
7
  6
CONTINUOUS
 10
6.1303672762
 20
5.5201198968
 40
2.9
100
AcDbArc
 50
158.9841760713
 51
171.0158239287
  0
ARC
  5
3DF
100
AcDbEntity
  8
0
100
AcDbCircle
 62
7
  6
CONTINUOUS
 10
6.1303672762
 20
5.5201198968
 40
2.9
100
AcDbArc
 50
128.9841760713
 51
141.0158239287
  0
ARC
  5
3E0
100
AcDbEntity
  8
0
100
AcDbCircle
 62
7
  6
CONTINUOUS
 10
6.1303672762
 20
5.5201198968
 40
2.9
100
AcDbArc
 50
98.9841760713
 51
111.0158239287
  0
ARC
  5
3E1
100
AcDbEntity
  8
RING
100
AcDbCircle
 62
7
  6
CONTINUOUS
 10
6.1303672762
 20
5.5201198968
 40
2.898
100
AcDbArc
 50
141.2644705619
 51
158.985608285
  0
ARC
  5
3E2
100
AcDbEntity
  8
RING
100
AcDbCircle
 62
7
  6
CONTINUOUS
 10
6.1303672762
 20
5.5201198968
 40
2.898
100
AcDbArc
 50
111.2060466435
 51
128.7936491052
  0
ARC
  5
3E3
100
AcDbEntity
  8
RING
100
AcDbCircle
 62
7
  6
CONTINUOUS
 10
6.1303672762
 20
5.5201198968
 40
2.898
100
AcDbArc
 50
81.3542899347
 51
98.985608285
  0
ARC
  5
3E4
100
AcDbEntity
  8
RING
100
AcDbCircle
 62
7
  6
CONTINUOUS
 10
6.1303672762
 20
5.5201198968
 40
2.898
100
AcDbArc
 50
51.2063508804
 51
68.7939533428
  0
ARC
  5
3E5
100
AcDbEntity
  8
RING
100
AcDbCircle
 62
7
  6
CONTINUOUS
 10
6.1303672762
 20
5.5201198968
 40
2.898
100
AcDbArc
 50
21.3542899347
 51
38.7355294381
  0
ARC
  5
3E6
100
AcDbEntity
  8
RING
100
AcDbCircle
 62
7
  6
CONTINUOUS
 10
6.1303672762
 20
5.5201198968
 40
2.898
100
AcDbArc
 50
351.2136117411
 51
8.7863882589
  0
ARC
  5
3E7
100
AcDbEntity
  8
RING
100
AcDbCircle
 62
7
  6
CONTINUOUS
 10
6.1303672762
 20
5.5201198968
 40
2.898
100
AcDbArc
 50
321.2644705619
 51
338.985608285
  0
ARC
  5
3E8
100
AcDbEntity
  8
RING
100
AcDbCircle
 62
7
  6
CONTINUOUS
 10
6.1303672762
 20
5.5201198968
 40
2.898
100
AcDbArc
 50
291.2060466435
 51
308.7936491052
  0
ARC
  5
3E9
100
AcDbEntity
  8
RING
100
AcDbCircle
 62
7
  6
CONTINUOUS
 10
6.1303672762
 20
5.5201198968
 40
2.898
100
AcDbArc
 50
261.3542899347
 51
278.985608285
  0
ARC
  5
3EA
100
AcDbEntity
  8
RING
100
AcDbCircle
 62
7
  6
CONTINUOUS
 10
6.1303672762
 20
5.5201198968
 40
2.898
100
AcDbArc
 50
231.2063508804
 51
248.7939533428
  0
ARC
  5
3EB
100
AcDbEntity
  8
RING
100
AcDbCircle
 62
7
  6
CONTINUOUS
 10
6.1303672762
 20
5.5201198968
 40
2.898
100
AcDbArc
 50
201.3542899347
 51
218.7355294381
  0
ARC
  5
3EC
100
AcDbEntity
  8
RING
100
AcDbCircle
 62
7
  6
CONTINUOUS
 10
6.1303672762
 20
5.5201198968
 40
2.898
100
AcDbArc
 50
171.2135799975
 51
188.7864200025
  0
ARC
  5
3ED
100
AcDbEntity
  8
0
100
AcDbCircle
 62
7
  6
CONTINUOUS
 10
6.1303672762
 20
5.5201198968
 40
2.7
100
AcDbArc
 50
67.2705916469
 51
82.7294083531
  0
ARC
  5
3EE
100
AcDbEntity
  8
0
100
AcDbCircle
 62
7
  6
CONTINUOUS
 10
6.1303672762
 20
5.5201198968
 40
2.7
100
AcDbArc
 50
37.2705916469
 51
52.7294083531
  0
ARC
  5
3EF
100
AcDbEntity
  8
0
100
AcDbCircle
 62
7
  6
CONTINUOUS
 10
6.1303672762
 20
5.5201198968
 40
2.7
100
AcDbArc
 50
7.2705916469
 51
22.7294083531
  0
ARC
  5
3F0
100
AcDbEntity
  8
0
100
AcDbCircle
 62
7
  6
CONTINUOUS
 10
6.1303672762
 20
5.5201198968
 40
2.7
100
AcDbArc
 50
337.2705916469
 51
352.7294083531
  0
ARC
  5
3F1
100
AcDbEntity
  8
0
100
AcDbCircle
 62
7
  6
CONTINUOUS
 10
6.1303672762
 20
5.5201198968
 40
2.7
100
AcDbArc
 50
307.2705916469
 51
322.7294083531
  0
ARC
  5
3F2
100
AcDbEntity
  8
0
100
AcDbCircle
 62
7
  6
CONTINUOUS
 10
6.1303672762
 20
5.5201198968
 40
2.7
100
AcDbArc
 50
277.2705916469
 51
292.7294083531
  0
ARC
  5
3F3
100
AcDbEntity
  8
0
100
AcDbCircle
 62
7
  6
CONTINUOUS
 10
6.1303672762
 20
5.5201198968
 40
2.7
100
AcDbArc
 50
247.2705916469
 51
262.7294083531
  0
ARC
  5
3F4
100
AcDbEntity
  8
0
100
AcDbCircle
 62
7
  6
CONTINUOUS
 10
6.1303672762
 20
5.5201198968
 40
2.7
100
AcDbArc
 50
217.2705916469
 51
232.7294083531
  0
ARC
  5
3F5
100
AcDbEntity
  8
0
100
AcDbCircle
 62
7
  6
CONTINUOUS
 10
6.1303672762
 20
5.5201198968
 40
2.7
100
AcDbArc
 50
187.2705916469
 51
202.7294083531
  0
ARC
  5
3F6
100
AcDbEntity
  8
0
100
AcDbCircle
 62
7
  6
CONTINUOUS
 10
6.1303672762
 20
5.5201198968
 40
2.7
100
AcDbArc
 50
157.2705916469
 51
172.7294083531
  0
ARC
  5
3F7
100
AcDbEntity
  8
0
100
AcDbCircle
 62
7
  6
CONTINUOUS
 10
6.1303672762
 20
5.5201198968
 40
2.7
100
AcDbArc
 50
127.2705916469
 51
142.7294083531
  0
ARC
  5
3F8
100
AcDbEntity
  8
0
100
AcDbCircle
 62
7
  6
CONTINUOUS
 10
6.1303672762
 20
5.5201198968
 40
2.7
100
AcDbArc
 50
97.2705916469
 51
112.7294083531
  0
ARC
  5
3F9
100
AcDbEntity
  8
02___PRT_ALL_AXES
100
AcDbCircle
 62
7
  6
CONTINUOUS
 10
6.1303672762
 20
5.5201198968
 40
2.512
100
AcDbArc
 50
85.6020705256
 51
94.3979294744
  0
ARC
  5
3FA
100
AcDbEntity
  8
0
100
AcDbCircle
 62
7
  6
CONTINUOUS
 10
6.1303672762
 20
5.5201198968
 40
2.512
100
AcDbArc
 50
145.6020705256
 51
154.3979294744
  0
ARC
  5
3FB
100
AcDbEntity
  8
0
100
AcDbCircle
 62
7
  6
CONTINUOUS
 10
6.1303672762
 20
5.5201198968
 40
2.512
100
AcDbArc
 50
175.6020705256
 51
184.3979294744
  0
ARC
  5
3FC
100
AcDbEntity
  8
0
100
AcDbCircle
 62
7
  6
CONTINUOUS
 10
6.1303672762
 20
5.5201198968
 40
2.512
100
AcDbArc
 50
205.6020705256
 51
214.3979294744
  0
ARC
  5
3FD
100
AcDbEntity
  8
0
100
AcDbCircle
 62
7
  6
CONTINUOUS
 10
6.1303672762
 20
5.5201198968
 40
2.512
100
AcDbArc
 50
235.6020705256
 51
244.3979294744
  0
ARC
  5
3FE
100
AcDbEntity
  8
0
100
AcDbCircle
 62
7
  6
CONTINUOUS
 10
6.1303672762
 20
5.5201198968
 40
2.512
100
AcDbArc
 50
265.6020705256
 51
274.3979294744
  0
ARC
  5
3FF
100
AcDbEntity
  8
0
100
AcDbCircle
 62
7
  6
CONTINUOUS
 10
6.1303672762
 20
5.5201198968
 40
2.512
100
AcDbArc
 50
295.6020705256
 51
304.3979294744
  0
ARC
  5
400
100
AcDbEntity
  8
0
100
AcDbCircle
 62
7
  6
CONTINUOUS
 10
6.1303672762
 20
5.5201198968
 40
2.512
100
AcDbArc
 50
325.6020705256
 51
334.3979294744
  0
ARC
  5
401
100
AcDbEntity
  8
0
100
AcDbCircle
 62
7
  6
CONTINUOUS
 10
6.1303672762
 20
5.5201198968
 40
2.512
100
AcDbArc
 50
355.6020705256
 51
4.3979294744
  0
ARC
  5
402
100
AcDbEntity
  8
0
100
AcDbCircle
 62
7
  6
CONTINUOUS
 10
6.1303672762
 20
5.5201198968
 40
2.512
100
AcDbArc
 50
115.6020705256
 51
124.3979294744
  0
ARC
  5
403
100
AcDbEntity
  8
0
100
AcDbCircle
 62
7
  6
CONTINUOUS
 10
6.1303672762
 20
5.5201198968
 40
2.512
100
AcDbArc
 50
25.6020705256
 51
34.3979294744
  0
ARC
  5
404
100
AcDbEntity
  8
0
100
AcDbCircle
 62
7
  6
CONTINUOUS
 10
6.1303672762
 20
5.5201198968
 40
2.512
100
AcDbArc
 50
55.6020705256
 51
64.3979294744
  0
ARC
  5
405
100
AcDbEntity
  8
0
100
AcDbCircle
 62
7
  6
CONTINUOUS
 10
6.1303672762
 20
5.5201198968
 40
2.512
100
AcDbArc
 50
92.6246458596
 51
94.3979294744
  0
ARC
  5
406
100
AcDbEntity
  8
0
100
AcDbCircle
 62
7
  6
CONTINUOUS
 10
6.1303672762
 20
5.5201198968
 40
2.512
100
AcDbArc
 50
85.6020705256
 51
87.3753552576
  0
ARC
  5
407
100
AcDbEntity
  8
02___PRT_ALL_AXES
100
AcDbCircle
 62
7
  6
CONTINUOUS
 10
6.1303672762
 20
5.5201198968
 40
2.4
100
AcDbArc
 50
91.1198255729
 51
88.8801744271
  0
ARC
  5
408
100
AcDbEntity
  8
0
100
AcDbCircle
 62
7
  6
CONTINUOUS
 10
6.1303672762
 20
5.5201198968
 40
1.24
100
AcDbArc
 50
69.9882335335
 51
110.0117664665
  0
ARC
  5
409
100
AcDbEntity
  8
02___PRT_ALL_AXES
100
AcDbCircle
 62
7
  6
CONTINUOUS
 10
6.1303672762
 20
5.5201198968
 40
1.24
100
AcDbArc
 50
95.3190180488
 51
110.0117664665
  0
ARC
  5
40A
100
AcDbEntity
  8
02___PRT_ALL_AXES
100
AcDbCircle
 62
7
  6
CONTINUOUS
 10
6.1303672762
 20
5.5201198968
 40
1.24
100
AcDbArc
 50
69.9882335335
 51
84.6809819512
  0
ARC
  5
40B
100
AcDbEntity
  8
0
100
AcDbCircle
 62
7
  6
CONTINUOUS
 10
6.1303672762
 20
5.5201198968
 40
1.06
100
AcDbArc
 50
213.4305585701
 51
326.5694414299
  0
ARC
  5
40C
100
AcDbEntity
  8
0
100
AcDbCircle
 62
7
  6
CONTINUOUS
 10
6.1303672762
 20
5.5201198968
 40
1.06
100
AcDbArc
 50
33.4305585701
 51
64.9372171045
  0
ARC
  5
40D
100
AcDbEntity
  8
0
100
AcDbCircle
 62
7
  6
CONTINUOUS
 10
6.1303672762
 20
5.5201198968
 40
1.06
100
AcDbArc
 50
115.0627828955
 51
146.5694414299
  0
ARC
  5
40E
100
AcDbEntity
  8
0
100
AcDbCircle
 62
7
  6
CONTINUOUS
 10
6.1303672762
 20
5.5201198968
 40
0.5905511811
100
AcDbArc
 50
109.4711801203
 51
70.5288198797
  0
ARC
  5
40F
100
AcDbEntity
  8
0
100
AcDbCircle
 62
7
  6
CONTINUOUS
 10
7.2244909092
 20
3.2367194773
 40
0.02
100
AcDbArc
 50
115.6020705256
 51
177.0
  0
ARC
  5
410
100
AcDbEntity
  8
0
100
AcDbCircle
 62
7
  6
CONTINUOUS
 10
7.0316857548
 20
4.9251198968
 40
0.02
100
AcDbArc
 50
90.0
 51
146.5694414299
  0
ARC
  5
411
100
AcDbEntity
  8
0
100
AcDbCircle
 62
7
  6
CONTINUOUS
 10
7.2853672762
 20
4.9651198968
 40
0.02
100
AcDbArc
 50
270.0
 51
360.0
  0
ARC
  5
412
100
AcDbEntity
  8
0
100
AcDbCircle
 62
7
  6
CONTINUOUS
 10
7.3253672762
 20
5.3051198968
 40
0.02
100
AcDbArc
 50
90.0
 51
180.0
  0
ARC
  5
413
100
AcDbEntity
  8
0
100
AcDbCircle
 62
7
  6
CONTINUOUS
 10
8.2523634416
 20
0.8846690845
 40
6.5636035247
100
AcDbArc
 50
133.2536620618
 51
133.4562781499
  0
ARC
  5
414
100
AcDbEntity
  8
0
100
AcDbCircle
 62
7
  6
CONTINUOUS
 10
8.654911863
 20
5.3259585481
 40
0.02
100
AcDbArc
 50
175.6020705256
 51
237.0
  0
ARC
  5
415
100
AcDbEntity
  8
0
100
AcDbCircle
 62
7
  6
CONTINUOUS
 10
8.9750340162
 20
5.0703742594
 40
0.02
100
AcDbArc
 50
351.0158239287
 51
57.0
  0
ARC
  5
416
100
AcDbEntity
  8
0
100
AcDbCircle
 62
7
  6
CONTINUOUS
 10
8.219606347
 20
4.089698943
 40
0.02
100
AcDbArc
 50
145.6020705256
 51
207.0
  0
ARC
  5
417
100
AcDbEntity
  8
0
100
AcDbCircle
 62
7
  6
CONTINUOUS
 10
8.3690481196
 20
3.7082953795
 40
0.02
100
AcDbArc
 50
321.0158239287
 51
27.0
  0
ARC
  5
418
100
AcDbEntity
  8
0
100
AcDbCircle
 62
7
  6
CONTINUOUS
 10
7.7253672762
 20
4.9651198968
 40
0.02
100
AcDbArc
 50
180.0
 51
270.0
  0
ARC
  5
419
100
AcDbEntity
  8
0
100
AcDbCircle
 62
7
  6
CONTINUOUS
 10
7.8603672762
 20
4.9651198968
 40
0.02
100
AcDbArc
 50
270.0
 51
360.0
  0
ARC
  5
41A
100
AcDbEntity
  8
0
100
AcDbCircle
 62
7
  6
CONTINUOUS
 10
7.6853672762
 20
5.3051198968
 40
0.02
100
AcDbArc
 50
0.0
 51
90.0
  0
ARC
  5
41B
100
AcDbEntity
  8
0
100
AcDbCircle
 62
7
  6
CONTINUOUS
 10
7.9421917934
 20
3.2814390533
 40
0.02
100
AcDbArc
 50
243.0
 51
308.9841760713
  0
ARC
  5
41C
100
AcDbEntity
  8
0
100
AcDbCircle
 62
7
  6
CONTINUOUS
 10
7.5607882299
 20
3.4308808259
 40
0.02
100
AcDbArc
 50
63.0
 51
124.3979294744
  0
ARC
  5
41D
100
AcDbEntity
  8
0
100
AcDbCircle
 62
7
  6
CONTINUOUS
 10
8.4137676956
 20
4.4259962637
 40
0.02
100
AcDbArc
 50
93.0
 51
154.3979294744
  0
ARC
  5
41E
100
AcDbEntity
  8
0
100
AcDbCircle
 62
7
  6
CONTINUOUS
 10
8.818793757
 20
4.487277674
 40
0.02
100
AcDbArc
 50
273.0
 51
338.9841760713
  0
ARC
  5
41F
100
AcDbEntity
  8
0
100
AcDbCircle
 62
7
  6
CONTINUOUS
 10
6.5878672762
 20
6.4984315802
 40
0.02
100
AcDbArc
 50
180.0
 51
244.9372171045
  0
ARC
  5
420
100
AcDbEntity
  8
0
100
AcDbCircle
 62
7
  6
CONTINUOUS
 10
7.5607882299
 20
7.6093589676
 40
0.02
100
AcDbArc
 50
235.6020705256
 51
297.0
  0
ARC
  5
421
100
AcDbEntity
  8
0
100
AcDbCircle
 62
7
  6
CONTINUOUS
 10
7.0316857548
 20
6.1151198968
 40
0.02
100
AcDbArc
 50
213.4305585701
 51
270.0
  0
ARC
  5
422
100
AcDbEntity
  8
0
100
AcDbCircle
 62
7
  6
CONTINUOUS
 10
7.2853672762
 20
6.0751198968
 40
0.02
100
AcDbArc
 50
0.0
 51
90.0
  0
ARC
  5
423
100
AcDbEntity
  8
0
100
AcDbCircle
 62
7
  6
CONTINUOUS
 10
6.5478672762
 20
6.666459179
 40
0.02
100
AcDbArc
 50
0.0
 51
69.9882335335
  0
ARC
  5
424
100
AcDbEntity
  8
0
100
AcDbCircle
 62
7
  6
CONTINUOUS
 10
7.3253672762
 20
5.7351198968
 40
0.02
100
AcDbArc
 50
180.0
 51
270.0
  0
ARC
  5
425
100
AcDbEntity
  8
0
100
AcDbCircle
 62
7
  6
CONTINUOUS
 10
7.2244909092
 20
7.8035203162
 40
0.02
100
AcDbArc
 50
183.0
 51
244.3979294744
  0
ARC
  5
426
100
AcDbEntity
  8
0
100
AcDbCircle
 62
7
  6
CONTINUOUS
 10
6.3245286248
 20
8.0446644835
 40
0.02
100
AcDbArc
 50
265.6020705256
 51
327.0
  0
ARC
  5
427
100
AcDbEntity
  8
0
100
AcDbCircle
 62
7
  6
CONTINUOUS
 10
6.5801129136
 20
8.3647866367
 40
0.02
100
AcDbArc
 50
81.0158239287
 51
147.0
  0
ARC
  5
428
100
AcDbEntity
  8
0
100
AcDbCircle
 62
7
  6
CONTINUOUS
 10
7.1632094989
 20
8.2085463776
 40
0.02
100
AcDbArc
 50
3.0
 51
68.9841760713
  0
ARC
  5
429
100
AcDbEntity
  8
0
100
AcDbCircle
 62
7
  6
CONTINUOUS
 10
7.9421917934
 20
7.7588007402
 40
0.02
100
AcDbArc
 50
51.0158239286
 51
117.0
  0
ARC
  5
42A
100
AcDbEntity
  8
0
100
AcDbCircle
 62
7
  6
CONTINUOUS
 10
8.4137676956
 20
6.6142435298
 40
0.02
100
AcDbArc
 50
205.6020705256
 51
267.0
  0
ARC
  5
42B
100
AcDbEntity
  8
0
100
AcDbCircle
 62
7
  6
CONTINUOUS
 10
8.818793757
 20
6.5529621195
 40
0.02
100
AcDbArc
 50
21.0158239287
 51
87.0
  0
ARC
  5
42C
100
AcDbEntity
  8
0
100
AcDbCircle
 62
7
  6
CONTINUOUS
 10
7.7253672762
 20
6.0751198968
 40
0.02
100
AcDbArc
 50
90.0
 51
180.0
  0
ARC
  5
42D
100
AcDbEntity
  8
0
100
AcDbCircle
 62
7
  6
CONTINUOUS
 10
7.8603672762
 20
6.0751198968
 40
0.02
100
AcDbArc
 50
0.0
 51
90.0
  0
ARC
  5
42E
100
AcDbEntity
  8
0
100
AcDbCircle
 62
7
  6
CONTINUOUS
 10
7.6853672762
 20
5.7351198968
 40
0.02
100
AcDbArc
 50
270.0
 51
360.0
  0
ARC
  5
42F
100
AcDbEntity
  8
0
100
AcDbCircle
 62
7
  6
CONTINUOUS
 10
8.654911863
 20
5.7142812454
 40
0.02
100
AcDbArc
 50
123.0
 51
184.3979294744
  0
ARC
  5
430
100
AcDbEntity
  8
0
100
AcDbCircle
 62
7
  6
CONTINUOUS
 10
8.9750340162
 20
5.9698655342
 40
0.02
100
AcDbArc
 50
303.0
 51
8.9841760714
  0
ARC
  5
431
100
AcDbEntity
  8
0
100
AcDbCircle
 62
7
  6
CONTINUOUS
 10
8.219606347
 20
6.9505408505
 40
0.02
100
AcDbArc
 50
153.0
 51
214.3979294744
  0
ARC
  5
432
100
AcDbEntity
  8
0
100
AcDbCircle
 62
7
  6
CONTINUOUS
 10
8.3690481196
 20
7.331944414
 40
0.02
100
AcDbArc
 50
333.0
 51
38.9841760714
  0
ARC
  5
433
100
AcDbEntity
  8
0
100
AcDbCircle
 62
7
  6
CONTINUOUS
 10
8.2559536202
 20
10.1593801198
 40
6.5688381186
100
AcDbArc
 50
226.5072996156
 51
226.7462986538
  0
ARC
  5
434
100
AcDbEntity
  8
0
100
AcDbCircle
 62
7
  6
CONTINUOUS
 10
4.6958720839
 20
12.0550477814
 40
0.2
100
AcDbArc
 50
0.0
 51
180.0
  0
CIRCLE
  5
435
100
AcDbEntity
  8
0
100
AcDbCircle
 62
7
  6
CONTINUOUS
 10
4.6958720839
 20
12.0050477814
 40
0.17
  0
CIRCLE
  5
436
100
AcDbEntity
  8
0
100
AcDbCircle
 62
7
  6
CONTINUOUS
 10
4.6958720839
 20
12.0050477814
 40
0.1575
  0
ARC
  5
437
100
AcDbEntity
  8
0
100
AcDbCircle
 62
7
  6
CONTINUOUS
 10
3.8322221569
 20
12.3210010884
 40
0.0201323597
100
AcDbArc
 50
253.041629396
 51
259.9935820617
  0
ARC
  5
438
100
AcDbEntity
  8
0
100
AcDbCircle
 62
7
  6
CONTINUOUS
 10
3.8322938852
 20
12.3208829851
 40
0.0201025539
100
AcDbArc
 50
180.0308418174
 51
192.5110276602
  0
ARC
  5
439
100
AcDbEntity
  8
0
100
AcDbCircle
 62
7
  6
CONTINUOUS
 10
3.8321915159
 20
12.3208723925
 40
0.0200003242
100
AcDbArc
 50
192.5449315896
 51
253.0180554744
  0
ARC
  5
43A
100
AcDbEntity
  8
0
100
AcDbCircle
 62
7
  6
CONTINUOUS
 10
4.3408720839
 20
11.8050477814
 40
0.02
100
AcDbArc
 50
180.0
 51
270.0
  0
ARC
  5
43B
100
AcDbEntity
  8
0
100
AcDbCircle
 62
7
  6
CONTINUOUS
 10
5.6533720839
 20
11.8050477814
 40
0.02
100
AcDbArc
 50
180.0
 51
270.0
  0
ARC
  5
43C
100
AcDbEntity
  8
0
100
AcDbCircle
 62
7
  6
CONTINUOUS
 10
4.4758720839
 20
11.8050477814
 40
0.02
100
AcDbArc
 50
270.0
 51
360.0
  0
ARC
  5
43D
100
AcDbEntity
  8
0
100
AcDbCircle
 62
7
  6
CONTINUOUS
 10
4.9158720839
 20
11.8050477814
 40
0.02
100
AcDbArc
 50
180.0
 51
270.0
  0
ARC
  5
43E
100
AcDbEntity
  8
0
100
AcDbCircle
 62
7
  6
CONTINUOUS
 10
3.2262051309
 20
12.320871845
 40
0.019999674
100
AcDbArc
 50
179.9991614541
 51
264.5573751928
  0
ARC
  5
43F
100
AcDbEntity
  8
0
100
AcDbCircle
 62
7
  6
CONTINUOUS
 10
4.6958720839
 20
13.1450477814
 40
0.2
100
AcDbArc
 50
180.0
 51
360.0
  0
CIRCLE
  5
440
100
AcDbEntity
  8
0
100
AcDbCircle
 62
7
  6
CONTINUOUS
 10
4.6958720839
 20
13.1950477814
 40
0.17
  0
CIRCLE
  5
441
100
AcDbEntity
  8
0
100
AcDbCircle
 62
7
  6
CONTINUOUS
 10
4.6958720839
 20
13.1950477814
 40
0.1575
  0
ARC
  5
442
100
AcDbEntity
  8
0
100
AcDbCircle
 62
7
  6
CONTINUOUS
 10
3.8322963538
 20
12.8792121638
 40
0.02010502
100
AcDbArc
 50
167.3295063563
 51
179.9679071334
  0
ARC
  5
443
100
AcDbEntity
  8
0
100
AcDbCircle
 62
7
  6
CONTINUOUS
 10
3.8322208976
 20
12.8791695445
 40
0.0200613347
100
AcDbArc
 50
114.5908569069
 51
123.0679127293
  0
ARC
  5
444
100
AcDbEntity
  8
0
100
AcDbCircle
 62
7
  6
CONTINUOUS
 10
3.8322021694
 20
12.8791882943
 40
0.0200364942
100
AcDbArc
 50
99.9967494544
 51
114.5644714023
  0
ARC
  5
445
100
AcDbEntity
  8
0
100
AcDbCircle
 62
7
  6
CONTINUOUS
 10
3.8321920727
 20
12.8792228465
 40
0.0200009392
100
AcDbArc
 50
123.0820279283
 51
167.293838726
  0
ARC
  5
446
100
AcDbEntity
  8
0
100
AcDbCircle
 62
7
  6
CONTINUOUS
 10
4.3408720839
 20
13.3950477814
 40
0.02
100
AcDbArc
 50
90.0
 51
180.0
  0
ARC
  5
447
100
AcDbEntity
  8
0
100
AcDbCircle
 62
7
  6
CONTINUOUS
 10
5.6533720839
 20
13.3950477814
 40
0.02
100
AcDbArc
 50
90.0
 51
180.0
  0
ARC
  5
448
100
AcDbEntity
  8
0
100
AcDbCircle
 62
7
  6
CONTINUOUS
 10
4.4758720839
 20
13.3950477814
 40
0.02
100
AcDbArc
 50
0.0
 51
90.0
  0
ARC
  5
449
100
AcDbEntity
  8
0
100
AcDbCircle
 62
7
  6
CONTINUOUS
 10
4.9158720839
 20
13.3950477814
 40
0.02
100
AcDbArc
 50
90.0
 51
180.0
  0
ARC
  5
44A
100
AcDbEntity
  8
0
100
AcDbCircle
 62
7
  6
CONTINUOUS
 10
3.2262051238
 20
12.8792237251
 40
0.0199996588
100
AcDbArc
 50
95.4426066895
 51
180.0008593415
  0
ARC
  5
44B
100
AcDbEntity
  8
0
100
AcDbCircle
 62
7
  6
CONTINUOUS
 10
7.4458720839
 20
12.0550477814
 40
0.2
100
AcDbArc
 50
0.0
 51
180.0
  0
CIRCLE
  5
44C
100
AcDbEntity
  8
0
100
AcDbCircle
 62
7
  6
CONTINUOUS
 10
7.4458720839
 20
12.0050477814
 40
0.17
  0
CIRCLE
  5
44D
100
AcDbEntity
  8
0
100
AcDbCircle
 62
7
  6
CONTINUOUS
 10
7.4458720839
 20
12.0050477814
 40
0.1575
  0
ARC
  5
44E
100
AcDbEntity
  8
02___PRT_ALL_AXES
100
AcDbCircle
 62
7
  6
CONTINUOUS
 10
6.0708720839
 20
12.3000477814
 40
0.115
100
AcDbArc
 50
187.5598350947
 51
352.440457196
  0
ARC
  5
44F
100
AcDbEntity
  8
02___PRT_ALL_AXES
100
AcDbCircle
 62
7
  6
CONTINUOUS
 10
6.0708720839
 20
12.3000477814
 40
0.115
100
AcDbArc
 50
352.5052825461
 51
187.4947174539
  0
CIRCLE
  5
450
100
AcDbEntity
  8
0
100
AcDbCircle
 62
7
  6
CONTINUOUS
 10
6.0708720839
 20
12.3000477814
 40
0.1025
  0
ARC
  5
451
100
AcDbEntity
  8
0
100
AcDbCircle
 62
7
  6
CONTINUOUS
 10
8.309447814
 20
12.3208833989
 40
0.02010502
100
AcDbArc
 50
347.3295063564
 51
359.9679071333
  0
ARC
  5
452
100
AcDbEntity
  8
0
100
AcDbCircle
 62
7
  6
CONTINUOUS
 10
8.3095232702
 20
12.3209260182
 40
0.0200613347
100
AcDbArc
 50
294.5908569068
 51
303.0679127293
  0
ARC
  5
453
100
AcDbEntity
  8
0
100
AcDbCircle
 62
7
  6
CONTINUOUS
 10
8.3095419983
 20
12.3209072685
 40
0.0200364942
100
AcDbArc
 50
279.9967489469
 51
294.564471403
  0
ARC
  5
454
100
AcDbEntity
  8
0
100
AcDbCircle
 62
7
  6
CONTINUOUS
 10
8.309552095
 20
12.3208727163
 40
0.0200009392
100
AcDbArc
 50
303.0820279283
 51
347.293838726
  0
ARC
  5
455
100
AcDbEntity
  8
0
100
AcDbCircle
 62
7
  6
CONTINUOUS
 10
6.4883720839
 20
11.8050477814
 40
0.02
100
AcDbArc
 50
270.0
 51
360.0
  0
ARC
  5
456
100
AcDbEntity
  8
0
100
AcDbCircle
 62
7
  6
CONTINUOUS
 10
7.8008720839
 20
11.8050477814
 40
0.02
100
AcDbArc
 50
270.0
 51
360.0
  0
ARC
  5
457
100
AcDbEntity
  8
0
100
AcDbCircle
 62
7
  6
CONTINUOUS
 10
7.6658720839
 20
11.8050477814
 40
0.02
100
AcDbArc
 50
180.0
 51
270.0
  0
ARC
  5
458
100
AcDbEntity
  8
0
100
AcDbCircle
 62
7
  6
CONTINUOUS
 10
7.2258720839
 20
11.8050477814
 40
0.02
100
AcDbArc
 50
270.0
 51
360.0
  0
ARC
  5
459
100
AcDbEntity
  8
0
100
AcDbCircle
 62
7
  6
CONTINUOUS
 10
8.9155390473
 20
12.320871841
 40
0.0199996588
100
AcDbArc
 50
275.4425954375
 51
0.0008498369
  0
ARC
  5
45A
100
AcDbEntity
  8
0
100
AcDbCircle
 62
7
  6
CONTINUOUS
 10
7.4458720839
 20
13.1450477814
 40
0.2
100
AcDbArc
 50
180.0
 51
360.0
  0
CIRCLE
  5
45B
100
AcDbEntity
  8
0
100
AcDbCircle
 62
7
  6
CONTINUOUS
 10
7.4458720839
 20
13.1950477814
 40
0.17
  0
CIRCLE
  5
45C
100
AcDbEntity
  8
0
100
AcDbCircle
 62
7
  6
CONTINUOUS
 10
7.4458720839
 20
13.1950477814
 40
0.1575
  0
ARC
  5
45D
100
AcDbEntity
  8
0
100
AcDbCircle
 62
7
  6
CONTINUOUS
 10
8.3095220108
 20
12.8790944743
 40
0.0201323597
100
AcDbArc
 50
73.0416293959
 51
79.9935819873
  0
ARC
  5
45E
100
AcDbEntity
  8
0
100
AcDbCircle
 62
7
  6
CONTINUOUS
 10
8.3094502825
 20
12.8792125776
 40
0.020102554
100
AcDbArc
 50
0.0309175755
 51
12.5110277436
  0
ARC
  5
45F
100
AcDbEntity
  8
0
100
AcDbCircle
 62
7
  6
CONTINUOUS
 10
8.3095526518
 20
12.8792231703
 40
0.0200003242
100
AcDbArc
 50
12.5449315897
 51
73.0180554744
  0
ARC
  5
460
100
AcDbEntity
  8
0
100
AcDbCircle
 62
7
  6
CONTINUOUS
 10
6.4883720839
 20
13.3950477814
 40
0.02
100
AcDbArc
 50
0.0
 51
90.0
  0
ARC
  5
461
100
AcDbEntity
  8
0
100
AcDbCircle
 62
7
  6
CONTINUOUS
 10
7.8008720839
 20
13.3950477814
 40
0.02
100
AcDbArc
 50
0.0
 51
90.0
  0
ARC
  5
462
100
AcDbEntity
  8
0
100
AcDbCircle
 62
7
  6
CONTINUOUS
 10
7.6658720839
 20
13.3950477814
 40
0.02
100
AcDbArc
 50
90.0
 51
180.0
  0
ARC
  5
463
100
AcDbEntity
  8
0
100
AcDbCircle
 62
7
  6
CONTINUOUS
 10
7.2258720839
 20
13.3950477814
 40
0.02
100
AcDbArc
 50
0.0
 51
90.0
  0
ARC
  5
464
100
AcDbEntity
  8
0
100
AcDbCircle
 62
7
  6
CONTINUOUS
 10
8.9155390373
 20
12.8792237177
 40
0.019999674
100
AcDbArc
 50
359.9991619543
 51
84.5573709721
  0
ARC
  5
465
100
AcDbEntity
  8
0
100
AcDbCircle
 62
7
  6
CONTINUOUS
 10
15.8394019499
 20
3.2219747775
 40
0.0201323597
100
AcDbArc
 50
343.0416293957
 51
349.9935819874
  0
ARC
  5
466
100
AcDbEntity
  8
0
100
AcDbCircle
 62
7
  6
CONTINUOUS
 10
15.281308564
 20
7.6992746314
 40
0.0201323597
100
AcDbArc
 50
163.0416293957
 51
169.9935820621
  0
ARC
  5
467
100
AcDbEntity
  8
0
100
AcDbCircle
 62
7
  6
CONTINUOUS
 10
15.2811908745
 20
3.2220489744
 40
0.02010502
100
AcDbArc
 50
257.3295063563
 51
269.9679071333
  0
ARC
  5
468
100
AcDbEntity
  8
0
100
AcDbCircle
 62
7
  6
CONTINUOUS
 10
15.8395196394
 20
7.6992004345
 40
0.02010502
100
AcDbArc
 50
77.3295063564
 51
89.9679071333
  0
ARC
  5
469
100
AcDbEntity
  8
0
100
AcDbCircle
 62
7
  6
CONTINUOUS
 10
15.8395200532
 20
3.2220465059
 40
0.020102554
100
AcDbArc
 50
270.0309175754
 51
282.5110277436
  0
ARC
  5
46A
100
AcDbEntity
  8
0
100
AcDbCircle
 62
7
  6
CONTINUOUS
 10
15.2811904607
 20
7.699202903
 40
0.020102554
100
AcDbArc
 50
90.0309175755
 51
102.5110277435
  0
ARC
  5
46B
100
AcDbEntity
  8
0
100
AcDbCircle
 62
7
  6
CONTINUOUS
 10
15.2812334938
 20
3.2219735181
 40
0.0200613347
100
AcDbArc
 50
204.5908569068
 51
213.0679127293
  0
ARC
  5
46C
100
AcDbEntity
  8
0
100
AcDbCircle
 62
7
  6
CONTINUOUS
 10
15.8394770201
 20
7.6992758907
 40
0.0200613347
100
AcDbArc
 50
24.5908569069
 51
33.0679127293
  0
ARC
  5
46D
100
AcDbEntity
  8
0
100
AcDbCircle
 62
7
  6
CONTINUOUS
 10
15.281214744
 20
3.22195479
 40
0.0200364942
100
AcDbArc
 50
189.9967489469
 51
204.5644714031
  0
ARC
  5
46E
100
AcDbEntity
  8
0
100
AcDbCircle
 62
7
  6
CONTINUOUS
 10
15.8394957698
 20
7.6992946189
 40
0.0200364942
100
AcDbArc
 50
9.9967494544
 51
24.5644714023
  0
ARC
  5
46F
100
AcDbEntity
  8
0
100
AcDbCircle
 62
7
  6
CONTINUOUS
 10
15.2811801919
 20
3.2219446933
 40
0.0200009392
100
AcDbArc
 50
213.0820279283
 51
257.293838726
  0
ARC
  5
470
100
AcDbEntity
  8
0
100
AcDbCircle
 62
7
  6
CONTINUOUS
 10
15.839530322
 20
7.6993047156
 40
0.0200009392
100
AcDbArc
 50
33.0820279283
 51
77.293838726
  0
ARC
  5
471
100
AcDbEntity
  8
0
100
AcDbCircle
 62
7
  6
CONTINUOUS
 10
15.8395306458
 20
3.2219441365
 40
0.0200003242
100
AcDbArc
 50
282.5449315897
 51
343.0180554744
  0
ARC
  5
472
100
AcDbEntity
  8
0
100
AcDbCircle
 62
7
  6
CONTINUOUS
 10
15.281179868
 20
7.6993052724
 40
0.0200003242
100
AcDbArc
 50
102.5449315896
 51
163.0180554744
  0
ARC
  5
473
100
AcDbEntity
  8
0
100
AcDbCircle
 62
7
  6
CONTINUOUS
 10
14.7653552569
 20
6.6806247044
 40
0.02
100
AcDbArc
 50
90.0
 51
180.0
  0
ARC
  5
474
100
AcDbEntity
  8
0
100
AcDbCircle
 62
7
  6
CONTINUOUS
 10
14.7653552569
 20
4.4206247044
 40
0.02
100
AcDbArc
 50
180.0
 51
270.0
  0
ARC
  5
475
100
AcDbEntity
  8
0
100
AcDbCircle
 62
7
  6
CONTINUOUS
 10
16.3553552569
 20
6.6806247044
 40
0.02
100
AcDbArc
 50
0.0
 51
90.0
  0
ARC
  5
476
100
AcDbEntity
  8
0
100
AcDbCircle
 62
7
  6
CONTINUOUS
 10
16.3553552569
 20
4.4206247044
 40
0.02
100
AcDbArc
 50
270.0
 51
360.0
  0
ARC
  5
477
100
AcDbEntity
  8
0
100
AcDbCircle
 62
7
  6
CONTINUOUS
 10
14.7653552569
 20
4.9056247044
 40
0.02
100
AcDbArc
 50
180.0
 51
270.0
  0
ARC
  5
478
100
AcDbEntity
  8
0
100
AcDbCircle
 62
7
  6
CONTINUOUS
 10
14.7653552569
 20
6.0156247044
 40
0.02
100
AcDbArc
 50
90.0
 51
180.0
  0
ARC
  5
479
100
AcDbEntity
  8
0
100
AcDbCircle
 62
7
  6
CONTINUOUS
 10
16.3553552569
 20
6.0156247044
 40
0.02
100
AcDbArc
 50
0.0
 51
90.0
  0
ARC
  5
47A
100
AcDbEntity
  8
0
100
AcDbCircle
 62
7
  6
CONTINUOUS
 10
16.3553552569
 20
4.9056247044
 40
0.02
100
AcDbArc
 50
270.0
 51
360.0
  0
ARC
  5
47B
100
AcDbEntity
  8
0
100
AcDbCircle
 62
7
  6
CONTINUOUS
 10
15.8395311932
 20
2.615957751
 40
0.019999674
100
AcDbArc
 50
269.999161969
 51
354.5573709868
  0
ARC
  5
47C
100
AcDbEntity
  8
0
100
AcDbCircle
 62
7
  6
CONTINUOUS
 10
15.2811793206
 20
8.3052916574
 40
0.019999674
100
AcDbArc
 50
89.9991617794
 51
174.5573752059
  0
ARC
  5
47D
100
AcDbEntity
  8
0
100
AcDbCircle
 62
7
  6
CONTINUOUS
 10
15.8395312008
 20
8.3052916647
 40
0.0199996588
100
AcDbArc
 50
5.4426071811
 51
90.0008598348
  0
ARC
  5
47E
100
AcDbEntity
  8
0
100
AcDbCircle
 62
7
  6
CONTINUOUS
 10
15.2811793096
 20
2.6159577477
 40
0.0199996588
100
AcDbArc
 50
185.4426163737
 51
270.0008697082
  0
ARC
  5
47F
100
AcDbEntity
  8
0
100
AcDbCircle
 62
7
  6
CONTINUOUS
 10
13.8942545262
 20
11.1658708595
 40
0.0200000478
100
AcDbArc
 50
165.5035600473
 51
239.3844798292
  0
ARC
  5
480
100
AcDbEntity
  8
0
100
AcDbCircle
 62
7
  6
CONTINUOUS
 10
13.8167728106
 20
12.0472635524
 40
0.5350947461
100
AcDbArc
 50
325.3041143201
 51
325.8996211629
  0
ARC
  5
481
100
AcDbEntity
  8
0
100
AcDbCircle
 62
7
  6
CONTINUOUS
 10
14.0012862971
 20
12.1657462469
 40
0.2177350733
100
AcDbArc
 50
114.6201746611
 51
116.7608074872
  0
ARC
  5
482
100
AcDbEntity
  8
0
100
AcDbCircle
 62
7
  6
CONTINUOUS
 10
13.9948814257
 20
12.1750800073
 40
0.2064139
100
AcDbArc
 50
126.8883390503
 51
127.1933581668
  0
ARC
  5
483
100
AcDbEntity
  8
0
100
AcDbCircle
 62
7
  6
CONTINUOUS
 10
14.0003613431
 20
12.1992123576
 40
0.1853640136
100
AcDbArc
 50
90.0038172152
 51
92.1124843455
  0
ARC
  5
484
100
AcDbEntity
  8
0
100
AcDbCircle
 62
7
  6
CONTINUOUS
 10
13.9935292457
 20
12.2158615732
 40
0.1666768515
100
AcDbArc
 50
87.6936717505
 51
90.0083190064
  0
ARC
  5
485
100
AcDbEntity
  8
0
100
AcDbCircle
 62
7
  6
CONTINUOUS
 10
13.951188488
 20
12.4768108221
 40
0.142119872
100
AcDbArc
 50
342.8023105981
 51
346.5008322832
  0
ARC
  5
486
100
AcDbEntity
  8
0
100
AcDbCircle
 62
7
  6
CONTINUOUS
 10
13.9135593848
 20
12.22655235
 40
0.1082452859
100
AcDbArc
 50
167.7981210344
 51
171.9988238157
  0
ARC
  5
487
100
AcDbEntity
  8
0
100
AcDbCircle
 62
7
  6
CONTINUOUS
 10
13.8881992183
 20
12.2262539193
 40
0.0826802331
100
AcDbArc
 50
212.5480496231
 51
215.3804222971
  0
ARC
  5
488
100
AcDbEntity
  8
0
100
AcDbCircle
 62
7
  6
CONTINUOUS
 10
13.6165818832
 20
11.5551968984
 40
0.0493828571
100
AcDbArc
 50
69.5624081823
 51
78.5776182407
  0
ARC
  5
489
100
AcDbEntity
  8
0
100
AcDbCircle
 62
7
  6
CONTINUOUS
 10
13.8545566703
 20
11.5432117925
 40
0.0201452397
100
AcDbArc
 50
254.1634874214
 51
269.9311361272
  0
ARC
  5
48A
100
AcDbEntity
  8
0
100
AcDbCircle
 62
7
  6
CONTINUOUS
 10
12.9207178692
 20
12.0126058966
 40
0.0201159644
100
AcDbArc
 50
197.8475918047
 51
215.8891026622
  0
ARC
  5
48B
100
AcDbEntity
  8
0
100
AcDbCircle
 62
7
  6
CONTINUOUS
 10
13.9788534879
 20
11.5431794685
 40
0.0201129134
100
AcDbArc
 50
270.0632528261
 51
292.1892599047
  0
ARC
  5
48C
100
AcDbEntity
  8
0
100
AcDbCircle
 62
7
  6
CONTINUOUS
 10
13.2424038185
 20
11.6501649737
 40
0.0200719703
100
AcDbArc
 50
251.9938495546
 51
264.0516558814
  0
ARC
  5
48D
100
AcDbEntity
  8
0
100
AcDbCircle
 62
7
  6
CONTINUOUS
 10
12.6462329124
 20
12.5716867791
 40
0.0200021061
100
AcDbArc
 50
194.3860359964
 51
246.4195610636
  0
ARC
  5
48E
100
AcDbEntity
  8
0
100
AcDbCircle
 62
7
  6
CONTINUOUS
 10
13.2423894558
 20
11.6500952833
 40
0.0200012549
100
AcDbArc
 50
226.6686835253
 51
251.9712666633
  0
ARC
  5
48F
100
AcDbEntity
  8
0
100
AcDbCircle
 62
7
  6
CONTINUOUS
 10
13.5159327756
 20
12.2330533804
 40
0.0199970073
100
AcDbArc
 50
162.8242238996
 51
206.1419178885
  0
ARC
  5
490
100
AcDbEntity
  8
0
100
AcDbCircle
 62
7
  6
CONTINUOUS
 10
14.0455428471
 20
12.2330533804
 40
0.0199970073
100
AcDbArc
 50
162.8242238995
 51
206.1419178885
  0
ARC
  5
491
100
AcDbEntity
  8
0
100
AcDbCircle
 62
7
  6
CONTINUOUS
 10
12.9206058231
 20
12.0125523882
 40
0.0199929178
100
AcDbArc
 50
162.7723802817
 51
197.8000402962
  0
ARC
  5
492
100
AcDbEntity
  8
0
100
AcDbCircle
 62
7
  6
CONTINUOUS
 10
13.8545226749
 20
11.5430561389
 40
0.0199865216
100
AcDbArc
 50
206.1240299775
 51
254.1354741482
  0
ARC
  5
493
100
AcDbEntity
  8
0
100
AcDbCircle
 62
7
  6
CONTINUOUS
 10
13.9789115641
 20
11.5430146779
 40
0.0199383953
100
AcDbArc
 50
292.2135732391
 51
317.1001372496
  0
ARC
  5
494
100
AcDbEntity
  8
0
100
AcDbCircle
 62
7
  6
CONTINUOUS
 10
14.6003749637
 20
9.7701628629
 40
4.7723951897
100
AcDbArc
 50
77.0168825004
 51
84.1450405798
  0
ARC
  5
495
100
AcDbEntity
  8
RING
100
AcDbCircle
 62
7
  6
CONTINUOUS
 10
14.8675481247
 20
10.013080537
 40
4.1258985426
100
AcDbArc
 50
57.1898266369
 51
57.4796730199
  0
ARC
  5
496
100
AcDbEntity
  8
RING
100
AcDbCircle
 62
7
  6
CONTINUOUS
 10
14.8694137297
 20
10.0149448742
 40
4.1245481587
100
AcDbArc
 50
57.1980087574
 51
57.4879753582
  0
ARC
  5
497
100
AcDbEntity
  8
0
100
AcDbCircle
 62
7
  6
CONTINUOUS
 10
14.7290972216
 20
9.9402675998
 40
3.7952515169
100
AcDbArc
 50
61.8513784377
 51
62.2690676799
  0
ARC
  5
498
100
AcDbEntity
  8
0
100
AcDbCircle
 62
7
  6
CONTINUOUS
 10
14.7927695049
 20
10.0577137113
 40
3.6616581466
100
AcDbArc
 50
58.1470594284
 51
61.8628816905
  0
ARC
  5
499
100
AcDbEntity
  8
0
100
AcDbCircle
 62
7
  6
CONTINUOUS
 10
14.981231999
 20
10.360916449
 40
3.3046567368
100
AcDbArc
 50
53.6766090606
 51
58.1482486718
  0
ARC
  5
49A
100
AcDbEntity
  8
0
100
AcDbCircle
 62
7
  6
CONTINUOUS
 10
15.1016768214
 20
10.5288620612
 40
3.0980016362
100
AcDbArc
 50
53.437717973
 51
53.631473502
  0
ARC
  5
49B
100
AcDbEntity
  8
0
100
AcDbCircle
 62
7
  6
CONTINUOUS
 10
15.1118257633
 20
10.542549379
 40
3.0809621619
100
AcDbArc
 50
53.2186166918
 51
53.4376853482
  0
ARC
  5
49C
100
AcDbEntity
  8
0
100
AcDbCircle
 62
7
  6
CONTINUOUS
 10
15.1750746039
 20
10.6262636535
 40
2.9760412564
100
AcDbArc
 50
50.6077917613
 51
53.1113858699
  0
ARC
  5
49D
100
AcDbEntity
  8
0
100
AcDbCircle
 62
7
  6
CONTINUOUS
 10
14.4176089299
 20
10.900611122
 40
0.0200790039
100
AcDbArc
 50
273.4149923835
 51
288.300960239
  0
ARC
  5
49E
100
AcDbEntity
  8
0
100
AcDbCircle
 62
7
  6
CONTINUOUS
 10
14.4176238504
 20
10.9005323643
 40
0.0199994998
100
AcDbArc
 50
246.6958781523
 51
273.3857635328
  0
ARC
  5
49F
100
AcDbEntity
  8
0
100
AcDbCircle
 62
7
  6
CONTINUOUS
 10
15.2723012118
 20
10.6209614761
 40
0.0199937335
100
AcDbArc
 50
213.6895391238
 51
253.168696632
  0
ARC
  5
4A0
100
AcDbEntity
  8
0
100
AcDbCircle
 62
7
  6
CONTINUOUS
 10
15.2722927695
 20
10.6209048867
 40
0.0199371255
100
AcDbArc
 50
253.1448292744
 51
257.0422390252
  0
ARC
  5
4A1
100
AcDbEntity
  8
0
100
AcDbCircle
 62
7
  6
CONTINUOUS
 10
14.6232049364
 20
11.2427442139
 40
3.2955877793
100
AcDbArc
 50
96.4241639295
 51
96.5591161968
  0
ARC
  5
4A2
100
AcDbEntity
  8
RING
100
AcDbCircle
 62
7
  6
CONTINUOUS
 10
14.4075714901
 20
11.5986935982
 40
2.6243063651
100
AcDbArc
 50
102.1917047193
 51
106.6222746753
  0
ARC
  5
4A3
100
AcDbEntity
  8
0
100
AcDbCircle
 62
7
  6
CONTINUOUS
 10
15.45349117
 20
12.7062299245
 40
1.4406319913
100
AcDbArc
 50
235.753544132
 51
235.9488297858
  0
ARC
  5
4A4
100
AcDbEntity
  8
0
100
AcDbCircle
 62
7
  6
CONTINUOUS
 10
14.6162355292
 20
11.4736586939
 40
0.0495234832
100
AcDbArc
 50
67.3658807847
 51
78.340065586
  0
ARC
  5
4A5
100
AcDbEntity
  8
0
100
AcDbCircle
 62
7
  6
CONTINUOUS
 10
14.3841667419
 20
11.5432117925
 40
0.0201452397
100
AcDbArc
 50
254.1634874215
 51
269.9311361271
  0
ARC
  5
4A6
100
AcDbEntity
  8
0
100
AcDbCircle
 62
7
  6
CONTINUOUS
 10
14.5445141695
 20
12.6006595526
 40
0.0200721918
100
AcDbArc
 50
191.6123626568
 51
206.112202642
  0
ARC
  5
4A7
100
AcDbEntity
  8
0
100
AcDbCircle
 62
7
  6
CONTINUOUS
 10
14.5444450574
 20
12.6006360365
 40
0.0199997628
100
AcDbArc
 50
162.8274543797
 51
191.5862262579
  0
ARC
  5
4A8
100
AcDbEntity
  8
0
100
AcDbCircle
 62
7
  6
CONTINUOUS
 10
14.3841327464
 20
11.5430561389
 40
0.0199865216
100
AcDbArc
 50
206.1240299811
 51
254.1354741379
  0
ARC
  5
4A9
100
AcDbEntity
  8
0
100
AcDbCircle
 62
7
  6
CONTINUOUS
 10
14.7027504195
 20
13.3045998644
 40
2.2212266806
100
AcDbArc
 50
215.9420571832
 51
216.1761995846
  0
ARC
  5
4AA
100
AcDbEntity
  8
RING
100
AcDbCircle
 62
7
  6
CONTINUOUS
 10
14.6866708248
 20
13.5342074602
 40
2.087916518
100
AcDbArc
 50
211.6433667049
 51
215.7542454325
  0
ARC
  5
4AB
100
AcDbEntity
  8
RING
100
AcDbCircle
 62
7
  6
CONTINUOUS
 10
14.2399689838
 20
13.1503055538
 40
1.6289873388
100
AcDbArc
 50
203.3511841774
 51
206.1461439404
  0
ARC
  5
4AC
100
AcDbEntity
  8
RING
100
AcDbCircle
 62
7
  6
CONTINUOUS
 10
14.2222138383
 20
13.1429972613
 40
1.6114822223
100
AcDbArc
 50
203.2994788996
 51
206.1622079968
  0
ARC
  5
4AD
100
AcDbEntity
  8
0
100
AcDbCircle
 62
7
  6
CONTINUOUS
 10
14.349807652
 20
12.7960969595
 40
1.4457504169
100
AcDbArc
 50
119.4577245556
 51
120.8547924642
  0
ARC
  5
4AE
100
AcDbEntity
  8
0
100
AcDbCircle
 62
7
  6
CONTINUOUS
 10
14.0246604109
 20
12.9985251512
 40
1.4206424202
100
AcDbArc
 50
126.7307257916
 51
127.0351164513
  0
ARC
  5
4AF
100
AcDbEntity
  8
0
100
AcDbCircle
 62
7
  6
CONTINUOUS
 10
14.2436336267
 20
12.8471636534
 40
1.2924666287
100
AcDbArc
 50
200.6455681864
 51
201.1357202247
  0
ARC
  5
4B0
100
AcDbEntity
  8
0
100
AcDbCircle
 62
7
  6
CONTINUOUS
 10
13.604875559
 20
12.8562154214
 40
1.0156613637
100
AcDbArc
 50
175.5109428857
 51
176.4346853111
  0
ARC
  5
4B1
100
AcDbEntity
  8
RING
100
AcDbCircle
 62
7
  6
CONTINUOUS
 10
13.6379785132
 20
12.981437238
 40
1.0104801644
100
AcDbArc
 50
146.1782686986
 51
152.5046789509
  0
ARC
  5
4B2
100
AcDbEntity
  8
RING
100
AcDbCircle
 62
7
  6
CONTINUOUS
 10
13.6300634955
 20
12.986435929
 40
0.9991732319
100
AcDbArc
 50
146.5172132841
 51
152.535631787
  0
ARC
  5
4B3
100
AcDbEntity
  8
RING
100
AcDbCircle
 62
7
  6
CONTINUOUS
 10
13.6102246814
 20
12.9967106108
 40
0.978810092
100
AcDbArc
 50
152.5476995233
 51
153.0704402624
  0
ARC
  5
4B4
100
AcDbEntity
  8
RING
100
AcDbCircle
 62
7
  6
CONTINUOUS
 10
13.6114821201
 20
12.9963262449
 40
0.9781246566
100
AcDbArc
 50
152.5476976888
 51
153.074406366
  0
ARC
  5
4B5
100
AcDbEntity
  8
RING
100
AcDbCircle
 62
7
  6
CONTINUOUS
 10
13.5926122263
 20
13.0051491609
 40
0.9592857932
100
AcDbArc
 50
153.043378857
 51
162.8080436928
  0
ARC
  5
4B6
100
AcDbEntity
  8
RING
100
AcDbCircle
 62
7
  6
CONTINUOUS
 10
13.5938852147
 20
13.0047563741
 40
0.9586180035
100
AcDbArc
 50
153.0473789976
 51
162.8080641015
  0
ARC
  5
4B7
100
AcDbEntity
  8
0
100
AcDbCircle
 62
7
  6
CONTINUOUS
 10
13.801418389
 20
12.7736867182
 40
0.8391243363
100
AcDbArc
 50
162.8312748204
 51
167.6346361459
  0
ARC
  5
4B8
100
AcDbEntity
  8
02___PRT_ALL_AXES
100
AcDbCircle
 62
7
  6
CONTINUOUS
 10
14.7023342766
 20
13.7753185845
 40
0.0812395683
100
AcDbArc
 50
61.4281860961
 51
66.1750635441
  0
ARC
  5
4B9
100
AcDbEntity
  8
0
100
AcDbCircle
 62
7
  6
CONTINUOUS
 10
12.7476466118
 20
13.3714037728
 40
0.0202422064
100
AcDbArc
 50
141.9011613728
 51
162.8309426003
  0
ARC
  5
4BA
100
AcDbEntity
  8
0
100
AcDbCircle
 62
7
  6
CONTINUOUS
 10
12.7891107374
 20
13.4183365774
 40
0.0202195284
100
AcDbArc
 50
162.8158646717
 51
182.643291628
  0
ARC
  5
4BB
100
AcDbEntity
  8
0
100
AcDbCircle
 62
7
  6
CONTINUOUS
 10
12.7890000628
 20
13.41845029
 40
0.020135872
100
AcDbArc
 50
206.4008304607
 51
227.336985029
  0
ARC
  5
4BC
100
AcDbEntity
  8
0
100
AcDbCircle
 62
7
  6
CONTINUOUS
 10
13.7673472996
 20
14.4005417753
 40
0.0201114979
100
AcDbArc
 50
106.5970822398
 51
124.9632684271
  0
ARC
  5
4BD
100
AcDbEntity
  8
0
100
AcDbCircle
 62
7
  6
CONTINUOUS
 10
13.6322194675
 20
13.9632897312
 40
0.0200808016
100
AcDbArc
 50
186.229586284
 51
199.1068606748
  0
ARC
  5
4BE
100
AcDbEntity
  8
0
100
AcDbCircle
 62
7
  6
CONTINUOUS
 10
13.1869923772
 20
14.1210020768
 40
0.0200747171
100
AcDbArc
 50
77.3785499938
 51
92.2065570473
  0
ARC
  5
4BF
100
AcDbEntity
  8
0
100
AcDbCircle
 62
7
  6
CONTINUOUS
 10
14.2566758299
 20
14.4976980855
 40
0.0200720262
100
AcDbArc
 50
59.4591888334
 51
71.5262514582
  0
ARC
  5
4C0
100
AcDbEntity
  8
0
100
AcDbCircle
 62
7
  6
CONTINUOUS
 10
12.6123280865
 20
12.9341327844
 40
0.0200602397
100
AcDbArc
 50
162.8452390668
 51
175.490783564
  0
ARC
  5
4C1
100
AcDbEntity
  8
0
100
AcDbCircle
 62
7
  6
CONTINUOUS
 10
12.9240874907
 20
13.8557225085
 40
0.0200429822
100
AcDbArc
 50
151.9182474291
 51
162.8205289709
  0
ARC
  5
4C2
100
AcDbEntity
  8
0
100
AcDbCircle
 62
7
  6
CONTINUOUS
 10
12.9240690014
 20
13.8557257192
 40
0.0200251591
100
AcDbArc
 50
144.687777568
 51
151.9014502196
  0
ARC
  5
4C3
100
AcDbEntity
  8
0
100
AcDbCircle
 62
7
  6
CONTINUOUS
 10
13.1870006364
 20
14.1210731004
 40
0.0200040672
100
AcDbArc
 50
92.2380279844
 51
126.727268155
  0
ARC
  5
4C4
100
AcDbEntity
  8
0
100
AcDbCircle
 62
7
  6
CONTINUOUS
 10
14.2567057671
 20
14.4977629747
 40
0.0200009962
100
AcDbArc
 50
71.5486905946
 51
96.4235769458
  0
ARC
  5
4C5
100
AcDbEntity
  8
0
100
AcDbCircle
 62
7
  6
CONTINUOUS
 10
13.6321347712
 20
13.9632721693
 40
0.0199947015
100
AcDbArc
 50
162.8063737385
 51
186.2058951145
  0
ARC
  5
4C6
100
AcDbEntity
  8
0
100
AcDbCircle
 62
7
  6
CONTINUOUS
 10
13.7672933894
 20
14.4006474152
 40
0.0199940373
100
AcDbArc
 50
125.0101407997
 51
162.8844953862
  0
ARC
  5
4C7
100
AcDbEntity
  8
0
100
AcDbCircle
 62
7
  6
CONTINUOUS
 10
15.0851689248
 20
14.497775636
 40
0.019982965
100
AcDbArc
 50
100.6603679456
 51
104.2709069729
  0
ARC
  5
4C8
100
AcDbEntity
  8
0
100
AcDbCircle
 62
7
  6
CONTINUOUS
 10
12.7888535344
 20
13.418358045
 40
0.0199636168
100
AcDbArc
 50
182.7388815203
 51
206.3506892923
  0
ARC
  5
4C9
100
AcDbEntity
  8
0
100
AcDbCircle
 62
7
  6
CONTINUOUS
 10
12.7473962183
 20
13.3715517752
 40
0.0199538757
100
AcDbArc
 50
115.880367603
 51
141.7919682183
  0
ARC
  5
4CA
100
AcDbEntity
  8
0
100
AcDbCircle
 62
7
  6
CONTINUOUS
 10
15.0851525603
 20
14.4978456927
 40
0.0199110363
100
AcDbArc
 50
104.2749642467
 51
127.4890407128
  0
ARC
  5
4CB
100
AcDbEntity
  8
0
100
AcDbCircle
 62
7
  6
CONTINUOUS
 10
16.9170844754
 20
11.5432117925
 40
0.0201452397
100
AcDbArc
 50
254.1634874214
 51
269.9311361272
  0
ARC
  5
4CC
100
AcDbEntity
  8
0
100
AcDbCircle
 62
7
  6
CONTINUOUS
 10
15.8569328262
 20
10.5239196696
 40
0.020122212
100
AcDbArc
 50
313.5273669201
 51
333.6624635505
  0
ARC
  5
4CD
100
AcDbEntity
  8
0
100
AcDbCircle
 62
7
  6
CONTINUOUS
 10
16.5117712214
 20
11.5431794685
 40
0.0201129134
100
AcDbArc
 50
270.0632528261
 51
292.1892599047
  0
ARC
  5
4CE
100
AcDbEntity
  8
0
100
AcDbCircle
 62
7
  6
CONTINUOUS
 10
17.0413812929
 20
11.5431794685
 40
0.0201129134
100
AcDbArc
 50
270.0632528261
 51
292.1892599047
  0
ARC
  5
4CF
100
AcDbEntity
  8
0
100
AcDbCircle
 62
7
  6
CONTINUOUS
 10
16.6855187191
 20
10.5239208746
 40
0.0200744479
100
AcDbArc
 50
264.1248781183
 51
276.401269233
  0
ARC
  5
4D0
100
AcDbEntity
  8
0
100
AcDbCircle
 62
7
  6
CONTINUOUS
 10
15.8570314987
 20
10.5238909444
 40
0.0200445946
100
AcDbArc
 50
264.2269714177
 51
278.9249102336
  0
ARC
  5
4D1
100
AcDbEntity
  8
0
100
AcDbCircle
 62
7
  6
CONTINUOUS
 10
16.685519278
 20
10.5238466494
 40
0.0200006715
100
AcDbArc
 50
239.437799394
 51
264.1015204622
  0
ARC
  5
4D2
100
AcDbEntity
  8
0
100
AcDbCircle
 62
7
  6
CONTINUOUS
 10
15.8570329346
 20
10.5238455916
 40
0.019999569
100
AcDbArc
 50
278.9410034993
 51
313.4655848273
  0
ARC
  5
4D3
100
AcDbEntity
  8
0
100
AcDbCircle
 62
7
  6
CONTINUOUS
 10
16.9170504799
 20
11.5430561389
 40
0.0199865216
100
AcDbArc
 50
206.1240299849
 51
254.1354741363
  0
ARC
  5
4D4
100
AcDbEntity
  8
0
100
AcDbCircle
 62
7
  6
CONTINUOUS
 10
16.5118292976
 20
11.5430146779
 40
0.0199383953
100
AcDbArc
 50
292.213573239
 51
317.1001372497
  0
ARC
  5
4D5
100
AcDbEntity
  8
0
100
AcDbCircle
 62
7
  6
CONTINUOUS
 10
17.0414393691
 20
11.5430146779
 40
0.0199383953
100
AcDbArc
 50
292.213573239
 51
317.1001372496
  0
ARC
  5
4D6
100
AcDbEntity
  8
0
100
AcDbCircle
 62
7
  6
CONTINUOUS
 10
16.603799016
 20
12.2061701866
 40
1.4233078996
100
AcDbArc
 50
300.3653404074
 51
300.860805592
  0
ARC
  5
4D7
100
AcDbEntity
  8
0
100
AcDbCircle
 62
7
  6
CONTINUOUS
 10
16.9925874267
 20
11.7878130386
 40
0.8448896949
100
AcDbArc
 50
332.4029951099
 51
342.8063749359
  0
ARC
  5
4D8
100
AcDbEntity
  8
0
100
AcDbCircle
 62
7
  6
CONTINUOUS
 10
16.3495608458
 20
12.0473527362
 40
0.5352520372
100
AcDbArc
 50
325.3041745682
 51
325.9012515763
  0
ARC
  5
4D9
100
AcDbEntity
  8
0
100
AcDbCircle
 62
7
  6
CONTINUOUS
 10
15.9362970092
 20
11.6862714636
 40
0.372205631
100
AcDbArc
 50
331.2138827713
 51
333.7118191353
  0
ARC
  5
4DA
100
AcDbEntity
  8
0
100
AcDbCircle
 62
7
  6
CONTINUOUS
 10
16.5342040306
 20
12.1657462469
 40
0.2177350733
100
AcDbArc
 50
114.6201746612
 51
116.7608074871
  0
ARC
  5
4DB
100
AcDbEntity
  8
0
100
AcDbCircle
 62
7
  6
CONTINUOUS
 10
16.5277991587
 20
12.1750800079
 40
0.2064138993
100
AcDbArc
 50
126.8883390497
 51
127.1933581673
  0
ARC
  5
4DC
100
AcDbEntity
  8
0
100
AcDbCircle
 62
7
  6
CONTINUOUS
 10
16.5332790766
 20
12.1992123576
 40
0.1853640136
100
AcDbArc
 50
90.0038172151
 51
92.1124843455
  0
ARC
  5
4DD
100
AcDbEntity
  8
0
100
AcDbCircle
 62
7
  6
CONTINUOUS
 10
16.5264469792
 20
12.2158615732
 40
0.1666768515
100
AcDbArc
 50
87.6936717505
 51
90.0083190064
  0
ARC
  5
4DE
100
AcDbEntity
  8
0
100
AcDbCircle
 62
7
  6
CONTINUOUS
 10
16.4841062215
 20
12.4768108221
 40
0.142119872
100
AcDbArc
 50
342.8023105981
 51
346.5008322831
  0
ARC
  5
4DF
100
AcDbEntity
  8
0
100
AcDbCircle
 62
7
  6
CONTINUOUS
 10
16.4464771183
 20
12.22655235
 40
0.1082452859
100
AcDbArc
 50
167.7981210344
 51
171.9988238157
  0
ARC
  5
4E0
100
AcDbEntity
  8
0
100
AcDbCircle
 62
7
  6
CONTINUOUS
 10
16.4211169518
 20
12.2262539193
 40
0.0826802331
100
AcDbArc
 50
212.5480496232
 51
215.380422297
  0
ARC
  5
4E1
100
AcDbEntity
  8
0
100
AcDbCircle
 62
7
  6
CONTINUOUS
 10
16.5784605806
 20
12.2330533804
 40
0.0199970073
100
AcDbArc
 50
162.8242238996
 51
206.1419178885
  0
ARC
  5
4E2
100
AcDbEntity
  8
0
100
AcDbCircle
 62
7
  6
CONTINUOUS
 10
17.755171939
 20
10.9006352895
 40
0.0201142568
100
AcDbArc
 50
288.7302010371
 51
306.6791879304
  0
ARC
  5
4E3
100
AcDbEntity
  8
0
100
AcDbCircle
 62
7
  6
CONTINUOUS
 10
17.7552330482
 20
10.90061563
 40
0.0200823583
100
AcDbArc
 50
257.3820034955
 51
272.498702326
  0
ARC
  5
4E4
100
AcDbEntity
  8
0
100
AcDbCircle
 62
7
  6
CONTINUOUS
 10
18.0181750217
 20
11.1658720617
 40
0.0200025297
100
AcDbArc
 50
324.6847038185
 51
342.8310287348
  0
ARC
  5
4E5
100
AcDbEntity
  8
0
100
AcDbCircle
 62
7
  6
CONTINUOUS
 10
17.1749258701
 20
10.6209671068
 40
0.0200006018
100
AcDbArc
 50
286.5473974276
 51
342.8727632909
  0
ARC
  5
4E6
100
AcDbEntity
  8
0
100
AcDbCircle
 62
7
  6
CONTINUOUS
 10
17.7552368049
 20
10.9004736676
 40
0.0199403673
100
AcDbArc
 50
272.5057016181
 51
288.7028123502
  0
ARC
  5
4E7
100
AcDbEntity
  8
0
100
AcDbCircle
 62
7
  6
CONTINUOUS
 10
17.1630351779
 20
11.7717291524
 40
1.0680134871
100
AcDbArc
 50
323.8402120587
 51
324.682886198
  0
ARC
  5
4E8
100
AcDbEntity
  8
RING
100
AcDbCircle
 62
7
  6
CONTINUOUS
 10
17.2797424825
 20
11.8623419736
 40
0.9807763289
100
AcDbArc
 50
352.4274213694
 51
353.2431469575
  0
ARC
  5
4E9
100
AcDbEntity
  8
RING
100
AcDbCircle
 62
7
  6
CONTINUOUS
 10
17.2921758767
 20
11.8608394388
 40
0.9662726297
100
AcDbArc
 50
346.7391593349
 51
352.6936922207
  0
ARC
  5
4EA
100
AcDbEntity
  8
RING
100
AcDbCircle
 62
7
  6
CONTINUOUS
 10
17.3444400673
 20
12.0187206986
 40
0.9629341593
100
AcDbArc
 50
335.5651701136
 51
336.7242278831
  0
ARC
  5
4EB
100
AcDbEntity
  8
RING
100
AcDbCircle
 62
7
  6
CONTINUOUS
 10
17.2984710098
 20
11.8595170639
 40
0.9618389234
100
AcDbArc
 50
346.7264450998
 51
352.4472096179
  0
ARC
  5
4EC
100
AcDbEntity
  8
RING
100
AcDbCircle
 62
7
  6
CONTINUOUS
 10
17.3495084572
 20
12.0158253024
 40
0.9591977569
100
AcDbArc
 50
342.8461498905
 51
353.2818344634
  0
ARC
  5
4ED
100
AcDbEntity
  8
RING
100
AcDbCircle
 62
7
  6
CONTINUOUS
 10
17.3488677701
 20
12.0168345349
 40
0.9581214807
100
AcDbArc
 50
336.7232123187
 51
338.5165192135
  0
ARC
  5
4EE
100
AcDbEntity
  8
RING
100
AcDbCircle
 62
7
  6
CONTINUOUS
 10
17.3086774818
 20
11.8571748977
 40
0.9513673573
100
AcDbArc
 50
342.8256983385
 51
346.722601778
  0
ARC
  5
4EF
100
AcDbEntity
  8
0
100
AcDbCircle
 62
7
  6
CONTINUOUS
 10
17.9403148533
 20
12.6644835617
 40
0.0481886541
100
AcDbArc
 50
247.9306414445
 51
250.1630515437
  0
ARC
  5
4F0
100
AcDbEntity
  8
0
100
AcDbCircle
 62
7
  6
CONTINUOUS
 10
18.1530612363
 20
11.603282297
 40
0.020272719
100
AcDbArc
 50
342.845228083
 51
359.3889380965
  0
ARC
  5
4F1
100
AcDbEntity
  8
0
100
AcDbCircle
 62
7
  6
CONTINUOUS
 10
18.1945933935
 20
11.6501986608
 40
0.020225555
100
AcDbArc
 50
321.721725352
 51
342.8326023779
  0
ARC
  5
4F2
100
AcDbEntity
  8
0
100
AcDbCircle
 62
7
  6
CONTINUOUS
 10
18.295875029
 20
12.4498713986
 40
0.0201287281
100
AcDbArc
 50
14.4461407942
 51
33.4801233117
  0
ARC
  5
4F3
100
AcDbEntity
  8
0
100
AcDbCircle
 62
7
  6
CONTINUOUS
 10
18.1947671133
 20
11.6501980922
 40
0.0201065781
100
AcDbArc
 50
275.9416170218
 51
297.502669408
  0
ARC
  5
4F4
100
AcDbEntity
  8
0
100
AcDbCircle
 62
7
  6
CONTINUOUS
 10
18.295947777
 20
12.4498484069
 40
0.0200882814
100
AcDbArc
 50
50.6559676822
 51
66.3892412814
  0
ARC
  5
4F5
100
AcDbEntity
  8
0
100
AcDbCircle
 62
7
  6
CONTINUOUS
 10
18.3298968463
 20
12.0874772029
 40
0.020060244
100
AcDbArc
 50
342.8452437921
 51
355.4907802468
  0
ARC
  5
4F6
100
AcDbEntity
  8
0
100
AcDbCircle
 62
7
  6
CONTINUOUS
 10
18.1533386019
 20
11.6032441021
 40
0.0199967496
100
AcDbArc
 50
3.0149192812
 51
47.4127108869
  0
ARC
  5
4F7
100
AcDbEntity
  8
0
100
AcDbCircle
 62
7
  6
CONTINUOUS
 10
17.8864574335
 20
12.5716825071
 40
0.019995446
100
AcDbArc
 50
302.6619943001
 51
342.8559156567
  0
ARC
  5
4F8
100
AcDbEntity
  8
0
100
AcDbCircle
 62
7
  6
CONTINUOUS
 10
18.296030884
 20
12.4499574379
 40
0.0199512747
100
AcDbArc
 50
33.5209420263
 51
50.6420342269
  0
ARC
  5
4F9
100
AcDbEntity
  8
0
100
AcDbCircle
 62
7
  6
CONTINUOUS
 10
18.1948357579
 20
11.6500489013
 40
0.0199425496
100
AcDbArc
 50
297.5256763367
 51
321.6281293997
  0
ARC
  5
4FA
100
AcDbEntity
  8
0
100
AcDbCircle
 62
7
  6
CONTINUOUS
 10
18.1534583458
 20
11.6032751136
 40
0.0198755556
100
AcDbArc
 50
359.3974363029
 51
2.9438009013
  0
ARC
  5
4FB
100
AcDbEntity
  8
RING
100
AcDbCircle
 62
7
  6
CONTINUOUS
 10
16.4490774585
 20
15.6751674959
 40
5.0532478125
100
AcDbArc
 50
249.0205428528
 51
254.938337841
  0
ARC
  5
4FC
100
AcDbEntity
  8
RING
100
AcDbCircle
 62
7
  6
CONTINUOUS
 10
16.447210768
 20
15.6695358216
 40
5.0484713077
100
AcDbArc
 50
249.0035832009
 51
254.9551675179
  0
ARC
  5
4FD
100
AcDbEntity
  8
0
100
AcDbCircle
 62
7
  6
CONTINUOUS
 10
16.3421778197
 20
15.2533423746
 40
4.7743173202
100
AcDbArc
 50
256.9954688368
 51
264.108852721
  0
ARC
  5
4FE
100
AcDbEntity
  8
0
100
AcDbCircle
 62
7
  6
CONTINUOUS
 10
16.261233517
 20
15.0675334317
 40
4.3646692226
100
AcDbArc
 50
249.3805667318
 51
254.407275624
  0
ARC
  5
4FF
100
AcDbEntity
  8
0
100
AcDbCircle
 62
7
  6
CONTINUOUS
 10
16.1577057313
 20
14.1327413906
 40
3.4220687482
100
AcDbArc
 50
267.0335345241
 51
272.8693881445
  0
ARC
  5
500
100
AcDbEntity
  8
0
100
AcDbCircle
 62
7
  6
CONTINUOUS
 10
15.5330484731
 20
13.8614566296
 40
2.9495599894
100
AcDbArc
 50
230.2114342962
 51
230.3344549692
  0
ARC
  5
501
100
AcDbEntity
  8
0
100
AcDbCircle
 62
7
  6
CONTINUOUS
 10
16.4862543201
 20
12.9391478059
 40
2.4383122844
100
AcDbArc
 50
286.3494097731
 51
286.5453403096
  0
ARC
  5
502
100
AcDbEntity
  8
RING
100
AcDbCircle
 62
7
  6
CONTINUOUS
 10
16.6372136333
 20
13.073172116
 40
2.2583735985
100
AcDbArc
 50
286.6886112334
 51
290.5677464654
  0
ARC
  5
503
100
AcDbEntity
  8
0
100
AcDbCircle
 62
7
  6
CONTINUOUS
 10
17.0478220108
 20
13.8557489018
 40
0.0201465195
100
AcDbArc
 50
345.5822898812
 51
359.7307254913
  0
ARC
  5
504
100
AcDbEntity
  8
0
100
AcDbCircle
 62
7
  6
CONTINUOUS
 10
18.02147753
 20
13.0090792445
 40
0.0201345577
100
AcDbArc
 50
342.8381327822
 51
359.2391503065
  0
ARC
  5
505
100
AcDbEntity
  8
0
100
AcDbCircle
 62
7
  6
CONTINUOUS
 10
15.6698532874
 20
14.4005847711
 40
0.0200877018
100
AcDbArc
 50
33.7293647935
 51
49.3656585557
  0
ARC
  5
506
100
AcDbEntity
  8
0
100
AcDbCircle
 62
7
  6
CONTINUOUS
 10
16.5245772621
 20
14.1209990025
 40
0.0200811323
100
AcDbArc
 50
66.7221899561
 51
79.4736881989
  0
ARC
  5
507
100
AcDbEntity
  8
0
100
AcDbCircle
 62
7
  6
CONTINUOUS
 10
16.5246156533
 20
14.1209999566
 40
0.0200778553
100
AcDbArc
 50
93.2084112743
 51
108.3009804922
  0
ARC
  5
508
100
AcDbEntity
  8
0
100
AcDbCircle
 62
7
  6
CONTINUOUS
 10
17.6997890411
 20
13.3714533932
 40
0.0200777207
100
AcDbArc
 50
46.6923437786
 51
59.2340937013
  0
ARC
  5
509
100
AcDbEntity
  8
0
100
AcDbCircle
 62
7
  6
CONTINUOUS
 10
15.6698962465
 20
14.4005785413
 40
0.0200685163
100
AcDbArc
 50
63.5106655625
 51
77.0233163703
  0
ARC
  5
50A
100
AcDbEntity
  8
0
100
AcDbCircle
 62
7
  6
CONTINUOUS
 10
16.5245992837
 20
14.121050325
 40
0.0200266543
100
AcDbArc
 50
79.5088066081
 51
93.1697167965
  0
ARC
  5
50B
100
AcDbEntity
  8
0
100
AcDbCircle
 62
7
  6
CONTINUOUS
 10
17.0479421938
 20
13.8557554777
 40
0.02002637
100
AcDbArc
 50
359.7102958657
 51
6.8895447145
  0
ARC
  5
50C
100
AcDbEntity
  8
0
100
AcDbCircle
 62
7
  6
CONTINUOUS
 10
15.669907558
 20
14.4006254186
 40
0.020021518
100
AcDbArc
 50
49.4077660096
 51
63.4798027978
  0
ARC
  5
50D
100
AcDbEntity
  8
0
100
AcDbCircle
 62
7
  6
CONTINUOUS
 10
17.6998359687
 20
13.3715152996
 40
0.0200005236
100
AcDbArc
 50
59.2588908793
 51
84.07309988
  0
ARC
  5
50E
100
AcDbEntity
  8
0
100
AcDbCircle
 62
7
  6
CONTINUOUS
 10
17.047971021
 20
13.8557392103
 40
0.0199996586
100
AcDbArc
 50
26.4424608708
 51
59.385861889
  0
ARC
  5
50F
100
AcDbEntity
  8
0
100
AcDbCircle
 62
7
  6
CONTINUOUS
 10
18.0216123271
 20
13.0090573208
 40
0.0199994915
100
AcDbArc
 50
359.2968252283
 51
35.9423297956
  0
ARC
  5
510
100
AcDbEntity
  8
0
100
AcDbCircle
 62
7
  6
CONTINUOUS
 10
17.04800105
 20
13.8557480521
 40
0.0199688348
100
AcDbArc
 50
6.9309543246
 51
26.4581128895
  0
SPLINE
  5
511
100
AcDbEntity
  8
02___PRT_ALL_AXES
100
AcDbSpline
 62
7
  6
CONTINUOUS
 70
0
 71
3
 72
14
 73
10
 74
0
 42
0.0000001
 43
0.0000001
 44
0.0000000001
 40
0.0
 40
0.0
 40
0.0
 40
0.0
 40
0.0558765124
 40
0.1374573767
 40
0.2422811752
 40
0.3675934952
 40
0.5100405342
 40
0.6659904966
 40
1.0
 40
1.0
 40
1.0
 40
1.0
 10
6.245366229
 20
8.0288480253
 30
0.0
 10
6.2453666016
 20
8.0284872833
 30
0.0
 10
6.2453200009
 20
8.027600346
 30
0.0
 10
6.2452002165
 20
8.0260410372
 30
0.0
 10
6.2450333475
 20
8.0240353845
 30
0.0
 10
6.2448453431
 20
8.0216373472
 30
0.0
 10
6.2446609915
 20
8.0189079498
 30
0.0
 10
6.2444539717
 20
8.01483023
 30
0.0
 10
6.2443848187
 20
8.0116665699
 30
0.0
 10
6.2443848187
 20
8.0095101835
 30
0.0
  0
SPLINE
  5
512
100
AcDbEntity
  8
02___PRT_ALL_AXES
100
AcDbSpline
 62
7
  6
CONTINUOUS
 70
0
 71
3
 72
14
 73
10
 74
0
 42
0.0000001
 43
0.0000001
 44
0.0000000001
 40
0.0
 40
0.0
 40
0.0
 40
0.0
 40
0.055961195
 40
0.1378644947
 40
0.243038815
 40
0.3685359073
 40
0.5109549574
 40
0.6666983904
 40
1.0
 40
1.0
 40
1.0
 40
1.0
 10
6.0153683412
 20
7.9180015615
 30
0.0
 10
6.0153679513
 20
7.9183645823
 30
0.0
 10
6.0154149145
 20
7.9192584072
 30
0.0
 10
6.0155347589
 20
7.9208301552
 30
0.0
 10
6.0157016319
 20
7.9228510744
 30
0.0
 10
6.0158894118
 20
7.9252639962
 30
0.0
 10
6.0160734338
 20
7.928006235
 30
0.0
 10
6.0162802021
 20
7.9320974398
 30
0.0
 10
6.0163497337
 20
7.9352703217
 30
0.0
 10
6.0163497337
 20
7.9374324541
 30
0.0
  0
SPLINE
  5
513
100
AcDbEntity
  8
02___PRT_ALL_AXES
100
AcDbSpline
 62
7
  6
CONTINUOUS
 70
0
 71
3
 72
14
 73
10
 74
0
 42
0.0000001
 43
0.0000001
 44
0.0000000001
 40
0.0
 40
0.0
 40
0.0
 40
0.0
 40
0.3340051313
 40
0.4899513405
 40
0.6323989317
 40
0.7577129402
 40
0.8625395999
 40
0.9441225407
 40
1.0
 40
1.0
 40
1.0
 40
1.0
 10
6.0163497337
 20
8.0095101835
 30
0.0
 10
6.0163497337
 20
8.0116665376
 30
0.0
 10
6.016280609
 20
8.0148301402
 30
0.0
 10
6.0160735584
 20
8.0189078017
 30
0.0
 10
6.0158892194
 20
8.0216371848
 30
0.0
 10
6.0157012211
 20
8.0240352512
 30
0.0
 10
6.0155343379
 20
8.0260409416
 30
0.0
 10
6.0154145468
 20
8.0276002856
 30
0.0
 10
6.0153679665
 20
8.0284872413
 30
0.0
 10
6.0153683376
 20
8.0288479888
 30
0.0
  0
SPLINE
  5
514
100
AcDbEntity
  8
02___PRT_ALL_AXES
100
AcDbSpline
 62
7
  6
CONTINUOUS
 70
0
 71
3
 72
14
 73
10
 74
0
 42
0.0000001
 43
0.0000001
 44
0.0000000001
 40
0.0
 40
0.0
 40
0.0
 40
0.0
 40
0.3333053896
 40
0.4890517775
 40
0.6314697192
 40
0.7569646622
 40
0.8621368841
 40
0.9440392566
 40
1.0
 40
1.0
 40
1.0
 40
1.0
 10
6.2443848187
 20
7.9374324541
 30
0.0
 10
6.2443848187
 20
7.9352702931
 30
0.0
 10
6.2444543756
 20
7.9320973623
 30
0.0
 10
6.2446611162
 20
7.9280061119
 30
0.0
 10
6.2448451473
 20
7.9252638702
 30
0.0
 10
6.2450329323
 20
7.9228509791
 30
0.0
 10
6.2451997942
 20
7.9208300887
 30
0.0
 10
6.245319633
 20
7.9192583603
 30
0.0
 10
6.245366615
 20
7.9183645433
 30
0.0
 10
6.2453662239
 20
7.9180015247
 30
0.0
  0
SPLINE
  5
515
100
AcDbEntity
  8
0
100
AcDbSpline
 62
7
  6
CONTINUOUS
 70
0
 71
3
 72
20
 73
16
 74
0
 42
0.0000001
 43
0.0000001
 44
0.0000000001
 40
0.0
 40
0.0
 40
0.0
 40
0.0
 40
0.0022561856
 40
0.0063320528
 40
0.0211820748
 40
0.0452361921
 40
0.0783589762
 40
0.1202962764
 40
0.1706681102
 40
0.2289922318
 40
0.2947258067
 40
0.4458442845
 40
0.618185706
 40
0.8053578676
 40
1.0
 40
1.0
 40
1.0
 40
1.0
 10
8.2963652426
 20
3.8949973429
 30
0.0
 10
8.2963722996
 20
3.8949840076
 30
0.0
 10
8.2963598475
 20
3.8949365991
 30
0.0
 10
8.2962698289
 20
3.8948308297
 30
0.0
 10
8.29604644
 20
3.8946432677
 30
0.0
 10
8.2956545196
 20
3.8943664817
 30
0.0
 10
8.2950983253
 20
3.894004217
 30
0.0
 10
8.2943843612
 20
3.8935644955
 30
0.0
 10
8.2935180541
 20
3.8930502113
 30
0.0
 10
8.2925078797
 20
3.8924670311
 30
0.0
 10
8.2909056016
 20
3.8915620409
 30
0.0
 10
8.2886246904
 20
3.8903084828
 30
0.0
 10
8.2856145479
 20
3.8886961831
 30
0.0
 10
8.2823325481
 20
3.8869753413
 30
0.0
 10
8.2800629197
 20
3.8858057036
 30
0.0
 10
8.2789040577
 20
3.8852130624
 30
0.0
  0
SPLINE
  5
516
100
AcDbEntity
  8
0
100
AcDbSpline
 62
7
  6
CONTINUOUS
 70
0
 71
3
 72
20
 73
16
 74
0
 42
0.0000001
 43
0.0000001
 44
0.0000000001
 40
0.0
 40
0.0
 40
0.0
 40
0.0
 40
0.1946421317
 40
0.3818142957
 40
0.5541557155
 40
0.705274194
 40
0.7710077687
 40
0.8293318902
 40
0.879703724
 40
0.9216410243
 40
0.9547638084
 40
0.9788179256
 40
0.9936679474
 40
0.9977438145
 40
1.0
 40
1.0
 40
1.0
 40
1.0
 10
7.7652741105
 20
3.3715831152
 30
0.0
 10
7.7646814791
 20
3.3704242481
 30
0.0
 10
7.7635118334
 20
3.3681546239
 30
0.0
 10
7.7617909875
 20
3.3648726263
 30
0.0
 10
7.7601786913
 20
3.3618624819
 30
0.0
 10
7.7589251318
 20
3.3595815715
 30
0.0
 10
7.7580201418
 20
3.3579792932
 30
0.0
 10
7.7574369616
 20
3.3569691188
 30
0.0
 10
7.7569226774
 20
3.3561028117
 30
0.0
 10
7.7564829559
 20
3.3553888477
 30
0.0
 10
7.7561206912
 20
3.3548326533
 30
0.0
 10
7.7558439052
 20
3.3544407329
 30
0.0
 10
7.7556563432
 20
3.354217344
 30
0.0
 10
7.7555505738
 20
3.3541273255
 30
0.0
 10
7.7555031654
 20
3.3541148733
 30
0.0
 10
7.75548983
 20
3.3541219304
 30
0.0
  0
SPLINE
  5
517
100
AcDbEntity
  8
0
100
AcDbSpline
 62
7
  6
CONTINUOUS
 70
0
 71
3
 72
20
 73
16
 74
0
 42
0.0000001
 43
0.0000001
 44
0.0000000001
 40
0.0
 40
0.0
 40
0.0
 40
0.0
 40
0.0022561856
 40
0.0063320528
 40
0.0211820747
 40
0.0452361919
 40
0.078358976
 40
0.1202962763
 40
0.1706681101
 40
0.2289922316
 40
0.2947258064
 40
0.4458442845
 40
0.6181857054
 40
0.8053578679
 40
1.0
 40
1.0
 40
1.0
 40
1.0
 10
6.4547657089
 20
8.2084904371
 30
0.0
 10
6.4547737291
 20
8.2085032164
 30
0.0
 10
6.4548210121
 20
8.2085161367
 30
0.0
 10
6.4549576204
 20
8.2084910631
 30
0.0
 10
6.4552317482
 20
8.2083913836
 30
0.0
 10
6.4556674121
 20
8.2081903636
 30
0.0
 10
6.4562592397
 20
8.2078898175
 30
0.0
 10
6.4569970318
 20
8.2074913672
 30
0.0
 10
6.4578755685
 20
8.2069982654
 30
0.0
 10
6.4588857046
 20
8.2064150188
 30
0.0
 10
6.4604705881
 20
8.2054799003
 30
0.0
 10
6.4626966572
 20
8.2041313528
 30
0.0
 10
6.4655980201
 20
8.2023306415
 30
0.0
 10
6.4687293137
 20
8.2003487686
 30
0.0
 10
6.4708770656
 20
8.1989680345
 30
0.0
 10
6.4719697367
 20
8.1982607477
 30
0.0
  0
SPLINE
  5
518
100
AcDbEntity
  8
0
100
AcDbSpline
 62
7
  6
CONTINUOUS
 70
0
 71
3
 72
14
 73
10
 74
0
 42
0.0000001
 43
0.0000001
 44
0.0000000001
 40
0.0
 40
0.0
 40
0.0
 40
0.0
 40
0.1250019694
 40
0.2500044435
 40
0.3750061121
 40
0.5000083778
 40
0.6250109491
 40
0.7500136683
 40
1.0
 40
1.0
 40
1.0
 40
1.0
 10
7.5053601971
 20
5.2001195893
 30
0.0
 10
7.5123663302
 20
5.200119611
 30
0.0
 10
7.5263840501
 20
5.2006460797
 30
0.0
 10
7.54729112
 20
5.2029584342
 30
0.0
 10
7.5679978206
 20
5.2066430426
 30
0.0
 10
7.5884569491
 20
5.2115004764
 30
0.0
 10
7.6086589571
 20
5.2173258392
 30
0.0
 10
7.6352665553
 20
5.2261373455
 30
0.0
 10
7.6548953545
 20
5.2336861272
 30
0.0
 10
7.6678672762
 20
5.2389818991
 30
0.0
  0
SPLINE
  5
519
100
AcDbEntity
  8
0
100
AcDbSpline
 62
7
  6
CONTINUOUS
 70
0
 71
3
 72
14
 73
10
 74
0
 42
0.0000001
 43
0.0000001
 44
0.0000000001
 40
0.0
 40
0.0
 40
0.0
 40
0.0
 40
0.2499909448
 40
0.3749957881
 40
0.499999697
 40
0.625001913
 40
0.7500027752
 40
0.8750011471
 40
1.0
 40
1.0
 40
1.0
 40
1.0
 10
7.3428672762
 20
5.2389820562
 30
0.0
 10
7.3558383551
 20
5.2336866433
 30
0.0
 10
7.3754658372
 20
5.2261383096
 30
0.0
 10
7.4020715342
 20
5.2173270972
 30
0.0
 10
7.4222719674
 20
5.2115019462
 30
0.0
 10
7.4427293268
 20
5.2066445818
 30
0.0
 10
7.4634339313
 20
5.2029598707
 30
0.0
 10
7.4843387138
 20
5.2006470093
 30
0.0
 10
7.4983548258
 20
5.2001199941
 30
0.0
 10
7.5053601971
 20
5.2001195893
 30
0.0
  0
SPLINE
  5
51A
100
AcDbEntity
  8
0
100
AcDbSpline
 62
7
  6
CONTINUOUS
 70
0
 71
3
 72
20
 73
16
 74
0
 42
0.0000001
 43
0.0000001
 44
0.0000000001
 40
0.0
 40
0.0
 40
0.0
 40
0.0
 40
0.0022561853
 40
0.0063320521
 40
0.0211820736
 40
0.0452361909
 40
0.0783589752
 40
0.1202962754
 40
0.1706681092
 40
0.2289922313
 40
0.2947258067
 40
0.4458442835
 40
0.6181857084
 40
0.8053578658
 40
1.0
 40
1.0
 40
1.0
 40
1.0
 10
7.1936152627
 20
3.0297234977
 30
0.0
 10
7.1936147066
 20
3.0297084204
 30
0.0
 10
7.1935802185
 20
3.0296735895
 30
0.0
 10
7.1934493754
 20
3.0296269998
 30
0.0
 10
7.193162134
 20
3.0295762609
 30
0.0
 10
7.192684328
 20
3.0295325174
 30
0.0
 10
7.1920215172
 20
3.0294968841
 30
0.0
 10
7.1911833454
 20
3.0294730562
 30
0.0
 10
7.1901759594
 20
3.0294608266
 30
0.0
 10
7.1890095326
 20
3.0294608649
 30
0.0
 10
7.1871694239
 20
3.0294782588
 30
0.0
 10
7.1845673179
 20
3.0295331043
 30
0.0
 10
7.181154308
 20
3.0296418758
 30
0.0
 10
7.177451592
 20
3.0297925914
 30
0.0
 10
7.1749012184
 20
3.0299144867
 30
0.0
 10
7.1736012928
 20
3.0299806546
 30
0.0
  0
SPLINE
  5
51B
100
AcDbEntity
  8
0
100
AcDbSpline
 62
7
  6
CONTINUOUS
 70
0
 71
3
 72
20
 73
16
 74
0
 42
0.0000001
 43
0.0000001
 44
0.0000000001
 40
0.0
 40
0.0
 40
0.0
 40
0.0
 40
0.1946421428
 40
0.3818143159
 40
0.5541557463
 40
0.7052742333
 40
0.771007812
 40
0.8293319368
 40
0.8797037737
 40
0.9216410778
 40
0.9547638656
 40
0.9788179789
 40
0.9936679785
 40
0.9977438278
 40
1.0
 40
1.0
 40
1.0
 40
1.0
 10
5.7887648153
 20
8.1982607482
 30
0.0
 10
5.7898574869
 20
8.1989680343
 30
0.0
 10
5.7920052404
 20
8.2003487659
 30
0.0
 10
5.7951365342
 20
8.2023306383
 30
0.0
 10
5.7980378968
 20
8.2041313502
 30
0.0
 10
5.800263966
 20
8.2054798974
 30
0.0
 10
5.8018488495
 20
8.2064150159
 30
0.0
 10
5.8028589855
 20
8.2069982627
 30
0.0
 10
5.8037375222
 20
8.2074913646
 30
0.0
 10
5.8044753144
 20
8.2078898146
 30
0.0
 10
5.8050671422
 20
8.2081903602
 30
0.0
 10
5.8055028058
 20
8.2083913806
 30
0.0
 10
5.8057769327
 20
8.2084910614
 30
0.0
 10
5.8059135404
 20
8.2085161364
 30
0.0
 10
5.8059608233
 20
8.2085032163
 30
0.0
 10
5.8059688435
 20
8.2084904371
 30
0.0
  0
SPLINE
  5
51C
100
AcDbEntity
  8
0
100
AcDbSpline
 62
7
  6
CONTINUOUS
 70
0
 71
3
 72
14
 73
10
 74
0
 42
0.0000001
 43
0.0000001
 44
0.0000000001
 40
0.0
 40
0.0
 40
0.0
 40
0.0
 40
0.1249988529
 40
0.2499972248
 40
0.374998087
 40
0.500000303
 40
0.6250042119
 40
0.7500090552
 40
1.0
 40
1.0
 40
1.0
 40
1.0
 10
4.7553743553
 20
5.2001195893
 30
0.0
 10
4.7623797265
 20
5.2001199941
 30
0.0
 10
4.7763958385
 20
5.2006470093
 30
0.0
 10
4.797300621
 20
5.2029598707
 30
0.0
 10
4.8180052255
 20
5.2066445818
 30
0.0
 10
4.8384625849
 20
5.2115019462
 30
0.0
 10
4.8586630181
 20
5.2173270972
 30
0.0
 10
4.8852687151
 20
5.2261383096
 30
0.0
 10
4.9048961972
 20
5.2336866433
 30
0.0
 10
4.9178672762
 20
5.2389820562
 30
0.0
  0
SPLINE
  5
51D
100
AcDbEntity
  8
0
100
AcDbSpline
 62
7
  6
CONTINUOUS
 70
0
 71
3
 72
20
 73
16
 74
0
 42
0.0000001
 43
0.0000001
 44
0.0000000001
 40
0.0
 40
0.0
 40
0.0
 40
0.0
 40
0.1946421324
 40
0.3818142939
 40
0.5541557154
 40
0.7052741932
 40
0.771007768
 40
0.8293318897
 40
0.8797037234
 40
0.9216410236
 40
0.9547638077
 40
0.978817925
 40
0.9936679471
 40
0.9977438143
 40
1.0
 40
1.0
 40
1.0
 40
1.0
 10
6.4719697367
 20
2.8419790458
 30
0.0
 10
6.4708770634
 20
2.8412717624
 30
0.0
 10
6.4687293133
 20
2.8398910255
 30
0.0
 10
6.4655980206
 20
2.8379091512
 30
0.0
 10
6.4626966569
 20
2.8361084411
 30
0.0
 10
6.4604705882
 20
2.8347598931
 30
0.0
 10
6.4588857046
 20
2.8338247747
 30
0.0
 10
6.4578755685
 20
2.8332415281
 30
0.0
 10
6.4569970318
 20
2.8327484263
 30
0.0
 10
6.4562592398
 20
2.832349976
 30
0.0
 10
6.4556674122
 20
2.8320494299
 30
0.0
 10
6.4552317482
 20
2.8318484099
 30
0.0
 10
6.4549576204
 20
2.8317487304
 30
0.0
 10
6.4548210121
 20
2.8317236568
 30
0.0
 10
6.4547737291
 20
2.8317365771
 30
0.0
 10
6.4547657089
 20
2.8317493564
 30
0.0
  0
SPLINE
  5
51E
100
AcDbEntity
  8
0
100
AcDbSpline
 62
7
  6
CONTINUOUS
 70
0
 71
3
 72
20
 73
16
 74
0
 42
0.0000001
 43
0.0000001
 44
0.0000000001
 40
0.0
 40
0.0
 40
0.0
 40
0.0
 40
0.0022561855
 40
0.0063320525
 40
0.0211820744
 40
0.0452361919
 40
0.0783589762
 40
0.1202962762
 40
0.17066811
 40
0.2289922324
 40
0.2947258082
 40
0.4458442836
 40
0.6181857115
 40
0.8053578645
 40
1.0
 40
1.0
 40
1.0
 40
1.0
 10
5.8059688435
 20
2.8317493564
 30
0.0
 10
5.8059608233
 20
2.8317365771
 30
0.0
 10
5.8059135402
 20
2.8317236568
 30
0.0
 10
5.8057769319
 20
2.8317487304
 30
0.0
 10
5.8055028041
 20
2.8318484099
 30
0.0
 10
5.8050671402
 20
2.8320494299
 30
0.0
 10
5.8044753126
 20
2.832349976
 30
0.0
 10
5.8037375206
 20
2.8327484263
 30
0.0
 10
5.8028589839
 20
2.8332415283
 30
0.0
 10
5.8018488477
 20
2.8338247747
 30
0.0
 10
5.8002639636
 20
2.8347598921
 30
0.0
 10
5.7980378979
 20
2.8361084452
 30
0.0
 10
5.7951365267
 20
2.837909143
 30
0.0
 10
5.7920052428
 20
2.8398910316
 30
0.0
 10
5.789857511
 20
2.8412717965
 30
0.0
 10
5.7887648156
 20
2.8419790458
 30
0.0
  0
SPLINE
  5
51F
100
AcDbEntity
  8
0
100
AcDbSpline
 62
7
  6
CONTINUOUS
 70
0
 71
3
 72
20
 73
16
 74
0
 42
0.0000001
 43
0.0000001
 44
0.0000000001
 40
0.0
 40
0.0
 40
0.0
 40
0.0
 40
0.1946421355
 40
0.3818142937
 40
0.55415572
 40
0.7052741977
 40
0.7710077736
 40
0.829331896
 40
0.8797037302
 40
0.9216410308
 40
0.9547638155
 40
0.9788179324
 40
0.9936679515
 40
0.9977438162
 40
1.0
 40
1.0
 40
1.0
 40
1.0
 10
7.1736012928
 20
8.0102591389
 30
0.0
 10
7.1749012185
 20
8.0103253054
 30
0.0
 10
7.1774515921
 20
8.0104472014
 30
0.0
 10
7.181154308
 20
8.0105979177
 30
0.0
 10
7.1845673179
 20
8.0107066887
 30
0.0
 10
7.1871694239
 20
8.0107615344
 30
0.0
 10
7.1890095326
 20
8.0107789283
 30
0.0
 10
7.1901759594
 20
8.0107789665
 30
0.0
 10
7.1911833454
 20
8.010766737
 30
0.0
 10
7.1920215172
 20
8.010742909
 30
0.0
 10
7.192684328
 20
8.0107072757
 30
0.0
 10
7.193162134
 20
8.0106635322
 30
0.0
 10
7.1934493754
 20
8.0106127935
 30
0.0
 10
7.1935802185
 20
8.0105662039
 30
0.0
 10
7.1936147066
 20
8.0105313731
 30
0.0
 10
7.1936152627
 20
8.0105162958
 30
0.0
  0
SPLINE
  5
520
100
AcDbEntity
  8
0
100
AcDbSpline
 62
7
  6
CONTINUOUS
 70
0
 71
3
 72
20
 73
16
 74
0
 42
0.0000001
 43
0.0000001
 44
0.0000000001
 40
0.0
 40
0.0
 40
0.0
 40
0.0
 40
0.1946421355
 40
0.3818142937
 40
0.55415572
 40
0.7052741977
 40
0.7710077736
 40
0.829331896
 40
0.8797037302
 40
0.9216410308
 40
0.9547638155
 40
0.9788179324
 40
0.9936679515
 40
0.9977438162
 40
1.0
 40
1.0
 40
1.0
 40
1.0
 10
5.0871332596
 20
3.0299806546
 30
0.0
 10
5.0858333338
 20
3.0299144882
 30
0.0
 10
5.0832829603
 20
3.0297925921
 30
0.0
 10
5.0795802443
 20
3.0296418758
 30
0.0
 10
5.0761672345
 20
3.0295331048
 30
0.0
 10
5.0735651284
 20
3.0294782591
 30
0.0
 10
5.0717250198
 20
3.0294608652
 30
0.0
 10
5.0705585929
 20
3.029460827
 30
0.0
 10
5.0695512069
 20
3.0294730565
 30
0.0
 10
5.0687130351
 20
3.0294968845
 30
0.0
 10
5.0680502244
 20
3.0295325178
 30
0.0
 10
5.0675724183
 20
3.0295762613
 30
0.0
 10
5.067285177
 20
3.029627
 30
0.0
 10
5.0671543339
 20
3.0296735896
 30
0.0
 10
5.0671198457
 20
3.0297084204
 30
0.0
 10
5.0671192897
 20
3.0297234977
 30
0.0
  0
SPLINE
  5
521
100
AcDbEntity
  8
0
100
AcDbSpline
 62
7
  6
CONTINUOUS
 70
0
 71
3
 72
20
 73
16
 74
0
 42
0.0000001
 43
0.0000001
 44
0.0000000001
 40
0.0
 40
0.0
 40
0.0
 40
0.0
 40
0.0022561856
 40
0.0063320528
 40
0.0211820748
 40
0.0452361921
 40
0.0783589762
 40
0.1202962764
 40
0.1706681102
 40
0.2289922318
 40
0.2947258067
 40
0.4458442845
 40
0.618185706
 40
0.8053578676
 40
1.0
 40
1.0
 40
1.0
 40
1.0
 10
4.5052447223
 20
3.3541219304
 30
0.0
 10
4.505231387
 20
3.3541148733
 30
0.0
 10
4.5051839785
 20
3.3541273255
 30
0.0
 10
4.5050782091
 20
3.354217344
 30
0.0
 10
4.5048906471
 20
3.3544407329
 30
0.0
 10
4.5046138611
 20
3.3548326533
 30
0.0
 10
4.5042515964
 20
3.3553888477
 30
0.0
 10
4.5038118749
 20
3.3561028117
 30
0.0
 10
4.5032975907
 20
3.3569691188
 30
0.0
 10
4.5027144105
 20
3.3579792932
 30
0.0
 10
4.5018094203
 20
3.3595815713
 30
0.0
 10
4.5005558622
 20
3.3618624825
 30
0.0
 10
4.4989435625
 20
3.364872625
 30
0.0
 10
4.4972227207
 20
3.3681546249
 30
0.0
 10
4.4960530831
 20
3.3704242532
 30
0.0
 10
4.4954604418
 20
3.3715831152
 30
0.0
  0
SPLINE
  5
522
100
AcDbEntity
  8
02___PRT_ALL_AXES
100
AcDbSpline
 62
7
  6
CONTINUOUS
 70
0
 71
3
 72
17
 73
13
 74
0
 42
0.0000001
 43
0.0000001
 44
0.0000000001
 40
0.0
 40
0.0
 40
0.0
 40
0.0
 40
0.1200705599
 40
0.2443873484
 40
0.3076603997
 40
0.3714789289
 40
0.4999932204
 40
0.6285118733
 40
0.6923302666
 40
0.7556041545
 40
0.879928209
 40
1.0
 40
1.0
 40
1.0
 40
1.0
 10
6.1772714338
 20
7.9196615196
 30
0.0
 10
6.1735125309
 20
7.9197349954
 30
0.0
 10
6.1658559104
 20
7.9194518421
 30
0.0
 10
6.1562543045
 20
7.9186906543
 30
0.0
 10
6.1484036691
 20
7.9181054192
 30
0.0
 10
6.1404147943
 20
7.9176219559
 30
0.0
 10
6.1303677721
 20
7.9173191444
 30
0.0
 10
6.1203207608
 20
7.9176219643
 30
0.0
 10
6.1123317104
 20
7.9181051712
 30
0.0
 10
6.1044808467
 20
7.9186907098
 30
0.0
 10
6.0948789488
 20
7.9194519383
 30
0.0
 10
6.08722206
 20
7.9197349962
 30
0.0
 10
6.0834631186
 20
7.9196615196
 30
0.0
  0
SPLINE
  5
523
100
AcDbEntity
  8
0
100
AcDbSpline
 62
7
  6
CONTINUOUS
 70
0
 71
3
 72
20
 73
16
 74
0
 42
0.0000001
 43
0.0000001
 44
0.0000000001
 40
0.0
 40
0.0
 40
0.0
 40
0.0
 40
0.1946421317
 40
0.3818142957
 40
0.5541557155
 40
0.705274194
 40
0.7710077687
 40
0.8293318902
 40
0.879703724
 40
0.9216410243
 40
0.9547638084
 40
0.9788179256
 40
0.9936679474
 40
0.9977438145
 40
1.0
 40
1.0
 40
1.0
 40
1.0
 10
3.9818304946
 20
3.8852130624
 30
0.0
 10
3.9806716276
 20
3.8858056938
 30
0.0
 10
3.9784020034
 20
3.8869753396
 30
0.0
 10
3.9751200057
 20
3.8886961855
 30
0.0
 10
3.9721098613
 20
3.8903084817
 30
0.0
 10
3.9698289509
 20
3.8915620412
 30
0.0
 10
3.9682266727
 20
3.8924670311
 30
0.0
 10
3.9672164982
 20
3.8930502113
 30
0.0
 10
3.9663501911
 20
3.8935644955
 30
0.0
 10
3.9656362271
 20
3.8940042171
 30
0.0
 10
3.9650800327
 20
3.8943664818
 30
0.0
 10
3.9646881123
 20
3.8946432677
 30
0.0
 10
3.9644647234
 20
3.8948308297
 30
0.0
 10
3.9643747049
 20
3.8949365991
 30
0.0
 10
3.9643622527
 20
3.8949840076
 30
0.0
 10
3.9643693098
 20
3.8949973429
 30
0.0
  0
SPLINE
  5
524
100
AcDbEntity
  8
02___PRT_ALL_AXES
100
AcDbSpline
 62
7
  6
CONTINUOUS
 70
0
 71
3
 72
17
 73
13
 74
0
 42
0.0000001
 43
0.0000001
 44
0.0000000001
 40
0.0
 40
0.0
 40
0.0
 40
0.0
 40
0.1200861024
 40
0.2444040444
 40
0.3076731404
 40
0.3714930742
 40
0.5000016636
 40
0.6285080201
 40
0.6923264854
 40
0.7555945973
 40
0.8799132122
 40
1.0
 40
1.0
 40
1.0
 40
1.0
 10
6.0834631186
 20
6.7592324824
 30
0.0
 10
6.0872277032
 20
6.7593749833
 30
0.0
 10
6.0948723577
 20
6.7600438417
 30
0.0
 10
6.1044588274
 20
6.7611537791
 30
0.0
 10
6.1123071582
 20
6.761940894
 30
0.0
 10
6.1203010821
 20
6.762571217
 30
0.0
 10
6.1303673609
 20
6.7629517516
 30
0.0
 10
6.14043362
 20
6.762571493
 30
0.0
 10
6.1484273692
 20
6.7619408267
 30
0.0
 10
6.1562756476
 20
6.7611537674
 30
0.0
 10
6.1658621267
 20
6.7600437923
 30
0.0
 10
6.1735068276
 20
6.7593749842
 30
0.0
 10
6.1772714338
 20
6.7592324824
 30
0.0
  0
SPLINE
  5
525
100
AcDbEntity
  8
0
100
AcDbSpline
 62
7
  6
CONTINUOUS
 70
0
 71
3
 72
20
 73
16
 74
0
 42
0.0000001
 43
0.0000001
 44
0.0000000001
 40
0.0
 40
0.0
 40
0.0
 40
0.0
 40
0.0022561856
 40
0.0063320528
 40
0.0211820748
 40
0.0452361921
 40
0.0783589762
 40
0.1202962764
 40
0.1706681102
 40
0.2289922318
 40
0.2947258067
 40
0.4458442845
 40
0.618185706
 40
0.8053578676
 40
1.0
 40
1.0
 40
1.0
 40
1.0
 10
7.75548983
 20
7.6861178631
 30
0.0
 10
7.7555031654
 20
7.6861249202
 30
0.0
 10
7.7555505738
 20
7.686112468
 30
0.0
 10
7.7556563433
 20
7.6860224495
 30
0.0
 10
7.7558439052
 20
7.6857990606
 30
0.0
 10
7.7561206912
 20
7.6854071402
 30
0.0
 10
7.7564829559
 20
7.6848509459
 30
0.0
 10
7.7569226774
 20
7.6841369818
 30
0.0
 10
7.7574369616
 20
7.6832706747
 30
0.0
 10
7.7580201418
 20
7.6822605003
 30
0.0
 10
7.7589251321
 20
7.6806582222
 30
0.0
 10
7.7601786901
 20
7.678377311
 30
0.0
 10
7.7617909898
 20
7.6753671685
 30
0.0
 10
7.7635118317
 20
7.6720851686
 30
0.0
 10
7.7646814693
 20
7.6698155403
 30
0.0
 10
7.7652741105
 20
7.6686566783
 30
0.0
  0
SPLINE
  5
526
100
AcDbEntity
  8
0
100
AcDbSpline
 62
7
  6
CONTINUOUS
 70
0
 71
3
 72
20
 73
16
 74
0
 42
0.0000001
 43
0.0000001
 44
0.0000000001
 40
0.0
 40
0.0
 40
0.0
 40
0.0
 40
0.0022561853
 40
0.0063320521
 40
0.0211820736
 40
0.0452361909
 40
0.0783589752
 40
0.1202962754
 40
0.1706681092
 40
0.2289922313
 40
0.2947258067
 40
0.4458442835
 40
0.6181857084
 40
0.8053578658
 40
1.0
 40
1.0
 40
1.0
 40
1.0
 10
3.6399708771
 20
4.4568719102
 30
0.0
 10
3.6399557998
 20
4.4568724663
 30
0.0
 10
3.6399209689
 20
4.4569069544
 30
0.0
 10
3.6398743793
 20
4.4570377975
 30
0.0
 10
3.6398236403
 20
4.4573250389
 30
0.0
 10
3.6397798968
 20
4.457802845
 30
0.0
 10
3.6397442635
 20
4.4584656557
 30
0.0
 10
3.6397204356
 20
4.4593038275
 30
0.0
 10
3.639708206
 20
4.4603112135
 30
0.0
 10
3.6397082443
 20
4.4614776404
 30
0.0
 10
3.6397256382
 20
4.463317749
 30
0.0
 10
3.6397804837
 20
4.4659198551
 30
0.0
 10
3.6398892552
 20
4.4693328649
 30
0.0
 10
3.6400399709
 20
4.4730355809
 30
0.0
 10
3.6401618661
 20
4.4755859545
 30
0.0
 10
3.640228034
 20
4.4768858801
 30
0.0
  0
SPLINE
  5
527
100
AcDbEntity
  8
0
100
AcDbSpline
 62
7
  6
CONTINUOUS
 70
0
 71
3
 72
20
 73
16
 74
0
 42
0.0000001
 43
0.0000001
 44
0.0000000001
 40
0.0
 40
0.0
 40
0.0
 40
0.0
 40
0.1946421317
 40
0.3818142957
 40
0.5541557155
 40
0.705274194
 40
0.7710077687
 40
0.8293318902
 40
0.879703724
 40
0.9216410243
 40
0.9547638084
 40
0.9788179256
 40
0.9936679474
 40
0.9977438145
 40
1.0
 40
1.0
 40
1.0
 40
1.0
 10
8.2789040577
 20
7.1550267311
 30
0.0
 10
8.2800629248
 20
7.1544340997
 30
0.0
 10
8.282332549
 20
7.1532644539
 30
0.0
 10
8.2856145466
 20
7.151543608
 30
0.0
 10
8.288624691
 20
7.1499313119
 30
0.0
 10
8.2909056015
 20
7.1486777523
 30
0.0
 10
8.2925078797
 20
7.1477727624
 30
0.0
 10
8.2935180541
 20
7.1471895822
 30
0.0
 10
8.2943843612
 20
7.146675298
 30
0.0
 10
8.2950983253
 20
7.1462355764
 30
0.0
 10
8.2956545196
 20
7.1458733117
 30
0.0
 10
8.29604644
 20
7.1455965258
 30
0.0
 10
8.2962698289
 20
7.1454089638
 30
0.0
 10
8.2963598475
 20
7.1453031944
 30
0.0
 10
8.2963722996
 20
7.1452557859
 30
0.0
 10
8.2963652426
 20
7.1452424506
 30
0.0
  0
SPLINE
  5
528
100
AcDbEntity
  8
0
100
AcDbSpline
 62
7
  6
CONTINUOUS
 70
0
 71
3
 72
20
 73
16
 74
0
 42
0.0000001
 43
0.0000001
 44
0.0000000001
 40
0.0
 40
0.0
 40
0.0
 40
0.0
 40
0.1946421324
 40
0.3818142939
 40
0.5541557154
 40
0.7052741932
 40
0.771007768
 40
0.8293318897
 40
0.8797037234
 40
0.9216410236
 40
0.9547638077
 40
0.978817925
 40
0.9936679471
 40
0.9977438143
 40
1.0
 40
1.0
 40
1.0
 40
1.0
 10
3.4522264252
 20
5.1785174362
 30
0.0
 10
3.4515191419
 20
5.1796101095
 30
0.0
 10
3.4501384049
 20
5.1817578596
 30
0.0
 10
3.4481565306
 20
5.1848891523
 30
0.0
 10
3.4463558205
 20
5.187790516
 30
0.0
 10
3.4450072725
 20
5.1900165847
 30
0.0
 10
3.4440721541
 20
5.1916014683
 30
0.0
 10
3.4434889075
 20
5.1926116044
 30
0.0
 10
3.4429958057
 20
5.1934901411
 30
0.0
 10
3.4425973554
 20
5.1942279332
 30
0.0
 10
3.4422968093
 20
5.1948197608
 30
0.0
 10
3.4420957893
 20
5.1952554247
 30
0.0
 10
3.4419961098
 20
5.1955295525
 30
0.0
 10
3.4419710362
 20
5.1956661608
 30
0.0
 10
3.4419839565
 20
5.1957134438
 30
0.0
 10
3.4419967358
 20
5.195721464
 30
0.0
  0
SPLINE
  5
529
100
AcDbEntity
  8
0
100
AcDbSpline
 62
7
  6
CONTINUOUS
 70
0
 71
3
 72
14
 73
10
 74
0
 42
0.0000001
 43
0.0000001
 44
0.0000000001
 40
0.0
 40
0.0
 40
0.0
 40
0.0
 40
0.2499863317
 40
0.3749890509
 40
0.4999916222
 40
0.6249938879
 40
0.7499955565
 40
0.8749980306
 40
1.0
 40
1.0
 40
1.0
 40
1.0
 10
4.5928672762
 20
5.2389818991
 30
0.0
 10
4.6058391978
 20
5.2336861272
 30
0.0
 10
4.6254679971
 20
5.2261373455
 30
0.0
 10
4.6520755953
 20
5.2173258392
 30
0.0
 10
4.6722776032
 20
5.2115004764
 30
0.0
 10
4.6927367317
 20
5.2066430426
 30
0.0
 10
4.7134434324
 20
5.2029584342
 30
0.0
 10
4.7343505023
 20
5.2006460797
 30
0.0
 10
4.7483682221
 20
5.200119611
 30
0.0
 10
4.7553743553
 20
5.2001195893
 30
0.0
  0
SPLINE
  5
52A
100
AcDbEntity
  8
0
100
AcDbSpline
 62
7
  6
CONTINUOUS
 70
0
 71
3
 72
20
 73
16
 74
0
 42
0.0000001
 43
0.0000001
 44
0.0000000001
 40
0.0
 40
0.0
 40
0.0
 40
0.0
 40
0.0022561855
 40
0.0063320525
 40
0.0211820744
 40
0.0452361919
 40
0.0783589762
 40
0.1202962762
 40
0.17066811
 40
0.2289922324
 40
0.2947258082
 40
0.4458442836
 40
0.6181857115
 40
0.8053578645
 40
1.0
 40
1.0
 40
1.0
 40
1.0
 10
3.4419967358
 20
5.8445183295
 30
0.0
 10
3.4419839565
 20
5.8445263497
 30
0.0
 10
3.4419710362
 20
5.8445736327
 30
0.0
 10
3.4419961099
 20
5.844710241
 30
0.0
 10
3.4420957893
 20
5.8449843688
 30
0.0
 10
3.4422968093
 20
5.8454200327
 30
0.0
 10
3.4425973554
 20
5.8460118603
 30
0.0
 10
3.4429958058
 20
5.8467496523
 30
0.0
 10
3.4434889077
 20
5.847628189
 30
0.0
 10
3.4440721541
 20
5.8486383252
 30
0.0
 10
3.4450072716
 20
5.8502232093
 30
0.0
 10
3.4463558247
 20
5.852449275
 30
0.0
 10
3.4481565225
 20
5.8553506462
 30
0.0
 10
3.450138411
 20
5.8584819302
 30
0.0
 10
3.4515191759
 20
5.8606296619
 30
0.0
 10
3.4522264252
 20
5.8617223573
 30
0.0
  0
SPLINE
  5
52B
100
AcDbEntity
  8
0
100
AcDbSpline
 62
7
  6
CONTINUOUS
 70
0
 71
3
 72
20
 73
16
 74
0
 42
0.0000001
 43
0.0000001
 44
0.0000000001
 40
0.0
 40
0.0
 40
0.0
 40
0.0
 40
0.0022561853
 40
0.0063320521
 40
0.0211820736
 40
0.0452361909
 40
0.0783589752
 40
0.1202962754
 40
0.1706681092
 40
0.2289922313
 40
0.2947258067
 40
0.4458442835
 40
0.6181857084
 40
0.8053578658
 40
1.0
 40
1.0
 40
1.0
 40
1.0
 10
8.6207636753
 20
6.5833678833
 30
0.0
 10
8.6207787525
 20
6.5833673272
 30
0.0
 10
8.6208135834
 20
6.5833328391
 30
0.0
 10
8.6208601731
 20
6.583201996
 30
0.0
 10
8.620910912
 20
6.5829147546
 30
0.0
 10
8.6209546555
 20
6.5824369485
 30
0.0
 10
8.6209902888
 20
6.5817741378
 30
0.0
 10
8.6210141167
 20
6.580935966
 30
0.0
 10
8.6210263463
 20
6.57992858
 30
0.0
 10
8.6210263081
 20
6.5787621531
 30
0.0
 10
8.6210089141
 20
6.5769220445
 30
0.0
 10
8.6209540686
 20
6.5743199384
 30
0.0
 10
8.6208452972
 20
6.5709069286
 30
0.0
 10
8.6206945815
 20
6.5672042126
 30
0.0
 10
8.6205726863
 20
6.564653839
 30
0.0
 10
8.6205065183
 20
6.5633539134
 30
0.0
  0
SPLINE
  5
52C
100
AcDbEntity
  8
0
100
AcDbSpline
 62
7
  6
CONTINUOUS
 70
0
 71
3
 72
20
 73
16
 74
0
 42
0.0000001
 43
0.0000001
 44
0.0000000001
 40
0.0
 40
0.0
 40
0.0
 40
0.0
 40
0.1946421355
 40
0.3818142937
 40
0.55415572
 40
0.7052741977
 40
0.7710077736
 40
0.829331896
 40
0.8797037302
 40
0.9216410308
 40
0.9547638155
 40
0.9788179324
 40
0.9936679515
 40
0.9977438162
 40
1.0
 40
1.0
 40
1.0
 40
1.0
 10
3.640228034
 20
6.5633539134
 30
0.0
 10
3.6401618676
 20
6.5646538391
 30
0.0
 10
3.6400399715
 20
6.5672042126
 30
0.0
 10
3.6398892552
 20
6.5709069286
 30
0.0
 10
3.6397804842
 20
6.5743199385
 30
0.0
 10
3.6397256385
 20
6.5769220445
 30
0.0
 10
3.6397082446
 20
6.5787621532
 30
0.0
 10
3.6397082064
 20
6.57992858
 30
0.0
 10
3.639720436
 20
6.580935966
 30
0.0
 10
3.6397442639
 20
6.5817741378
 30
0.0
 10
3.6397798973
 20
6.5824369486
 30
0.0
 10
3.6398236407
 20
6.5829147546
 30
0.0
 10
3.6398743795
 20
6.583201996
 30
0.0
 10
3.639920969
 20
6.5833328391
 30
0.0
 10
3.6399557998
 20
6.5833673272
 30
0.0
 10
3.6399708771
 20
6.5833678833
 30
0.0
  0
SPLINE
  5
52D
100
AcDbEntity
  8
0
100
AcDbSpline
 62
7
  6
CONTINUOUS
 70
0
 71
3
 72
20
 73
16
 74
0
 42
0.0000001
 43
0.0000001
 44
0.0000000001
 40
0.0
 40
0.0
 40
0.0
 40
0.0
 40
0.1946421324
 40
0.3818142939
 40
0.5541557154
 40
0.7052741932
 40
0.771007768
 40
0.8293318897
 40
0.8797037234
 40
0.9216410236
 40
0.9547638077
 40
0.978817925
 40
0.9936679471
 40
0.9977438143
 40
1.0
 40
1.0
 40
1.0
 40
1.0
 10
8.8085081271
 20
5.8617223573
 30
0.0
 10
8.8092154105
 20
5.860629684
 30
0.0
 10
8.8105961474
 20
5.8584819339
 30
0.0
 10
8.8125780218
 20
5.8553506412
 30
0.0
 10
8.8143787318
 20
5.8524492775
 30
0.0
 10
8.8157272798
 20
5.8502232088
 30
0.0
 10
8.8166623982
 20
5.8486383252
 30
0.0
 10
8.8172456448
 20
5.8476281891
 30
0.0
 10
8.8177387467
 20
5.8467496524
 30
0.0
 10
8.8181371969
 20
5.8460118603
 30
0.0
 10
8.818437743
 20
5.8454200327
 30
0.0
 10
8.818638763
 20
5.8449843688
 30
0.0
 10
8.8187384425
 20
5.844710241
 30
0.0
 10
8.8187635161
 20
5.8445736327
 30
0.0
 10
8.8187505958
 20
5.8445263497
 30
0.0
 10
8.8187378165
 20
5.8445183295
 30
0.0
  0
SPLINE
  5
52E
100
AcDbEntity
  8
0
100
AcDbSpline
 62
7
  6
CONTINUOUS
 70
0
 71
3
 72
20
 73
16
 74
0
 42
0.0000001
 43
0.0000001
 44
0.0000000001
 40
0.0
 40
0.0
 40
0.0
 40
0.0
 40
0.0022561856
 40
0.0063320528
 40
0.0211820748
 40
0.0452361921
 40
0.0783589762
 40
0.1202962764
 40
0.1706681102
 40
0.2289922318
 40
0.2947258067
 40
0.4458442845
 40
0.618185706
 40
0.8053578676
 40
1.0
 40
1.0
 40
1.0
 40
1.0
 10
3.9643693098
 20
7.1452424506
 30
0.0
 10
3.9643622527
 20
7.1452557859
 30
0.0
 10
3.9643747049
 20
7.1453031944
 30
0.0
 10
3.9644647234
 20
7.1454089638
 30
0.0
 10
3.9646881123
 20
7.1455965258
 30
0.0
 10
3.9650800327
 20
7.1458733118
 30
0.0
 10
3.9656362271
 20
7.1462355765
 30
0.0
 10
3.9663501911
 20
7.146675298
 30
0.0
 10
3.9672164982
 20
7.1471895822
 30
0.0
 10
3.9682266726
 20
7.1477727624
 30
0.0
 10
3.9698289507
 20
7.1486777526
 30
0.0
 10
3.9721098619
 20
7.1499313107
 30
0.0
 10
3.9751200044
 20
7.1515436104
 30
0.0
 10
3.9784020043
 20
7.1532644522
 30
0.0
 10
3.9806716326
 20
7.1544340899
 30
0.0
 10
3.9818304946
 20
7.1550267311
 30
0.0
  0
SPLINE
  5
52F
100
AcDbEntity
  8
0
100
AcDbSpline
 62
7
  6
CONTINUOUS
 70
0
 71
3
 72
20
 73
16
 74
0
 42
0.0000001
 43
0.0000001
 44
0.0000000001
 40
0.0
 40
0.0
 40
0.0
 40
0.0
 40
0.1946421317
 40
0.3818142957
 40
0.5541557155
 40
0.705274194
 40
0.7710077687
 40
0.8293318902
 40
0.879703724
 40
0.9216410243
 40
0.9547638084
 40
0.9788179256
 40
0.9936679474
 40
0.9977438145
 40
1.0
 40
1.0
 40
1.0
 40
1.0
 10
4.4954604418
 20
7.6686566783
 30
0.0
 10
4.4960530732
 20
7.6698155454
 30
0.0
 10
4.497222719
 20
7.6720851696
 30
0.0
 10
4.4989435649
 20
7.6753671672
 30
0.0
 10
4.5005558611
 20
7.6783773116
 30
0.0
 10
4.5018094206
 20
7.6806582221
 30
0.0
 10
4.5027144106
 20
7.6822605003
 30
0.0
 10
4.5032975907
 20
7.6832706747
 30
0.0
 10
4.5038118749
 20
7.6841369818
 30
0.0
 10
4.5042515965
 20
7.6848509458
 30
0.0
 10
4.5046138612
 20
7.6854071402
 30
0.0
 10
4.5048906472
 20
7.6857990606
 30
0.0
 10
4.5050782091
 20
7.6860224495
 30
0.0
 10
4.5051839785
 20
7.686112468
 30
0.0
 10
4.505231387
 20
7.6861249202
 30
0.0
 10
4.5052447223
 20
7.6861178631
 30
0.0
  0
SPLINE
  5
530
100
AcDbEntity
  8
0
100
AcDbSpline
 62
7
  6
CONTINUOUS
 70
0
 71
3
 72
20
 73
16
 74
0
 42
0.0000001
 43
0.0000001
 44
0.0000000001
 40
0.0
 40
0.0
 40
0.0
 40
0.0
 40
0.0022561855
 40
0.0063320525
 40
0.0211820744
 40
0.0452361919
 40
0.0783589762
 40
0.1202962762
 40
0.17066811
 40
0.2289922324
 40
0.2947258082
 40
0.4458442836
 40
0.6181857115
 40
0.8053578645
 40
1.0
 40
1.0
 40
1.0
 40
1.0
 10
8.8187378165
 20
5.195721464
 30
0.0
 10
8.8187505958
 20
5.1957134438
 30
0.0
 10
8.8187635161
 20
5.1956661608
 30
0.0
 10
8.8187384425
 20
5.1955295525
 30
0.0
 10
8.818638763
 20
5.1952554247
 30
0.0
 10
8.818437743
 20
5.1948197608
 30
0.0
 10
8.8181371969
 20
5.1942279332
 30
0.0
 10
8.8177387466
 20
5.1934901412
 30
0.0
 10
8.8172456447
 20
5.1926116045
 30
0.0
 10
8.8166623982
 20
5.1916014683
 30
0.0
 10
8.8157272808
 20
5.1900165842
 30
0.0
 10
8.8143787277
 20
5.1877905185
 30
0.0
 10
8.8125780299
 20
5.1848891473
 30
0.0
 10
8.8105961413
 20
5.1817578633
 30
0.0
 10
8.8092153764
 20
5.1796101316
 30
0.0
 10
8.8085081271
 20
5.1785174362
 30
0.0
  0
SPLINE
  5
531
100
AcDbEntity
  8
0
100
AcDbSpline
 62
7
  6
CONTINUOUS
 70
0
 71
3
 72
20
 73
16
 74
0
 42
0.0000001
 43
0.0000001
 44
0.0000000001
 40
0.0
 40
0.0
 40
0.0
 40
0.0
 40
0.0022561855
 40
0.0063320526
 40
0.0211820746
 40
0.0452361921
 40
0.0783589764
 40
0.1202962764
 40
0.1706681102
 40
0.2289922325
 40
0.2947258083
 40
0.4458442837
 40
0.6181857116
 40
0.8053578645
 40
1.0
 40
1.0
 40
1.0
 40
1.0
 10
5.0671192897
 20
8.0105162958
 30
0.0
 10
5.0671198457
 20
8.0105313731
 30
0.0
 10
5.0671543339
 20
8.010566204
 30
0.0
 10
5.0672851769
 20
8.0106127937
 30
0.0
 10
5.0675724183
 20
8.0106635327
 30
0.0
 10
5.0680502244
 20
8.0107072762
 30
0.0
 10
5.0687130351
 20
8.0107429095
 30
0.0
 10
5.0695512069
 20
8.0107667373
 30
0.0
 10
5.070558593
 20
8.0107789669
 30
0.0
 10
5.0717250198
 20
8.0107789287
 30
0.0
 10
5.0735651284
 20
8.0107615353
 30
0.0
 10
5.0761672344
 20
8.010706687
 30
0.0
 10
5.0795802445
 20
8.0105979225
 30
0.0
 10
5.0832829602
 20
8.0104471986
 30
0.0
 10
5.0858333329
 20
8.0103252872
 30
0.0
 10
5.0871332596
 20
8.0102591389
 30
0.0
  0
SPLINE
  5
532
100
AcDbEntity
  8
0
100
AcDbSpline
 62
7
  6
CONTINUOUS
 70
0
 71
3
 72
20
 73
16
 74
0
 42
0.0000001
 43
0.0000001
 44
0.0000000001
 40
0.0
 40
0.0
 40
0.0
 40
0.0
 40
0.1946421355
 40
0.3818142937
 40
0.55415572
 40
0.7052741977
 40
0.7710077736
 40
0.829331896
 40
0.8797037302
 40
0.9216410308
 40
0.9547638155
 40
0.9788179324
 40
0.9936679515
 40
0.9977438162
 40
1.0
 40
1.0
 40
1.0
 40
1.0
 10
8.6205065184
 20
4.4768858801
 30
0.0
 10
8.6205726848
 20
4.4755859544
 30
0.0
 10
8.6206945809
 20
4.4730355809
 30
0.0
 10
8.6208452971
 20
4.4693328649
 30
0.0
 10
8.6209540681
 20
4.465919855
 30
0.0
 10
8.6210089138
 20
4.463317749
 30
0.0
 10
8.6210263077
 20
4.4614776403
 30
0.0
 10
8.6210263459
 20
4.4603112135
 30
0.0
 10
8.6210141164
 20
4.4593038275
 30
0.0
 10
8.6209902884
 20
4.4584656557
 30
0.0
 10
8.6209546551
 20
4.4578028449
 30
0.0
 10
8.6209109116
 20
4.4573250389
 30
0.0
 10
8.6208601729
 20
4.4570377975
 30
0.0
 10
8.6208135834
 20
4.4569069545
 30
0.0
 10
8.6207787525
 20
4.4568724663
 30
0.0
 10
8.6207636753
 20
4.4568719102
 30
0.0
  0
SPLINE
  5
533
100
AcDbEntity
  8
0
100
AcDbSpline
 62
7
  6
CONTINUOUS
 70
0
 71
3
 72
11
 73
7
 74
0
 42
0.0000001
 43
0.0000001
 44
0.0000000001
 40
0.0
 40
0.0
 40
0.0
 40
0.0
 40
0.2501057104
 40
0.5000663148
 40
0.7500389735
 40
1.0
 40
1.0
 40
1.0
 40
1.0
 10
3.2076383208
 20
12.8866575125
 30
0.0
 10
3.2082894821
 20
12.8882836114
 30
0.0
 10
3.2100295955
 20
12.8913780173
 30
0.0
 10
3.2137514713
 20
12.8951683881
 30
0.0
 10
3.2183293279
 20
12.8978596049
 30
0.0
 10
3.2217515773
 20
12.8988022735
 30
0.0
 10
3.2234862905
 20
12.8990377087
 30
0.0
  0
LINE
  5
534
100
AcDbEntity
  8
0
100
AcDbLine
 62
7
  6
CONTINUOUS
 10
3.3924750966
 20
12.9150477814
 11
3.2244836144
 21
12.8991473191
  0
LINE
  5
535
100
AcDbEntity
  8
0
100
AcDbLine
 62
7
  6
CONTINUOUS
 10
3.2244836144
 20
12.3009482436
 11
3.3924750966
 21
12.2850477814
  0
LINE
  5
536
100
AcDbEntity
  8
0
100
AcDbLine
 62
7
  6
CONTINUOUS
 10
8.9172605533
 20
12.8991473191
 11
8.7492690711
 21
12.9150477814
  0
LINE
  5
537
100
AcDbEntity
  8
0
100
AcDbLine
 62
7
  6
CONTINUOUS
 10
8.7492690711
 20
12.2850477814
 11
8.9172605533
 21
12.3009482436
  0
SPLINE
  5
538
100
AcDbEntity
  8
0
100
AcDbSpline
 62
7
  6
CONTINUOUS
 70
0
 71
3
 72
14
 73
10
 74
0
 42
0.0000001
 43
0.0000001
 44
0.0000000001
 40
0.0
 40
0.0
 40
0.0
 40
0.0
 40
0.2680622391
 40
0.5264978146
 40
0.6502551579
 40
0.7698804769
 40
0.8283650968
 40
0.88607683
 40
1.0
 40
1.0
 40
1.0
 40
1.0
 10
6.3952705166
 20
12.3050477814
 30
0.0
 10
6.3953247803
 20
12.302453481
 30
0.0
 10
6.3962690355
 20
12.2973392422
 30
0.0
 10
6.399454453
 20
12.2917456959
 30
0.0
 10
6.4029712562
 20
12.2883548413
 30
0.0
 10
6.405457073
 20
12.2867745433
 30
0.0
 10
6.4075616741
 20
12.2858785595
 30
0.0
 10
6.4097057006
 20
12.2852572115
 30
0.0
 10
6.4113720381
 20
12.2850726624
 30
0.0
 10
6.4124745444
 20
12.2850477814
 30
0.0
  0
SPLINE
  5
539
100
AcDbEntity
  8
0
100
AcDbSpline
 62
7
  6
CONTINUOUS
 70
0
 71
3
 72
14
 73
10
 74
0
 42
0.0000001
 43
0.0000001
 44
0.0000000001
 40
0.0
 40
0.0
 40
0.0
 40
0.0
 40
0.2680622391
 40
0.5264978146
 40
0.6502551579
 40
0.7698804769
 40
0.8283650968
 40
0.88607683
 40
1.0
 40
1.0
 40
1.0
 40
1.0
 10
5.7464736511
 20
12.8950477814
 30
0.0
 10
5.7464193874
 20
12.8976420817
 30
0.0
 10
5.7454751322
 20
12.9027563205
 30
0.0
 10
5.7422897147
 20
12.9083498669
 30
0.0
 10
5.7387729116
 20
12.9117407215
 30
0.0
 10
5.7362870948
 20
12.9133210194
 30
0.0
 10
5.7341824936
 20
12.9142170032
 30
0.0
 10
5.7320384671
 20
12.9148383513
 30
0.0
 10
5.7303721296
 20
12.9150229004
 30
0.0
 10
5.7292696233
 20
12.9150477814
 30
0.0
  0
SPLINE
  5
53A
100
AcDbEntity
  8
0
100
AcDbSpline
 62
7
  6
CONTINUOUS
 70
0
 71
3
 72
18
 73
14
 74
0
 42
0.0000001
 43
0.0000001
 44
0.0000000001
 40
0.0
 40
0.0
 40
0.0
 40
0.0
 40
0.0074093687
 40
0.0220355373
 40
0.0456735356
 40
0.0788412352
 40
0.1209385471
 40
0.171336994
 40
0.2952988842
 40
0.4463481938
 40
0.6186093499
 40
0.805567033
 40
1.0
 40
1.0
 40
1.0
 40
1.0
 10
3.5807328417
 20
12.2850477814
 30
0.0
 10
3.5806863988
 20
12.285065089
 30
0.0
 10
3.5806042678
 20
12.285208467
 30
0.0
 10
3.5805290673
 20
12.2854946349
 30
0.0
 10
3.5804520947
 20
12.2859721946
 30
0.0
 10
3.5803870232
 20
12.2866283812
 30
0.0
 10
3.5803290779
 20
12.2874679519
 30
0.0
 10
3.580262288
 20
12.2889140272
 30
0.0
 10
3.5802155862
 20
12.2910907926
 30
0.0
 10
3.580208419
 20
12.294082685
 30
0.0
 10
3.5802494191
 20
12.2974958827
 30
0.0
 10
3.5803373397
 20
12.3011984018
 30
0.0
 10
3.5804245827
 20
12.303748178
 30
0.0
 10
3.5804756848
 20
12.3050477814
 30
0.0
  0
SPLINE
  5
53B
100
AcDbEntity
  8
0
100
AcDbSpline
 62
7
  6
CONTINUOUS
 70
0
 71
3
 72
14
 73
10
 74
0
 42
0.0000001
 43
0.0000001
 44
0.0000000001
 40
0.0
 40
0.0
 40
0.0
 40
0.0
 40
0.1139232214
 40
0.1716349673
 40
0.2301195835
 40
0.3497448896
 40
0.4735022264
 40
0.7319377858
 40
1.0
 40
1.0
 40
1.0
 40
1.0
 10
5.729269623
 20
12.2850477814
 30
0.0
 10
5.7303721299
 20
12.2850726623
 30
0.0
 10
5.7320384681
 20
12.2852572114
 30
0.0
 10
5.7341824954
 20
12.2858785594
 30
0.0
 10
5.7362870966
 20
12.2867745433
 30
0.0
 10
5.7387729133
 20
12.2883548413
 30
0.0
 10
5.7422897164
 20
12.2917456958
 30
0.0
 10
5.7454751349
 20
12.2973392419
 30
0.0
 10
5.7464193874
 20
12.3024534811
 30
0.0
 10
5.7464736511
 20
12.3050477814
 30
0.0
  0
SPLINE
  5
53C
100
AcDbEntity
  8
0
100
AcDbSpline
 62
7
  6
CONTINUOUS
 70
0
 71
3
 72
18
 73
14
 74
0
 42
0.0000001
 43
0.0000001
 44
0.0000000001
 40
0.0
 40
0.0
 40
0.0
 40
0.0
 40
0.1944330097
 40
0.3813907339
 40
0.5536519281
 40
0.7047012705
 40
0.8286631906
 40
0.8790616469
 40
0.9211589559
 40
0.9543266632
 40
0.9779647445
 40
0.9925910317
 40
1.0
 40
1.0
 40
1.0
 40
1.0
 10
3.5804756848
 20
12.8950477814
 30
0.0
 10
3.5804245827
 20
12.8963473848
 30
0.0
 10
3.5803373392
 20
12.8988971609
 30
0.0
 10
3.5802494186
 20
12.90259968
 30
0.0
 10
3.5802084189
 20
12.9060128777
 30
0.0
 10
3.5802155852
 20
12.9090047701
 30
0.0
 10
3.580262288
 20
12.9111815356
 30
0.0
 10
3.5803290785
 20
12.9126276107
 30
0.0
 10
3.5803870205
 20
12.9134671818
 30
0.0
 10
3.5804520915
 20
12.9141233682
 30
0.0
 10
3.5805290674
 20
12.9146009303
 30
0.0
 10
3.5806042843
 20
12.9148870908
 30
0.0
 10
3.5806864028
 20
12.9150304709
 30
0.0
 10
3.5807328417
 20
12.9150477814
 30
0.0
  0
SPLINE
  5
53D
100
AcDbEntity
  8
0
100
AcDbSpline
 62
7
  6
CONTINUOUS
 70
0
 71
3
 72
16
 73
12
 74
0
 42
0.0000001
 43
0.0000001
 44
0.0000000001
 40
0.0
 40
0.0
 40
0.0
 40
0.0
 40
0.0768145101
 40
0.1639678035
 40
0.2136966413
 40
0.2677166613
 40
0.3886984441
 40
0.5259415283
 40
0.6763650684
 40
0.8359681013
 40
1.0
 40
1.0
 40
1.0
 40
1.0
 10
4.4359652495
 20
12.2850477814
 30
0.0
 10
4.4365753609
 20
12.285073168
 30
0.0
 10
4.437883776
 20
12.2853545189
 30
0.0
 10
4.4393116765
 20
12.2863372561
 30
0.0
 10
4.4403731504
 20
12.2874231422
 30
0.0
 10
4.4414787749
 20
12.2888310798
 30
0.0
 10
4.4427185055
 20
12.2909958648
 30
0.0
 10
4.4439260797
 20
12.2940198101
 30
0.0
 10
4.4448657315
 20
12.2974559636
 30
0.0
 10
4.4455002511
 20
12.3011758977
 30
0.0
 10
4.4457042073
 20
12.3037445926
 30
0.0
 10
4.44574953
 20
12.3050477814
 30
0.0
  0
SPLINE
  5
53E
100
AcDbEntity
  8
0
100
AcDbSpline
 62
7
  6
CONTINUOUS
 70
0
 71
3
 72
16
 73
12
 74
0
 42
0.0000001
 43
0.0000001
 44
0.0000000001
 40
0.0
 40
0.0
 40
0.0
 40
0.0
 40
0.124968374
 40
0.18749764
 40
0.2500421267
 40
0.3750427167
 40
0.5000296036
 40
0.6250571055
 40
0.750061005
 40
0.8750631628
 40
1.0
 40
1.0
 40
1.0
 40
1.0
 10
5.0276380673
 20
12.9150477814
 30
0.0
 10
5.026331593
 20
12.9150229992
 30
0.0
 10
5.0243665619
 20
12.9148417672
 30
0.0
 10
5.0218225392
 20
12.9142207157
 30
0.0
 10
5.0193582489
 20
12.9133342064
 30
0.0
 10
5.0164588939
 20
12.9117787967
 30
0.0
 10
5.0134073148
 20
12.909277223
 30
0.0
 10
5.0109036688
 20
12.9062263249
 30
0.0
 10
5.0090399386
 20
12.9027472802
 30
0.0
 10
5.0078898824
 20
12.898974243
 30
0.0
 10
5.0076259918
 20
12.8963541595
 30
0.0
 10
5.0076240974
 20
12.8950477814
 30
0.0
  0
SPLINE
  5
53F
100
AcDbEntity
  8
0
100
AcDbSpline
 62
7
  6
CONTINUOUS
 70
0
 71
3
 72
16
 73
12
 74
0
 42
0.0000001
 43
0.0000001
 44
0.0000000001
 40
0.0
 40
0.0
 40
0.0
 40
0.0
 40
0.1640319177
 40
0.323634968
 40
0.4740585207
 40
0.6113016218
 40
0.7322834047
 40
0.7863034368
 40
0.836032323
 40
0.9231854461
 40
1.0
 40
1.0
 40
1.0
 40
1.0
 10
4.44574953
 20
12.8950477814
 30
0.0
 10
4.4457042073
 20
12.8963509701
 30
0.0
 10
4.445500248
 20
12.8989196649
 30
0.0
 10
4.4448657289
 20
12.9026395989
 30
0.0
 10
4.4439260775
 20
12.9060757527
 30
0.0
 10
4.4427185026
 20
12.9090996977
 30
0.0
 10
4.4414787728
 20
12.9112644829
 30
0.0
 10
4.4403731482
 20
12.9126724211
 30
0.0
 10
4.4393116731
 20
12.9137583044
 30
0.0
 10
4.4378837765
 20
12.9147410454
 30
0.0
 10
4.4365753617
 20
12.9150223956
 30
0.0
 10
4.43596525
 20
12.9150477814
 30
0.0
  0
SPLINE
  5
540
100
AcDbEntity
  8
0
100
AcDbSpline
 62
7
  6
CONTINUOUS
 70
0
 71
3
 72
16
 73
12
 74
0
 42
0.0000001
 43
0.0000001
 44
0.0000000001
 40
0.0
 40
0.0
 40
0.0
 40
0.0
 40
0.1249368369
 40
0.2499389946
 40
0.3749428943
 40
0.4999703963
 40
0.6249572829
 40
0.7499578753
 40
0.8125023619
 40
0.8750316182
 40
1.0
 40
1.0
 40
1.0
 40
1.0
 10
5.0076240974
 20
12.3050477814
 30
0.0
 10
5.0076259918
 20
12.3037414032
 30
0.0
 10
5.0078898825
 20
12.3011213197
 30
0.0
 10
5.0090399386
 20
12.2973482825
 30
0.0
 10
5.0109036688
 20
12.2938692378
 30
0.0
 10
5.0134073148
 20
12.2908183398
 30
0.0
 10
5.0164588939
 20
12.288316766
 30
0.0
 10
5.019358249
 20
12.2867613564
 30
0.0
 10
5.0218225392
 20
12.2858748472
 30
0.0
 10
5.0243665617
 20
12.2852537951
 30
0.0
 10
5.0263315929
 20
12.2850725628
 30
0.0
 10
5.0276380672
 20
12.2850477814
 30
0.0
  0
SPLINE
  5
541
100
AcDbEntity
  8
0
100
AcDbSpline
 62
7
  6
CONTINUOUS
 70
0
 71
3
 72
16
 73
12
 74
0
 42
0.0000001
 43
0.0000001
 44
0.0000000001
 40
0.0
 40
0.0
 40
0.0
 40
0.0
 40
0.124968374
 40
0.18749764
 40
0.2500421267
 40
0.3750427167
 40
0.5000296036
 40
0.6250571055
 40
0.750061005
 40
0.8750631628
 40
1.0
 40
1.0
 40
1.0
 40
1.0
 10
7.1141061005
 20
12.2850477814
 30
0.0
 10
7.1154125747
 20
12.2850725636
 30
0.0
 10
7.1173776058
 20
12.2852537955
 30
0.0
 10
7.1199216285
 20
12.285874847
 30
0.0
 10
7.1223859188
 20
12.2867613564
 30
0.0
 10
7.1252852738
 20
12.2883167661
 30
0.0
 10
7.128336853
 20
12.2908183397
 30
0.0
 10
7.130840499
 20
12.2938692378
 30
0.0
 10
7.1327042291
 20
12.2973482825
 30
0.0
 10
7.1338542853
 20
12.3011213197
 30
0.0
 10
7.1341181759
 20
12.3037414032
 30
0.0
 10
7.1341200704
 20
12.3050477814
 30
0.0
  0
SPLINE
  5
542
100
AcDbEntity
  8
0
100
AcDbSpline
 62
7
  6
CONTINUOUS
 70
0
 71
3
 72
16
 73
12
 74
0
 42
0.0000001
 43
0.0000001
 44
0.0000000001
 40
0.0
 40
0.0
 40
0.0
 40
0.0
 40
0.0768146324
 40
0.1639677786
 40
0.2136966517
 40
0.2677166765
 40
0.3886984488
 40
0.5259415335
 40
0.6763650717
 40
0.835968103
 40
1.0
 40
1.0
 40
1.0
 40
1.0
 10
7.7057789182
 20
12.9150477814
 30
0.0
 10
7.7051688058
 20
12.9150223956
 30
0.0
 10
7.70386039
 20
12.9147410457
 30
0.0
 10
7.7024324921
 20
12.9137583048
 30
0.0
 10
7.7013710172
 20
12.912672421
 30
0.0
 10
7.7002653927
 20
12.9112644829
 30
0.0
 10
7.6990256626
 20
12.9090996978
 30
0.0
 10
7.697818088
 20
12.9060757527
 30
0.0
 10
7.6968784363
 20
12.9026395991
 30
0.0
 10
7.6962439167
 20
12.8989196651
 30
0.0
 10
7.6960399604
 20
12.8963509701
 30
0.0
 10
7.6959946377
 20
12.8950477814
 30
0.0
  0
SPLINE
  5
543
100
AcDbEntity
  8
0
100
AcDbSpline
 62
7
  6
CONTINUOUS
 70
0
 71
3
 72
16
 73
12
 74
0
 42
0.0000001
 43
0.0000001
 44
0.0000000001
 40
0.0
 40
0.0
 40
0.0
 40
0.0
 40
0.1249368369
 40
0.2499389946
 40
0.3749428943
 40
0.4999703963
 40
0.6249572829
 40
0.7499578753
 40
0.8125023619
 40
0.8750316182
 40
1.0
 40
1.0
 40
1.0
 40
1.0
 10
7.1341200704
 20
12.8950477814
 30
0.0
 10
7.1341181759
 20
12.8963541595
 30
0.0
 10
7.1338542852
 20
12.898974243
 30
0.0
 10
7.1327042291
 20
12.9027472802
 30
0.0
 10
7.130840499
 20
12.9062263249
 30
0.0
 10
7.1283368529
 20
12.909277223
 30
0.0
 10
7.1252852738
 20
12.9117787968
 30
0.0
 10
7.1223859187
 20
12.9133342063
 30
0.0
 10
7.1199216285
 20
12.9142207155
 30
0.0
 10
7.117377606
 20
12.9148417676
 30
0.0
 10
7.1154125748
 20
12.9150229999
 30
0.0
 10
7.1141061005
 20
12.9150477814
 30
0.0
  0
SPLINE
  5
544
100
AcDbEntity
  8
0
100
AcDbSpline
 62
7
  6
CONTINUOUS
 70
0
 71
3
 72
16
 73
12
 74
0
 42
0.0000001
 43
0.0000001
 44
0.0000000001
 40
0.0
 40
0.0
 40
0.0
 40
0.0
 40
0.1640318966
 40
0.3236349274
 40
0.4740584654
 40
0.6113015496
 40
0.7322833221
 40
0.7863033465
 40
0.8360322173
 40
0.9231853719
 40
1.0
 40
1.0
 40
1.0
 40
1.0
 10
7.6959946377
 20
12.3050477814
 30
0.0
 10
7.6960399604
 20
12.3037445926
 30
0.0
 10
7.6962439167
 20
12.3011758977
 30
0.0
 10
7.6968784363
 20
12.2974559637
 30
0.0
 10
7.6978180879
 20
12.2940198101
 30
0.0
 10
7.6990256625
 20
12.290995865
 30
0.0
 10
7.7002653926
 20
12.2888310798
 30
0.0
 10
7.7013710171
 20
12.2874231417
 30
0.0
 10
7.702432492
 20
12.2863372579
 30
0.0
 10
7.70386039
 20
12.2853545172
 30
0.0
 10
7.7051688058
 20
12.2850731672
 30
0.0
 10
7.7057789182
 20
12.2850477814
 30
0.0
  0
SPLINE
  5
545
100
AcDbEntity
  8
0
100
AcDbSpline
 62
7
  6
CONTINUOUS
 70
0
 71
3
 72
18
 73
14
 74
0
 42
0.0000001
 43
0.0000001
 44
0.0000000001
 40
0.0
 40
0.0
 40
0.0
 40
0.0
 40
0.0074094945
 40
0.0220356327
 40
0.0456736079
 40
0.0788413048
 40
0.1209386167
 40
0.1713370602
 40
0.2952989399
 40
0.4463482377
 40
0.6186093803
 40
0.8055670485
 40
1.0
 40
1.0
 40
1.0
 40
1.0
 10
8.561011326
 20
12.9150477814
 30
0.0
 10
8.56105777
 20
12.9150304745
 30
0.0
 10
8.5611399049
 20
12.9148870973
 30
0.0
 10
8.561215101
 20
12.9146009271
 30
0.0
 10
8.5612920728
 20
12.9141233681
 30
0.0
 10
8.5613571444
 20
12.9134671815
 30
0.0
 10
8.5614150906
 20
12.9126276109
 30
0.0
 10
8.5614818804
 20
12.9111815355
 30
0.0
 10
8.5615285819
 20
12.9090047701
 30
0.0
 10
8.5615357492
 20
12.9060128777
 30
0.0
 10
8.5614947491
 20
12.90259968
 30
0.0
 10
8.5614068287
 20
12.8988971609
 30
0.0
 10
8.561319585
 20
12.8963473848
 30
0.0
 10
8.561268483
 20
12.8950477814
 30
0.0
  0
SPLINE
  5
546
100
AcDbEntity
  8
0
100
AcDbSpline
 62
7
  6
CONTINUOUS
 70
0
 71
3
 72
18
 73
14
 74
0
 42
0.0000001
 43
0.0000001
 44
0.0000000001
 40
0.0
 40
0.0
 40
0.0
 40
0.0
 40
0.1944329615
 40
0.3813906394
 40
0.5536517909
 40
0.7047010963
 40
0.8286629829
 40
0.8790614286
 40
0.9211587402
 40
0.9543264388
 40
0.9779644312
 40
0.9925905929
 40
1.0
 40
1.0
 40
1.0
 40
1.0
 10
8.561268483
 20
12.3050477814
 30
0.0
 10
8.561319585
 20
12.303748178
 30
0.0
 10
8.5614068285
 20
12.3011984018
 30
0.0
 10
8.561494749
 20
12.2974958827
 30
0.0
 10
8.5615357491
 20
12.294082685
 30
0.0
 10
8.5615285819
 20
12.2910907926
 30
0.0
 10
8.5614818801
 20
12.2889140272
 30
0.0
 10
8.5614150903
 20
12.2874679519
 30
0.0
 10
8.5613571448
 20
12.2866283812
 30
0.0
 10
8.5612920732
 20
12.2859721946
 30
0.0
 10
8.5612151008
 20
12.2854946351
 30
0.0
 10
8.5611399014
 20
12.2852084665
 30
0.0
 10
8.5610577692
 20
12.2850650888
 30
0.0
 10
8.561011326
 20
12.2850477814
 30
0.0
  0
SPLINE
  5
547
100
AcDbEntity
  8
0
100
AcDbSpline
 62
7
  6
CONTINUOUS
 70
0
 71
3
 72
14
 73
10
 74
0
 42
0.0000001
 43
0.0000001
 44
0.0000000001
 40
0.0
 40
0.0
 40
0.0
 40
0.0
 40
0.1139232214
 40
0.1716349673
 40
0.2301195835
 40
0.3497448896
 40
0.4735022264
 40
0.7319377858
 40
1.0
 40
1.0
 40
1.0
 40
1.0
 10
6.4124745448
 20
12.9150477814
 30
0.0
 10
6.4113720379
 20
12.9150229004
 30
0.0
 10
6.4097056996
 20
12.9148383513
 30
0.0
 10
6.4075616723
 20
12.9142170033
 30
0.0
 10
6.4054570711
 20
12.9133210195
 30
0.0
 10
6.4029712544
 20
12.9117407214
 30
0.0
 10
6.3994544513
 20
12.9083498669
 30
0.0
 10
6.3962690328
 20
12.9027563209
 30
0.0
 10
6.3953247803
 20
12.8976420816
 30
0.0
 10
6.3952705166
 20
12.8950477814
 30
0.0
  0
LINE
  5
548
100
AcDbEntity
  8
0
100
AcDbLine
 62
7
  6
CONTINUOUS
 10
15.2612557192
 20
8.3070131739
 11
15.2453552569
 21
8.1390216917
  0
LINE
  5
549
100
AcDbEntity
  8
0
100
AcDbLine
 62
7
  6
CONTINUOUS
 10
15.8753552569
 20
8.1390216917
 11
15.8594547947
 21
8.3070131739
  0
SPLINE
  5
54A
100
AcDbEntity
  8
02___PRT_ALL_AXES
100
AcDbSpline
 62
7
  6
CONTINUOUS
 70
0
 71
3
 72
29
 73
25
 74
0
 42
0.0000001
 43
0.0000001
 44
0.0000000001
 40
0.0
 40
0.0
 40
0.0
 40
0.0
 40
0.2017209695
 40
0.3918662091
 40
0.4807231033
 40
0.5644947324
 40
0.6425312867
 40
0.7141900343
 40
0.77885371
 40
0.8360278349
 40
0.8852526551
 40
0.9067409124
 40
0.9260841046
 40
0.9432505609
 40
0.9582089732
 40
0.970928013
 40
0.9813763333
 40
0.9895225907
 40
0.9927240927
 40
0.9953434768
 40
0.9973807512
 40
0.9988359243
 40
0.9997090045
 40
1.0
 40
1.0
 40
1.0
 40
1.0
 10
15.2452031906
 20
6.6953744682
 30
0.0
 10
15.2384789716
 20
6.6954571436
 30
0.0
 10
15.2254174208
 20
6.695722189
 30
0.0
 10
15.2094016087
 20
6.6963048979
 30
0.0
 10
15.1973214189
 20
6.6968783582
 30
0.0
 10
15.1889773892
 20
6.6973335055
 30
0.0
 10
15.1812087558
 20
6.6978075632
 30
0.0
 10
15.1740786561
 20
6.6982851507
 30
0.0
 10
15.1676449357
 20
6.6987512259
 30
0.0
 10
15.1619592331
 20
6.6991911638
 30
0.0
 10
15.157710034
 20
6.6995383225
 30
0.0
 10
15.1547184798
 20
6.6997908064
 30
0.0
 10
15.1527921232
 20
6.6999563476
 30
0.0
 10
15.1510828388
 20
6.7001057814
 30
0.0
 10
15.1495938195
 20
6.7002380056
 30
0.0
 10
15.1483277401
 20
6.7003520488
 30
0.0
 10
15.1472887362
 20
6.7004466176
 30
0.0
 10
15.1465638178
 20
6.700513325
 30
0.0
 10
15.1461022064
 20
6.7005554199
 30
0.0
 10
15.1458370183
 20
6.7005803156
 30
0.0
 10
15.1456452685
 20
6.7005964668
 30
0.0
 10
15.1454751316
 20
6.7006153473
 30
0.0
 10
15.145432394
 20
6.7006135371
 30
0.0
 10
15.1453479872
 20
6.700627214
 30
0.0
 10
15.1453571186
 20
6.7006239394
 30
0.0
  0
LINE
  5
54B
100
AcDbEntity
  8
0
100
AcDbLine
 62
7
  6
CONTINUOUS
 10
15.2453552569
 20
2.7822277172
 11
15.2612557192
 21
2.614236235
  0
LINE
  5
54C
100
AcDbEntity
  8
0
100
AcDbLine
 62
7
  6
CONTINUOUS
 10
15.8594547947
 20
2.614236235
 11
15.8753552569
 21
2.7822277172
  0
SPLINE
  5
54D
100
AcDbEntity
  8
0
100
AcDbSpline
 62
7
  6
CONTINUOUS
 70
0
 71
3
 72
18
 73
14
 74
0
 42
0.0000001
 43
0.0000001
 44
0.0000000001
 40
0.0
 40
0.0
 40
0.0
 40
0.0
 40
0.1944330097
 40
0.3813907339
 40
0.5536519281
 40
0.7047012705
 40
0.8286631905
 40
0.8790616469
 40
0.9211589559
 40
0.9543266632
 40
0.9779647445
 40
0.9925910317
 40
1.0
 40
1.0
 40
1.0
 40
1.0
 10
15.8553552569
 20
7.9510211035
 30
0.0
 10
15.8566548603
 20
7.9510722056
 30
0.0
 10
15.8592046365
 20
7.9511594491
 30
0.0
 10
15.8629071556
 20
7.9512473697
 30
0.0
 10
15.8663203533
 20
7.9512883694
 30
0.0
 10
15.8693122457
 20
7.9512812031
 30
0.0
 10
15.8714890112
 20
7.9512345003
 30
0.0
 10
15.8729350862
 20
7.9511677098
 30
0.0
 10
15.8737746573
 20
7.9511097678
 30
0.0
 10
15.8744308437
 20
7.9510446968
 30
0.0
 10
15.8749084059
 20
7.9509677209
 30
0.0
 10
15.8751945664
 20
7.950892504
 30
0.0
 10
15.8753379465
 20
7.9508103855
 30
0.0
 10
15.8753552569
 20
7.9507639466
 30
0.0
  0
SPLINE
  5
54E
100
AcDbEntity
  8
0
100
AcDbSpline
 62
7
  6
CONTINUOUS
 70
0
 71
3
 72
16
 73
12
 74
0
 42
0.0000001
 43
0.0000001
 44
0.0000000001
 40
0.0
 40
0.0
 40
0.0
 40
0.0
 40
0.0768145101
 40
0.1639678035
 40
0.2136966413
 40
0.2677166613
 40
0.3886984441
 40
0.5259415283
 40
0.6763650684
 40
0.8359681013
 40
1.0
 40
1.0
 40
1.0
 40
1.0
 10
15.2453552569
 20
7.0955315388
 30
0.0
 10
15.2453806436
 20
7.0949214274
 30
0.0
 10
15.2456619944
 20
7.0936130123
 30
0.0
 10
15.2466447317
 20
7.0921851118
 30
0.0
 10
15.2477306177
 20
7.0911236379
 30
0.0
 10
15.2491385554
 20
7.0900180134
 30
0.0
 10
15.2513033404
 20
7.0887782828
 30
0.0
 10
15.2543272857
 20
7.0875707086
 30
0.0
 10
15.2577634392
 20
7.0866310568
 30
0.0
 10
15.2614833732
 20
7.0859965372
 30
0.0
 10
15.2640520682
 20
7.085792581
 30
0.0
 10
15.2653552569
 20
7.0857472583
 30
0.0
  0
SPLINE
  5
54F
100
AcDbEntity
  8
0
100
AcDbSpline
 62
7
  6
CONTINUOUS
 70
0
 71
3
 72
16
 73
12
 74
0
 42
0.0000001
 43
0.0000001
 44
0.0000000001
 40
0.0
 40
0.0
 40
0.0
 40
0.0
 40
0.1249683711
 40
0.1874976398
 40
0.2500421266
 40
0.3750427162
 40
0.5000296034
 40
0.6250571055
 40
0.7500610052
 40
0.8750631631
 40
1.0
 40
1.0
 40
1.0
 40
1.0
 10
15.8753552569
 20
6.5038587211
 30
0.0
 10
15.8753304745
 20
6.5051651953
 30
0.0
 10
15.8751492427
 20
6.5071302264
 30
0.0
 10
15.8745281913
 20
6.5096742491
 30
0.0
 10
15.873641682
 20
6.5121385394
 30
0.0
 10
15.8720862722
 20
6.5150378943
 30
0.0
 10
15.8695846986
 20
6.5180894735
 30
0.0
 10
15.8665338005
 20
6.5205931195
 30
0.0
 10
15.8630547558
 20
6.5224568497
 30
0.0
 10
15.8592817186
 20
6.5236069058
 30
0.0
 10
15.8566616351
 20
6.5238707965
 30
0.0
 10
15.8553552569
 20
6.523872691
 30
0.0
  0
SPLINE
  5
550
100
AcDbEntity
  8
0
100
AcDbSpline
 62
7
  6
CONTINUOUS
 70
0
 71
3
 72
16
 73
12
 74
0
 42
0.0000001
 43
0.0000001
 44
0.0000000001
 40
0.0
 40
0.0
 40
0.0
 40
0.0
 40
0.1640319177
 40
0.323634968
 40
0.4740585207
 40
0.6113016218
 40
0.7322834047
 40
0.7863034368
 40
0.836032323
 40
0.9231854461
 40
1.0
 40
1.0
 40
1.0
 40
1.0
 10
15.8553552569
 20
7.0857472583
 30
0.0
 10
15.8566584457
 20
7.085792581
 30
0.0
 10
15.8592271405
 20
7.0859965403
 30
0.0
 10
15.8629470745
 20
7.0866310594
 30
0.0
 10
15.8663832283
 20
7.0875707108
 30
0.0
 10
15.8694071732
 20
7.0887782857
 30
0.0
 10
15.8715719585
 20
7.0900180155
 30
0.0
 10
15.8729798967
 20
7.0911236401
 30
0.0
 10
15.87406578
 20
7.0921851152
 30
0.0
 10
15.8750485209
 20
7.0936130118
 30
0.0
 10
15.8753298712
 20
7.0949214266
 30
0.0
 10
15.8753552569
 20
7.0955315383
 30
0.0
  0
SPLINE
  5
551
100
AcDbEntity
  8
0
100
AcDbSpline
 62
7
  6
CONTINUOUS
 70
0
 71
3
 72
16
 73
12
 74
0
 42
0.0000001
 43
0.0000001
 44
0.0000000001
 40
0.0
 40
0.0
 40
0.0
 40
0.0
 40
0.124936837
 40
0.2499389948
 40
0.3749428945
 40
0.4999703966
 40
0.6249572836
 40
0.7499578736
 40
0.8125023603
 40
0.875031627
 40
1.0
 40
1.0
 40
1.0
 40
1.0
 10
15.2653552569
 20
6.523872691
 30
0.0
 10
15.2640488788
 20
6.5238707965
 30
0.0
 10
15.2614287953
 20
6.5236069058
 30
0.0
 10
15.2576557581
 20
6.5224568497
 30
0.0
 10
15.2541767134
 20
6.5205931195
 30
0.0
 10
15.2511258153
 20
6.5180894735
 30
0.0
 10
15.2486242416
 20
6.5150378943
 30
0.0
 10
15.2470688319
 20
6.5121385394
 30
0.0
 10
15.2461823226
 20
6.5096742491
 30
0.0
 10
15.2455612711
 20
6.5071302264
 30
0.0
 10
15.2453800392
 20
6.5051651953
 30
0.0
 10
15.2453552569
 20
6.5038587211
 30
0.0
  0
SPLINE
  5
552
100
AcDbEntity
  8
0
100
AcDbSpline
 62
7
  6
CONTINUOUS
 70
0
 71
3
 72
14
 73
10
 74
0
 42
0.0000001
 43
0.0000001
 44
0.0000000001
 40
0.0
 40
0.0
 40
0.0
 40
0.0
 40
0.1139231921
 40
0.1716348963
 40
0.230119516
 40
0.3497448438
 40
0.4735021848
 40
0.7319377607
 40
1.0
 40
1.0
 40
1.0
 40
1.0
 10
15.2453552569
 20
5.802227165
 30
0.0
 10
15.2453801377
 20
5.8011246585
 30
0.0
 10
15.2455646867
 20
5.799458321
 30
0.0
 10
15.2461860353
 20
5.7973142947
 30
0.0
 10
15.2470820189
 20
5.7952096937
 30
0.0
 10
15.2486623167
 20
5.7927238767
 30
0.0
 10
15.2520531715
 20
5.7892070737
 30
0.0
 10
15.2576467177
 20
5.7860216561
 30
0.0
 10
15.2627609566
 20
5.7850774009
 30
0.0
 10
15.2653552569
 20
5.7850231372
 30
0.0
  0
SPLINE
  5
553
100
AcDbEntity
  8
0
100
AcDbSpline
 62
7
  6
CONTINUOUS
 70
0
 71
3
 72
14
 73
10
 74
0
 42
0.0000001
 43
0.0000001
 44
0.0000000001
 40
0.0
 40
0.0
 40
0.0
 40
0.0
 40
0.1139233215
 40
0.1716348702
 40
0.2301194883
 40
0.3497448614
 40
0.473502189
 40
0.7319377643
 40
1.0
 40
1.0
 40
1.0
 40
1.0
 10
15.8753552569
 20
5.1190222438
 30
0.0
 10
15.8753303773
 20
5.1201247517
 30
0.0
 10
15.8751458292
 20
5.1217910894
 30
0.0
 10
15.8745244775
 20
5.1239351145
 30
0.0
 10
15.8736284948
 20
5.1260397145
 30
0.0
 10
15.8720481979
 20
5.1285255327
 30
0.0
 10
15.8686573418
 20
5.1320423351
 30
0.0
 10
15.8630637964
 20
5.1352277533
 30
0.0
 10
15.8579495573
 20
5.136172008
 30
0.0
 10
15.8553552569
 20
5.1362262717
 30
0.0
  0
SPLINE
  5
554
100
AcDbEntity
  8
0
100
AcDbSpline
 62
7
  6
CONTINUOUS
 70
0
 71
3
 72
14
 73
10
 74
0
 42
0.0000001
 43
0.0000001
 44
0.0000000001
 40
0.0
 40
0.0
 40
0.0
 40
0.0
 40
0.268062262
 40
0.5264978524
 40
0.6502551944
 40
0.7698805505
 40
0.8283651731
 40
0.8860768093
 40
1.0
 40
1.0
 40
1.0
 40
1.0
 10
15.8553552569
 20
5.7850231372
 30
0.0
 10
15.8579495574
 20
5.7850774009
 30
0.0
 10
15.8630637959
 20
5.7860216585
 30
0.0
 10
15.8686573421
 20
5.7892070754
 30
0.0
 10
15.8720481975
 20
5.7927238782
 30
0.0
 10
15.8736284949
 20
5.7952096957
 30
0.0
 10
15.8745244781
 20
5.7973142962
 30
0.0
 10
15.8751458279
 20
5.7994583213
 30
0.0
 10
15.8753303765
 20
5.8011246583
 30
0.0
 10
15.8753552569
 20
5.8022271647
 30
0.0
  0
SPLINE
  5
555
100
AcDbEntity
  8
0
100
AcDbSpline
 62
7
  6
CONTINUOUS
 70
0
 71
3
 72
14
 73
10
 74
0
 42
0.0000001
 43
0.0000001
 44
0.0000000001
 40
0.0
 40
0.0
 40
0.0
 40
0.0
 40
0.2680622388
 40
0.5264978175
 40
0.6502551354
 40
0.7698805498
 40
0.8283651674
 40
0.8860765825
 40
1.0
 40
1.0
 40
1.0
 40
1.0
 10
15.2653552569
 20
5.1362262717
 30
0.0
 10
15.2627609566
 20
5.136172008
 30
0.0
 10
15.2576467174
 20
5.1352277531
 30
0.0
 10
15.2520531725
 20
5.1320423345
 30
0.0
 10
15.2486623153
 20
5.1285255327
 30
0.0
 10
15.2470820193
 20
5.1260397136
 30
0.0
 10
15.2461860374
 20
5.1239351143
 30
0.0
 10
15.245564683
 20
5.1217910904
 30
0.0
 10
15.2453801357
 20
5.1201247526
 30
0.0
 10
15.2453552569
 20
5.1190222439
 30
0.0
  0
SPLINE
  5
556
100
AcDbEntity
  8
0
100
AcDbSpline
 62
7
  6
CONTINUOUS
 70
0
 71
3
 72
16
 73
12
 74
0
 42
0.0000001
 43
0.0000001
 44
0.0000000001
 40
0.0
 40
0.0
 40
0.0
 40
0.0
 40
0.124968374
 40
0.18749764
 40
0.2500421267
 40
0.3750427167
 40
0.5000296036
 40
0.6250571055
 40
0.750061005
 40
0.8750631628
 40
1.0
 40
1.0
 40
1.0
 40
1.0
 10
15.2453552569
 20
4.4173906878
 30
0.0
 10
15.2453800391
 20
4.4160842136
 30
0.0
 10
15.2455612711
 20
4.4141191825
 30
0.0
 10
15.2461823226
 20
4.4115751598
 30
0.0
 10
15.2470688319
 20
4.4091108695
 30
0.0
 10
15.2486242416
 20
4.4062115145
 30
0.0
 10
15.2511258153
 20
4.4031599354
 30
0.0
 10
15.2541767134
 20
4.4006562894
 30
0.0
 10
15.2576557581
 20
4.3987925592
 30
0.0
 10
15.2614287953
 20
4.397642503
 30
0.0
 10
15.2640488788
 20
4.3973786124
 30
0.0
 10
15.2653552569
 20
4.3973767179
 30
0.0
  0
SPLINE
  5
557
100
AcDbEntity
  8
0
100
AcDbSpline
 62
7
  6
CONTINUOUS
 70
0
 71
3
 72
16
 73
12
 74
0
 42
0.0000001
 43
0.0000001
 44
0.0000000001
 40
0.0
 40
0.0
 40
0.0
 40
0.0
 40
0.0768146324
 40
0.1639677786
 40
0.2136966517
 40
0.2677166765
 40
0.3886984488
 40
0.5259415335
 40
0.6763650717
 40
0.835968103
 40
1.0
 40
1.0
 40
1.0
 40
1.0
 10
15.8753552569
 20
3.8257178701
 30
0.0
 10
15.8753298712
 20
3.8263279825
 30
0.0
 10
15.8750485212
 20
3.8276363983
 30
0.0
 10
15.8740657803
 20
3.8290642962
 30
0.0
 10
15.8729798966
 20
3.8301257711
 30
0.0
 10
15.8715719585
 20
3.8312313957
 30
0.0
 10
15.8694071733
 20
3.8324711257
 30
0.0
 10
15.8663832283
 20
3.8336787003
 30
0.0
 10
15.8629470746
 20
3.834618352
 30
0.0
 10
15.8592271406
 20
3.8352528716
 30
0.0
 10
15.8566584457
 20
3.8354568279
 30
0.0
 10
15.8553552569
 20
3.8355021506
 30
0.0
  0
SPLINE
  5
558
100
AcDbEntity
  8
0
100
AcDbSpline
 62
7
  6
CONTINUOUS
 70
0
 71
3
 72
16
 73
12
 74
0
 42
0.0000001
 43
0.0000001
 44
0.0000000001
 40
0.0
 40
0.0
 40
0.0
 40
0.0
 40
0.1249368369
 40
0.2499389946
 40
0.3749428943
 40
0.4999703963
 40
0.6249572829
 40
0.7499578753
 40
0.8125023619
 40
0.8750316182
 40
1.0
 40
1.0
 40
1.0
 40
1.0
 10
15.8553552569
 20
4.3973767179
 30
0.0
 10
15.8566616351
 20
4.3973786124
 30
0.0
 10
15.8592817186
 20
4.3976425031
 30
0.0
 10
15.8630547558
 20
4.3987925592
 30
0.0
 10
15.8665338005
 20
4.4006562894
 30
0.0
 10
15.8695846985
 20
4.4031599354
 30
0.0
 10
15.8720862723
 20
4.4062115145
 30
0.0
 10
15.8736416819
 20
4.4091108696
 30
0.0
 10
15.8745281911
 20
4.4115751598
 30
0.0
 10
15.8751492432
 20
4.4141191823
 30
0.0
 10
15.8753304755
 20
4.4160842135
 30
0.0
 10
15.8753552569
 20
4.4173906878
 30
0.0
  0
SPLINE
  5
559
100
AcDbEntity
  8
0
100
AcDbSpline
 62
7
  6
CONTINUOUS
 70
0
 71
3
 72
16
 73
12
 74
0
 42
0.0000001
 43
0.0000001
 44
0.0000000001
 40
0.0
 40
0.0
 40
0.0
 40
0.0
 40
0.1640318966
 40
0.3236349274
 40
0.4740584654
 40
0.6113015496
 40
0.7322833221
 40
0.7863033465
 40
0.8360322173
 40
0.9231853719
 40
1.0
 40
1.0
 40
1.0
 40
1.0
 10
15.2653552569
 20
3.8355021506
 30
0.0
 10
15.2640520682
 20
3.8354568279
 30
0.0
 10
15.2614833732
 20
3.8352528716
 30
0.0
 10
15.2577634392
 20
3.834618352
 30
0.0
 10
15.2543272856
 20
3.8336787004
 30
0.0
 10
15.2513033405
 20
3.8324711258
 30
0.0
 10
15.2491385554
 20
3.8312313957
 30
0.0
 10
15.2477306173
 20
3.8301257712
 30
0.0
 10
15.2466447334
 20
3.8290642963
 30
0.0
 10
15.2456619927
 20
3.8276363983
 30
0.0
 10
15.2453806427
 20
3.8263279825
 30
0.0
 10
15.2453552569
 20
3.8257178701
 30
0.0
  0
SPLINE
  5
55A
100
AcDbEntity
  8
0
100
AcDbSpline
 62
7
  6
CONTINUOUS
 70
0
 71
3
 72
18
 73
14
 74
0
 42
0.0000001
 43
0.0000001
 44
0.0000000001
 40
0.0
 40
0.0
 40
0.0
 40
0.0
 40
0.0074094945
 40
0.0220356327
 40
0.0456736079
 40
0.0788413048
 40
0.1209386167
 40
0.1713370602
 40
0.2952989399
 40
0.4463482377
 40
0.6186093803
 40
0.8055670485
 40
1.0
 40
1.0
 40
1.0
 40
1.0
 10
15.8753552569
 20
2.9704854623
 30
0.0
 10
15.8753379501
 20
2.9704390183
 30
0.0
 10
15.8751945729
 20
2.9703568834
 30
0.0
 10
15.8749084026
 20
2.9702816873
 30
0.0
 10
15.8744308437
 20
2.9702047155
 30
0.0
 10
15.8737746571
 20
2.9701396439
 30
0.0
 10
15.8729350865
 20
2.9700816977
 30
0.0
 10
15.8714890111
 20
2.9700149079
 30
0.0
 10
15.8693122457
 20
2.9699682064
 30
0.0
 10
15.8663203533
 20
2.9699610391
 30
0.0
 10
15.8629071556
 20
2.9700020392
 30
0.0
 10
15.8592046365
 20
2.9700899596
 30
0.0
 10
15.8566548603
 20
2.9701772033
 30
0.0
 10
15.8553552569
 20
2.9702283053
 30
0.0
  0
SPLINE
  5
55B
100
AcDbEntity
  8
0
100
AcDbSpline
 62
7
  6
CONTINUOUS
 70
0
 71
3
 72
18
 73
14
 74
0
 42
0.0000001
 43
0.0000001
 44
0.0000000001
 40
0.0
 40
0.0
 40
0.0
 40
0.0
 40
0.1944329615
 40
0.3813906394
 40
0.5536517909
 40
0.7047010963
 40
0.8286629829
 40
0.8790614286
 40
0.9211587402
 40
0.9543264388
 40
0.9779644312
 40
0.9925905929
 40
1.0
 40
1.0
 40
1.0
 40
1.0
 10
15.2653552569
 20
2.9702283053
 30
0.0
 10
15.2640556535
 20
2.9701772033
 30
0.0
 10
15.2615058774
 20
2.9700899598
 30
0.0
 10
15.2578033583
 20
2.9700020393
 30
0.0
 10
15.2543901606
 20
2.9699610392
 30
0.0
 10
15.2513982682
 20
2.9699682064
 30
0.0
 10
15.2492215028
 20
2.9700149082
 30
0.0
 10
15.2477754274
 20
2.970081698
 30
0.0
 10
15.2469358568
 20
2.9701396435
 30
0.0
 10
15.2462796702
 20
2.9702047151
 30
0.0
 10
15.2458021107
 20
2.9702816875
 30
0.0
 10
15.2455159421
 20
2.9703568869
 30
0.0
 10
15.2453725644
 20
2.9704390191
 30
0.0
 10
15.2453552569
 20
2.9704854623
 30
0.0
  0
SPLINE
  5
55C
100
AcDbEntity
  8
0
100
AcDbSpline
 62
7
  6
CONTINUOUS
 70
0
 71
3
 72
18
 73
14
 74
0
 42
0.0000001
 43
0.0000001
 44
0.0000000001
 40
0.0
 40
0.0
 40
0.0
 40
0.0
 40
0.0074093687
 40
0.0220355373
 40
0.0456735356
 40
0.0788412352
 40
0.1209385471
 40
0.171336994
 40
0.2952988842
 40
0.4463481938
 40
0.6186093499
 40
0.805567033
 40
1.0
 40
1.0
 40
1.0
 40
1.0
 10
15.2453552569
 20
7.9507639466
 30
0.0
 10
15.2453725646
 20
7.9508103895
 30
0.0
 10
15.2455159425
 20
7.9508925205
 30
0.0
 10
15.2458021105
 20
7.950967721
 30
0.0
 10
15.2462796702
 20
7.9510446936
 30
0.0
 10
15.2469358567
 20
7.9511097651
 30
0.0
 10
15.2477754274
 20
7.9511677104
 30
0.0
 10
15.2492215028
 20
7.9512345003
 30
0.0
 10
15.2513982682
 20
7.9512812021
 30
0.0
 10
15.2543901606
 20
7.9512883693
 30
0.0
 10
15.2578033582
 20
7.9512473692
 30
0.0
 10
15.2615058774
 20
7.9511594486
 30
0.0
 10
15.2640556535
 20
7.9510722056
 30
0.0
 10
15.2653552569
 20
7.9510211035
 30
0.0
  0
SPLINE
  5
55D
100
AcDbEntity
  8
RING
100
AcDbSpline
 62
7
  6
CONTINUOUS
 70
0
 71
3
 72
9
 73
5
 74
0
 42
0.0000001
 43
0.0000001
 44
0.0000000001
 40
0.0
 40
0.0
 40
0.0
 40
0.0
 40
0.4886561292
 40
1.0
 40
1.0
 40
1.0
 40
1.0
 10
18.1663959834
 20
12.5891376839
 30
0.0
 10
18.1431772492
 20
12.6364524896
 30
0.0
 10
18.091084064
 20
12.7310775935
 30
0.0
 10
18.0312832376
 20
12.8209890675
 30
0.0
 10
17.9990353167
 20
12.8657305487
 30
0.0
  0
SPLINE
  5
55E
100
AcDbEntity
  8
RING
100
AcDbSpline
 62
7
  6
CONTINUOUS
 70
0
 71
3
 72
33
 73
29
 74
0
 42
0.0000001
 43
0.0000001
 44
0.0000000001
 40
0.0
 40
0.0
 40
0.0
 40
0.0
 40
0.0261898323
 40
0.0531826609
 40
0.0809681143
 40
0.109525624
 40
0.1688120257
 40
0.1994744207
 40
0.2307495238
 40
0.2625857281
 40
0.2949257597
 40
0.3608646134
 40
0.4280617029
 40
0.4619665089
 40
0.4959787725
 40
0.5300275682
 40
0.5640416571
 40
0.6316727124
 40
0.6983225852
 40
0.7311163495
 40
0.7634679554
 40
0.7953166177
 40
0.8266063225
 40
0.8872892911
 40
0.9166046244
 40
0.9451801192
 40
0.9729860254
 40
1.0
 40
1.0
 40
1.0
 40
1.0
 10
17.9990353167
 20
12.8657305487
 30
0.0
 10
17.974767083
 20
12.8994008347
 30
0.0
 10
17.923539769
 20
12.9663893605
 30
0.0
 10
17.8403382195
 20
13.0641412239
 30
0.0
 10
17.7498460147
 20
13.1604070836
 30
0.0
 10
17.6182123009
 20
13.2879617863
 30
0.0
 10
17.474698251
 20
13.4095134627
 30
0.0
 10
17.3209473643
 20
13.5247500233
 30
0.0
 10
17.1986536651
 20
13.6092512615
 30
0.0
 10
17.0710630024
 20
13.6905699669
 30
0.0
 10
16.893278802
 20
13.7951035067
 30
0.0
 10
16.6603469234
 20
13.9160461747
 30
0.0
 10
16.4176472763
 20
14.0222478349
 30
0.0
 10
16.2175343819
 20
14.0985161762
 30
0.0
 10
16.0647440369
 20
14.1512058543
 30
0.0
 10
15.9101804851
 20
14.1990301158
 30
0.0
 10
15.7027940602
 20
14.2560147804
 30
0.0
 10
15.4423332514
 20
14.314304052
 30
0.0
 10
15.1805202797
 20
14.3551770273
 30
0.0
 10
14.9727410267
 20
14.3767847406
 30
0.0
 10
14.8193599402
 20
14.3873523659
 30
0.0
 10
14.6680758581
 20
14.3923196183
 30
0.0
 10
14.4718200381
 20
14.3914821168
 30
0.0
 10
14.2797204234
 20
14.3796739867
 30
0.0
 10
14.0932280231
 20
14.3562430231
 30
0.0
 10
13.9593095388
 20
14.3333668854
 30
0.0
 10
13.830166129
 20
14.3050632657
 30
0.0
 10
13.7462779829
 20
14.2823026879
 30
0.0
 10
13.7052732893
 20
14.2699993508
 30
0.0
  0
SPLINE
  5
55F
100
AcDbEntity
  8
RING
100
AcDbSpline
 62
7
  6
CONTINUOUS
 70
0
 71
3
 72
15
 73
11
 74
0
 42
0.0000001
 43
0.0000001
 44
0.0000000001
 40
0.0
 40
0.0
 40
0.0
 40
0.0
 40
0.142124762
 40
0.2789447789
 40
0.4105182594
 40
0.5370202861
 40
0.6587380524
 40
0.7760879439
 40
0.8896174469
 40
1.0
 40
1.0
 40
1.0
 40
1.0
 10
13.7052732893
 20
14.2699993508
 30
0.0
 10
13.6576189277
 20
14.2557008004
 30
0.0
 10
13.5649228751
 20
14.2247384648
 30
0.0
 10
13.4318951468
 20
14.1700705513
 30
0.0
 10
13.308093842
 20
14.1082588276
 30
0.0
 10
13.1940759733
 20
14.0395834716
 30
0.0
 10
13.0903600609
 20
13.9643280318
 30
0.0
 10
12.9974251427
 20
13.8828047826
 30
0.0
 10
12.9157093638
 20
13.795389245
 30
0.0
 10
12.8684112499
 20
13.7326547447
 30
0.0
 10
12.8469117198
 20
13.7005467457
 30
0.0
  0
SPLINE
  5
560
100
AcDbEntity
  8
RING
100
AcDbSpline
 62
7
  6
CONTINUOUS
 70
0
 71
3
 72
11
 73
7
 74
0
 42
0.0000001
 43
0.0000001
 44
0.0000000001
 40
0.0
 40
0.0
 40
0.0
 40
0.0
 40
0.2531213395
 40
0.5035821486
 40
0.7522437779
 40
1.0
 40
1.0
 40
1.0
 40
1.0
 10
12.8469117198
 20
13.7005467457
 30
0.0
 10
12.833582828
 20
13.6806410064
 30
0.0
 10
12.8084301607
 20
13.6401029979
 30
0.0
 10
12.7753002513
 20
13.5770182106
 30
0.0
 10
12.7470661215
 20
13.5121481768
 30
0.0
 10
12.7315246271
 20
13.4677572468
 30
0.0
 10
12.7246007147
 20
13.4453544211
 30
0.0
  0
SPLINE
  5
561
100
AcDbEntity
  8
RING
100
AcDbSpline
 62
7
  6
CONTINUOUS
 70
0
 71
3
 72
15
 73
11
 74
0
 42
0.0000001
 43
0.0000001
 44
0.0000000001
 40
0.0
 40
0.0
 40
0.0
 40
0.0
 40
0.1162050145
 40
0.2340892412
 40
0.3541295659
 40
0.476765097
 40
0.6023903754
 40
0.7313363133
 40
0.8638206854
 40
1.0
 40
1.0
 40
1.0
 40
1.0
 10
18.3021199876
 20
11.9036129634
 30
0.0
 10
18.3053488664
 20
11.9308635235
 30
0.0
 10
18.3095553508
 20
11.986056458
 30
0.0
 10
18.3091133113
 20
12.0697659962
 30
0.0
 10
18.3019522058
 20
12.1546949591
 30
0.0
 10
18.2881063429
 20
12.2406379947
 30
0.0
 10
18.2676068476
 20
12.3273984158
 30
0.0
 10
18.2404974689
 20
12.414758824
 30
0.0
 10
18.2068812951
 20
12.5024923085
 30
0.0
 10
18.1805629598
 20
12.5602684214
 30
0.0
 10
18.1663959834
 20
12.5891376839
 30
0.0
  0
SPLINE
  5
562
100
AcDbEntity
  8
RING
100
AcDbSpline
 62
7
  6
CONTINUOUS
 70
0
 71
3
 72
15
 73
11
 74
0
 42
0.0000001
 43
0.0000001
 44
0.0000000001
 40
0.0
 40
0.0
 40
0.0
 40
0.0
 40
0.1363017369
 40
0.2688525729
 40
0.3978148165
 40
0.5234168133
 40
0.6460043162
 40
0.7659869132
 40
0.8838206359
 40
1.0
 40
1.0
 40
1.0
 40
1.0
 10
18.1161405968
 20
12.4324723019
 30
0.0
 10
18.130501279
 20
12.4032083083
 30
0.0
 10
18.1571506301
 20
12.3446414428
 30
0.0
 10
18.1910933961
 20
12.2556944318
 30
0.0
 10
18.218339867
 20
12.1671371709
 30
0.0
 10
18.2387834879
 20
12.0792059108
 30
0.0
 10
18.2523808627
 20
11.9921269758
 30
0.0
 10
18.2590984936
 20
11.9061050237
 30
0.0
 10
18.2589023306
 20
11.8213551685
 30
0.0
 10
18.2541401737
 20
11.7655140497
 30
0.0
 10
18.2506028053
 20
11.7379548699
 30
0.0
  0
SPLINE
  5
563
100
AcDbEntity
  8
RING
100
AcDbSpline
 62
7
  6
CONTINUOUS
 70
0
 71
3
 72
9
 73
5
 74
0
 42
0.0000001
 43
0.0000001
 44
0.0000000001
 40
0.0
 40
0.0
 40
0.0
 40
0.0
 40
0.4886561292
 40
1.0
 40
1.0
 40
1.0
 40
1.0
 10
12.7758289535
 20
12.4324723019
 30
0.0
 10
12.7990476878
 20
12.3851574962
 30
0.0
 10
12.8511408729
 20
12.2905323924
 30
0.0
 10
12.9109416994
 20
12.2006209183
 30
0.0
 10
12.9431896203
 20
12.1558794371
 30
0.0
  0
SPLINE
  5
564
100
AcDbEntity
  8
RING
100
AcDbSpline
 62
7
  6
CONTINUOUS
 70
0
 71
3
 72
10
 73
6
 74
0
 42
0.0000001
 43
0.0000001
 44
0.0000000001
 40
0.0
 40
0.0
 40
0.0
 40
0.0
 40
0.2436545763
 40
0.491761843
 40
1.0
 40
1.0
 40
1.0
 40
1.0
 10
13.4761881875
 20
11.6079791684
 30
0.0
 10
13.5094931029
 20
11.5813960486
 30
0.0
 10
13.5776910519
 20
11.5289575538
 30
0.0
 10
13.7199511089
 20
11.4271881887
 30
0.0
 10
13.8313851857
 20
11.3556837692
 30
0.0
 10
13.9076428858
 20
11.3100155272
 30
0.0
  0
SPLINE
  5
565
100
AcDbEntity
  8
RING
100
AcDbSpline
 62
7
  6
CONTINUOUS
 70
0
 71
3
 72
10
 73
6
 74
0
 42
0.0000001
 43
0.0000001
 44
0.0000000001
 40
0.0
 40
0.0
 40
0.0
 40
0.0
 40
0.5072809548
 40
0.7556323006
 40
1.0
 40
1.0
 40
1.0
 40
1.0
 10
15.9434322064
 20
10.6480577194
 30
0.0
 10
16.0319511304
 20
10.6398793697
 30
0.0
 10
16.1642239368
 20
10.6316179961
 30
0.0
 10
16.3394661006
 20
10.629106268
 30
0.0
 10
16.4258159415
 20
10.6306984566
 30
0.0
 10
16.4686118674
 20
10.6322209794
 30
0.0
  0
SPLINE
  5
566
100
AcDbEntity
  8
RING
100
AcDbSpline
 62
7
  6
CONTINUOUS
 70
0
 71
3
 72
10
 73
6
 74
0
 42
0.0000001
 43
0.0000001
 44
0.0000000001
 40
0.0
 40
0.0
 40
0.0
 40
0.0
 40
0.2604610613
 40
0.5139533732
 40
1.0
 40
1.0
 40
1.0
 40
1.0
 10
17.2369516476
 20
10.751610635
 30
0.0
 10
17.2714556308
 20
10.7619634532
 30
0.0
 10
17.3390993565
 20
10.7839209633
 30
0.0
 10
17.4684890647
 20
10.8328549743
 30
0.0
 10
17.5614348078
 20
10.8761621158
 30
0.0
 10
17.6206212531
 20
10.9080369905
 30
0.0
  0
SPLINE
  5
567
100
AcDbEntity
  8
RING
100
AcDbSpline
 62
7
  6
CONTINUOUS
 70
0
 71
3
 72
15
 73
11
 74
0
 42
0.0000001
 43
0.0000001
 44
0.0000000001
 40
0.0
 40
0.0
 40
0.0
 40
0.0
 40
0.1103582295
 40
0.2238464959
 40
0.3411534196
 40
0.4628385532
 40
0.5893289322
 40
0.7209189033
 40
0.857788952
 40
1.0
 40
1.0
 40
1.0
 40
1.0
 10
12.7967014608
 20
13.5376662496
 30
0.0
 10
12.8180760648
 20
13.5700291196
 30
0.0
 10
12.8651768042
 20
13.6332716668
 30
0.0
 10
12.9467525908
 20
13.721411234
 30
0.0
 10
13.0396895198
 20
13.8036088889
 30
0.0
 10
13.1435410903
 20
13.8794848449
 30
0.0
 10
13.2578237307
 20
13.9487177477
 30
0.0
 10
13.3820099507
 20
14.0110211011
 30
0.0
 10
13.515535369
 20
14.0661078682
 30
0.0
 10
13.6086136003
 20
14.0972909049
 30
0.0
 10
13.6564738719
 20
14.1116878577
 30
0.0
  0
SPLINE
  5
568
100
AcDbEntity
  8
RING
100
AcDbSpline
 62
7
  6
CONTINUOUS
 70
0
 71
3
 72
12
 73
8
 74
0
 42
0.0000001
 43
0.0000001
 44
0.0000000001
 40
0.0
 40
0.0
 40
0.0
 40
0.0
 40
0.2640220375
 40
0.5193387592
 40
0.6434220431
 40
0.7649623321
 40
1.0
 40
1.0
 40
1.0
 40
1.0
 10
17.1031969947
 20
13.4807761572
 30
0.0
 10
17.1718165494
 20
13.4365361722
 30
0.0
 10
17.3042384619
 20
13.3454672289
 30
0.0
 10
17.4607454797
 20
13.2223602057
 30
0.0
 10
17.5773479823
 20
13.1203295613
 30
0.0
 10
17.6856312714
 20
13.0184800391
 30
0.0
 10
17.761732173
 20
12.9384793928
 30
0.0
 10
17.8095667821
 20
12.883757778
 30
0.0
  0
SPLINE
  5
569
100
AcDbEntity
  8
RING
100
AcDbSpline
 62
7
  6
CONTINUOUS
 70
0
 71
3
 72
9
 73
5
 74
0
 42
0.0000001
 43
0.0000001
 44
0.0000000001
 40
0.0
 40
0.0
 40
0.0
 40
0.0
 40
0.5112852857
 40
1.0
 40
1.0
 40
1.0
 40
1.0
 10
17.949962442
 20
12.7073926066
 30
0.0
 10
17.9819655564
 20
12.6629126832
 30
0.0
 10
18.0413275919
 20
12.5735314917
 30
0.0
 10
18.0930660367
 20
12.4794933115
 30
0.0
 10
18.1161405968
 20
12.4324723019
 30
0.0
  0
SPLINE
  5
56A
100
AcDbEntity
  8
RING
100
AcDbSpline
 62
7
  6
CONTINUOUS
 70
0
 71
3
 72
9
 73
5
 74
0
 42
0.0000001
 43
0.0000001
 44
0.0000000001
 40
0.0
 40
0.0
 40
0.0
 40
0.0
 40
0.4886561292
 40
1.0
 40
1.0
 40
1.0
 40
1.0
 10
18.1179827187
 20
12.4324723019
 30
0.0
 10
18.0947639845
 20
12.4797871076
 30
0.0
 10
18.0426707994
 20
12.5744122115
 30
0.0
 10
17.9828699729
 20
12.6643236856
 30
0.0
 10
17.950622052
 20
12.7090651668
 30
0.0
  0
SPLINE
  5
56B
100
AcDbEntity
  8
RING
100
AcDbSpline
 62
7
  6
CONTINUOUS
 70
0
 71
3
 72
9
 73
5
 74
0
 42
0.0000001
 43
0.0000001
 44
0.0000000001
 40
0.0
 40
0.0
 40
0.0
 40
0.0
 40
0.2449614647
 40
1.0
 40
1.0
 40
1.0
 40
1.0
 10
17.950622052
 20
12.7090651668
 30
0.0
 10
17.939898155
 20
12.7239437395
 30
0.0
 10
17.8953597267
 20
12.7841319037
 30
0.0
 10
17.8478805545
 20
12.8421313046
 30
0.0
 10
17.8106622428
 20
12.8846811544
 30
0.0
  0
SPLINE
  5
56C
100
AcDbEntity
  8
RING
100
AcDbSpline
 62
7
  6
CONTINUOUS
 70
0
 71
3
 72
12
 73
8
 74
0
 42
0.0000001
 43
0.0000001
 44
0.0000000001
 40
0.0
 40
0.0
 40
0.0
 40
0.0
 40
0.2350487232
 40
0.3565917666
 40
0.4806759388
 40
0.7359889037
 40
1.0
 40
1.0
 40
1.0
 40
1.0
 10
17.8106622428
 20
12.8846811544
 30
0.0
 10
17.7627861441
 20
12.9394155235
 30
0.0
 10
17.6866246433
 20
13.0194343629
 30
0.0
 10
17.5782629754
 20
13.1213071356
 30
0.0
 10
17.4615837988
 20
13.2233584554
 30
0.0
 10
17.304984261
 20
13.3464890623
 30
0.0
 10
17.1724906064
 20
13.4375761391
 30
0.0
 10
17.1038358194
 20
13.4818246585
 30
0.0
  0
SPLINE
  5
56D
100
AcDbEntity
  8
RING
100
AcDbSpline
 62
7
  6
CONTINUOUS
 70
0
 71
3
 72
23
 73
19
 74
0
 42
0.0000001
 43
0.0000001
 44
0.0000000001
 40
0.0
 40
0.0
 40
0.0
 40
0.0
 40
0.0620789383
 40
0.1253495707
 40
0.1895833173
 40
0.2545387801
 40
0.3199668132
 40
0.3856118089
 40
0.4512164788
 40
0.5165231402
 40
0.5812785434
 40
0.6452348761
 40
0.7081552581
 40
0.769814234
 40
0.830004448
 40
0.8885365418
 40
0.9452474823
 40
1.0
 40
1.0
 40
1.0
 40
1.0
 10
17.0862618453
 20
13.4930883367
 30
0.0
 10
17.0273363162
 20
13.5306458116
 30
0.0
 10
16.9064203881
 20
13.6034888054
 30
0.0
 10
16.7184981353
 20
13.7047583637
 30
0.0
 10
16.5231679298
 20
13.7986209914
 30
0.0
 10
16.3215727308
 20
13.884528627
 30
0.0
 10
16.1148844932
 20
13.9619815558
 30
0.0
 10
15.9043063719
 20
14.0305278011
 30
0.0
 10
15.6910656145
 20
14.0897706064
 30
0.0
 10
15.4764023712
 20
14.1393609542
 30
0.0
 10
15.2615682331
 20
14.1790159703
 30
0.0
 10
15.0478116293
 20
14.2084971298
 30
0.0
 10
14.8363781786
 20
14.2276423176
 30
0.0
 10
14.6284951752
 20
14.2363283219
 30
0.0
 10
14.4253726286
 20
14.2345175543
 30
0.0
 10
14.2281853886
 20
14.2222031891
 30
0.0
 10
14.0380877191
 20
14.199473356
 30
0.0
 10
13.9145446314
 20
14.1770373775
 30
0.0
 10
13.8543055772
 20
14.1640167728
 30
0.0
  0
SPLINE
  5
56E
100
AcDbEntity
  8
RING
100
AcDbSpline
 62
7
  6
CONTINUOUS
 70
0
 71
3
 72
15
 73
11
 74
0
 42
0.0000001
 43
0.0000001
 44
0.0000000001
 40
0.0
 40
0.0
 40
0.0
 40
0.0
 40
0.142124762
 40
0.2789447789
 40
0.4105182594
 40
0.5370202861
 40
0.6587380524
 40
0.7760879439
 40
0.8896174469
 40
1.0
 40
1.0
 40
1.0
 40
1.0
 10
13.6568600247
 20
14.1133339689
 30
0.0
 10
13.609205663
 20
14.0990354185
 30
0.0
 10
13.5165096104
 20
14.0680730829
 30
0.0
 10
13.3834818821
 20
14.0134051694
 30
0.0
 10
13.2596805773
 20
13.9515934457
 30
0.0
 10
13.1456627086
 20
13.8829180897
 30
0.0
 10
13.0419467962
 20
13.8076626499
 30
0.0
 10
12.949011878
 20
13.7261394007
 30
0.0
 10
12.8672960991
 20
13.6387238631
 30
0.0
 10
12.8199979852
 20
13.5759893628
 30
0.0
 10
12.7984984551
 20
13.5438813638
 30
0.0
  0
SPLINE
  5
56F
100
AcDbEntity
  8
RING
100
AcDbSpline
 62
7
  6
CONTINUOUS
 70
0
 71
3
 72
10
 73
6
 74
0
 42
0.0000001
 43
0.0000001
 44
0.0000000001
 40
0.0
 40
0.0
 40
0.0
 40
0.0
 40
0.4861368315
 40
0.739606449
 40
1.0
 40
1.0
 40
1.0
 40
1.0
 10
17.6182113646
 20
10.9085981775
 30
0.0
 10
17.55942458
 20
10.876983723
 30
0.0
 10
17.4671402258
 20
10.8340046588
 30
0.0
 10
17.3387035568
 20
10.7853887145
 30
0.0
 10
17.2715753479
 20
10.7635558176
 30
0.0
 10
17.2373378003
 20
10.7532567462
 30
0.0
  0
SPLINE
  5
570
100
AcDbEntity
  8
RING
100
AcDbSpline
 62
7
  6
CONTINUOUS
 70
0
 71
3
 72
10
 73
6
 74
0
 42
0.0000001
 43
0.0000001
 44
0.0000000001
 40
0.0
 40
0.0
 40
0.0
 40
0.0
 40
0.2443899388
 40
0.492746988
 40
1.0
 40
1.0
 40
1.0
 40
1.0
 10
16.466829564
 20
10.6334243475
 30
0.0
 10
16.4242186143
 20
10.6319206861
 30
0.0
 10
16.3382456457
 20
10.6303541517
 30
0.0
 10
16.1637789689
 20
10.6328704056
 30
0.0
 10
16.0320951582
 20
10.6410827424
 30
0.0
 10
15.9439710015
 20
10.6492070207
 30
0.0
  0
SPLINE
  5
571
100
AcDbEntity
  8
RING
100
AcDbSpline
 62
7
  6
CONTINUOUS
 70
0
 71
3
 72
10
 73
6
 74
0
 42
0.0000001
 43
0.0000001
 44
0.0000000001
 40
0.0
 40
0.0
 40
0.0
 40
0.0
 40
0.5082071267
 40
0.756320929
 40
1.0
 40
1.0
 40
1.0
 40
1.0
 10
13.9079649715
 20
11.3112325835
 30
0.0
 10
13.832053214
 20
11.3567143369
 30
0.0
 10
13.7211155851
 20
11.4279148972
 30
0.0
 10
13.5794657736
 20
11.5292274231
 30
0.0
 10
13.5115488644
 20
11.5814252045
 30
0.0
 10
13.4783777112
 20
11.6078851792
 30
0.0
  0
SPLINE
  5
572
100
AcDbEntity
  8
RING
100
AcDbSpline
 62
7
  6
CONTINUOUS
 70
0
 71
3
 72
9
 73
5
 74
0
 42
0.0000001
 43
0.0000001
 44
0.0000000001
 40
0.0
 40
0.0
 40
0.0
 40
0.0
 40
0.5112852857
 40
1.0
 40
1.0
 40
1.0
 40
1.0
 10
12.9438492302
 20
12.1575519972
 30
0.0
 10
12.9118461159
 20
12.2020319207
 30
0.0
 10
12.8524840803
 20
12.2914131122
 30
0.0
 10
12.8007456356
 20
12.3854512923
 30
0.0
 10
12.7776710755
 20
12.4324723019
 30
0.0
  0
SPLINE
  5
573
100
AcDbEntity
  8
RING
100
AcDbSpline
 62
7
  6
CONTINUOUS
 70
0
 71
3
 72
15
 73
11
 74
0
 42
0.0000001
 43
0.0000001
 44
0.0000000001
 40
0.0
 40
0.0
 40
0.0
 40
0.0
 40
0.1162050145
 40
0.2340892412
 40
0.3541295659
 40
0.476765097
 40
0.6023903754
 40
0.7313363133
 40
0.8638206854
 40
1.0
 40
1.0
 40
1.0
 40
1.0
 10
18.2537067229
 20
11.7469475815
 30
0.0
 10
18.2569356017
 20
11.7741981416
 30
0.0
 10
18.2611420861
 20
11.8293910761
 30
0.0
 10
18.2607000466
 20
11.9131006143
 30
0.0
 10
18.2535389411
 20
11.9980295772
 30
0.0
 10
18.2396930782
 20
12.0839726128
 30
0.0
 10
18.2191935829
 20
12.1707330339
 30
0.0
 10
18.1920842042
 20
12.258093442
 30
0.0
 10
18.1584680304
 20
12.3458269266
 30
0.0
 10
18.1321496951
 20
12.4036030394
 30
0.0
 10
18.1179827187
 20
12.4324723019
 30
0.0
  0
SPLINE
  5
574
100
AcDbEntity
  8
0
100
AcDbSpline
 62
7
  6
CONTINUOUS
 70
0
 71
3
 72
12
 73
8
 74
0
 42
0.0000001
 43
0.0000001
 44
0.0000000001
 40
0.0
 40
0.0
 40
0.0
 40
0.0
 40
0.2552913584
 40
0.5087466616
 40
0.7581951556
 40
0.8803278236
 40
1.0
 40
1.0
 40
1.0
 40
1.0
 10
13.9573748098
 20
11.7426766771
 30
0.0
 10
13.970911897
 20
11.7393911498
 30
0.0
 10
13.9979687942
 20
11.7331617657
 30
0.0
 10
14.0386077112
 20
11.7253508867
 30
0.0
 10
14.072438992
 20
11.7207937837
 30
0.0
 10
14.0991821983
 20
11.7188571528
 30
0.0
 10
14.1123784058
 20
11.7185194915
 30
0.0
 10
14.1189083731
 20
11.7185194779
 30
0.0
  0
SPLINE
  5
575
100
AcDbEntity
  8
0
100
AcDbSpline
 62
7
  6
CONTINUOUS
 70
0
 71
3
 72
13
 73
9
 74
0
 42
0.0000001
 43
0.0000001
 44
0.0000000001
 40
0.0
 40
0.0
 40
0.0
 40
0.0
 40
0.1360388008
 40
0.2684257794
 40
0.3972074447
 40
0.522675311
 40
0.76537182
 40
1.0
 40
1.0
 40
1.0
 40
1.0
 10
14.1189083731
 20
11.7185194779
 30
0.0
 10
14.1252789181
 20
11.7185197263
 30
0.0
 10
14.1378516055
 20
11.7188342798
 30
0.0
 10
14.1564054719
 20
11.7202589048
 30
0.0
 10
14.1743740393
 20
11.7225403717
 30
0.0
 10
14.1973099441
 20
11.7265166617
 30
0.0
 10
14.2248131204
 20
11.7329814789
 30
0.0
 10
14.2462506855
 20
11.7393414242
 30
0.0
 10
14.2567195849
 20
11.7426767747
 30
0.0
  0
SPLINE
  5
576
100
AcDbEntity
  8
02___PRT_ALL_AXES
100
AcDbSpline
 62
7
  6
CONTINUOUS
 70
0
 71
3
 72
11
 73
7
 74
0
 42
0.0000001
 43
0.0000001
 44
0.0000000001
 40
0.0
 40
0.0
 40
0.0
 40
0.0
 40
0.2421559055
 40
0.4875223223
 40
0.7394860595
 40
1.0
 40
1.0
 40
1.0
 40
1.0
 10
14.7360157343
 20
13.8868344138
 30
0.0
 10
14.7377370829
 20
13.883328233
 30
0.0
 10
14.7405385347
 20
13.875921914
 30
0.0
 10
14.7426221936
 20
13.8641112003
 30
0.0
 10
14.7425442341
 20
13.8518267843
 30
0.0
 10
14.7411061465
 20
13.8436438477
 30
0.0
 10
14.7400614688
 20
13.8395737289
 30
0.0
  0
SPLINE
  5
577
100
AcDbEntity
  8
02___PRT_ALL_AXES
100
AcDbSpline
 62
7
  6
CONTINUOUS
 70
0
 71
3
 72
11
 73
7
 74
0
 42
0.0000001
 43
0.0000001
 44
0.0000000001
 40
0.0
 40
0.0
 40
0.0
 40
0.0
 40
0.2428635337
 40
0.4883856274
 40
0.7400591556
 40
1.0
 40
1.0
 40
1.0
 40
1.0
 10
15.124593524
 20
13.0949959153
 30
0.0
 10
15.1264844532
 20
13.0911435655
 30
0.0
 10
15.1295182974
 20
13.0829928309
 30
0.0
 10
15.1315871188
 20
13.0699979906
 30
0.0
 10
15.1311015627
 20
13.0565513209
 30
0.0
 10
15.1291489899
 20
13.0476696955
 30
0.0
 10
15.127792869
 20
13.0432812867
 30
0.0
  0
SPLINE
  5
578
100
AcDbEntity
  8
0
100
AcDbSpline
 62
7
  6
CONTINUOUS
 70
0
 71
3
 72
15
 73
11
 74
0
 42
0.0000001
 43
0.0000001
 44
0.0000000001
 40
0.0
 40
0.0
 40
0.0
 40
0.0
 40
0.1091662927
 40
0.220192873
 40
0.3347848861
 40
0.454365088
 40
0.5800637972
 40
0.7126954723
 40
0.8526985483
 40
1.0
 40
1.0
 40
1.0
 40
1.0
 10
14.7096050568
 20
12.0467517623
 30
0.0
 10
14.7126728834
 20
12.0566764469
 30
0.0
 10
14.7204933909
 20
12.0762301011
 30
0.0
 10
14.7369291636
 20
12.1036632738
 30
0.0
 10
14.7579324565
 20
12.1290721195
 30
0.0
 10
14.7832853239
 20
12.1522421899
 30
0.0
 10
14.8127639544
 20
12.172990134
 30
0.0
 10
14.8461103378
 20
12.1911677181
 30
0.0
 10
14.8830276256
 20
12.2066192396
 30
0.0
 10
14.9091457809
 20
12.2148348867
 30
0.0
 10
14.9226772225
 20
12.2184917771
 30
0.0
  0
SPLINE
  5
579
100
AcDbEntity
  8
0
100
AcDbSpline
 62
7
  6
CONTINUOUS
 70
0
 71
3
 72
11
 73
7
 74
0
 42
0.0000001
 43
0.0000001
 44
0.0000000001
 40
0.0
 40
0.0
 40
0.0
 40
0.0
 40
0.2362189788
 40
0.4788237538
 40
0.732087432
 40
1.0
 40
1.0
 40
1.0
 40
1.0
 10
14.0829755502
 20
12.5169939013
 30
0.0
 10
14.0855791652
 20
12.5116882918
 30
0.0
 10
14.0898447908
 20
12.5004057706
 30
0.0
 10
14.0930804746
 20
12.4822796842
 30
0.0
 10
14.0930780915
 20
12.4630797979
 30
0.0
 10
14.0909457474
 20
12.4501536283
 30
0.0
 10
14.0893820586
 20
12.4436356043
 30
0.0
  0
SPLINE
  5
57A
100
AcDbEntity
  8
0
100
AcDbSpline
 62
7
  6
CONTINUOUS
 70
0
 71
3
 72
9
 73
5
 74
0
 42
0.0000001
 43
0.0000001
 44
0.0000000001
 40
0.0
 40
0.0
 40
0.0
 40
0.0
 40
0.5014974614
 40
1.0
 40
1.0
 40
1.0
 40
1.0
 10
13.9935173265
 20
11.5294422312
 30
0.0
 10
13.9945375757
 20
11.5305419981
 30
0.0
 10
13.9963264902
 20
11.5329738968
 30
0.0
 10
13.9975438438
 20
11.5357369219
 30
0.0
 10
13.9979841088
 20
11.5371616199
 30
0.0
  0
SPLINE
  5
57B
100
AcDbEntity
  8
0
100
AcDbSpline
 62
7
  6
CONTINUOUS
 70
0
 71
3
 72
9
 73
5
 74
0
 42
0.0000001
 43
0.0000001
 44
0.0000000001
 40
0.0
 40
0.0
 40
0.0
 40
0.0
 40
0.4793769751
 40
1.0
 40
1.0
 40
1.0
 40
1.0
 10
14.6427700476
 20
11.5153681374
 30
0.0
 10
14.6416487824
 20
11.5161314808
 30
0.0
 10
14.6392139029
 20
11.5175844385
 30
0.0
 10
14.6366534092
 20
11.5187993883
 30
0.0
 10
14.635294395
 20
11.5193679383
 30
0.0
  0
SPLINE
  5
57C
100
AcDbEntity
  8
0
100
AcDbSpline
 62
7
  6
CONTINUOUS
 70
0
 71
3
 72
9
 73
5
 74
0
 42
0.0000001
 43
0.0000001
 44
0.0000000001
 40
0.0
 40
0.0
 40
0.0
 40
0.0
 40
0.5207934462
 40
1.0
 40
1.0
 40
1.0
 40
1.0
 10
14.6262443489
 20
11.5221602291
 30
0.0
 10
14.6247980748
 20
11.5224568528
 30
0.0
 10
14.6219928335
 20
11.52289616
 30
0.0
 10
14.6191571691
 20
11.5230665674
 30
0.0
 10
14.6177986835
 20
11.5230665674
 30
0.0
  0
SPLINE
  5
57D
100
AcDbEntity
  8
0
100
AcDbSpline
 62
7
  6
CONTINUOUS
 70
0
 71
3
 72
32
 73
28
 74
0
 42
0.0000001
 43
0.0000001
 44
0.0000000001
 40
0.0
 40
0.0
 40
0.0
 40
0.0
 40
0.033806698
 40
0.068214028
 40
0.1384449171
 40
0.2100393514
 40
0.2823460828
 40
0.3546584108
 40
0.4262771516
 40
0.4965266873
 40
0.5309441567
 40
0.5647880445
 40
0.5979895292
 40
0.6304878932
 40
0.6931460863
 40
0.7232387769
 40
0.7524608048
 40
0.7807950022
 40
0.8082383381
 40
0.834799008
 40
0.860500769
 40
0.8853832072
 40
0.9095015143
 40
0.9329270942
 40
0.9557484601
 40
0.9780691277
 40
1.0
 40
1.0
 40
1.0
 40
1.0
 10
14.6468336555
 20
11.5126118161
 30
0.0
 10
14.663311698
 20
11.501475773
 30
0.0
 10
14.6970278443
 20
11.4796889974
 30
0.0
 10
14.7671263933
 20
11.4381894183
 30
0.0
 10
14.8593135274
 20
11.3905239457
 30
0.0
 10
14.9751870415
 20
11.3408459769
 30
0.0
 10
15.0954081835
 20
11.2989891301
 30
0.0
 10
15.2182551611
 20
11.2655616846
 30
0.0
 10
15.3419511065
 20
11.2410443236
 30
0.0
 10
15.4449699456
 20
11.2282427604
 30
0.0
 10
15.5262925789
 20
11.2228407782
 30
0.0
 10
15.5859759489
 20
11.2212182281
 30
0.0
 10
15.6445496536
 20
11.2220125054
 30
0.0
 10
15.7199578984
 20
11.226236142
 30
0.0
 10
15.7932254612
 20
11.2351877278
 30
0.0
 10
15.8636262342
 20
11.2491970144
 30
0.0
 10
15.9136266122
 20
11.2619009452
 30
0.0
 10
15.9613541401
 20
11.2769095658
 30
0.0
 10
16.0066443943
 20
11.2941744093
 30
0.0
 10
16.049334126
 20
11.3136544661
 30
0.0
 10
16.0892688664
 20
11.3352953174
 30
0.0
 10
16.1263028448
 20
11.3590340273
 30
0.0
 10
16.1602869056
 20
11.3848124374
 30
0.0
 10
16.1910851709
 20
11.412548963
 30
0.0
 10
16.2185605029
 20
11.4421621329
 30
0.0
 10
16.2425706086
 20
11.4735484405
 30
0.0
 10
16.2562944034
 20
11.4957315111
 30
0.0
 10
16.2625067276
 20
11.5070390687
 30
0.0
  0
SPLINE
  5
57E
100
AcDbEntity
  8
0
100
AcDbSpline
 62
7
  6
CONTINUOUS
 70
0
 71
3
 72
11
 73
7
 74
0
 42
0.0000001
 43
0.0000001
 44
0.0000000001
 40
0.0
 40
0.0
 40
0.0
 40
0.0
 40
0.339191885
 40
0.6273539817
 40
0.8514970009
 40
1.0
 40
1.0
 40
1.0
 40
1.0
 10
16.2781372712
 20
11.5230665674
 30
0.0
 10
16.2772158913
 20
11.5230665674
 30
0.0
 10
16.2755109673
 20
11.5229958066
 30
0.0
 10
16.2732128558
 20
11.5226994564
 30
0.0
 10
16.2714659984
 20
11.522273083
 30
0.0
 10
16.2705095176
 20
11.5219335775
 30
0.0
 10
16.2701412444
 20
11.521768954
 30
0.0
  0
LINE
  5
57F
100
AcDbEntity
  8
0
100
AcDbLine
 62
7
  6
CONTINUOUS
 10
16.2701412444
 20
11.521768954
 11
16.2697210263
 21
11.5215557079
  0
SPLINE
  5
580
100
AcDbEntity
  8
0
100
AcDbSpline
 62
7
  6
CONTINUOUS
 70
0
 71
3
 72
9
 73
5
 74
0
 42
0.0000001
 43
0.0000001
 44
0.0000000001
 40
0.0
 40
0.0
 40
0.0
 40
0.0
 40
0.5014974614
 40
1.0
 40
1.0
 40
1.0
 40
1.0
 10
16.52643506
 20
11.5294422312
 30
0.0
 10
16.5274553092
 20
11.5305419981
 30
0.0
 10
16.5292442237
 20
11.5329738968
 30
0.0
 10
16.5304615773
 20
11.5357369219
 30
0.0
 10
16.5309018423
 20
11.5371616199
 30
0.0
  0
SPLINE
  5
581
100
AcDbEntity
  8
0
100
AcDbSpline
 62
7
  6
CONTINUOUS
 70
0
 71
3
 72
11
 73
7
 74
0
 42
0.0000001
 43
0.0000001
 44
0.0000000001
 40
0.0
 40
0.0
 40
0.0
 40
0.0
 40
0.2362189788
 40
0.4788237538
 40
0.732087432
 40
1.0
 40
1.0
 40
1.0
 40
1.0
 10
16.6158932837
 20
12.5169939013
 30
0.0
 10
16.6184968987
 20
12.5116882918
 30
0.0
 10
16.6227625243
 20
12.5004057706
 30
0.0
 10
16.6259982081
 20
12.4822796842
 30
0.0
 10
16.625995825
 20
12.4630797979
 30
0.0
 10
16.6238634809
 20
12.4501536283
 30
0.0
 10
16.6222997921
 20
12.4436356043
 30
0.0
  0
SPLINE
  5
582
100
AcDbEntity
  8
0
100
AcDbSpline
 62
7
  6
CONTINUOUS
 70
0
 71
3
 72
13
 73
9
 74
0
 42
0.0000001
 43
0.0000001
 44
0.0000000001
 40
0.0
 40
0.0
 40
0.0
 40
0.0
 40
0.1360431732
 40
0.2684351388
 40
0.3972177914
 40
0.5226855368
 40
0.7653778594
 40
1.0
 40
1.0
 40
1.0
 40
1.0
 10
16.6518130661
 20
11.7185194779
 30
0.0
 10
16.6581844078
 20
11.7185194912
 30
0.0
 10
16.6707587132
 20
11.7188337066
 30
0.0
 10
16.6893148264
 20
11.7202580112
 30
0.0
 10
16.707285378
 20
11.7225394098
 30
0.0
 10
16.7302233125
 20
11.7265157475
 30
0.0
 10
16.7577286435
 20
11.7329807661
 30
0.0
 10
16.7791677668
 20
11.7393410926
 30
0.0
 10
16.7896373664
 20
11.7426766771
 30
0.0
  0
SPLINE
  5
583
100
AcDbEntity
  8
0
100
AcDbSpline
 62
7
  6
CONTINUOUS
 70
0
 71
3
 72
12
 73
8
 74
0
 42
0.0000001
 43
0.0000001
 44
0.0000000001
 40
0.0
 40
0.0
 40
0.0
 40
0.0
 40
0.2552949677
 40
0.5087529889
 40
0.7582004781
 40
0.8803296747
 40
1.0
 40
1.0
 40
1.0
 40
1.0
 10
16.4902924954
 20
11.7426767747
 30
0.0
 10
16.5038287035
 20
11.739391469
 30
0.0
 10
16.5308837798
 20
11.7331624487
 30
0.0
 10
16.5715197086
 20
11.7253518498
 30
0.0
 10
16.6053481598
 20
11.7207947852
 30
0.0
 10
16.6320888573
 20
11.7188577326
 30
0.0
 10
16.6452837169
 20
11.7185197325
 30
0.0
 10
16.6518130661
 20
11.7185194779
 30
0.0
  0
SPLINE
  5
584
100
AcDbEntity
  8
0
100
AcDbSpline
 62
7
  6
CONTINUOUS
 70
0
 71
3
 72
9
 73
5
 74
0
 42
0.0000001
 43
0.0000001
 44
0.0000000001
 40
0.0
 40
0.0
 40
0.0
 40
0.0
 40
0.5014974614
 40
1.0
 40
1.0
 40
1.0
 40
1.0
 10
17.0560451315
 20
11.5294422312
 30
0.0
 10
17.0570653808
 20
11.5305419981
 30
0.0
 10
17.0588542952
 20
11.5329738968
 30
0.0
 10
17.0600716489
 20
11.5357369219
 30
0.0
 10
17.0605119139
 20
11.5371616199
 30
0.0
  0
SPLINE
  5
585
100
AcDbEntity
  8
0
100
AcDbSpline
 62
7
  6
CONTINUOUS
 70
0
 71
3
 72
12
 73
8
 74
0
 42
0.0000001
 43
0.0000001
 44
0.0000000001
 40
0.0
 40
0.0
 40
0.0
 40
0.0
 40
0.2641489641
 40
0.516957247
 40
0.7607144786
 40
0.8806539084
 40
1.0
 40
1.0
 40
1.0
 40
1.0
 10
13.8026173497
 20
12.2514107961
 30
0.0
 10
13.8006220688
 20
12.2449540648
 30
0.0
 10
13.7977051715
 20
12.2319789884
 30
0.0
 10
13.7968103542
 20
12.2124336793
 30
0.0
 10
13.799152522
 20
12.1967185287
 30
0.0
 10
13.8028238626
 20
12.1849000851
 30
0.0
 10
13.8052394396
 20
12.1792602354
 30
0.0
 10
13.8065851396
 20
12.1765194202
 30
0.0
  0
SPLINE
  5
586
100
AcDbEntity
  8
0
100
AcDbSpline
 62
7
  6
CONTINUOUS
 70
0
 71
3
 72
15
 73
11
 74
0
 42
0.0000001
 43
0.0000001
 44
0.0000000001
 40
0.0
 40
0.0
 40
0.0
 40
0.0
 40
0.254223373
 40
0.3857135135
 40
0.5170066121
 40
0.5818999086
 40
0.6459073547
 40
0.770220281
 40
0.8885895498
 40
1.0
 40
1.0
 40
1.0
 40
1.0
 10
13.993528556
 20
12.3844503951
 30
0.0
 10
13.9726899599
 20
12.3836857411
 30
0.0
 10
13.9410776233
 20
12.3773618352
 30
0.0
 10
13.901984141
 20
12.3607533316
 30
0.0
 10
13.8788117179
 20
12.3469304816
 30
0.0
 10
13.8617301087
 20
12.33411054
 30
0.0
 10
13.8460404223
 20
12.3204789471
 30
0.0
 10
13.8289008282
 20
12.3019165781
 30
0.0
 10
13.8127997835
 20
12.2775916288
 30
0.0
 10
13.805315444
 20
12.2601418326
 30
0.0
 10
13.8026173497
 20
12.2514107961
 30
0.0
  0
SPLINE
  5
587
100
AcDbEntity
  8
0
100
AcDbSpline
 62
7
  6
CONTINUOUS
 70
0
 71
3
 72
12
 73
8
 74
0
 42
0.0000001
 43
0.0000001
 44
0.0000000001
 40
0.0
 40
0.0
 40
0.0
 40
0.0
 40
0.2641489641
 40
0.516957247
 40
0.7607144786
 40
0.8806539084
 40
1.0
 40
1.0
 40
1.0
 40
1.0
 10
16.3355350832
 20
12.2514107961
 30
0.0
 10
16.3335398023
 20
12.2449540648
 30
0.0
 10
16.330622905
 20
12.2319789884
 30
0.0
 10
16.3297280877
 20
12.2124336793
 30
0.0
 10
16.3320702555
 20
12.1967185287
 30
0.0
 10
16.3357415961
 20
12.1849000851
 30
0.0
 10
16.3381571732
 20
12.1792602354
 30
0.0
 10
16.3395028731
 20
12.1765194202
 30
0.0
  0
SPLINE
  5
588
100
AcDbEntity
  8
0
100
AcDbSpline
 62
7
  6
CONTINUOUS
 70
0
 71
3
 72
15
 73
11
 74
0
 42
0.0000001
 43
0.0000001
 44
0.0000000001
 40
0.0
 40
0.0
 40
0.0
 40
0.0
 40
0.254223373
 40
0.3857135135
 40
0.5170066121
 40
0.5818999086
 40
0.6459073547
 40
0.770220281
 40
0.8885895498
 40
1.0
 40
1.0
 40
1.0
 40
1.0
 10
16.5264462895
 20
12.3844503951
 30
0.0
 10
16.5056076934
 20
12.3836857411
 30
0.0
 10
16.4739953568
 20
12.3773618352
 30
0.0
 10
16.4349018745
 20
12.3607533316
 30
0.0
 10
16.4117294514
 20
12.3469304816
 30
0.0
 10
16.3946478422
 20
12.33411054
 30
0.0
 10
16.3789581558
 20
12.3204789471
 30
0.0
 10
16.3618185617
 20
12.3019165781
 30
0.0
 10
16.345717517
 20
12.2775916288
 30
0.0
 10
16.3382331775
 20
12.2601418326
 30
0.0
 10
16.3355350832
 20
12.2514107961
 30
0.0
  0
LINE
  5
589
100
AcDbEntity
  8
0
100
AcDbLine
 62
7
  6
CONTINUOUS
 10
17.0671539096
 20
13.8500948675
 11
17.0418078565
 21
13.7520788104
  0
LINE
  5
58A
100
AcDbEntity
  8
0
100
AcDbLine
 62
7
  6
CONTINUOUS
 10
14.6708395203
 20
13.0790304652
 11
14.6707357822
 21
13.0795799597
  0
SPLINE
  5
58B
100
AcDbEntity
  8
0
100
AcDbSpline
 62
7
  6
CONTINUOUS
 70
0
 71
3
 72
9
 73
5
 74
0
 42
0.0000001
 43
0.0000001
 44
0.0000000001
 40
0.0
 40
0.0
 40
0.0
 40
0.0
 40
0.2914254799
 40
1.0
 40
1.0
 40
1.0
 40
1.0
 10
14.6705766791
 20
13.0765371178
 30
0.0
 10
14.6706488822
 20
13.0767707671
 30
0.0
 10
14.6708539375
 20
13.0775846208
 30
0.0
 10
14.6709077422
 20
13.0784397881
 30
0.0
 10
14.6708395203
 20
13.0790304652
 30
0.0
  0
SPLINE
  5
58C
100
AcDbEntity
  8
0
100
AcDbSpline
 62
7
  6
CONTINUOUS
 70
0
 71
3
 72
9
 73
5
 74
0
 42
0.0000001
 43
0.0000001
 44
0.0000000001
 40
0.0
 40
0.0
 40
0.0
 40
0.0
 40
0.5074191722
 40
1.0
 40
1.0
 40
1.0
 40
1.0
 10
13.5875025219
 20
14.0376106914
 30
0.0
 10
13.5888065107
 20
14.0372270294
 30
0.0
 10
13.5914089402
 20
14.0365781615
 30
0.0
 10
13.5940558686
 20
14.036143014
 30
0.0
 10
13.5953663805
 20
14.0359891796
 30
0.0
  0
SPLINE
  5
58D
100
AcDbEntity
  8
0
100
AcDbSpline
 62
7
  6
CONTINUOUS
 70
0
 71
3
 72
9
 73
5
 74
0
 42
0.0000001
 43
0.0000001
 44
0.0000000001
 40
0.0
 40
0.0
 40
0.0
 40
0.0
 40
0.5262215768
 40
1.0
 40
1.0
 40
1.0
 40
1.0
 10
13.5953663805
 20
14.0359891796
 30
0.0
 10
13.596532359
 20
14.0358523113
 30
0.0
 10
13.5987598714
 20
14.0356834851
 30
0.0
 10
13.6009946914
 20
14.0357111536
 30
0.0
 10
13.6020492012
 20
14.0357834495
 30
0.0
  0
SPLINE
  5
58E
100
AcDbEntity
  8
0
100
AcDbSpline
 62
7
  6
CONTINUOUS
 70
0
 71
3
 72
9
 73
5
 74
0
 42
0.0000001
 43
0.0000001
 44
0.0000000001
 40
0.0
 40
0.0
 40
0.0
 40
0.0
 40
0.5585522677
 40
1.0
 40
1.0
 40
1.0
 40
1.0
 10
13.6020492012
 20
14.0357834495
 30
0.0
 10
13.6028829176
 20
14.0358406081
 30
0.0
 10
13.6043716456
 20
14.0360106512
 30
0.0
 10
13.6058392475
 20
14.036318177
 30
0.0
 10
13.6064748334
 20
14.0364977576
 30
0.0
  0
LINE
  5
58F
100
AcDbEntity
  8
0
100
AcDbLine
 62
7
  6
CONTINUOUS
 10
13.6064748334
 20
14.0364977576
 11
13.6083342211
 21
14.0372300786
  0
SPLINE
  5
590
100
AcDbEntity
  8
0
100
AcDbSpline
 62
7
  6
CONTINUOUS
 70
0
 71
3
 72
11
 73
7
 74
0
 42
0.0000001
 43
0.0000001
 44
0.0000000001
 40
0.0
 40
0.0
 40
0.0
 40
0.0
 40
0.3348869501
 40
0.6215868307
 40
0.8469393906
 40
1.0
 40
1.0
 40
1.0
 40
1.0
 10
13.9241639806
 20
11.3879477112
 30
0.0
 10
13.9249551056
 20
11.3874221218
 30
0.0
 10
13.9263833687
 20
11.3863846387
 30
0.0
 10
13.9282016097
 20
11.3848088388
 30
0.0
 10
13.9294844905
 20
11.3834205677
 30
0.0
 10
13.9301247734
 20
11.3825560862
 30
0.0
 10
13.9303589263
 20
11.3821905421
 30
0.0
  0
LINE
  5
591
100
AcDbEntity
  8
0
100
AcDbLine
 62
7
  6
CONTINUOUS
 10
13.9303589263
 20
11.3821905421
 11
13.9304934896
 21
11.3819724798
  0
LINE
  5
592
100
AcDbEntity
  8
0
100
AcDbLine
 62
7
  6
CONTINUOUS
 10
13.9304934896
 20
11.3819724798
 11
13.9306698033
 21
11.381640417
  0
SPLINE
  5
593
100
AcDbEntity
  8
0
100
AcDbSpline
 62
7
  6
CONTINUOUS
 70
0
 71
3
 72
9
 73
5
 74
0
 42
0.0000001
 43
0.0000001
 44
0.0000000001
 40
0.0
 40
0.0
 40
0.0
 40
0.0
 40
0.2517965327
 40
1.0
 40
1.0
 40
1.0
 40
1.0
 10
15.0880212866
 20
10.8634984075
 30
0.0
 10
15.0886752709
 20
10.8633158863
 30
0.0
 10
15.0912567569
 20
10.8625359602
 30
0.0
 10
15.0937770509
 20
10.8615506726
 30
0.0
 10
15.0956042054
 20
10.8606950879
 30
0.0
  0
SPLINE
  5
594
100
AcDbEntity
  8
0
100
AcDbSpline
 62
7
  6
CONTINUOUS
 70
0
 71
3
 72
11
 73
7
 74
0
 42
0.0000001
 43
0.0000001
 44
0.0000000001
 40
0.0
 40
0.0
 40
0.0
 40
0.0
 40
0.2919211509
 40
0.5619759857
 40
0.8017441127
 40
1.0
 40
1.0
 40
1.0
 40
1.0
 10
15.0956042054
 20
10.8606950879
 30
0.0
 10
15.0966756362
 20
10.860193379
 30
0.0
 10
15.0987012909
 20
10.8591462007
 30
0.0
 10
15.1014599705
 20
10.8574212274
 30
0.0
 10
15.103742034
 20
10.8556750995
 30
0.0
 10
15.1050476958
 20
10.8544664587
 30
0.0
 10
15.10559983
 20
10.8538827416
 30
0.0
  0
LINE
  5
595
100
AcDbEntity
  8
0
100
AcDbLine
 62
7
  6
CONTINUOUS
 10
15.10559983
 20
10.8538827416
 11
15.1072467631
 21
10.85175756
  0
SPLINE
  5
596
100
AcDbEntity
  8
0
100
AcDbSpline
 62
7
  6
CONTINUOUS
 70
0
 71
3
 72
9
 73
5
 74
0
 42
0.0000001
 43
0.0000001
 44
0.0000000001
 40
0.0
 40
0.0
 40
0.0
 40
0.0
 40
0.4763275561
 40
1.0
 40
1.0
 40
1.0
 40
1.0
 10
16.3347019306
 20
10.715260968
 30
0.0
 10
16.3357077044
 20
10.7153145372
 30
0.0
 10
16.33782538
 20
10.7153203865
 30
0.0
 10
16.3399357567
 20
10.715153489
 30
0.0
 10
16.3410353966
 20
10.7150233774
 30
0.0
  0
SPLINE
  5
597
100
AcDbEntity
  8
0
100
AcDbSpline
 62
7
  6
CONTINUOUS
 70
0
 71
3
 72
9
 73
5
 74
0
 42
0.0000001
 43
0.0000001
 44
0.0000000001
 40
0.0
 40
0.0
 40
0.0
 40
0.0
 40
0.243212595
 40
1.0
 40
1.0
 40
1.0
 40
1.0
 10
16.3410353966
 20
10.7150233774
 30
0.0
 10
16.3416418441
 20
10.7149516213
 30
0.0
 10
16.3441287043
 20
10.714602512
 30
0.0
 10
16.3465866969
 20
10.7140518529
 30
0.0
 10
16.348414337
 20
10.7135317532
 30
0.0
  0
SPLINE
  5
598
100
AcDbEntity
  8
0
100
AcDbSpline
 62
7
  6
CONTINUOUS
 70
0
 71
3
 72
10
 73
6
 74
0
 42
0.0000001
 43
0.0000001
 44
0.0000000001
 40
0.0
 40
0.0
 40
0.0
 40
0.0
 40
0.5219512936
 40
0.7701300171
 40
1.0
 40
1.0
 40
1.0
 40
1.0
 10
16.348414337
 20
10.7135317532
 30
0.0
 10
16.3508402421
 20
10.7128414026
 30
0.0
 10
16.3543531507
 20
10.7115530173
 30
0.0
 10
16.3586603489
 20
10.7093549954
 30
0.0
 10
16.3606284045
 20
10.7081382229
 30
0.0
 10
16.3615434325
 20
10.7075084627
 30
0.0
  0
LINE
  5
599
100
AcDbEntity
  8
0
100
AcDbLine
 62
7
  6
CONTINUOUS
 10
17.3338907158
 20
10.9843799072
 11
17.3357875182
 21
10.9851228477
  0
SPLINE
  5
59A
100
AcDbEntity
  8
0
100
AcDbSpline
 62
7
  6
CONTINUOUS
 70
0
 71
3
 72
13
 73
9
 74
0
 42
0.0000001
 43
0.0000001
 44
0.0000000001
 40
0.0
 40
0.0
 40
0.0
 40
0.0
 40
0.0812171842
 40
0.1810241717
 40
0.2957547719
 40
0.4224783108
 40
0.7020603887
 40
1.0
 40
1.0
 40
1.0
 40
1.0
 10
17.3357875182
 20
10.9851228477
 30
0.0
 10
17.3362875352
 20
10.9852625084
 30
0.0
 10
17.3374191321
 20
10.9855126048
 30
0.0
 10
17.3392925393
 20
10.9857782689
 30
0.0
 10
17.3414719769
 20
10.9859147574
 30
0.0
 10
17.3448047643
 20
10.9858790839
 30
0.0
 10
17.3492908493
 20
10.9853762552
 30
0.0
 10
17.3528953694
 20
10.9845368511
 30
0.0
 10
17.3547224151
 20
10.9839992945
 30
0.0
  0
LINE
  5
59B
100
AcDbEntity
  8
0
100
AcDbLine
 62
7
  6
CONTINUOUS
 10
17.8159114196
 20
11.6029184356
 11
17.818355696
 21
11.6038220037
  0
SPLINE
  5
59C
100
AcDbEntity
  8
0
100
AcDbSpline
 62
7
  6
CONTINUOUS
 70
0
 71
3
 72
9
 73
5
 74
0
 42
0.0000001
 43
0.0000001
 44
0.0000000001
 40
0.0
 40
0.0
 40
0.0
 40
0.0
 40
0.4477171399
 40
1.0
 40
1.0
 40
1.0
 40
1.0
 10
17.818355696
 20
11.6038220037
 30
0.0
 10
17.8190656847
 20
11.6039999644
 30
0.0
 10
17.8206794008
 20
11.6042854563
 30
0.0
 10
17.822311437
 20
11.6044161858
 30
0.0
 10
17.8232137545
 20
11.6044486638
 30
0.0
  0
SPLINE
  5
59D
100
AcDbEntity
  8
0
100
AcDbSpline
 62
7
  6
CONTINUOUS
 70
0
 71
3
 72
9
 73
5
 74
0
 42
0.0000001
 43
0.0000001
 44
0.0000000001
 40
0.0
 40
0.0
 40
0.0
 40
0.0
 40
0.2511145824
 40
1.0
 40
1.0
 40
1.0
 40
1.0
 10
12.7386864807
 20
13.3895044247
 30
0.0
 10
12.739211953
 20
13.3897590631
 30
0.0
 10
12.7413479137
 20
13.3906808607
 30
0.0
 10
12.7436442727
 20
13.3912319546
 30
0.0
 10
12.7453764909
 20
13.391410457
 30
0.0
  0
SPLINE
  5
59E
100
AcDbEntity
  8
0
100
AcDbSpline
 62
7
  6
CONTINUOUS
 70
0
 71
3
 72
9
 73
5
 74
0
 42
0.0000001
 43
0.0000001
 44
0.0000000001
 40
0.0
 40
0.0
 40
0.0
 40
0.0
 40
0.4985505424
 40
1.0
 40
1.0
 40
1.0
 40
1.0
 10
15.0672586657
 20
14.5066177052
 30
0.0
 10
15.067932141
 20
14.5079818549
 30
0.0
 10
15.0696117495
 20
14.5105650974
 30
0.0
 10
15.0718211275
 20
14.5127122064
 30
0.0
 10
15.0730345111
 20
14.513644498
 30
0.0
  0
SPLINE
  5
59F
100
AcDbEntity
  8
0
100
AcDbSpline
 62
7
  6
CONTINUOUS
 70
0
 71
3
 72
9
 73
5
 74
0
 42
0.0000001
 43
0.0000001
 44
0.0000000001
 40
0.0
 40
0.0
 40
0.0
 40
0.0
 40
0.2509674315
 40
1.0
 40
1.0
 40
1.0
 40
1.0
 10
15.0814723383
 20
14.5174137148
 30
0.0
 10
15.0819453595
 20
14.5175027856
 30
0.0
 10
15.0838422051
 20
14.517790082
 30
0.0
 10
15.0857804297
 20
14.517806887
 30
0.0
 10
15.0872096831
 20
14.5176619732
 30
0.0
  0
LINE
  5
5A0
100
AcDbEntity
  8
0
100
AcDbLine
 62
7
  6
CONTINUOUS
 10
13.9004170805
 20
11.2695311754
 11
13.8750710273
 21
11.1715151183
  0
SPLINE
  5
5A1
100
AcDbEntity
  8
0
100
AcDbSpline
 62
7
  6
CONTINUOUS
 70
0
 71
3
 72
11
 73
7
 74
0
 42
0.0000001
 43
0.0000001
 44
0.0000000001
 40
0.0
 40
0.0
 40
0.0
 40
0.0
 40
0.2416126431
 40
0.4882668161
 40
0.740816937
 40
1.0
 40
1.0
 40
1.0
 40
1.0
 10
12.9077281852
 20
13.8673008962
 30
0.0
 10
12.9251281737
 20
13.8918605397
 30
0.0
 10
12.9624160526
 20
13.9400200534
 30
0.0
 10
13.0246884309
 20
14.0082547869
 30
0.0
 10
13.0936309878
 20
14.0729774728
 30
0.0
 10
13.1432271933
 20
14.1131293868
 30
0.0
 10
13.1690012418
 20
14.1325764166
 30
0.0
  0
SPLINE
  5
5A2
100
AcDbEntity
  8
0
100
AcDbSpline
 62
7
  6
CONTINUOUS
 70
0
 71
3
 72
11
 73
7
 74
0
 42
0.0000001
 43
0.0000001
 44
0.0000000001
 40
0.0
 40
0.0
 40
0.0
 40
0.0
 40
0.2580096067
 40
0.510068894
 40
0.757065935
 40
1.0
 40
1.0
 40
1.0
 40
1.0
 10
18.3170476279
 20
12.4482687242
 30
0.0
 10
18.324693067
 20
12.4177910526
 30
0.0
 10
18.337617395
 20
12.3569600984
 30
0.0
 10
18.3497295914
 20
12.2654633255
 30
0.0
 10
18.3542693176
 20
12.1751136979
 30
0.0
 10
18.3522111219
 20
12.1153952732
 30
0.0
 10
18.3498949977
 20
12.0859000763
 30
0.0
  0
SPLINE
  5
5A3
100
AcDbEntity
  8
0
100
AcDbSpline
 62
7
  6
CONTINUOUS
 70
0
 71
3
 72
9
 73
5
 74
0
 42
0.0000001
 43
0.0000001
 44
0.0000000001
 40
0.0
 40
0.0
 40
0.0
 40
0.0
 40
0.5050642708
 40
1.0
 40
1.0
 40
1.0
 40
1.0
 10
16.5349454364
 20
14.1383970259
 30
0.0
 10
16.6256847491
 20
14.0992529263
 30
0.0
 10
16.8030373304
 20
14.0162786228
 30
0.0
 10
16.9748134768
 20
13.9222681596
 30
0.0
 10
17.0581559231
 20
13.8729512443
 30
0.0
  0
SPLINE
  5
5A4
100
AcDbEntity
  8
0
100
AcDbSpline
 62
7
  6
CONTINUOUS
 70
0
 71
3
 72
11
 73
7
 74
0
 42
0.0000001
 43
0.0000001
 44
0.0000000001
 40
0.0
 40
0.0
 40
0.0
 40
0.0
 40
0.2598222377
 40
0.5131954781
 40
0.7599571714
 40
1.0
 40
1.0
 40
1.0
 40
1.0
 10
17.7194887029
 20
13.3804560036
 30
0.0
 10
17.7497092539
 20
13.3517924801
 30
0.0
 10
17.8082485539
 20
13.2939456754
 30
0.0
 10
17.8911206746
 20
13.2045927336
 30
0.0
 10
17.9677570748
 20
13.113948691
 30
0.0
 10
18.0152170881
 20
13.0519512091
 30
0.0
 10
18.0378040796
 20
13.0207964353
 30
0.0
  0
SPLINE
  5
5A5
100
AcDbEntity
  8
0
100
AcDbSpline
 62
7
  6
CONTINUOUS
 70
0
 71
3
 72
11
 73
7
 74
0
 42
0.0000001
 43
0.0000001
 44
0.0000000001
 40
0.0
 40
0.0
 40
0.0
 40
0.0
 40
0.2405378176
 40
0.4875054515
 40
0.7407324189
 40
1.0
 40
1.0
 40
1.0
 40
1.0
 10
13.76160266
 20
14.4198153703
 30
0.0
 10
13.7996733228
 20
14.4311252649
 30
0.0
 10
13.8774039866
 20
14.4521619756
 30
0.0
 10
13.9968322558
 20
14.4786962243
 30
0.0
 10
14.120342103
 20
14.500564923
 30
0.0
 10
14.2042282063
 20
14.5118709458
 30
0.0
 10
14.2467555692
 20
14.5167608121
 30
0.0
  0
SPLINE
  5
5A6
100
AcDbEntity
  8
0
100
AcDbSpline
 62
7
  6
CONTINUOUS
 70
0
 71
3
 72
18
 73
14
 74
0
 42
0.0000001
 43
0.0000001
 44
0.0000000001
 40
0.0
 40
0.0
 40
0.0
 40
0.0
 40
0.0165718763
 40
0.0422324387
 40
0.0766911198
 40
0.1197828678
 40
0.1710452554
 40
0.2293858548
 40
0.3627493988
 40
0.5121776555
 40
0.6718051863
 40
0.8361115585
 40
1.0
 40
1.0
 40
1.0
 40
1.0
 10
14.2624736615
 20
11.7456031024
 30
0.0
 10
14.2624088383
 20
11.7457351983
 30
0.0
 10
14.2622216083
 20
11.7460608249
 30
0.0
 10
14.2618401809
 20
11.7466254546
 30
0.0
 10
14.2612722654
 20
11.7473458711
 30
0.0
 10
14.2604991937
 20
11.7481901164
 30
0.0
 10
14.2595170491
 20
11.749126081
 30
0.0
 10
14.2578731513
 20
11.7505245267
 30
0.0
 10
14.2554014203
 20
11.7522870648
 30
0.0
 10
14.2519755283
 20
11.7542215418
 30
0.0
 10
14.2481387169
 20
11.7559514634
 30
0.0
 10
14.2440414512
 20
11.7573725318
 30
0.0
 10
14.2412123175
 20
11.7580895338
 30
0.0
 10
14.2397865944
 20
11.7583808935
 30
0.0
  0
SPLINE
  5
5A7
100
AcDbEntity
  8
0
100
AcDbSpline
 62
7
  6
CONTINUOUS
 70
0
 71
3
 72
9
 73
5
 74
0
 42
0.0000001
 43
0.0000001
 44
0.0000000001
 40
0.0
 40
0.0
 40
0.0
 40
0.0
 40
0.5207623873
 40
1.0
 40
1.0
 40
1.0
 40
1.0
 10
14.2397865944
 20
11.7583808935
 30
0.0
 10
14.2383476922
 20
11.7586749464
 30
0.0
 10
14.2355566971
 20
11.7591101156
 30
0.0
 10
14.2327357141
 20
11.7592783553
 30
0.0
 10
14.2313841802
 20
11.7592783553
 30
0.0
  0
SPLINE
  5
5A8
100
AcDbEntity
  8
0
100
AcDbSpline
 62
7
  6
CONTINUOUS
 70
0
 71
3
 72
9
 73
5
 74
0
 42
0.0000001
 43
0.0000001
 44
0.0000000001
 40
0.0
 40
0.0
 40
0.0
 40
0.0
 40
0.5484709884
 40
1.0
 40
1.0
 40
1.0
 40
1.0
 10
13.8998022224
 20
11.7592783553
 30
0.0
 10
13.8987751958
 20
11.7592783553
 30
0.0
 10
13.8969017261
 20
11.7591918959
 30
0.0
 10
13.8950438496
 20
11.7589218862
 30
0.0
 10
13.8942183166
 20
11.7587392237
 30
0.0
  0
LINE
  5
5A9
100
AcDbEntity
  8
0
100
AcDbLine
 62
7
  6
CONTINUOUS
 10
13.8942183166
 20
11.7587392237
 11
13.892283527
 21
11.7581698423
  0
SPLINE
  5
5AA
100
AcDbEntity
  8
0
100
AcDbSpline
 62
7
  6
CONTINUOUS
 70
0
 71
3
 72
9
 73
5
 74
0
 42
0.0000001
 43
0.0000001
 44
0.0000000001
 40
0.0
 40
0.0
 40
0.0
 40
0.0
 40
0.5484709884
 40
1.0
 40
1.0
 40
1.0
 40
1.0
 10
16.4327199559
 20
11.7592783553
 30
0.0
 10
16.4316929293
 20
11.7592783553
 30
0.0
 10
16.4298194596
 20
11.7591918959
 30
0.0
 10
16.4279615831
 20
11.7589218862
 30
0.0
 10
16.4271360501
 20
11.7587392237
 30
0.0
  0
LINE
  5
5AB
100
AcDbEntity
  8
0
100
AcDbLine
 62
7
  6
CONTINUOUS
 10
16.4271360501
 20
11.7587392237
 11
16.4252012606
 21
11.7581698423
  0
SPLINE
  5
5AC
100
AcDbEntity
  8
0
100
AcDbSpline
 62
7
  6
CONTINUOUS
 70
0
 71
3
 72
18
 73
14
 74
0
 42
0.0000001
 43
0.0000001
 44
0.0000000001
 40
0.0
 40
0.0
 40
0.0
 40
0.0
 40
0.0165718763
 40
0.0422324387
 40
0.0766911198
 40
0.1197828678
 40
0.1710452554
 40
0.2293858548
 40
0.3627493988
 40
0.5121776555
 40
0.6718051863
 40
0.8361115585
 40
1.0
 40
1.0
 40
1.0
 40
1.0
 10
16.7953913951
 20
11.7456031024
 30
0.0
 10
16.7953265718
 20
11.7457351983
 30
0.0
 10
16.7951393418
 20
11.7460608249
 30
0.0
 10
16.7947579144
 20
11.7466254546
 30
0.0
 10
16.7941899989
 20
11.7473458711
 30
0.0
 10
16.7934169272
 20
11.7481901164
 30
0.0
 10
16.7924347826
 20
11.749126081
 30
0.0
 10
16.7907908849
 20
11.7505245267
 30
0.0
 10
16.7883191538
 20
11.7522870648
 30
0.0
 10
16.7848932618
 20
11.7542215418
 30
0.0
 10
16.7810564504
 20
11.7559514634
 30
0.0
 10
16.7769591848
 20
11.7573725318
 30
0.0
 10
16.774130051
 20
11.7580895338
 30
0.0
 10
16.7727043279
 20
11.7583808935
 30
0.0
  0
SPLINE
  5
5AD
100
AcDbEntity
  8
0
100
AcDbSpline
 62
7
  6
CONTINUOUS
 70
0
 71
3
 72
9
 73
5
 74
0
 42
0.0000001
 43
0.0000001
 44
0.0000000001
 40
0.0
 40
0.0
 40
0.0
 40
0.0
 40
0.5207623873
 40
1.0
 40
1.0
 40
1.0
 40
1.0
 10
16.7727043279
 20
11.7583808935
 30
0.0
 10
16.7712654257
 20
11.7586749464
 30
0.0
 10
16.7684744306
 20
11.7591101156
 30
0.0
 10
16.7656534476
 20
11.7592783553
 30
0.0
 10
16.7643019137
 20
11.7592783553
 30
0.0
  0
SPLINE
  5
5AE
100
AcDbEntity
  8
0
100
AcDbSpline
 62
7
  6
CONTINUOUS
 70
0
 71
3
 72
9
 73
5
 74
0
 42
0.0000001
 43
0.0000001
 44
0.0000000001
 40
0.0
 40
0.0
 40
0.0
 40
0.0
 40
0.5685127672
 40
1.0
 40
1.0
 40
1.0
 40
1.0
 10
13.0538153371
 20
13.1645792843
 30
0.0
 10
13.054495588
 20
13.1640332096
 30
0.0
 10
13.055647199
 20
13.1630152897
 30
0.0
 10
13.0566879296
 20
13.1618813255
 30
0.0
 10
13.0570932301
 20
13.1613578129
 30
0.0
  0
LINE
  5
5AF
100
AcDbEntity
  8
0
100
AcDbLine
 62
7
  6
CONTINUOUS
 10
13.0570932301
 20
13.1613578129
 11
13.057722482
 21
13.160449267
  0
SPLINE
  5
5B0
100
AcDbEntity
  8
0
100
AcDbSpline
 62
7
  6
CONTINUOUS
 70
0
 71
3
 72
11
 73
7
 74
0
 42
0.0000001
 43
0.0000001
 44
0.0000000001
 40
0.0
 40
0.0
 40
0.0
 40
0.0
 40
0.2579162608
 40
0.5099924343
 40
0.7570402629
 40
1.0
 40
1.0
 40
1.0
 40
1.0
 10
12.6268575984
 20
12.5667170771
 30
0.0
 10
12.6192580037
 20
12.5963492286
 30
0.0
 10
12.6062931892
 20
12.655497915
 30
0.0
 10
12.5936944722
 20
12.7444884148
 30
0.0
 10
12.588235712
 20
12.832427276
 30
0.0
 10
12.5893877625
 20
12.8906142867
 30
0.0
 10
12.5911799498
 20
12.9193756739
 30
0.0
  0
SPLINE
  5
5B1
100
AcDbEntity
  8
0
100
AcDbSpline
 62
7
  6
CONTINUOUS
 70
0
 71
3
 72
9
 73
5
 74
0
 42
0.0000001
 43
0.0000001
 44
0.0000000001
 40
0.0
 40
0.0
 40
0.0
 40
0.0
 40
0.2579053197
 40
1.0
 40
1.0
 40
1.0
 40
1.0
 10
13.1523546343
 20
12.1505887514
 30
0.0
 10
13.140992597
 20
12.1693786645
 30
0.0
 10
13.0983777087
 20
12.243086752
 30
0.0
 10
13.0617309224
 20
12.3203143844
 30
0.0
 10
13.0388558844
 20
12.3792099991
 30
0.0
  0
SPLINE
  5
5B2
100
AcDbEntity
  8
0
100
AcDbSpline
 62
7
  6
CONTINUOUS
 70
0
 71
3
 72
9
 73
5
 74
0
 42
0.0000001
 43
0.0000001
 44
0.0000000001
 40
0.0
 40
0.0
 40
0.0
 40
0.0
 40
0.5106197541
 40
1.0
 40
1.0
 40
1.0
 40
1.0
 10
13.0182626431
 20
12.4024556661
 30
0.0
 10
13.0195323912
 20
12.4019976701
 30
0.0
 10
13.021982406
 20
12.4009960562
 30
0.0
 10
13.0243415941
 20
12.3997949271
 30
0.0
 10
13.0254649601
 20
12.3991533305
 30
0.0
  0
SPLINE
  5
5B3
100
AcDbEntity
  8
0
100
AcDbSpline
 62
7
  6
CONTINUOUS
 70
0
 71
3
 72
11
 73
7
 74
0
 42
0.0000001
 43
0.0000001
 44
0.0000000001
 40
0.0
 40
0.0
 40
0.0
 40
0.0
 40
0.3141609373
 40
0.5930735396
 40
0.8260401428
 40
1.0
 40
1.0
 40
1.0
 40
1.0
 10
13.0254649601
 20
12.3991533305
 30
0.0
 10
13.0264037009
 20
12.3986171802
 30
0.0
 10
13.0281355286
 20
12.3975324868
 30
0.0
 10
13.030410047
 20
12.3958199496
 30
0.0
 10
13.0321382455
 20
12.3942072857
 30
0.0
 10
13.0330647221
 20
12.3931524546
 30
0.0
 10
13.0334246722
 20
12.3926741509
 30
0.0
  0
LINE
  5
5B4
100
AcDbEntity
  8
0
100
AcDbLine
 62
7
  6
CONTINUOUS
 10
13.0334246722
 20
12.3926741509
 11
13.0341699612
 21
12.3914580158
  0
SPLINE
  5
5B5
100
AcDbEntity
  8
0
100
AcDbSpline
 62
7
  6
CONTINUOUS
 70
0
 71
3
 72
11
 73
7
 74
0
 42
0.0000001
 43
0.0000001
 44
0.0000000001
 40
0.0
 40
0.0
 40
0.0
 40
0.0
 40
0.2597462104
 40
0.5130992841
 40
0.7598841709
 40
1.0
 40
1.0
 40
1.0
 40
1.0
 10
13.2286642741
 20
11.6355464146
 30
0.0
 10
13.1984337671
 20
11.6640662204
 30
0.0
 10
13.1398553699
 20
11.7216274198
 30
0.0
 10
13.0568710071
 20
11.8105419871
 30
0.0
 10
12.9800589051
 20
11.9007554644
 30
0.0
 10
12.9324416623
 20
11.9624630867
 30
0.0
 10
12.909763854
 20
11.9934754834
 30
0.0
  0
SPLINE
  5
5B6
100
AcDbEntity
  8
02___PRT_ALL_AXES
100
AcDbSpline
 62
7
  6
CONTINUOUS
 70
0
 71
3
 72
15
 73
11
 74
0
 42
0.0000001
 43
0.0000001
 44
0.0000000001
 40
0.0
 40
0.0
 40
0.0
 40
0.0
 40
0.1115028337
 40
0.2243198791
 40
0.3418225054
 40
0.4655294081
 40
0.5949901617
 40
0.7283242374
 40
0.8637850029
 40
1.0
 40
1.0
 40
1.0
 40
1.0
 10
14.7351504697
 20
13.8496352376
 30
0.0
 10
14.7321644931
 20
13.850955469
 30
0.0
 10
14.7259199034
 20
13.8530953055
 30
0.0
 10
14.7160694856
 20
13.8549840954
 30
0.0
 10
14.7057342321
 20
13.8559188822
 30
0.0
 10
14.6948789698
 20
13.8561787882
 30
0.0
 10
14.6835611941
 20
13.8558941748
 30
0.0
 10
14.6719304247
 20
13.8549419881
 30
0.0
 10
14.6602069822
 20
13.8530663194
 30
0.0
 10
14.6525072408
 20
13.8509656871
 30
0.0
 10
14.6487472897
 20
13.8496352376
 30
0.0
  0
SPLINE
  5
5B7
100
AcDbEntity
  8
0
100
AcDbSpline
 62
7
  6
CONTINUOUS
 70
0
 71
3
 72
9
 73
5
 74
0
 42
0.0000001
 43
0.0000001
 44
0.0000000001
 40
0.0
 40
0.0
 40
0.0
 40
0.0
 40
0.5068229052
 40
1.0
 40
1.0
 40
1.0
 40
1.0
 10
13.9241639806
 20
11.3879477112
 30
0.0
 10
13.876181692
 20
11.4198250781
 30
0.0
 10
13.7830490561
 20
11.4850765314
 30
0.0
 10
13.6934798152
 20
11.5551535964
 30
0.0
 10
13.6503295204
 20
11.5909338977
 30
0.0
  0
SPLINE
  5
5B8
100
AcDbEntity
  8
0
100
AcDbSpline
 62
7
  6
CONTINUOUS
 70
0
 71
3
 72
9
 73
5
 74
0
 42
0.0000001
 43
0.0000001
 44
0.0000000001
 40
0.0
 40
0.0
 40
0.0
 40
0.0
 40
0.2374132633
 40
1.0
 40
1.0
 40
1.0
 40
1.0
 10
13.619353694
 20
11.6044477963
 30
0.0
 10
13.6199123276
 20
11.604428375
 30
0.0
 10
13.6222632306
 20
11.6042919271
 30
0.0
 10
13.6246015257
 20
11.603955951
 30
0.0
 10
13.6263616767
 20
11.603601673
 30
0.0
  0
SPLINE
  5
5B9
100
AcDbEntity
  8
0
100
AcDbSpline
 62
7
  6
CONTINUOUS
 70
0
 71
3
 72
10
 73
6
 74
0
 42
0.0000001
 43
0.0000001
 44
0.0000000001
 40
0.0
 40
0.0
 40
0.0
 40
0.0
 40
0.5372778607
 40
0.7818721522
 40
1.0
 40
1.0
 40
1.0
 40
1.0
 10
13.6338257311
 20
11.6014712572
 30
0.0
 10
13.6360699835
 20
11.6006354212
 30
0.0
 10
13.6392596936
 20
11.5991832596
 30
0.0
 10
13.643054242
 20
11.5968377213
 30
0.0
 10
13.6447116808
 20
11.595603759
 30
0.0
 10
13.6454587887
 20
11.5949815439
 30
0.0
  0
SPLINE
  5
5BA
100
AcDbEntity
  8
0
100
AcDbSpline
 62
7
  6
CONTINUOUS
 70
0
 71
3
 72
9
 73
5
 74
0
 42
0.0000001
 43
0.0000001
 44
0.0000000001
 40
0.0
 40
0.0
 40
0.0
 40
0.0
 40
0.5050371373
 40
1.0
 40
1.0
 40
1.0
 40
1.0
 10
14.4097118168
 20
10.8821644651
 30
0.0
 10
14.3190712142
 20
10.9212075686
 30
0.0
 10
14.1418948654
 20
11.0039713685
 30
0.0
 10
13.9702702904
 20
11.097740086
 30
0.0
 10
13.8869902613
 20
11.1469316784
 30
0.0
  0
SPLINE
  5
5BB
100
AcDbEntity
  8
0
100
AcDbSpline
 62
7
  6
CONTINUOUS
 70
0
 71
3
 72
11
 73
7
 74
0
 42
0.0000001
 43
0.0000001
 44
0.0000000001
 40
0.0
 40
0.0
 40
0.0
 40
0.0
 40
0.1604900651
 40
0.386971249
 40
0.6709869644
 40
1.0
 40
1.0
 40
1.0
 40
1.0
 10
14.6995506736
 20
10.9847049753
 30
0.0
 10
14.6999847485
 20
10.9848845426
 30
0.0
 10
14.7010667831
 20
10.9852306949
 30
0.0
 10
14.7029925782
 20
10.9856315734
 30
0.0
 10
14.7054412703
 20
10.9858787656
 30
0.0
 10
14.7072376542
 20
10.9859081734
 30
0.0
 10
14.7082003802
 20
10.9858846682
 30
0.0
  0
SPLINE
  5
5BC
100
AcDbEntity
  8
0
100
AcDbSpline
 62
7
  6
CONTINUOUS
 70
0
 71
3
 72
11
 73
7
 74
0
 42
0.0000001
 43
0.0000001
 44
0.0000000001
 40
0.0
 40
0.0
 40
0.0
 40
0.0
 40
0.2333463184
 40
0.482743572
 40
0.7409954107
 40
1.0
 40
1.0
 40
1.0
 40
1.0
 10
14.7082003802
 20
10.9858846682
 30
0.0
 10
14.7093956285
 20
10.9858554859
 30
0.0
 10
14.7118661888
 20
10.985671413
 30
0.0
 10
14.7156192155
 20
10.9850706589
 30
0.0
 10
14.71943761
 20
10.9841314596
 30
0.0
 10
14.7219573986
 20
10.9832996029
 30
0.0
 10
14.7231992945
 20
10.9828318305
 30
0.0
  0
LINE
  5
5BD
100
AcDbEntity
  8
0
100
AcDbLine
 62
7
  6
CONTINUOUS
 10
15.9705693276
 20
10.7139177834
 11
15.9702690441
 21
10.713745444
  0
SPLINE
  5
5BE
100
AcDbEntity
  8
0
100
AcDbSpline
 62
7
  6
CONTINUOUS
 70
0
 71
3
 72
10
 73
6
 74
0
 42
0.0000001
 43
0.0000001
 44
0.0000000001
 40
0.0
 40
0.0
 40
0.0
 40
0.0
 40
0.1447568397
 40
0.364676853
 40
1.0
 40
1.0
 40
1.0
 40
1.0
 10
15.9705693276
 20
10.7139177834
 30
0.0
 10
15.9707449211
 20
10.7140063513
 30
0.0
 10
15.9712012962
 20
10.714201509
 30
0.0
 10
15.9724906641
 20
10.714632162
 30
0.0
 10
15.9736320821
 20
10.7148767
 30
0.0
 10
15.9744853115
 20
10.7150071579
 30
0.0
  0
LINE
  5
5BF
100
AcDbEntity
  8
0
100
AcDbLine
 62
7
  6
CONTINUOUS
 10
15.9744853115
 20
10.7150071579
 11
15.9767167959
 21
10.7152417025
  0
LINE
  5
5C0
100
AcDbEntity
  8
0
100
AcDbLine
 62
7
  6
CONTINUOUS
 10
15.9767167959
 20
10.7152417025
 11
15.980608672
 21
10.7152582306
  0
SPLINE
  5
5C1
100
AcDbEntity
  8
0
100
AcDbSpline
 62
7
  6
CONTINUOUS
 70
0
 71
3
 72
11
 73
7
 74
0
 42
0.0000001
 43
0.0000001
 44
0.0000000001
 40
0.0
 40
0.0
 40
0.0
 40
0.0
 40
0.2406004979
 40
0.4875875232
 40
0.7407971701
 40
1.0
 40
1.0
 40
1.0
 40
1.0
 10
17.1726253425
 20
10.5994338029
 30
0.0
 10
17.1345505703
 20
10.588264237
 30
0.0
 10
17.0568297117
 20
10.5675008898
 30
0.0
 10
16.9374522437
 20
10.5413485072
 30
0.0
 10
16.8140380191
 20
10.5198397798
 30
0.0
 10
16.7302355815
 20
10.5087545094
 30
0.0
 10
16.6877568383
 20
10.5039715819
 30
0.0
  0
SPLINE
  5
5C2
100
AcDbEntity
  8
0
100
AcDbSpline
 62
7
  6
CONTINUOUS
 70
0
 71
3
 72
9
 73
5
 74
0
 42
0.0000001
 43
0.0000001
 44
0.0000000001
 40
0.0
 40
0.0
 40
0.0
 40
0.0
 40
0.2423747155
 40
1.0
 40
1.0
 40
1.0
 40
1.0
 10
17.3232981199
 20
10.9781122008
 30
0.0
 10
17.3048238972
 20
10.9672881187
 30
0.0
 10
17.2276059666
 20
10.9243384444
 30
0.0
 10
17.1467151836
 20
10.8881071793
 30
0.0
 10
17.0842419869
 20
10.8640938334
 30
0.0
  0
LINE
  5
5C3
100
AcDbEntity
  8
0
100
AcDbLine
 62
7
  6
CONTINUOUS
 10
17.0832955693
 20
10.8636456272
 11
17.0836476716
 21
10.8638359472
  0
LINE
  5
5C4
100
AcDbEntity
  8
0
100
AcDbLine
 62
7
  6
CONTINUOUS
 10
17.0836476716
 20
10.8638359472
 11
17.0842419869
 21
10.8640938334
  0
SPLINE
  5
5C5
100
AcDbEntity
  8
0
100
AcDbSpline
 62
7
  6
CONTINUOUS
 70
0
 71
3
 72
11
 73
7
 74
0
 42
0.0000001
 43
0.0000001
 44
0.0000000001
 40
0.0
 40
0.0
 40
0.0
 40
0.0
 40
0.2416836817
 40
0.4883943325
 40
0.7409421529
 40
1.0
 40
1.0
 40
1.0
 40
1.0
 10
18.025322161
 20
11.1415593599
 30
0.0
 10
18.0079454694
 20
11.117781212
 30
0.0
 10
17.9708378962
 20
11.0711558048
 30
0.0
 10
17.9091956267
 20
11.005068328
 30
0.0
 10
17.8412322082
 20
10.9423417335
 30
0.0
 10
17.7924871159
 20
10.9033832516
 30
0.0
 10
17.7671868659
 20
10.8845038029
 30
0.0
  0
SPLINE
  5
5C6
100
AcDbEntity
  8
0
100
AcDbSpline
 62
7
  6
CONTINUOUS
 70
0
 71
3
 72
23
 73
19
 74
0
 42
0.0000001
 43
0.0000001
 44
0.0000000001
 40
0.0
 40
0.0
 40
0.0
 40
0.0
 40
0.0497981396
 40
0.1000398766
 40
0.1511527938
 40
0.2035270838
 40
0.2575012575
 40
0.313363303
 40
0.3713349295
 40
0.4315873915
 40
0.4942324776
 40
0.5593362347
 40
0.626914402
 40
0.6969411151
 40
0.7693641491
 40
0.8441074006
 40
0.9210509205
 40
1.0
 40
1.0
 40
1.0
 40
1.0
 10
13.1066023729
 20
12.9880231916
 30
0.0
 10
13.1151397077
 20
13.0156908981
 30
0.0
 10
13.1354442043
 20
13.0703539243
 30
0.0
 10
13.1751126844
 20
13.1489698606
 30
0.0
 10
13.2239075673
 20
13.2240675905
 30
0.0
 10
13.2816343216
 20
13.295334184
 30
0.0
 10
13.3480641974
 20
13.362492481
 30
0.0
 10
13.4229455466
 20
13.4252510822
 30
0.0
 10
13.5059645616
 20
13.4833686314
 30
0.0
 10
13.5968003538
 20
13.5365756254
 30
0.0
 10
13.6950712839
 20
13.584666474
 30
0.0
 10
13.8003823399
 20
13.6274152829
 30
0.0
 10
13.912290537
 20
13.6646490062
 30
0.0
 10
14.0303337734
 20
13.6962050228
 30
0.0
 10
14.1540325638
 20
13.7219416421
 30
0.0
 10
14.2828833021
 20
13.7417532155
 30
0.0
 10
14.4163250474
 20
13.755538924
 30
0.0
 10
14.5068625098
 20
13.760626183
 30
0.0
 10
14.5527406068
 20
13.7621867366
 30
0.0
  0
SPLINE
  5
5C7
100
AcDbEntity
  8
0
100
AcDbSpline
 62
7
  6
CONTINUOUS
 70
0
 71
3
 72
16
 73
12
 74
0
 42
0.0000001
 43
0.0000001
 44
0.0000000001
 40
0.0
 40
0.0
 40
0.0
 40
0.0
 40
0.0598373943
 40
0.120487174
 40
0.2437776896
 40
0.3691027612
 40
0.495749784
 40
0.6229435264
 40
0.7498975887
 40
0.8758363514
 40
1.0
 40
1.0
 40
1.0
 40
1.0
 10
14.7676936179
 20
13.7623280434
 30
0.0
 10
14.803634487
 20
13.7611912338
 30
0.0
 10
14.8759732678
 20
13.7577625018
 30
0.0
 10
15.0220454749
 20
13.74639644
 30
0.0
 10
15.2066234937
 20
13.7237172423
 30
0.0
 10
15.4286383103
 20
13.6835134288
 30
0.0
 10
15.6503709278
 20
13.6305409475
 30
0.0
 10
15.8698213959
 20
13.5652822411
 30
0.0
 10
16.0849991919
 20
13.4883242496
 30
0.0
 10
16.2939392186
 20
13.4003663365
 30
0.0
 10
16.4290585271
 20
13.3343262824
 30
0.0
 10
16.495103567
 20
13.2996061753
 30
0.0
  0
SPLINE
  5
5C8
100
AcDbEntity
  8
0
100
AcDbSpline
 62
7
  6
CONTINUOUS
 70
0
 71
3
 72
22
 73
18
 74
0
 42
0.0000001
 43
0.0000001
 44
0.0000000001
 40
0.0
 40
0.0
 40
0.0
 40
0.0
 40
0.1543553138
 40
0.2283269509
 40
0.3000359563
 40
0.3694283142
 40
0.4364821761
 40
0.5012025442
 40
0.5636353754
 40
0.6238618307
 40
0.6820070895
 40
0.7382443612
 40
0.7927884654
 40
0.845909142
 40
0.8979142862
 40
0.9491519281
 40
1.0
 40
1.0
 40
1.0
 40
1.0
 10
17.0637460417
 20
12.9262075137
 30
0.0
 10
17.1266144675
 20
12.8745403688
 30
0.0
 10
17.2164479857
 20
12.7940726055
 30
0.0
 10
17.326167479
 20
12.6800650648
 30
0.0
 10
17.4004983212
 20
12.5943675364
 30
0.0
 10
17.4677537107
 20
12.5075802275
 30
0.0
 10
17.527716389
 20
12.4200253983
 30
0.0
 10
17.5801610871
 20
12.332007738
 30
0.0
 10
17.6249196521
 20
12.2438536227
 30
0.0
 10
17.6618377151
 20
12.1558769122
 30
0.0
 10
17.6907843288
 20
12.0683895339
 30
0.0
 10
17.7116848259
 20
11.9817074784
 30
0.0
 10
17.7244529725
 20
11.896127182
 30
0.0
 10
17.7290713084
 20
11.8119490116
 30
0.0
 10
17.7255222545
 20
11.7294528661
 30
0.0
 10
17.7138232969
 20
11.6489271723
 30
0.0
 10
17.7006000694
 20
11.5966397335
 30
0.0
 10
17.6926817522
 20
11.5710290752
 30
0.0
  0
SPLINE
  5
5C9
100
AcDbEntity
  8
0
100
AcDbSpline
 62
7
  6
CONTINUOUS
 70
0
 71
3
 72
11
 73
7
 74
0
 42
0.0000001
 43
0.0000001
 44
0.0000000001
 40
0.0
 40
0.0
 40
0.0
 40
0.0
 40
0.23579355
 40
0.4811786319
 40
0.7362596754
 40
1.0
 40
1.0
 40
1.0
 40
1.0
 10
16.6001954304
 20
12.3698975745
 30
0.0
 10
16.5953457443
 20
12.372342637
 30
0.0
 10
16.5850945025
 20
12.3766532993
 30
0.0
 10
16.5687243819
 20
12.3812300233
 30
0.0
 10
16.5513019697
 20
12.3839789904
 30
0.0
 10
16.5393416298
 20
12.3845763708
 30
0.0
 10
16.5332667271
 20
12.3845763708
 30
0.0
  0
SPLINE
  5
5CA
100
AcDbEntity
  8
0
100
AcDbSpline
 62
7
  6
CONTINUOUS
 70
0
 71
3
 72
11
 73
7
 74
0
 42
0.0000001
 43
0.0000001
 44
0.0000000001
 40
0.0
 40
0.0
 40
0.0
 40
0.0
 40
0.23579355
 40
0.4811786319
 40
0.7362596754
 40
1.0
 40
1.0
 40
1.0
 40
1.0
 10
14.0672776969
 20
12.3698975745
 30
0.0
 10
14.0624280108
 20
12.372342637
 30
0.0
 10
14.052176769
 20
12.3766532993
 30
0.0
 10
14.0358066484
 20
12.3812300233
 30
0.0
 10
14.0183842362
 20
12.3839789904
 30
0.0
 10
14.0064238963
 20
12.3845763708
 30
0.0
 10
14.0003489936
 20
12.3845763708
 30
0.0
  0
SPLINE
  5
5CB
100
AcDbEntity
  8
02___PRT_ALL_AXES
100
AcDbSpline
 62
7
  6
CONTINUOUS
 70
0
 71
3
 72
14
 73
10
 74
0
 42
0.0000001
 43
0.0000001
 44
0.0000000001
 40
0.0
 40
0.0
 40
0.0
 40
0.0
 40
0.3451099348
 40
0.4944533504
 40
0.6262262767
 40
0.7403216833
 40
0.8382854598
 40
0.9231195058
 40
1.0
 40
1.0
 40
1.0
 40
1.0
 10
14.5626199178
 20
13.7698770705
 30
0.0
 10
14.5622367934
 20
13.7688092435
 30
0.0
 10
14.5616243711
 20
13.7672985803
 30
0.0
 10
14.5606596959
 20
13.7654781042
 30
0.0
 10
14.5599534486
 20
13.7643850857
 30
0.0
 10
14.5592321891
 20
13.7635105239
 30
0.0
 10
14.5584960333
 20
13.7628612965
 30
0.0
 10
14.5577403583
 20
13.7624451772
 30
0.0
 10
14.5572091599
 20
13.762335639
 30
0.0
 10
14.5569565628
 20
13.7623274833
 30
0.0
  0
SPLINE
  5
5CC
100
AcDbEntity
  8
02___PRT_ALL_AXES
100
AcDbSpline
 62
7
  6
CONTINUOUS
 70
0
 71
3
 72
11
 73
7
 74
0
 42
0.0000001
 43
0.0000001
 44
0.0000000001
 40
0.0
 40
0.0
 40
0.0
 40
0.0
 40
0.3004405489
 40
0.5624978735
 40
0.7913153408
 40
1.0
 40
1.0
 40
1.0
 40
1.0
 10
14.7624971529
 20
13.7666825985
 30
0.0
 10
14.7628102452
 20
13.7660445834
 30
0.0
 10
14.7634890673
 20
13.7648908871
 30
0.0
 10
14.7647508958
 20
13.7634863157
 30
0.0
 10
14.766164713
 20
13.7625787891
 30
0.0
 10
14.7672004069
 20
13.7623439375
 30
0.0
 10
14.7676938052
 20
13.7623282721
 30
0.0
  0
SPLINE
  5
5CD
100
AcDbEntity
  8
02___PRT_ALL_AXES
100
AcDbSpline
 62
7
  6
CONTINUOUS
 70
0
 71
3
 72
15
 73
11
 74
0
 42
0.0000001
 43
0.0000001
 44
0.0000000001
 40
0.0
 40
0.0
 40
0.0
 40
0.0
 40
0.1181267499
 40
0.2477290932
 40
0.3835805196
 40
0.5208302743
 40
0.6549295205
 40
0.7817731748
 40
0.8977896725
 40
1.0
 40
1.0
 40
1.0
 40
1.0
 10
14.7400614688
 20
13.8395737289
 30
0.0
 10
14.7397820644
 20
13.838485155
 30
0.0
 10
14.739279268
 20
13.8361806163
 30
0.0
 10
14.7387043899
 20
13.8325750975
 30
0.0
 10
14.7383110855
 20
13.8287619152
 30
0.0
 10
14.7381434177
 20
13.8248887323
 30
0.0
 10
14.7382441839
 20
13.8210982312
 30
0.0
 10
14.7386399561
 20
13.8175277533
 30
0.0
 10
14.7393572424
 20
13.8143173079
 30
0.0
 10
14.7400820307
 20
13.8123598151
 30
0.0
 10
14.7405104278
 20
13.8114868336
 30
0.0
  0
SPLINE
  5
5CE
100
AcDbEntity
  8
0
100
AcDbSpline
 62
7
  6
CONTINUOUS
 70
0
 71
3
 72
25
 73
21
 74
0
 42
0.0000001
 43
0.0000001
 44
0.0000000001
 40
0.0
 40
0.0
 40
0.0
 40
0.0
 40
0.0760508305
 40
0.1524364199
 40
0.2284518943
 40
0.3035305803
 40
0.3771298155
 40
0.4487113009
 40
0.5177931584
 40
0.5839671011
 40
0.6469153926
 40
0.7064232862
 40
0.7624198312
 40
0.814989598
 40
0.8644195815
 40
0.911204111
 40
0.9338442586
 40
0.956109736
 40
0.9781195075
 40
1.0
 40
1.0
 40
1.0
 40
1.0
 10
15.2852989358
 20
12.2184917771
 30
0.0
 10
15.3059735847
 20
12.2140757367
 30
0.0
 10
15.3471449679
 20
12.2039123874
 30
0.0
 10
15.4077869603
 20
12.1849274814
 30
0.0
 10
15.4668893125
 20
12.1623233842
 30
0.0
 10
15.5237550349
 20
12.136381744
 30
0.0
 10
15.5777382142
 20
12.1073941859
 30
0.0
 10
15.6282221665
 20
12.0756960587
 30
0.0
 10
15.6746216804
 20
12.0416475343
 30
0.0
 10
15.7164042774
 20
12.0056372468
 30
0.0
 10
15.7530956818
 20
11.968076475
 30
0.0
 10
15.7842668356
 20
11.929377507
 30
0.0
 10
15.8095669214
 20
11.8899777356
 30
0.0
 10
15.8286753535
 20
11.8502935938
 30
0.0
 10
15.841363633
 20
11.8107767949
 30
0.0
 10
15.8464535951
 20
11.7779630951
 30
0.0
 10
15.8470468573
 20
11.7524527352
 30
0.0
 10
15.8458120173
 20
11.7338653121
 30
0.0
 10
15.8429001503
 20
11.7156815117
 30
0.0
 10
15.8398466563
 20
11.7038469503
 30
0.0
 10
15.8380512304
 20
11.6980355206
 30
0.0
  0
SPLINE
  5
5CF
100
AcDbEntity
  8
02___PRT_ALL_AXES
100
AcDbSpline
 62
7
  6
CONTINUOUS
 70
0
 71
3
 72
15
 73
11
 74
0
 42
0.0000001
 43
0.0000001
 44
0.0000000001
 40
0.0
 40
0.0
 40
0.0
 40
0.0
 40
0.130801712
 40
0.2623869792
 40
0.393238591
 40
0.5221987627
 40
0.6482262859
 40
0.7704051888
 40
0.887926838
 40
1.0
 40
1.0
 40
1.0
 40
1.0
 10
14.6487472897
 20
13.8496352376
 30
0.0
 10
14.6437737302
 20
13.8478753557
 30
0.0
 10
14.6339768082
 20
13.8438148551
 30
0.0
 10
14.6199862291
 20
13.8362889132
 30
0.0
 10
14.6068894058
 20
13.827425793
 30
0.0
 10
14.5949284839
 20
13.8174269138
 30
0.0
 10
14.5843214226
 20
13.8064821978
 30
0.0
 10
14.575251699
 20
13.7948077576
 30
0.0
 10
14.567906913
 20
13.7826302402
 30
0.0
 10
14.5641464851
 20
13.7741318496
 30
0.0
 10
14.5626199178
 20
13.7698770705
 30
0.0
  0
SPLINE
  5
5D0
100
AcDbEntity
  8
02___PRT_ALL_AXES
100
AcDbSpline
 62
7
  6
CONTINUOUS
 70
0
 71
3
 72
22
 73
18
 74
0
 42
0.0000001
 43
0.0000001
 44
0.0000000001
 40
0.0
 40
0.0
 40
0.0
 40
0.0
 40
0.0593194431
 40
0.1215157909
 40
0.1863999263
 40
0.2537132016
 40
0.3931783982
 40
0.4639881902
 40
0.5342281336
 40
0.602955386
 40
0.6692811618
 40
0.7324998221
 40
0.7921506051
 40
0.8481381603
 40
0.9008115129
 40
0.9510126775
 40
1.0
 40
1.0
 40
1.0
 40
1.0
 10
15.127792869
 20
13.0432812867
 30
0.0
 10
15.1262860461
 20
13.0384052061
 30
0.0
 10
15.1222687916
 20
13.028687068
 30
0.0
 10
15.113801129
 20
13.0149976349
 30
0.0
 10
15.1029550198
 20
13.0021891375
 30
0.0
 10
15.0855613559
 20
12.9864975699
 30
0.0
 10
15.0649563541
 20
12.9739164751
 30
0.0
 10
15.0425556769
 20
12.9648514647
 30
0.0
 10
15.0251501821
 20
12.9599311258
 30
0.0
 10
15.0076922485
 20
12.9570187846
 30
0.0
 10
14.9906127979
 20
12.9561828469
 30
0.0
 10
14.9743356491
 20
12.9574336694
 30
0.0
 10
14.9592541645
 20
12.9607682601
 30
0.0
 10
14.9457283045
 20
12.9661343602
 30
0.0
 10
14.934086897
 20
12.9734655753
 30
0.0
 10
14.9246442619
 20
12.9826397621
 30
0.0
 10
14.9199739323
 20
12.9898884217
 30
0.0
 10
14.9181158948
 20
12.9936714201
 30
0.0
  0
SPLINE
  5
5D1
100
AcDbEntity
  8
0
100
AcDbSpline
 62
7
  6
CONTINUOUS
 70
0
 71
3
 72
15
 73
11
 74
0
 42
0.0000001
 43
0.0000001
 44
0.0000000001
 40
0.0
 40
0.0
 40
0.0
 40
0.0
 40
0.1182768288
 40
0.245771496
 40
0.3790406969
 40
0.5143179371
 40
0.6476038754
 40
0.775201069
 40
0.8933721117
 40
1.0
 40
1.0
 40
1.0
 40
1.0
 10
17.8904495603
 20
11.2695311754
 30
0.0
 10
17.8901552297
 20
11.2684266815
 30
0.0
 10
17.8893777326
 20
11.2661744495
 30
0.0
 10
17.8877972303
 20
11.2628630173
 30
0.0
 10
17.8858051971
 20
11.2595875888
 30
0.0
 10
17.8834779896
 20
11.256471548
 30
0.0
 10
17.8808995214
 20
11.253633332
 30
0.0
 10
17.878174007
 20
11.2511757421
 30
0.0
 10
17.8753919445
 20
11.249195165
 30
0.0
 10
17.8734551808
 20
11.2481931764
 30
0.0
 10
17.8725100328
 20
11.247782631
 30
0.0
  0
SPLINE
  5
5D2
100
AcDbEntity
  8
0
100
AcDbSpline
 62
7
  6
CONTINUOUS
 70
0
 71
3
 72
12
 73
8
 74
0
 42
0.0000001
 43
0.0000001
 44
0.0000000001
 40
0.0
 40
0.0
 40
0.0
 40
0.0
 40
0.1191341308
 40
0.241470554
 40
0.4923337847
 40
0.7471473554
 40
1.0
 40
1.0
 40
1.0
 40
1.0
 10
13.9180464437
 20
12.1182452215
 30
0.0
 10
13.9239583474
 20
12.1182452215
 30
0.0
 10
13.9359478919
 20
12.118827678
 30
0.0
 10
13.9601726684
 20
12.1221851238
 30
0.0
 10
13.9903843879
 20
12.1304687669
 30
0.0
 10
14.0247447101
 20
12.1461928406
 30
0.0
 10
14.0458001527
 20
12.1602692176
 30
0.0
 10
14.0556036537
 20
12.1681007036
 30
0.0
  0
SPLINE
  5
5D3
100
AcDbEntity
  8
0
100
AcDbSpline
 62
7
  6
CONTINUOUS
 70
0
 71
3
 72
12
 73
8
 74
0
 42
0.0000001
 43
0.0000001
 44
0.0000000001
 40
0.0
 40
0.0
 40
0.0
 40
0.0
 40
0.1191501921
 40
0.2416022131
 40
0.4927721668
 40
0.7476410644
 40
1.0
 40
1.0
 40
1.0
 40
1.0
 10
13.9172681415
 20
12.1358234183
 30
0.0
 10
13.9228917862
 20
12.1358234183
 30
0.0
 10
13.9343016546
 20
12.1363901239
 30
0.0
 10
13.9573541063
 20
12.1396559174
 30
0.0
 10
13.9860662326
 20
12.147733878
 30
0.0
 10
14.0185818075
 20
12.1630453696
 30
0.0
 10
14.0383957524
 20
12.1767230727
 30
0.0
 10
14.0475652726
 20
12.1843248904
 30
0.0
  0
SPLINE
  5
5D4
100
AcDbEntity
  8
0
100
AcDbSpline
 62
7
  6
CONTINUOUS
 70
0
 71
3
 72
11
 73
7
 74
0
 42
0.0000001
 43
0.0000001
 44
0.0000000001
 40
0.0
 40
0.0
 40
0.0
 40
0.0
 40
0.2343867122
 40
0.4789230352
 40
0.7343727565
 40
1.0
 40
1.0
 40
1.0
 40
1.0
 10
14.0650244718
 20
12.3635309671
 30
0.0
 10
14.060541639
 20
12.3664150149
 30
0.0
 10
14.0508994308
 20
12.3715837371
 30
0.0
 10
14.0351544823
 20
12.377303412
 30
0.0
 10
14.0180999036
 20
12.3810322489
 30
0.0
 10
14.0062726823
 20
12.3821600021
 30
0.0
 10
14.0002366809
 20
12.3824034092
 30
0.0
  0
LINE
  5
5D5
100
AcDbEntity
  8
0
100
AcDbLine
 62
7
  6
CONTINUOUS
 10
17.5561041609
 20
10.9285051358
 11
17.5551609505
 21
10.9250267552
  0
SPLINE
  5
5D6
100
AcDbEntity
  8
0
100
AcDbSpline
 62
7
  6
CONTINUOUS
 70
0
 71
3
 72
11
 73
7
 74
0
 42
0.0000001
 43
0.0000001
 44
0.0000000001
 40
0.0
 40
0.0
 40
0.0
 40
0.0
 40
0.2409920951
 40
0.4896342677
 40
0.7433700087
 40
1.0
 40
1.0
 40
1.0
 40
1.0
 10
13.9935050452
 20
12.382538423
 30
0.0
 10
13.9866247086
 20
12.382538423
 30
0.0
 10
13.9726352765
 20
12.3816905856
 30
0.0
 10
13.95168061
 20
12.3780849125
 30
0.0
 10
13.9308008694
 20
12.3721452637
 30
0.0
 10
13.9172384409
 20
12.366739131
 30
0.0
 10
13.9105776649
 20
12.3636869102
 30
0.0
  0
SPLINE
  5
5D7
100
AcDbEntity
  8
0
100
AcDbSpline
 62
7
  6
CONTINUOUS
 70
0
 71
3
 72
9
 73
5
 74
0
 42
0.0000001
 43
0.0000001
 44
0.0000000001
 40
0.0
 40
0.0
 40
0.0
 40
0.0
 40
0.2513645272
 40
1.0
 40
1.0
 40
1.0
 40
1.0
 10
13.9032474067
 20
12.3601605933
 30
0.0
 10
13.9004055814
 20
12.3587275814
 30
0.0
 10
13.8892262499
 20
12.352780284
 30
0.0
 10
13.8785612672
 20
12.3458610746
 30
0.0
 10
13.8709799425
 20
12.3401712566
 30
0.0
  0
SPLINE
  5
5D8
100
AcDbEntity
  8
0
100
AcDbSpline
 62
7
  6
CONTINUOUS
 70
0
 71
3
 72
12
 73
8
 74
0
 42
0.0000001
 43
0.0000001
 44
0.0000000001
 40
0.0
 40
0.0
 40
0.0
 40
0.0
 40
0.2688792825
 40
0.526818426
 40
0.6508199847
 40
0.7711008853
 40
1.0
 40
1.0
 40
1.0
 40
1.0
 10
13.8701028246
 20
12.3395093199
 30
0.0
 10
13.8621284324
 20
12.3334578721
 30
0.0
 10
13.8473345941
 20
12.3204522695
 30
0.0
 10
13.8317683513
 20
12.3017335232
 30
0.0
 10
13.8217782754
 20
12.2858978077
 30
0.0
 10
13.8137717563
 20
12.2701895514
 30
0.0
 10
13.8095589534
 20
12.2577606365
 30
0.0
 10
13.807759472
 20
12.2494307326
 30
0.0
  0
SPLINE
  5
5D9
100
AcDbEntity
  8
0
100
AcDbSpline
 62
7
  6
CONTINUOUS
 70
0
 71
3
 72
11
 73
7
 74
0
 42
0.0000001
 43
0.0000001
 44
0.0000000001
 40
0.0
 40
0.0
 40
0.0
 40
0.0
 40
0.2595026371
 40
0.5104515392
 40
0.7560100534
 40
1.0
 40
1.0
 40
1.0
 40
1.0
 10
13.8063678438
 20
12.2416193825
 30
0.0
 10
13.8056210609
 20
12.2362822194
 30
0.0
 10
13.8049674973
 20
12.2256463516
 30
0.0
 10
13.8066733944
 20
12.2099594017
 30
0.0
 10
13.8110916364
 20
12.1951418269
 30
0.0
 10
13.8157787227
 20
12.1860426461
 30
0.0
 10
13.8185046965
 20
12.1817713992
 30
0.0
  0
SPLINE
  5
5DA
100
AcDbEntity
  8
0
100
AcDbSpline
 62
7
  6
CONTINUOUS
 70
0
 71
3
 72
15
 73
11
 74
0
 42
0.0000001
 43
0.0000001
 44
0.0000000001
 40
0.0
 40
0.0
 40
0.0
 40
0.0
 40
0.1125771335
 40
0.2274631982
 40
0.3455276472
 40
0.4674778045
 40
0.593812895
 40
0.7248397717
 40
0.8604126263
 40
1.0
 40
1.0
 40
1.0
 40
1.0
 10
13.8207879005
 20
12.1783818482
 30
0.0
 10
13.8231664139
 20
12.1750324095
 30
0.0
 10
13.8284843203
 20
12.1686145029
 30
0.0
 10
13.837848658
 20
12.1601145429
 30
0.0
 10
13.8485550368
 20
12.15276053
 30
0.0
 10
13.8604792532
 20
12.1466426378
 30
0.0
 10
13.8734845678
 20
12.1418159956
 30
0.0
 10
13.8874276303
 20
12.1383534392
 30
0.0
 10
13.9021267299
 20
12.1362754883
 30
0.0
 10
13.9121744628
 20
12.1358234183
 30
0.0
 10
13.9172681415
 20
12.1358234183
 30
0.0
  0
SPLINE
  5
5DB
100
AcDbEntity
  8
0
100
AcDbSpline
 62
7
  6
CONTINUOUS
 70
0
 71
3
 72
15
 73
11
 74
0
 42
0.0000001
 43
0.0000001
 44
0.0000000001
 40
0.0
 40
0.0
 40
0.0
 40
0.0
 40
0.2310885331
 40
0.3555405185
 40
0.4840440312
 40
0.6147476876
 40
0.7456702933
 40
0.8105702454
 40
0.8746929271
 40
1.0
 40
1.0
 40
1.0
 40
1.0
 10
17.1386943166
 20
10.7316683279
 30
0.0
 10
17.1380596011
 20
10.7294527381
 30
0.0
 10
17.1363054177
 20
10.7262418524
 30
0.0
 10
17.133005093
 20
10.7227065514
 30
0.0
 10
17.1299725725
 20
10.720343536
 30
0.0
 10
17.1265635133
 20
10.7184402527
 30
0.0
 10
17.1235055664
 20
10.7172827693
 30
0.0
 10
17.1209901083
 20
10.7166453216
 30
0.0
 10
17.1184856921
 20
10.7162279285
 30
0.0
 10
17.1165899847
 20
10.716139361
 30
0.0
 10
17.1153404595
 20
10.7161616411
 30
0.0
  0
SPLINE
  5
5DC
100
AcDbEntity
  8
0
100
AcDbSpline
 62
7
  6
CONTINUOUS
 70
0
 71
3
 72
11
 73
7
 74
0
 42
0.0000001
 43
0.0000001
 44
0.0000000001
 40
0.0
 40
0.0
 40
0.0
 40
0.0
 40
0.3073013334
 40
0.5727055111
 40
0.7983043247
 40
1.0
 40
1.0
 40
1.0
 40
1.0
 10
16.5264433628
 20
10.599297967
 30
0.0
 10
16.525833172
 20
10.5989711069
 30
0.0
 10
16.5246650318
 20
10.5984150868
 30
0.0
 10
16.522921398
 20
10.5979201028
 30
0.0
 10
16.521338574
 20
10.5979023998
 30
0.0
 10
16.5204036555
 20
10.5982230258
 30
0.0
 10
16.5200123733
 20
10.5984539358
 30
0.0
  0
SPLINE
  5
5DD
100
AcDbEntity
  8
0
100
AcDbSpline
 62
7
  6
CONTINUOUS
 70
0
 71
3
 72
12
 73
8
 74
0
 42
0.0000001
 43
0.0000001
 44
0.0000000001
 40
0.0
 40
0.0
 40
0.0
 40
0.0
 40
0.2752767987
 40
0.4059791629
 40
0.5318618496
 40
0.771138086
 40
1.0
 40
1.0
 40
1.0
 40
1.0
 10
15.1935761389
 20
10.716161641
 30
0.0
 10
15.1922949437
 20
10.716137777
 30
0.0
 10
15.190392646
 20
10.7162328268
 30
0.0
 10
15.1879718193
 20
10.7167798971
 30
0.0
 10
15.1857980837
 20
10.7175703596
 30
0.0
 10
15.183389865
 20
10.7189985677
 30
0.0
 10
15.1818908647
 20
10.7206335279
 30
0.0
 10
15.181300805
 20
10.721520552
 30
0.0
  0
SPLINE
  5
5DE
100
AcDbEntity
  8
02___PRT_ALL_AXES
100
AcDbSpline
 62
7
  6
CONTINUOUS
 70
0
 71
3
 72
11
 73
7
 74
0
 42
0.0000001
 43
0.0000001
 44
0.0000000001
 40
0.0
 40
0.0
 40
0.0
 40
0.0
 40
0.2348065976
 40
0.4769203109
 40
0.7312848157
 40
1.0
 40
1.0
 40
1.0
 40
1.0
 10
14.9181158948
 20
12.9936714201
 30
0.0
 10
14.9163630515
 20
12.997240241
 30
0.0
 10
14.9135939477
 20
13.0049042934
 30
0.0
 10
14.9118897213
 20
13.017250869
 30
0.0
 10
14.9126155149
 20
13.0302577487
 30
0.0
 10
14.914605397
 20
13.0389339024
 30
0.0
 10
14.9159488404
 20
13.0432812867
 30
0.0
  0
SPLINE
  5
5DF
100
AcDbEntity
  8
0
100
AcDbSpline
 62
7
  6
CONTINUOUS
 70
0
 71
3
 72
16
 73
12
 74
0
 42
0.0000001
 43
0.0000001
 44
0.0000000001
 40
0.0
 40
0.0
 40
0.0
 40
0.0
 40
0.1357557688
 40
0.203102676
 40
0.2698127051
 40
0.400719059
 40
0.5277232806
 40
0.6505407066
 40
0.7694521476
 40
0.885455893
 40
1.0
 40
1.0
 40
1.0
 40
1.0
 10
13.9146431855
 20
11.247782631
 30
0.0
 10
13.9133977271
 20
11.2481713512
 30
0.0
 10
13.9115648944
 20
11.2488689781
 30
0.0
 10
13.9092731357
 20
11.2500888758
 30
0.0
 10
13.9071418063
 20
11.2514877101
 30
0.0
 10
13.9047631743
 20
11.2535332458
 30
0.0
 10
13.9024513047
 20
11.2563970634
 30
0.0
 10
13.9007952901
 20
11.2595576908
 30
0.0
 10
13.8998596886
 20
11.2628942773
 30
0.0
 10
13.8996888104
 20
11.266276269
 30
0.0
 10
13.9000924597
 20
11.2684792748
 30
0.0
 10
13.9004170805
 20
11.2695311754
 30
0.0
  0
SPLINE
  5
5E0
100
AcDbEntity
  8
0
100
AcDbSpline
 62
7
  6
CONTINUOUS
 70
0
 71
3
 72
14
 73
10
 74
0
 42
0.0000001
 43
0.0000001
 44
0.0000000001
 40
0.0
 40
0.0
 40
0.0
 40
0.0
 40
0.1235708673
 40
0.2515067974
 40
0.3821760852
 40
0.5132068441
 40
0.6424336885
 40
0.7677635645
 40
1.0
 40
1.0
 40
1.0
 40
1.0
 10
13.0323335546
 20
12.0517135217
 30
0.0
 10
13.0313310784
 20
12.0524289561
 30
0.0
 10
13.0293802251
 20
12.0540198815
 30
0.0
 10
13.0268442105
 20
12.0568834331
 30
0.0
 10
13.0247297227
 20
12.0601570575
 30
0.0
 10
13.0230958601
 20
12.0637082902
 30
0.0
 10
13.0220155844
 20
12.0674140069
 30
0.0
 10
13.0213758243
 20
12.0722310826
 30
0.0
 10
13.0217704861
 20
12.0758791955
 30
0.0
 10
13.0225047644
 20
12.0780742551
 30
0.0
  0
SPLINE
  5
5E1
100
AcDbEntity
  8
0
100
AcDbSpline
 62
7
  6
CONTINUOUS
 70
0
 71
3
 72
15
 73
11
 74
0
 42
0.0000001
 43
0.0000001
 44
0.0000000001
 40
0.0
 40
0.0
 40
0.0
 40
0.0
 40
0.104445164
 40
0.2214002586
 40
0.348629414
 40
0.4822000957
 40
0.6182251227
 40
0.7524885305
 40
0.880984753
 40
1.0
 40
1.0
 40
1.0
 40
1.0
 10
12.7830613992
 20
12.9125416803
 30
0.0
 10
12.7825805881
 20
12.9134227423
 30
0.0
 10
12.7816849406
 20
12.915360918
 30
0.0
 10
12.7806994283
 20
12.9185717227
 30
0.0
 10
12.7800134298
 20
12.9221424062
 30
0.0
 10
12.7796425022
 20
12.9259429886
 30
0.0
 10
12.7796082312
 20
12.9298288304
 30
0.0
 10
12.779908605
 20
12.9336546184
 30
0.0
 10
12.7805331995
 20
12.9372751592
 30
0.0
 10
12.7811788222
 20
12.9395710253
 30
0.0
 10
12.7815607698
 20
12.9406491017
 30
0.0
  0
SPLINE
  5
5E2
100
AcDbEntity
  8
0
100
AcDbSpline
 62
7
  6
CONTINUOUS
 70
0
 71
3
 72
11
 73
7
 74
0
 42
0.0000001
 43
0.0000001
 44
0.0000000001
 40
0.0
 40
0.0
 40
0.0
 40
0.0
 40
0.2022037735
 40
0.4632373376
 40
0.7433222127
 40
1.0
 40
1.0
 40
1.0
 40
1.0
 10
13.2336189923
 20
13.599608897
 30
0.0
 10
13.2341053364
 20
13.6014228659
 30
0.0
 10
13.235306181
 20
13.6055551373
 30
0.0
 10
13.2373683313
 20
13.6121440413
 30
0.0
 10
13.2396940272
 20
13.6191796961
 30
0.0
 10
13.2413336312
 20
13.6238881275
 30
0.0
 10
13.2421458454
 20
13.6261294817
 30
0.0
  0
SPLINE
  5
5E3
100
AcDbEntity
  8
0
100
AcDbSpline
 62
7
  6
CONTINUOUS
 70
0
 71
3
 72
12
 73
8
 74
0
 42
0.0000001
 43
0.0000001
 44
0.0000000001
 40
0.0
 40
0.0
 40
0.0
 40
0.0
 40
0.1191341308
 40
0.241470554
 40
0.4923337847
 40
0.7471473554
 40
1.0
 40
1.0
 40
1.0
 40
1.0
 10
16.4509641772
 20
12.1182452215
 30
0.0
 10
16.4568760809
 20
12.1182452215
 30
0.0
 10
16.4688656254
 20
12.118827678
 30
0.0
 10
16.4930904019
 20
12.1221851238
 30
0.0
 10
16.5233021214
 20
12.1304687669
 30
0.0
 10
16.5576624436
 20
12.1461928406
 30
0.0
 10
16.5787178862
 20
12.1602692176
 30
0.0
 10
16.5885213872
 20
12.1681007036
 30
0.0
  0
SPLINE
  5
5E4
100
AcDbEntity
  8
0
100
AcDbSpline
 62
7
  6
CONTINUOUS
 70
0
 71
3
 72
12
 73
8
 74
0
 42
0.0000001
 43
0.0000001
 44
0.0000000001
 40
0.0
 40
0.0
 40
0.0
 40
0.0
 40
0.1191501921
 40
0.2416022131
 40
0.4927721668
 40
0.7476410644
 40
1.0
 40
1.0
 40
1.0
 40
1.0
 10
16.450185875
 20
12.1358234183
 30
0.0
 10
16.4558095197
 20
12.1358234183
 30
0.0
 10
16.4672193881
 20
12.1363901239
 30
0.0
 10
16.4902718398
 20
12.1396559174
 30
0.0
 10
16.5189839661
 20
12.147733878
 30
0.0
 10
16.551499541
 20
12.1630453696
 30
0.0
 10
16.5713134859
 20
12.1767230727
 30
0.0
 10
16.5804830061
 20
12.1843248904
 30
0.0
  0
SPLINE
  5
5E5
100
AcDbEntity
  8
0
100
AcDbSpline
 62
7
  6
CONTINUOUS
 70
0
 71
3
 72
11
 73
7
 74
0
 42
0.0000001
 43
0.0000001
 44
0.0000000001
 40
0.0
 40
0.0
 40
0.0
 40
0.0
 40
0.2343867122
 40
0.4789230352
 40
0.7343727565
 40
1.0
 40
1.0
 40
1.0
 40
1.0
 10
16.5979422053
 20
12.3635309671
 30
0.0
 10
16.5934593725
 20
12.3664150149
 30
0.0
 10
16.5838171643
 20
12.3715837371
 30
0.0
 10
16.5680722158
 20
12.377303412
 30
0.0
 10
16.5510176371
 20
12.3810322489
 30
0.0
 10
16.5391904158
 20
12.3821600021
 30
0.0
 10
16.5331544144
 20
12.3824034092
 30
0.0
  0
SPLINE
  5
5E6
100
AcDbEntity
  8
0
100
AcDbSpline
 62
7
  6
CONTINUOUS
 70
0
 71
3
 72
11
 73
7
 74
0
 42
0.0000001
 43
0.0000001
 44
0.0000000001
 40
0.0
 40
0.0
 40
0.0
 40
0.0
 40
0.2409920951
 40
0.4896342677
 40
0.7433700087
 40
1.0
 40
1.0
 40
1.0
 40
1.0
 10
16.5264227787
 20
12.382538423
 30
0.0
 10
16.5195424421
 20
12.382538423
 30
0.0
 10
16.50555301
 20
12.3816905856
 30
0.0
 10
16.4845983435
 20
12.3780849125
 30
0.0
 10
16.4637186029
 20
12.3721452637
 30
0.0
 10
16.4501561744
 20
12.366739131
 30
0.0
 10
16.4434953984
 20
12.3636869102
 30
0.0
  0
SPLINE
  5
5E7
100
AcDbEntity
  8
0
100
AcDbSpline
 62
7
  6
CONTINUOUS
 70
0
 71
3
 72
9
 73
5
 74
0
 42
0.0000001
 43
0.0000001
 44
0.0000000001
 40
0.0
 40
0.0
 40
0.0
 40
0.0
 40
0.2513645272
 40
1.0
 40
1.0
 40
1.0
 40
1.0
 10
16.4361651402
 20
12.3601605933
 30
0.0
 10
16.4333233149
 20
12.3587275814
 30
0.0
 10
16.4221439834
 20
12.352780284
 30
0.0
 10
16.4114790007
 20
12.3458610746
 30
0.0
 10
16.403897676
 20
12.3401712566
 30
0.0
  0
SPLINE
  5
5E8
100
AcDbEntity
  8
0
100
AcDbSpline
 62
7
  6
CONTINUOUS
 70
0
 71
3
 72
12
 73
8
 74
0
 42
0.0000001
 43
0.0000001
 44
0.0000000001
 40
0.0
 40
0.0
 40
0.0
 40
0.0
 40
0.2688792825
 40
0.526818426
 40
0.6508199847
 40
0.7711008853
 40
1.0
 40
1.0
 40
1.0
 40
1.0
 10
16.4030205581
 20
12.3395093199
 30
0.0
 10
16.395046166
 20
12.3334578721
 30
0.0
 10
16.3802523276
 20
12.3204522695
 30
0.0
 10
16.3646860848
 20
12.3017335232
 30
0.0
 10
16.3546960089
 20
12.2858978077
 30
0.0
 10
16.3466894898
 20
12.2701895514
 30
0.0
 10
16.3424766869
 20
12.2577606365
 30
0.0
 10
16.3406772055
 20
12.2494307326
 30
0.0
  0
SPLINE
  5
5E9
100
AcDbEntity
  8
0
100
AcDbSpline
 62
7
  6
CONTINUOUS
 70
0
 71
3
 72
11
 73
7
 74
0
 42
0.0000001
 43
0.0000001
 44
0.0000000001
 40
0.0
 40
0.0
 40
0.0
 40
0.0
 40
0.2595026371
 40
0.5104515392
 40
0.7560100534
 40
1.0
 40
1.0
 40
1.0
 40
1.0
 10
16.3392855773
 20
12.2416193825
 30
0.0
 10
16.3385387944
 20
12.2362822194
 30
0.0
 10
16.3378852308
 20
12.2256463516
 30
0.0
 10
16.3395911279
 20
12.2099594017
 30
0.0
 10
16.3440093699
 20
12.1951418269
 30
0.0
 10
16.3486964562
 20
12.1860426461
 30
0.0
 10
16.35142243
 20
12.1817713992
 30
0.0
  0
SPLINE
  5
5EA
100
AcDbEntity
  8
0
100
AcDbSpline
 62
7
  6
CONTINUOUS
 70
0
 71
3
 72
15
 73
11
 74
0
 42
0.0000001
 43
0.0000001
 44
0.0000000001
 40
0.0
 40
0.0
 40
0.0
 40
0.0
 40
0.1125771335
 40
0.2274631982
 40
0.3455276472
 40
0.4674778045
 40
0.593812895
 40
0.7248397717
 40
0.8604126263
 40
1.0
 40
1.0
 40
1.0
 40
1.0
 10
16.353705634
 20
12.1783818482
 30
0.0
 10
16.3560841474
 20
12.1750324095
 30
0.0
 10
16.3614020538
 20
12.1686145029
 30
0.0
 10
16.3707663915
 20
12.1601145429
 30
0.0
 10
16.3814727703
 20
12.15276053
 30
0.0
 10
16.3933969867
 20
12.1466426378
 30
0.0
 10
16.4064023013
 20
12.1418159956
 30
0.0
 10
16.4203453638
 20
12.1383534392
 30
0.0
 10
16.4350444634
 20
12.1362754883
 30
0.0
 10
16.4450921963
 20
12.1358234183
 30
0.0
 10
16.450185875
 20
12.1358234183
 30
0.0
  0
SPLINE
  5
5EB
100
AcDbEntity
  8
0
100
AcDbSpline
 62
7
  6
CONTINUOUS
 70
0
 71
3
 72
11
 73
7
 74
0
 42
0.0000001
 43
0.0000001
 44
0.0000000001
 40
0.0
 40
0.0
 40
0.0
 40
0.0
 40
0.2242573263
 40
0.4617848706
 40
0.7199440377
 40
1.0
 40
1.0
 40
1.0
 40
1.0
 10
13.660836426
 20
13.81974787
 30
0.0
 10
13.6613061662
 20
13.8186107057
 30
0.0
 10
13.6627140594
 20
13.8164298418
 30
0.0
 10
13.6658873781
 20
13.813978798
 30
0.0
 10
13.6698920579
 20
13.8123922539
 30
0.0
 10
13.672848103
 20
13.8120289402
 30
0.0
 10
13.6743826937
 20
13.8119523917
 30
0.0
  0
SPLINE
  5
5EC
100
AcDbEntity
  8
0
100
AcDbSpline
 62
7
  6
CONTINUOUS
 70
0
 71
3
 72
11
 73
7
 74
0
 42
0.0000001
 43
0.0000001
 44
0.0000000001
 40
0.0
 40
0.0
 40
0.0
 40
0.0
 40
0.201834156
 40
0.4278712484
 40
0.6930594298
 40
1.0
 40
1.0
 40
1.0
 40
1.0
 10
12.9096659519
 20
13.2802958512
 30
0.0
 10
12.910079561
 20
13.279964195
 30
0.0
 10
12.9111125203
 20
13.2794457164
 30
0.0
 10
12.9129468164
 20
13.2792279307
 30
0.0
 10
12.915037274
 20
13.2795455691
 30
0.0
 10
12.9164636144
 20
13.2800343038
 30
0.0
 10
12.9172131204
 20
13.2803314018
 30
0.0
  0
SPLINE
  5
5ED
100
AcDbEntity
  8
0
100
AcDbSpline
 62
7
  6
CONTINUOUS
 70
0
 71
3
 72
16
 73
12
 74
0
 42
0.0000001
 43
0.0000001
 44
0.0000000001
 40
0.0
 40
0.0
 40
0.0
 40
0.0
 40
0.1098743454
 40
0.2232285994
 40
0.3414619024
 40
0.4651886974
 40
0.5941013831
 40
0.727256646
 40
0.7949997025
 40
0.8632080769
 40
1.0
 40
1.0
 40
1.0
 40
1.0
 10
14.8784280781
 20
13.9508414809
 30
0.0
 10
14.8781210944
 20
13.9498365814
 30
0.0
 10
14.8777536707
 20
13.9477084513
 30
0.0
 10
14.8779664225
 20
13.944423257
 30
0.0
 10
14.8789208475
 20
13.9411362136
 30
0.0
 10
14.8805709123
 20
13.9379726017
 30
0.0
 10
14.8828536926
 20
13.9350508379
 30
0.0
 10
14.8851918318
 20
13.9329119547
 30
0.0
 10
14.8872860596
 20
13.9314119121
 30
0.0
 10
14.8895307614
 20
13.9300782343
 30
0.0
 10
14.8913292872
 20
13.929277947
 30
0.0
 10
14.8925531942
 20
13.9288160658
 30
0.0
  0
SPLINE
  5
5EE
100
AcDbEntity
  8
02___PRT_ALL_AXES
100
AcDbSpline
 62
7
  6
CONTINUOUS
 70
0
 71
3
 72
21
 73
17
 74
0
 42
0.0000001
 43
0.0000001
 44
0.0000000001
 40
0.0
 40
0.0
 40
0.0
 40
0.0
 40
0.0595621002
 40
0.1223184032
 40
0.1877375965
 40
0.2552718853
 40
0.3936168381
 40
0.5313764811
 40
0.5983353998
 40
0.6631387833
 40
0.7253919752
 40
0.7848981422
 40
0.8416831206
 40
0.8960491147
 40
0.9485576991
 40
1.0
 40
1.0
 40
1.0
 40
1.0
 10
14.5284177655
 20
13.8395737289
 30
0.0
 10
14.5301470523
 20
13.8443926762
 30
0.0
 10
14.5345127656
 20
13.8540094907
 30
0.0
 10
14.5432077591
 20
13.8676580316
 30
0.0
 10
14.5540436298
 20
13.8805871412
 30
0.0
 10
14.5711090488
 20
13.8965487772
 30
0.0
 10
14.5960709924
 20
13.9128416504
 30
0.0
 10
14.6240160236
 20
13.9231268197
 30
0.0
 10
14.646905
 20
13.9270433024
 30
0.0
 10
14.6636208742
 20
13.9277013946
 30
0.0
 10
14.6796331133
 20
13.9260931118
 30
0.0
 10
14.6945571234
 20
13.922243751
 30
0.0
 10
14.7080248805
 20
13.9162455446
 30
0.0
 10
14.7196974259
 20
13.908239827
 30
0.0
 10
14.729251672
 20
13.8984238239
 30
0.0
 10
14.734067013
 20
13.8908037254
 30
0.0
 10
14.7360157343
 20
13.8868344138
 30
0.0
  0
SPLINE
  5
5EF
100
AcDbEntity
  8
0
100
AcDbSpline
 62
7
  6
CONTINUOUS
 70
0
 71
3
 72
13
 73
9
 74
0
 42
0.0000001
 43
0.0000001
 44
0.0000000001
 40
0.0
 40
0.0
 40
0.0
 40
0.0
 40
0.3256005221
 40
0.597612832
 40
0.7134806995
 40
0.8172603413
 40
0.9114611317
 40
1.0
 40
1.0
 40
1.0
 40
1.0
 10
14.4236657232
 20
14.4130043575
 30
0.0
 10
14.4239615036
 20
14.4141228053
 30
0.0
 10
14.424378912
 20
14.4162120025
 30
0.0
 10
14.4244362353
 20
14.4187706448
 30
0.0
 10
14.4241079275
 20
14.4204931473
 30
0.0
 10
14.4237130269
 20
14.4215434119
 30
0.0
 10
14.423156356
 20
14.4224063343
 30
0.0
 10
14.4226708594
 20
14.4228512101
 30
0.0
 10
14.4224115117
 20
14.4230292693
 30
0.0
  0
SPLINE
  5
5F0
100
AcDbEntity
  8
0
100
AcDbSpline
 62
7
  6
CONTINUOUS
 70
0
 71
3
 72
15
 73
11
 74
0
 42
0.0000001
 43
0.0000001
 44
0.0000000001
 40
0.0
 40
0.0
 40
0.0
 40
0.0
 40
0.1033287788
 40
0.2203029182
 40
0.3482693654
 40
0.4828616031
 40
0.6197966955
 40
0.7544900412
 40
0.8825805136
 40
1.0
 40
1.0
 40
1.0
 40
1.0
 10
14.26327979
 20
13.928816066
 30
0.0
 10
14.2641345622
 20
13.9293085336
 30
0.0
 10
14.2658980357
 20
13.9304647297
 30
0.0
 10
14.2684540356
 20
13.9326005062
 30
0.0
 10
14.2710181398
 20
13.9351661404
 30
0.0
 10
14.2735045603
 20
13.9380628522
 30
0.0
 10
14.2758113118
 20
13.9411846075
 30
0.0
 10
14.2778546904
 20
13.944411852
 30
0.0
 10
14.279556057
 20
13.9476222728
 30
0.0
 10
14.280470614
 20
13.9497853974
 30
0.0
 10
14.2808465923
 20
13.9508414809
 30
0.0
  0
SPLINE
  5
5F1
100
AcDbEntity
  8
0
100
AcDbSpline
 62
7
  6
CONTINUOUS
 70
0
 71
3
 72
14
 73
10
 74
0
 42
0.0000001
 43
0.0000001
 44
0.0000000001
 40
0.0
 40
0.0
 40
0.0
 40
0.0
 40
0.024364294
 40
0.0750337407
 40
0.1553065025
 40
0.2662049105
 40
0.4083376742
 40
0.5805063823
 40
1.0
 40
1.0
 40
1.0
 40
1.0
 10
12.8221202477
 20
12.4732047453
 30
0.0
 10
12.822148629
 20
12.4731948172
 30
0.0
 10
12.8222413185
 20
12.4732579881
 30
0.0
 10
12.8223527569
 20
12.4733989993
 30
0.0
 10
12.8225245943
 20
12.473650993
 30
0.0
 10
12.8227300406
 20
12.4740044555
 30
0.0
 10
12.8229798908
 20
12.4744670972
 30
0.0
 10
12.8233898459
 20
12.4752740928
 30
0.0
 10
12.8237060988
 20
12.4759325275
 30
0.0
 10
12.8239274501
 20
12.4764005111
 30
0.0
  0
SPLINE
  5
5F2
100
AcDbEntity
  8
0
100
AcDbSpline
 62
7
  6
CONTINUOUS
 70
0
 71
3
 72
11
 73
7
 74
0
 42
0.0000001
 43
0.0000001
 44
0.0000000001
 40
0.0
 40
0.0
 40
0.0
 40
0.0
 40
0.1944622778
 40
0.4168113477
 40
0.6848431641
 40
1.0
 40
1.0
 40
1.0
 40
1.0
 10
13.4236367662
 20
11.6112590398
 30
0.0
 10
13.4232357213
 20
11.6113008308
 30
0.0
 10
13.4223915183
 20
11.6115873193
 30
0.0
 10
13.421281047
 20
11.6125070476
 30
0.0
 10
13.4203122399
 20
11.613882962
 30
0.0
 10
13.4197811839
 20
11.6149726888
 30
0.0
 10
13.4195215028
 20
11.6155723524
 30
0.0
  0
SPLINE
  5
5F3
100
AcDbEntity
  8
0
100
AcDbSpline
 62
7
  6
CONTINUOUS
 70
0
 71
3
 72
14
 73
10
 74
0
 42
0.0000001
 43
0.0000001
 44
0.0000000001
 40
0.0
 40
0.0
 40
0.0
 40
0.0
 40
0.1296010488
 40
0.2723475227
 40
0.4153576549
 40
0.552546812
 40
0.7984525837
 40
0.9052147353
 40
1.0
 40
1.0
 40
1.0
 40
1.0
 10
16.9976360416
 20
12.4357574916
 30
0.0
 10
16.9980589819
 20
12.4371261269
 30
0.0
 10
16.9991308773
 20
12.4399450856
 30
0.0
 10
17.0010629561
 20
12.444112283
 30
0.0
 10
17.0032907146
 20
12.4482254927
 30
0.0
 10
17.0063084161
 20
12.4531975908
 30
0.0
 10
17.0094185131
 20
12.4576414653
 30
0.0
 10
17.0125517649
 20
12.4614702427
 30
0.0
 10
17.0140602887
 20
12.4631120741
 30
0.0
 10
17.0147977506
 20
12.4638562291
 30
0.0
  0
SPLINE
  5
5F4
100
AcDbEntity
  8
0
100
AcDbSpline
 62
7
  6
CONTINUOUS
 70
0
 71
3
 72
14
 73
10
 74
0
 42
0.0000001
 43
0.0000001
 44
0.0000000001
 40
0.0
 40
0.0
 40
0.0
 40
0.0
 40
0.0961080482
 40
0.203328099
 40
0.4488239355
 40
0.5854781237
 40
0.728205334
 40
0.8704545948
 40
1.0
 40
1.0
 40
1.0
 40
1.0
 10
13.1964667496
 20
12.4638562291
 30
0.0
 10
13.1956711995
 20
12.4631224657
 30
0.0
 10
13.1940490706
 20
12.4615034563
 30
0.0
 10
13.1906928995
 20
12.4577218381
 30
0.0
 10
13.187375751
 20
12.4533067726
 30
0.0
 10
13.1841697522
 20
12.4483393481
 30
0.0
 10
13.1818165457
 20
12.4442117999
 30
0.0
 10
13.1797712573
 20
12.4400124479
 30
0.0
 10
13.178663907
 20
12.4371512665
 30
0.0
 10
13.178233198
 20
12.4357574916
 30
0.0
  0
SPLINE
  5
5F5
100
AcDbEntity
  8
02___PRT_ALL_AXES
100
AcDbSpline
 62
7
  6
CONTINUOUS
 70
0
 71
3
 72
16
 73
12
 74
0
 42
0.0000001
 43
0.0000001
 44
0.0000000001
 40
0.0
 40
0.0
 40
0.0
 40
0.0
 40
0.1326517241
 40
0.2620462834
 40
0.3256858338
 40
0.3888534912
 40
0.5141696643
 40
0.6388616665
 40
0.7625770945
 40
0.8839133306
 40
1.0
 40
1.0
 40
1.0
 40
1.0
 10
15.0027267293
 20
13.1283009806
 30
0.0
 10
15.0064322763
 20
13.1296608089
 30
0.0
 10
15.0137699851
 20
13.1323012653
 30
0.0
 10
15.0230666191
 20
13.1350749651
 30
0.0
 10
15.0305113389
 20
13.1367334823
 30
0.0
 10
15.0379169454
 20
13.1379521269
 30
0.0
 10
15.0472426471
 20
13.1386146217
 30
0.0
 10
15.058370386
 20
13.137831704
 30
0.0
 10
15.0691835763
 20
13.135666709
 30
0.0
 10
15.0794461362
 20
13.1324244928
 30
0.0
 10
15.0859833715
 20
13.129726208
 30
0.0
 10
15.0891299093
 20
13.1283009806
 30
0.0
  0
SPLINE
  5
5F6
100
AcDbEntity
  8
0
100
AcDbSpline
 62
7
  6
CONTINUOUS
 70
0
 71
3
 72
14
 73
10
 74
0
 42
0.0000001
 43
0.0000001
 44
0.0000000001
 40
0.0
 40
0.0
 40
0.0
 40
0.0
 40
0.1235879085
 40
0.2524256051
 40
0.3844762709
 40
0.516875091
 40
0.6469710817
 40
0.772214297
 40
1.0
 40
1.0
 40
1.0
 40
1.0
 10
15.5961470143
 20
13.8119523917
 30
0.0
 10
15.5973639223
 20
13.8120145641
 30
0.0
 10
15.5998464363
 20
13.8122924489
 30
0.0
 10
15.6035203889
 20
13.813280147
 30
0.0
 10
15.6071004912
 20
13.8147990315
 30
0.0
 10
15.6104644785
 20
13.816773146
 30
0.0
 10
15.6134825415
 20
13.8191435684
 30
0.0
 10
15.6167830054
 20
13.8225842443
 30
0.0
 10
15.6186276504
 20
13.8256502704
 30
0.0
 10
15.6193439842
 20
13.8277787812
 30
0.0
  0
SPLINE
  5
5F7
100
AcDbEntity
  8
0
100
AcDbSpline
 62
7
  6
CONTINUOUS
 70
0
 71
3
 72
12
 73
8
 74
0
 42
0.0000001
 43
0.0000001
 44
0.0000000001
 40
0.0
 40
0.0
 40
0.0
 40
0.0
 40
0.2276836135
 40
0.4662870793
 40
0.5921509842
 40
0.7231765534
 40
1.0
 40
1.0
 40
1.0
 40
1.0
 10
14.5564451155
 20
10.9255319583
 30
0.0
 10
14.5555157159
 20
10.9252228891
 30
0.0
 10
14.5535035433
 20
10.9248832117
 30
0.0
 10
14.5509442609
 20
10.9251931573
 30
0.0
 10
14.5489063939
 20
10.9258325042
 30
0.0
 10
14.546813181
 20
10.9267884712
 30
0.0
 10
14.5453478784
 20
10.9277760475
 30
0.0
 10
14.544406333
 20
10.9285051358
 30
0.0
  0
SPLINE
  5
5F8
100
AcDbEntity
  8
0
100
AcDbSpline
 62
7
  6
CONTINUOUS
 70
0
 71
3
 72
16
 73
12
 74
0
 42
0.0000001
 43
0.0000001
 44
0.0000000001
 40
0.0
 40
0.0
 40
0.0
 40
0.0
 40
0.1148690226
 40
0.2312362438
 40
0.350438574
 40
0.473268282
 40
0.6000229217
 40
0.7305230876
 40
0.7970364323
 40
0.8642571078
 40
1.0
 40
1.0
 40
1.0
 40
1.0
 10
15.9201648425
 20
10.6065747834
 30
0.0
 10
15.9197185053
 20
10.6056703944
 30
0.0
 10
15.918619831
 20
10.60394135
 30
0.0
 10
15.9164440402
 20
10.6017358274
 30
0.0
 10
15.9138090697
 20
10.5999778687
 30
0.0
 10
15.9108039556
 20
10.5987220644
 30
0.0
 10
15.9075267518
 20
10.5980101537
 30
0.0
 10
15.9046735534
 20
10.5978757988
 30
0.0
 10
15.9023578199
 20
10.5980505037
 30
0.0
 10
15.9000199703
 20
10.5984291144
 30
0.0
 10
15.8982975526
 20
10.5989120621
 30
0.0
 10
15.897169959
 20
10.599297967
 30
0.0
  0
SPLINE
  5
5F9
100
AcDbEntity
  8
0
100
AcDbSpline
 62
7
  6
CONTINUOUS
 70
0
 71
3
 72
10
 73
6
 74
0
 42
0.0000001
 43
0.0000001
 44
0.0000000001
 40
0.0
 40
0.0
 40
0.0
 40
0.0
 40
0.5190647707
 40
0.7625711464
 40
1.0
 40
1.0
 40
1.0
 40
1.0
 10
15.762163115
 20
14.2899416579
 30
0.0
 10
15.7626243141
 20
14.2915703591
 30
0.0
 10
15.7629288223
 20
14.2941144673
 30
0.0
 10
15.7623143796
 20
14.2973364749
 30
0.0
 10
15.7616906421
 20
14.2987924674
 30
0.0
 10
15.7613081453
 20
14.299465682
 30
0.0
  0
SPLINE
  5
5FA
100
AcDbEntity
  8
0
100
AcDbSpline
 62
7
  6
CONTINUOUS
 70
0
 71
3
 72
15
 73
11
 74
0
 42
0.0000001
 43
0.0000001
 44
0.0000000001
 40
0.0
 40
0.0
 40
0.0
 40
0.0
 40
0.1107644701
 40
0.2300419184
 40
0.4210001081
 40
0.619235217
 40
0.7182116891
 40
0.8153677655
 40
0.909473587
 40
1.0
 40
1.0
 40
1.0
 40
1.0
 10
16.2358198351
 20
13.6261294817
 30
0.0
 10
16.2355261232
 20
13.6250781731
 30
0.0
 10
16.2351429638
 20
13.6228280816
 30
0.0
 10
16.2351381975
 20
13.6186645277
 30
0.0
 10
16.2360606468
 20
13.6137005642
 30
0.0
 10
16.2378440697
 20
13.609199486
 30
0.0
 10
16.2397751681
 20
13.6058213678
 30
0.0
 10
16.241429446
 20
13.6034812869
 30
0.0
 10
16.2432803496
 20
13.6014035052
 30
0.0
 10
16.2446296536
 20
13.6001778311
 30
0.0
 10
16.2453168202
 20
13.599608897
 30
0.0
  0
SPLINE
  5
5FB
100
AcDbEntity
  8
0
100
AcDbSpline
 62
7
  6
CONTINUOUS
 70
0
 71
3
 72
16
 73
12
 74
0
 42
0.0000001
 43
0.0000001
 44
0.0000000001
 40
0.0
 40
0.0
 40
0.0
 40
0.0
 40
0.1380294871
 40
0.2065890363
 40
0.2744975949
 40
0.4075110733
 40
0.5358260108
 40
0.6587612663
 40
0.7763373438
 40
0.8895176976
 40
1.0
 40
1.0
 40
1.0
 40
1.0
 10
16.8750799677
 20
13.2803314018
 30
0.0
 10
16.8763391324
 20
13.2799809323
 30
0.0
 10
16.8782587738
 20
13.2795639901
 30
0.0
 10
16.8808490663
 20
13.2793165655
 30
0.0
 10
16.88340332
 20
13.2792949895
 30
0.0
 10
16.8865162539
 20
13.2796490701
 30
0.0
 10
16.8900268885
 20
13.2806770445
 30
0.0
 10
16.8931546908
 20
13.28228111
 30
0.0
 10
16.895780465
 20
13.2844022475
 30
0.0
 10
16.897794631
 20
13.2869645657
 30
0.0
 10
16.8986794398
 20
13.2889165174
 30
0.0
 10
16.8989887257
 20
13.2899159337
 30
0.0
  0
SPLINE
  5
5FC
100
AcDbEntity
  8
0
100
AcDbSpline
 62
7
  6
CONTINUOUS
 70
0
 71
3
 72
11
 73
7
 74
0
 42
0.0000001
 43
0.0000001
 44
0.0000000001
 40
0.0
 40
0.0
 40
0.0
 40
0.0
 40
0.2535814383
 40
0.5052793936
 40
0.7543357942
 40
1.0
 40
1.0
 40
1.0
 40
1.0
 10
15.596083959
 20
13.8120633297
 30
0.0
 10
15.5375253419
 20
13.8266129912
 30
0.0
 10
15.4202616524
 20
13.8533192236
 30
0.0
 10
15.2437759071
 20
13.8862813444
 30
0.0
 10
15.0679793901
 20
13.911907949
 30
0.0
 10
14.9508547994
 20
13.9241079006
 30
0.0
 10
14.8925971249
 20
13.9289092339
 30
0.0
  0
SPLINE
  5
5FD
100
AcDbEntity
  8
0
100
AcDbSpline
 62
7
  6
CONTINUOUS
 70
0
 71
3
 72
11
 73
7
 74
0
 42
0.0000001
 43
0.0000001
 44
0.0000000001
 40
0.0
 40
0.0
 40
0.0
 40
0.0
 40
0.2447006572
 40
0.4934243502
 40
0.7454383466
 40
1.0
 40
1.0
 40
1.0
 40
1.0
 10
16.875106124
 20
13.2804303839
 30
0.0
 10
16.8260751744
 20
13.3107417145
 30
0.0
 10
16.7258349275
 20
13.3696691596
 30
0.0
 10
16.5708065244
 20
13.4522462392
 30
0.0
 10
16.410454774
 20
13.5294545339
 30
0.0
 10
16.3009233981
 20
13.576911458
 30
0.0
 10
16.2454387361
 20
13.5996593309
 30
0.0
  0
SPLINE
  5
5FE
100
AcDbEntity
  8
0
100
AcDbSpline
 62
7
  6
CONTINUOUS
 70
0
 71
3
 72
11
 73
7
 74
0
 42
0.0000001
 43
0.0000001
 44
0.0000000001
 40
0.0
 40
0.0
 40
0.0
 40
0.0
 40
0.2367705943
 40
0.4825175649
 40
0.7370250279
 40
1.0
 40
1.0
 40
1.0
 40
1.0
 10
17.757497958
 20
12.4764610151
 30
0.0
 10
17.7315792114
 20
12.5146160104
 30
0.0
 10
17.6759615334
 20
12.5905014106
 30
0.0
 10
17.5837685559
 20
12.7006866791
 30
0.0
 10
17.4816750097
 20
12.8088922862
 30
0.0
 10
17.4084617872
 20
12.8782792854
 30
0.0
 10
17.3703688842
 20
12.9125358663
 30
0.0
  0
SPLINE
  5
5FF
100
AcDbEntity
  8
0
100
AcDbSpline
 62
7
  6
CONTINUOUS
 70
0
 71
3
 72
11
 73
7
 74
0
 42
0.0000001
 43
0.0000001
 44
0.0000000001
 40
0.0
 40
0.0
 40
0.0
 40
0.0
 40
0.2405066668
 40
0.4862047475
 40
0.7388552349
 40
1.0
 40
1.0
 40
1.0
 40
1.0
 10
18.0068232815
 20
11.6155781664
 30
0.0
 10
18.0114000554
 20
11.6506410533
 30
0.0
 10
18.0164668309
 20
11.7221311527
 30
0.0
 10
18.0119896645
 20
11.8308737417
 30
0.0
 10
17.9955852364
 20
11.9415209418
 30
0.0
 10
17.9770687344
 20
12.0148995104
 30
0.0
 10
17.9659634446
 20
12.0516530176
 30
0.0
  0
SPLINE
  5
600
100
AcDbEntity
  8
0
100
AcDbSpline
 62
7
  6
CONTINUOUS
 70
0
 71
3
 72
11
 73
7
 74
0
 42
0.0000001
 43
0.0000001
 44
0.0000000001
 40
0.0
 40
0.0
 40
0.0
 40
0.0
 40
0.2626769387
 40
0.516019928
 40
0.7612958679
 40
1.0
 40
1.0
 40
1.0
 40
1.0
 10
17.5562755755
 20
10.9284547019
 30
0.0
 10
17.5889319312
 20
10.9508580237
 30
0.0
 10
17.6512188698
 20
10.9976805861
 30
0.0
 10
17.7362025001
 20
11.0750891959
 30
0.0
 10
17.8105747177
 20
11.1579631715
 30
0.0
 10
17.8533174521
 20
11.217318531
 30
0.0
 10
17.8726333358
 20
11.2476836488
 30
0.0
  0
SPLINE
  5
601
100
AcDbEntity
  8
0
100
AcDbSpline
 62
7
  6
CONTINUOUS
 70
0
 71
3
 72
11
 73
7
 74
0
 42
0.0000001
 43
0.0000001
 44
0.0000000001
 40
0.0
 40
0.0
 40
0.0
 40
0.0
 40
0.2621953324
 40
0.5165065144
 40
0.7625486931
 40
1.0
 40
1.0
 40
1.0
 40
1.0
 10
16.5265787341
 20
10.5992047989
 30
0.0
 10
16.5789383463
 20
10.603899807
 30
0.0
 10
16.681874117
 20
10.6157224206
 30
0.0
 10
16.8327018818
 20
10.6411947769
 30
0.0
 10
16.977025893
 20
10.6740084825
 30
0.0
 10
17.0701569278
 20
10.701188677
 30
0.0
 10
17.1153862852
 20
10.7160507031
 30
0.0
  0
SPLINE
  5
602
100
AcDbEntity
  8
0
100
AcDbSpline
 62
7
  6
CONTINUOUS
 70
0
 71
3
 72
11
 73
7
 74
0
 42
0.0000001
 43
0.0000001
 44
0.0000000001
 40
0.0
 40
0.0
 40
0.0
 40
0.0
 40
0.2535814383
 40
0.5052793936
 40
0.7543357942
 40
1.0
 40
1.0
 40
1.0
 40
1.0
 10
15.1936391942
 20
10.7160507031
 30
0.0
 10
15.2521978113
 20
10.7015010416
 30
0.0
 10
15.3694615008
 20
10.6747948091
 30
0.0
 10
15.5459472461
 20
10.6418326883
 30
0.0
 10
15.7217437631
 20
10.6162060838
 30
0.0
 10
15.8388683538
 20
10.6040061322
 30
0.0
 10
15.8971260283
 20
10.5992047989
 30
0.0
  0
SPLINE
  5
603
100
AcDbEntity
  8
0
100
AcDbSpline
 62
7
  6
CONTINUOUS
 70
0
 71
3
 72
11
 73
7
 74
0
 42
0.0000001
 43
0.0000001
 44
0.0000000001
 40
0.0
 40
0.0
 40
0.0
 40
0.0
 40
0.2447006572
 40
0.4934243502
 40
0.7454383466
 40
1.0
 40
1.0
 40
1.0
 40
1.0
 10
13.9146170292
 20
11.2476836488
 30
0.0
 10
13.9636479788
 20
11.2173723183
 30
0.0
 10
14.0638882257
 20
11.1584448731
 30
0.0
 10
14.2189166288
 20
11.0758677936
 30
0.0
 10
14.3792683792
 20
10.9986594988
 30
0.0
 10
14.4887997551
 20
10.9512025747
 30
0.0
 10
14.5442844171
 20
10.9284547019
 30
0.0
  0
SPLINE
  5
604
100
AcDbEntity
  8
0
100
AcDbSpline
 62
7
  6
CONTINUOUS
 70
0
 71
3
 72
11
 73
7
 74
0
 42
0.0000001
 43
0.0000001
 44
0.0000000001
 40
0.0
 40
0.0
 40
0.0
 40
0.0
 40
0.2367705943
 40
0.4825175649
 40
0.7370250279
 40
1.0
 40
1.0
 40
1.0
 40
1.0
 10
13.0322251952
 20
12.0516530176
 30
0.0
 10
13.0581439419
 20
12.0134980223
 30
0.0
 10
13.1137616198
 20
11.9376126222
 30
0.0
 10
13.2059545973
 20
11.8274273536
 30
0.0
 10
13.3080481435
 20
11.7192217466
 30
0.0
 10
13.381261366
 20
11.6498347474
 30
0.0
 10
13.419354269
 20
11.6155781664
 30
0.0
  0
SPLINE
  5
605
100
AcDbEntity
  8
0
100
AcDbSpline
 62
7
  6
CONTINUOUS
 70
0
 71
3
 72
11
 73
7
 74
0
 42
0.0000001
 43
0.0000001
 44
0.0000000001
 40
0.0
 40
0.0
 40
0.0
 40
0.0
 40
0.2405066668
 40
0.4862047475
 40
0.7388552349
 40
1.0
 40
1.0
 40
1.0
 40
1.0
 10
12.7828998717
 20
12.9125358663
 30
0.0
 10
12.7783230978
 20
12.8774729794
 30
0.0
 10
12.7732563223
 20
12.80598288
 30
0.0
 10
12.7777334887
 20
12.6972402911
 30
0.0
 10
12.7941379168
 20
12.586593091
 30
0.0
 10
12.8126544189
 20
12.5132145223
 30
0.0
 10
12.8237597086
 20
12.4764610151
 30
0.0
  0
SPLINE
  5
606
100
AcDbEntity
  8
0
100
AcDbSpline
 62
7
  6
CONTINUOUS
 70
0
 71
3
 72
11
 73
7
 74
0
 42
0.0000001
 43
0.0000001
 44
0.0000000001
 40
0.0
 40
0.0
 40
0.0
 40
0.0
 40
0.2626769387
 40
0.516019928
 40
0.7612958679
 40
1.0
 40
1.0
 40
1.0
 40
1.0
 10
13.2334475777
 20
13.5996593309
 30
0.0
 10
13.200791222
 20
13.577256009
 30
0.0
 10
13.1385042834
 20
13.5304334466
 30
0.0
 10
13.0535206531
 20
13.4530248368
 30
0.0
 10
12.9791484355
 20
13.3701508612
 30
0.0
 10
12.9364057011
 20
13.3107955017
 30
0.0
 10
12.9170898174
 20
13.2804303839
 30
0.0
  0
SPLINE
  5
607
100
AcDbEntity
  8
0
100
AcDbSpline
 62
7
  6
CONTINUOUS
 70
0
 71
3
 72
11
 73
7
 74
0
 42
0.0000001
 43
0.0000001
 44
0.0000000001
 40
0.0
 40
0.0
 40
0.0
 40
0.0
 40
0.2621953324
 40
0.5165065144
 40
0.7625486931
 40
1.0
 40
1.0
 40
1.0
 40
1.0
 10
14.2631444191
 20
13.9289092339
 30
0.0
 10
14.2107848069
 20
13.9242142257
 30
0.0
 10
14.1078490362
 20
13.9123916121
 30
0.0
 10
13.9570212714
 20
13.8869192559
 30
0.0
 10
13.8126972602
 20
13.8541055502
 30
0.0
 10
13.7195662254
 20
13.8269253558
 30
0.0
 10
13.674336868
 20
13.8120633297
 30
0.0
  0
SPLINE
  5
608
100
AcDbEntity
  8
0
100
AcDbSpline
 62
7
  6
CONTINUOUS
 70
0
 71
3
 72
15
 73
11
 74
0
 42
0.0000001
 43
0.0000001
 44
0.0000000001
 40
0.0
 40
0.0
 40
0.0
 40
0.0
 40
0.1183138849
 40
0.2474451174
 40
0.3830925524
 40
0.5206954546
 40
0.6554904691
 40
0.7830378119
 40
0.898799096
 40
1.0
 40
1.0
 40
1.0
 40
1.0
 10
17.3691747354
 20
12.9406491017
 30
0.0
 10
17.368889962
 20
12.9395618567
 30
0.0
 10
17.3684109795
 20
12.9372568969
 30
0.0
 10
17.3679460816
 20
12.9336447565
 30
0.0
 10
17.3677167811
 20
12.9298264045
 30
0.0
 10
17.367730912
 20
12.9259475936
 30
0.0
 10
17.3679912808
 20
12.9221544759
 30
0.0
 10
17.3684802041
 20
12.9185930182
 30
0.0
 10
17.3691875352
 20
12.9153927547
 30
0.0
 10
17.3698458466
 20
12.9134347701
 30
0.0
 10
17.3702016504
 20
12.9125416803
 30
0.0
  0
SPLINE
  5
609
100
AcDbEntity
  8
0
100
AcDbSpline
 62
7
  6
CONTINUOUS
 70
0
 71
3
 72
11
 73
7
 74
0
 42
0.0000001
 43
0.0000001
 44
0.0000000001
 40
0.0
 40
0.0
 40
0.0
 40
0.0
 40
0.2813824328
 40
0.5396676118
 40
0.7766295557
 40
1.0
 40
1.0
 40
1.0
 40
1.0
 10
17.7573895986
 20
12.4764005111
 30
0.0
 10
17.758578908
 20
12.4756083426
 30
0.0
 10
17.7609768262
 20
12.4742375448
 30
0.0
 10
17.7648168018
 20
12.4731573772
 30
0.0
 10
17.7685188187
 20
12.4731567149
 30
0.0
 10
17.7707814501
 20
12.4739347837
 30
0.0
 10
17.771771796
 20
12.4744879687
 30
0.0
  0
SPLINE
  5
60A
100
AcDbEntity
  8
0
100
AcDbSpline
 62
7
  6
CONTINUOUS
 70
0
 71
3
 72
14
 73
10
 74
0
 42
0.0000001
 43
0.0000001
 44
0.0000000001
 40
0.0
 40
0.0
 40
0.0
 40
0.0
 40
0.0827391128
 40
0.1722999579
 40
0.2732381782
 40
0.3882491398
 40
0.5186013277
 40
0.6645249792
 40
1.0
 40
1.0
 40
1.0
 40
1.0
 10
17.5183997579
 20
13.4103641585
 30
0.0
 10
17.5181117433
 20
13.4103745717
 30
0.0
 10
17.517505466
 20
13.410299464
 30
0.0
 10
17.5166228739
 20
13.4099180036
 30
0.0
 10
17.5157593295
 20
13.4092843237
 30
0.0
 10
17.5149203001
 20
13.408411498
 30
0.0
 10
17.5141124408
 20
13.4073098121
 30
0.0
 10
17.5130376533
 20
13.4054666969
 30
0.0
 10
17.5123860041
 20
13.4039127682
 30
0.0
 10
17.5119938662
 20
13.4028119784
 30
0.0
  0
SPLINE
  5
60B
100
AcDbEntity
  8
0
100
AcDbSpline
 62
7
  6
CONTINUOUS
 70
0
 71
3
 72
11
 73
7
 74
0
 42
0.0000001
 43
0.0000001
 44
0.0000000001
 40
0.0
 40
0.0
 40
0.0
 40
0.0
 40
0.2335833738
 40
0.4748872123
 40
0.7293825616
 40
1.0
 40
1.0
 40
1.0
 40
1.0
 10
16.3851315477
 20
14.0958364858
 30
0.0
 10
16.3843943962
 20
14.0955314988
 30
0.0
 10
16.3829676703
 20
14.0947210723
 30
0.0
 10
16.3811381981
 20
14.0930000528
 30
0.0
 10
16.3796512262
 20
14.0908243255
 30
0.0
 10
16.3789347647
 20
14.0891679796
 30
0.0
 10
16.3786389659
 20
14.0882923584
 30
0.0
  0
SPLINE
  5
60C
100
AcDbEntity
  8
02___PRT_ALL_AXES
100
AcDbSpline
 62
7
  6
CONTINUOUS
 70
0
 71
3
 72
11
 73
7
 74
0
 42
0.0000001
 43
0.0000001
 44
0.0000000001
 40
0.0
 40
0.0
 40
0.0
 40
0.0
 40
0.2154446184
 40
0.445692912
 40
0.7042271711
 40
1.0
 40
1.0
 40
1.0
 40
1.0
 10
14.5569565628
 20
13.7623274833
 30
0.0
 10
14.5567367105
 20
13.7623203849
 30
0.0
 10
14.556277374
 20
13.7623737937
 30
0.0
 10
14.555606302
 20
13.7626512471
 30
0.0
 10
14.554947772
 20
13.7631160086
 30
0.0
 10
14.5545454886
 20
13.7635173043
 30
0.0
 10
14.5543444603
 20
13.7637426491
 30
0.0
  0
SPLINE
  5
60D
100
AcDbEntity
  8
02___PRT_ALL_AXES
100
AcDbSpline
 62
7
  6
CONTINUOUS
 70
0
 71
3
 72
9
 73
5
 74
0
 42
0.0000001
 43
0.0000001
 44
0.0000000001
 40
0.0
 40
0.0
 40
0.0
 40
0.0
 40
0.4590426849
 40
1.0
 40
1.0
 40
1.0
 40
1.0
 10
14.5543444603
 20
13.7637426491
 30
0.0
 10
14.5539881352
 20
13.7641420756
 30
0.0
 10
14.5533008811
 20
13.7650913212
 30
0.0
 10
14.5527408172
 20
13.7661163257
 30
0.0
 10
14.5524629308
 20
13.7666825985
 30
0.0
  0
SPLINE
  5
60E
100
AcDbEntity
  8
0
100
AcDbSpline
 62
7
  6
CONTINUOUS
 70
0
 71
3
 72
14
 73
10
 74
0
 42
0.0000001
 43
0.0000001
 44
0.0000000001
 40
0.0
 40
0.0
 40
0.0
 40
0.0
 40
0.1128563847
 40
0.2272201445
 40
0.34445119
 40
0.4656229491
 40
0.7221725134
 40
0.8586931455
 40
1.0
 40
1.0
 40
1.0
 40
1.0
 10
16.3395028731
 20
12.1765194202
 30
0.0
 10
16.3416980018
 20
12.1720485558
 30
0.0
 10
16.3468890805
 20
12.1634033371
 30
0.0
 10
16.3568210175
 20
12.1518088322
 30
0.0
 10
16.3687628153
 20
12.1417178957
 30
0.0
 10
16.387432117
 20
12.1302480036
 30
0.0
 10
16.4091460092
 20
12.1226529635
 30
0.0
 10
16.4324515356
 20
12.1188758358
 30
0.0
 10
16.4447278897
 20
12.1182452215
 30
0.0
 10
16.4509641772
 20
12.1182452215
 30
0.0
  0
SPLINE
  5
60F
100
AcDbEntity
  8
0
100
AcDbSpline
 62
7
  6
CONTINUOUS
 70
0
 71
3
 72
20
 73
16
 74
0
 42
0.0000001
 43
0.0000001
 44
0.0000000001
 40
0.0
 40
0.0
 40
0.0
 40
0.0
 40
0.050962225
 40
0.1025501978
 40
0.1553373957
 40
0.2097911242
 40
0.2662629098
 40
0.3249498061
 40
0.3859282783
 40
0.4491370905
 40
0.5144133967
 40
0.5815004171
 40
0.7195846128
 40
0.8602909441
 40
1.0
 40
1.0
 40
1.0
 40
1.0
 10
16.3814462976
 20
12.0910481419
 30
0.0
 10
16.3835526834
 20
12.0867582493
 30
0.0
 10
16.3885005321
 20
12.0784542342
 30
0.0
 10
16.3979009306
 20
12.0672501
 30
0.0
 10
16.4091652039
 20
12.0574179899
 30
0.0
 10
16.4221188303
 20
12.0490827047
 30
0.0
 10
16.4365864514
 20
12.0423638045
 30
0.0
 10
16.4523601815
 20
12.0373274262
 30
0.0
 10
16.4692313772
 20
12.0340537547
 30
0.0
 10
16.4869684725
 20
12.0325648066
 30
0.0
 10
16.505336428
 20
12.0328904399
 30
0.0
 10
16.5305680436
 20
12.0357500002
 30
0.0
 10
16.5621766961
 20
12.0438116369
 30
0.0
 10
16.5981862848
 20
12.0598315226
 30
0.0
 10
16.6202280563
 20
12.074452194
 30
0.0
 10
16.6304644619
 20
12.0826294879
 30
0.0
  0
SPLINE
  5
610
100
AcDbEntity
  8
0
100
AcDbSpline
 62
7
  6
CONTINUOUS
 70
0
 71
3
 72
37
 73
33
 74
0
 42
0.0000001
 43
0.0000001
 44
0.0000000001
 40
0.0
 40
0.0
 40
0.0
 40
0.0
 40
0.0111816165
 40
0.0224181202
 40
0.0452490497
 40
0.0689052447
 40
0.0937126215
 40
0.1199098649
 40
0.1476550096
 40
0.1770218669
 40
0.2080203719
 40
0.2405957437
 40
0.2746494097
 40
0.310036799
 40
0.3465849843
 40
0.4222986391
 40
0.5000001076
 40
0.5777015779
 40
0.6534152381
 40
0.6899634303
 40
0.7253508132
 40
0.7594044392
 40
0.7919798496
 40
0.8229782698
 40
0.8523452006
 40
0.8800902333
 40
0.9062875707
 40
0.9310948422
 40
0.9547511166
 40
0.9775819971
 40
0.9888184936
 40
1.0
 40
1.0
 40
1.0
 40
1.0
 10
15.8380512304
 20
11.6980355206
 30
0.0
 10
15.8364173376
 20
11.692746941
 30
0.0
 10
15.8326843221
 20
11.6822783061
 30
0.0
 10
15.8233763297
 20
11.6618801326
 30
0.0
 10
15.8082301422
 20
11.6374814617
 30
0.0
 10
15.7849945866
 20
11.6107382817
 30
0.0
 10
15.7568448112
 20
11.5866036627
 30
0.0
 10
15.7240934233
 20
11.5652760291
 30
0.0
 10
15.6870540648
 20
11.5469502273
 30
0.0
 10
15.6460910097
 20
11.5317623645
 30
0.0
 10
15.6015857349
 20
11.5198627401
 30
0.0
 10
15.5539626225
 20
11.5113364576
 30
0.0
 10
15.5036699535
 20
11.5062793267
 30
0.0
 10
15.4511837791
 20
11.504717631
 30
0.0
 10
15.3780977883
 20
11.5073711813
 30
0.0
 10
15.2846121336
 20
11.5195978201
 30
0.0
 10
15.1733689039
 20
11.5473069934
 30
0.0
 10
15.0658873814
 20
11.587188955
 30
0.0
 10
14.981802143
 20
11.6298356312
 30
0.0
 10
14.919961341
 20
11.6688781267
 30
0.0
 10
14.8775064809
 20
11.6997783168
 30
0.0
 10
14.8388354836
 20
11.7323279555
 30
0.0
 10
14.8043248398
 20
11.7662347642
 30
0.0
 10
14.7742928523
 20
11.8011689751
 30
0.0
 10
14.7490391123
 20
11.8368185096
 30
0.0
 10
14.7287972461
 20
11.8728464801
 30
0.0
 10
14.7137869662
 20
11.9089326534
 30
0.0
 10
14.7041624243
 20
11.9447412593
 30
0.0
 10
14.7000639454
 20
11.9799306609
 30
0.0
 10
14.7013253927
 20
12.0086205377
 30
0.0
 10
14.7051465493
 20
12.0307139157
 30
0.0
 10
14.7079703915
 20
12.0414634785
 30
0.0
 10
14.7096050568
 20
12.0467517623
 30
0.0
  0
SPLINE
  5
611
100
AcDbEntity
  8
0
100
AcDbSpline
 62
7
  6
CONTINUOUS
 70
0
 71
3
 72
11
 73
7
 74
0
 42
0.0000001
 43
0.0000001
 44
0.0000000001
 40
0.0
 40
0.0
 40
0.0
 40
0.0
 40
0.2566303022
 40
0.5364869613
 40
0.7974179137
 40
1.0
 40
1.0
 40
1.0
 40
1.0
 10
17.9748112487
 20
12.0780742551
 30
0.0
 10
17.9742165694
 20
12.075764077
 30
0.0
 10
17.9728453372
 20
12.0709676355
 30
0.0
 10
17.9705685448
 20
12.063912311
 30
0.0
 10
17.9682277995
 20
12.0574098429
 30
0.0
 10
17.9665881824
 20
12.0534217374
 30
0.0
 10
17.9657957031
 20
12.0517135217
 30
0.0
  0
SPLINE
  5
612
100
AcDbEntity
  8
0
100
AcDbSpline
 62
7
  6
CONTINUOUS
 70
0
 71
3
 72
14
 73
10
 74
0
 42
0.0000001
 43
0.0000001
 44
0.0000000001
 40
0.0
 40
0.0
 40
0.0
 40
0.0
 40
0.1128563847
 40
0.2272201445
 40
0.34445119
 40
0.4656229491
 40
0.7221725134
 40
0.8586931455
 40
1.0
 40
1.0
 40
1.0
 40
1.0
 10
13.8065851396
 20
12.1765194202
 30
0.0
 10
13.8087802683
 20
12.1720485558
 30
0.0
 10
13.813971347
 20
12.1634033371
 30
0.0
 10
13.8239032839
 20
12.1518088322
 30
0.0
 10
13.8358450818
 20
12.1417178957
 30
0.0
 10
13.8545143835
 20
12.1302480036
 30
0.0
 10
13.8762282757
 20
12.1226529635
 30
0.0
 10
13.8995338021
 20
12.1188758358
 30
0.0
 10
13.9118101562
 20
12.1182452215
 30
0.0
 10
13.9180464437
 20
12.1182452215
 30
0.0
  0
SPLINE
  5
613
100
AcDbEntity
  8
0
100
AcDbSpline
 62
7
  6
CONTINUOUS
 70
0
 71
3
 72
20
 73
16
 74
0
 42
0.0000001
 43
0.0000001
 44
0.0000000001
 40
0.0
 40
0.0
 40
0.0
 40
0.0
 40
0.050962225
 40
0.1025501978
 40
0.1553373957
 40
0.2097911242
 40
0.2662629098
 40
0.3249498061
 40
0.3859282783
 40
0.4491370905
 40
0.5144133967
 40
0.5815004171
 40
0.7195846128
 40
0.8602909441
 40
1.0
 40
1.0
 40
1.0
 40
1.0
 10
13.8485285641
 20
12.0910481419
 30
0.0
 10
13.8506349499
 20
12.0867582493
 30
0.0
 10
13.8555827986
 20
12.0784542342
 30
0.0
 10
13.8649831971
 20
12.0672501
 30
0.0
 10
13.8762474704
 20
12.0574179899
 30
0.0
 10
13.8892010968
 20
12.0490827047
 30
0.0
 10
13.9036687179
 20
12.0423638045
 30
0.0
 10
13.919442448
 20
12.0373274262
 30
0.0
 10
13.9363136437
 20
12.0340537547
 30
0.0
 10
13.954050739
 20
12.0325648066
 30
0.0
 10
13.9724186945
 20
12.0328904399
 30
0.0
 10
13.9976503101
 20
12.0357500002
 30
0.0
 10
14.0292589626
 20
12.0438116369
 30
0.0
 10
14.0652685513
 20
12.0598315226
 30
0.0
 10
14.0873103228
 20
12.074452194
 30
0.0
 10
14.0975467284
 20
12.0826294879
 30
0.0
  0
SPLINE
  5
614
100
AcDbEntity
  8
02___PRT_ALL_AXES
100
AcDbSpline
 62
7
  6
CONTINUOUS
 70
0
 71
3
 72
15
 73
11
 74
0
 42
0.0000001
 43
0.0000001
 44
0.0000000001
 40
0.0
 40
0.0
 40
0.0
 40
0.0
 40
0.1026321436
 40
0.2200704896
 40
0.3480917163
 40
0.4823557047
 40
0.6186207682
 40
0.7528247032
 40
0.8811953186
 40
1.0
 40
1.0
 40
1.0
 40
1.0
 10
14.5304762057
 20
13.8114868336
 30
0.0
 10
14.5300426925
 20
13.8123702406
 30
0.0
 10
14.5292409263
 20
13.8143274744
 30
0.0
 10
14.5282632205
 20
13.81752214
 30
0.0
 10
14.5274834423
 20
13.8210825222
 30
0.0
 10
14.5269592028
 20
13.8248718218
 30
0.0
 10
14.5267479064
 20
13.8287513745
 30
0.0
 10
14.5268865538
 20
13.8325794854
 30
0.0
 10
14.5274112919
 20
13.8362054117
 30
0.0
 10
14.5280330181
 20
13.8385015657
 30
0.0
 10
14.5284177655
 20
13.8395737289
 30
0.0
  0
SPLINE
  5
615
100
AcDbEntity
  8
0
100
AcDbSpline
 62
7
  6
CONTINUOUS
 70
0
 71
3
 72
11
 73
7
 74
0
 42
0.0000001
 43
0.0000001
 44
0.0000000001
 40
0.0
 40
0.0
 40
0.0
 40
0.0
 40
0.313377238
 40
0.5806777914
 40
0.8040340959
 40
1.0
 40
1.0
 40
1.0
 40
1.0
 10
18.006661754
 20
11.6155723524
 30
0.0
 10
18.0070442358
 20
11.6149214097
 30
0.0
 10
18.0078084375
 20
11.6137448133
 30
0.0
 10
18.0091353483
 20
11.6123120678
 30
0.0
 10
18.0105631642
 20
11.6114274952
 30
0.0
 10
18.0115865779
 20
11.6112294754
 30
0.0
 10
18.0120584144
 20
11.6112459971
 30
0.0
  0
SPLINE
  5
616
100
AcDbEntity
  8
02___PRT_ALL_AXES
100
AcDbSpline
 62
7
  6
CONTINUOUS
 70
0
 71
3
 72
9
 73
5
 74
0
 42
0.0000001
 43
0.0000001
 44
0.0000000001
 40
0.0
 40
0.0
 40
0.0
 40
0.0
 40
0.2443761602
 40
1.0
 40
1.0
 40
1.0
 40
1.0
 10
13.1661298818
 20
12.3965911461
 30
0.0
 10
13.1715195841
 20
12.3835552283
 30
0.0
 10
13.1944619162
 20
12.3305807541
 30
0.0
 10
13.2208481367
 20
12.2791145965
 30
0.0
 10
13.2423903485
 20
12.241188654
 30
0.0
  0
SPLINE
  5
617
100
AcDbEntity
  8
02___PRT_ALL_AXES
100
AcDbSpline
 62
7
  6
CONTINUOUS
 70
0
 71
3
 72
11
 73
7
 74
0
 42
0.0000001
 43
0.0000001
 44
0.0000000001
 40
0.0
 40
0.0
 40
0.0
 40
0.0
 40
0.2600799767
 40
0.5124348096
 40
0.7582358314
 40
1.0
 40
1.0
 40
1.0
 40
1.0
 10
15.0891299093
 20
13.1283009806
 30
0.0
 10
15.0930448368
 20
13.1265277104
 30
0.0
 10
15.1005042108
 20
13.1224321466
 30
0.0
 10
15.1104057508
 20
13.1146586979
 30
0.0
 10
15.1186017532
 20
13.1055009273
 30
0.0
 10
15.1228331416
 20
13.0985823051
 30
0.0
 10
15.124593524
 20
13.0949959153
 30
0.0
  0
SPLINE
  5
618
100
AcDbEntity
  8
02___PRT_ALL_AXES
100
AcDbSpline
 62
7
  6
CONTINUOUS
 70
0
 71
3
 72
15
 73
11
 74
0
 42
0.0000001
 43
0.0000001
 44
0.0000000001
 40
0.0
 40
0.0
 40
0.0
 40
0.0
 40
0.1109662013
 40
0.2279804376
 40
0.3501202992
 40
0.4764149431
 40
0.6057899637
 40
0.7370735984
 40
0.869011218
 40
1.0
 40
1.0
 40
1.0
 40
1.0
 10
14.9159488404
 20
13.0432812867
 30
0.0
 10
14.9173191362
 20
13.0477155656
 30
0.0
 10
14.9208278063
 20
13.0566210538
 30
0.0
 10
14.9279362815
 20
13.0694643809
 30
0.0
 10
14.9369153263
 20
13.0818772803
 30
0.0
 10
14.9475680798
 20
13.0935908666
 30
0.0
 10
14.9597018444
 20
13.1043465006
 30
0.0
 10
14.9730869832
 20
13.1139111085
 30
0.0
 10
14.9874663989
 20
13.1220380108
 30
0.0
 10
14.9975834828
 20
13.1264135583
 30
0.0
 10
15.0027267293
 20
13.1283009806
 30
0.0
  0
ENDSEC
  0
SECTION
  2
OBJECTS
  0
DICTIONARY
  5
C
100
AcDbDictionary
280
0
281
1
  3
ACAD_GROUP
350
D
  3
ACAD_MLINESTYLE
350
17
  3
ACAD_LAYOUT
350
1A
  3
ACAD_PLOTSETTINGS
350
19
  3
ACAD_PLOTSTYLENAME
350
E
  0
DICTIONARY
  5
D
102
{ACAD_REACTORS
330
C
102
}
100
AcDbDictionary
280
0
281
1
  0
ACDBDICTIONARYWDFLT
  5
E
102
{ACAD_REACTORS
330
C
102
}
100
AcDbDictionary
281
1
  3
Normal
350
F
100
AcDbDictionaryWithDefault
340
F
  0
DICTIONARY
  5
17
102
{ACAD_REACTORS
330
C
102
}
100
AcDbDictionary
280
0
281
1
  3
Standard
350
18
  0
DICTIONARY
  5
19
102
{ACAD_REACTORS
330
C
102
}
100
AcDbDictionary
281
1
  0
DICTIONARY
  5
1A
102
{ACAD_REACTORS
330
C
102
}
100
AcDbDictionary
281
1
  3
Model
350
619
  3
Layout1
350
61A
  0
ACDBPLACEHOLDER
  5
F
102
{ACAD_REACTORS
330
E
102
}
  0
MLINESTYLE
  5
18
102
{ACAD_REACTORS
330
17
102
}
100
AcDbMlineStyle
  2
STANDARD
 70
0
  3

 62
256
 51
90.0
 52
90.0
 71
2
 49
0.5
 62
256
  6
BYLAYER
 49
-0.5
 62
256
  6
BYLAYER
  0
LAYOUT
  5
619
102
{ACAD_REACTORS
330
1A
102
}
100
AcDbPlotSettings
  1

  2
none_device
  4
ANSI_C_(22.00_x_17.00_Inches)
  6

 40
0.0
 41
0.0
 42
0.0
 43
0.0
 44
558.8
 45
431.8
 46
0.0
 47
0.0
 48
0.0
 49
0.0
140
0.0
141
0.0
142
1.0
143
1.0
 70
1024
 72
0
 73
0
 74
0
  7

 75
0
147
1.0
148
0.0
149
0.0
100
AcDbLayout
  1
Model
 70
0
 71
0
 10
0.0
 20
0.0
 11
22.0
 21
17.0
 12
0.0
 22
0.0
 32
0.0
 14
0.0
 24
0.0
 34
0.0
 15
0.0
 25
0.0
 35
0.0
146
0.0
 13
0.0
 23
0.0
 33
0.0
 16
1.0
 26
0.0
 36
0.0
 17
0.0
 27
1.0
 37
0.0
 76
0
330
218
345
0
346
0
  0
LAYOUT
  5
61A
102
{ACAD_REACTORS
330
1A
102
}
100
AcDbPlotSettings
  1

  2
none_device
  4
ANSI_C_(22.00_x_17.00_Inches)
  6

 40
0.0
 41
0.0
 42
0.0
 43
0.0
 44
558.8
 45
431.8
 46
0.0
 47
0.0
 48
0.0
 49
0.0
140
0.0
141
0.0
142
1.0
143
1.0
 70
0
 72
0
 73
0
 74
0
  7

 75
0
147
1.0
148
0.0
149
0.0
100
AcDbLayout
  1
Layout1
 70
0
 71
1
 10
0.0
 20
0.0
 11
22.0
 21
17.0
 12
0.0
 22
0.0
 32
0.0
 14
0.0
 24
0.0
 34
0.0
 15
0.0
 25
0.0
 35
0.0
146
0.0
 13
0.0
 23
0.0
 33
0.0
 16
1.0
 26
0.0
 36
0.0
 17
0.0
 27
1.0
 37
0.0
 76
0
330
219
345
0
346
0
  0
ENDSEC
  0
EOF