999
DXF file: _cgs_temp_output.dxf
999
Pro/ENGINEER 2016360 by Parametric Technology Corporation
  0
SECTION
  2
HEADER
  9
$ACADVER
  1
AC1021
  9
$DWGCODEPAGE
  3
ANSI_1252
  9
$EXTMAX
 10
22.0
 20
17.0
 30
0.0
  9
$EXTMIN
 10
0.0
 20
0.0
 30
0.0
  9
$LIMMIN
 10
0.0
 20
0.0
  9
$LIMMAX
 10
22.0
 20
17.0
  9
$VIEWCTR
 10
11.0
 20
8.5
  9
$VIEWSIZE
 40
17.0
  9
$CLAYER
  8
0
  9
$LTSCALE
 40
1.21
  9
$CELTYPE
  6
BYLAYER
  9
$DIMSCALE
 40
1.0
  9
$DIMASZ
 40
0.1875
  9
$DIMEXO
 40
0.0625
  9
$DIMDLI
 40
0.836
  9
$DIMEXE
 40
0.125
  9
$DIMCEN
 40
0.198
  9
$DIMLFAC
 40
1.0
  9
$DIMBLK
  1
_CLOSED
  9
$DIMALT
 70
0
  9
$DIMALTF
 40
25.4
  9
$DIMTXT
 40
0.15625
  9
$DIMTOL
 70
0
  9
$DIMLIM
 70
0
  9
$DIMTFAC
 40
1.0
  9
$DIMGAP
 40
0.09
  9
$DIMDSEP
 70
46
  9
$AUNITS
 70
0
  9
$PDMODE
 70
3
  9
$PDSIZE
 40
0.3125
  9
$HANDSEED
  5
240
  9
$TILEMODE
 70
1
  9
$MEASUREMENT
 70
0
  9
$INSUNITS
 70
1
  0
ENDSEC
  0
SECTION
  2
CLASSES
  0
CLASS
  1
ACDBDICTIONARYWDFLT
  2
AcDbDictionaryWithDefault
  3
AutoCAD 2000
 90
0
 91
1
280
0
281
0
  0
CLASS
  1
ACDBPLACEHOLDER
  2
AcDbPlaceHolder
  3
AutoCAD 2000
 90
0
 91
1
280
0
281
0
  0
CLASS
  1
LAYOUT
  2
AcDbLayout
  3
AutoCAD 2000
 90
0
 91
0
280
0
281
0
  0
ENDSEC
  0
SECTION
  2
TABLES
  0
TABLE
  2
VPORT
  5
8
100
AcDbSymbolTable
 70
2
  0
VPORT
  5
1F4
100
AcDbSymbolTableRecord
100
AcDbViewportTableRecord
  2
*ACTIVE
 70
0
 10
0.0
 20
0.0
 11
1.0
 21
1.0
 12
11.0
 22
8.5
 13
0.0
 23
0.0
 14
1.0
 24
1.0
 15
0.0
 25
0.0
 16
0.0
 26
0.0
 36
1.0
 17
0.0
 27
0.0
 37
0.0
 40
17.0
 41
1.2941176471
 42
50.0
 43
0.0
 44
0.0
 50
0.0
 51
0.0
 71
0
 72
100
 73
1
 74
1
 75
0
 76
0
 77
0
 78
0
  0
ENDTAB
  0
TABLE
  2
LTYPE
  5
5
100
AcDbSymbolTable
 70
6
  0
LTYPE
  5
14
100
AcDbSymbolTableRecord
100
AcDbLinetypeTableRecord
  2
BYBLOCK
 70
0
  3

 72
65
 73
0
 40
0.0
  0
LTYPE
  5
15
100
AcDbSymbolTableRecord
100
AcDbLinetypeTableRecord
  2
BYLAYER
 70
0
  3

 72
65
 73
0
 40
0.0
  0
LTYPE
  5
16
100
AcDbSymbolTableRecord
100
AcDbLinetypeTableRecord
  2
CONTINUOUS
 70
64
  3
Solid line
 72
65
 73
0
 40
0.0
  0
LTYPE
  5
1F5
100
AcDbSymbolTableRecord
100
AcDbLinetypeTableRecord
  2
CENTER
 70
64
  3
____ _ ____ _ ____ _ ____ _ ____ _ ____ _ ____
 72
65
 73
4
 40
0.6
 49
0.375
 74
0
 49
-0.075
 74
0
 49
0.075
 74
0
 49
-0.075
 74
0
  0
LTYPE
  5
1F6
100
AcDbSymbolTableRecord
100
AcDbLinetypeTableRecord
  2
HIDDEN
 70
64
  3
- - - - - - - - - - - - - - - - - - - -
 72
65
 73
2
 40
0.2
 49
0.1
 74
0
 49
-0.1
 74
0
  0
LTYPE
  5
1F7
100
AcDbSymbolTableRecord
100
AcDbLinetypeTableRecord
  2
PHANTOM
 70
64
  3
_____ _ _ _____ _ _ _____ _ _ _____
 72
65
 73
6
 40
0.8
 49
0.45
 74
0
 49
-0.05
 74
0
 49
0.1
 74
0
 49
-0.05
 74
0
 49
0.1
 74
0
 49
-0.05
 74
0
  0
LTYPE
  5
1F8
100
AcDbSymbolTableRecord
100
AcDbLinetypeTableRecord
  2
DOT
 70
64
  3
. . . . . . . . . . . . . . . . . . . .
 72
65
 73
2
 40
0.2
 49
0.1
 74
0
 49
-0.1
 74
0
  0
LTYPE
  5
1F9
100
AcDbSymbolTableRecord
100
AcDbLinetypeTableRecord
  2
DASHED
 70
64
  3
- - - - - - - - - - - - - - - - - - - -
 72
65
 73
2
 40
0.2
 49
0.1
 74
0
 49
-0.1
 74
0
  0
ENDTAB
  0
TABLE
  2
LAYER
  5
2
100
AcDbSymbolTable
 70
36
  0
LAYER
  5
10
100
AcDbSymbolTableRecord
100
AcDbLayerTableRecord
  2
0
 70
0
 62
7
  6
CONTINUOUS
370
-3
390
F
  0
LAYER
  5
1FA
100
AcDbSymbolTableRecord
100
AcDbLayerTableRecord
  2
DEFAULT_1
 70
0
 62
7
  6
CENTER
370
-3
390
F
  0
LAYER
  5
1FB
100
AcDbSymbolTableRecord
100
AcDbLayerTableRecord
  2
DEFAULT_2
 70
0
 62
8
  6
HIDDEN
370
-3
390
F
  0
LAYER
  5
1FC
100
AcDbSymbolTableRecord
100
AcDbLayerTableRecord
  2
DEFAULT_3
 70
0
 62
7
  6
PHANTOM
370
-3
390
F
  0
LAYER
  5
1FD
100
AcDbSymbolTableRecord
100
AcDbLayerTableRecord
  2
01_ALL_DTM_PLN
 70
0
 62
7
  6
CONTINUOUS
370
-3
390
F
  0
LAYER
  5
1FE
100
AcDbSymbolTableRecord
100
AcDbLayerTableRecord
  2
01__ASM_ALL_DTM_PLN
 70
0
 62
7
  6
CONTINUOUS
370
-3
390
F
  0
LAYER
  5
1FF
100
AcDbSymbolTableRecord
100
AcDbLayerTableRecord
  2
01__ASM_DEF_DTM_PLN
 70
0
 62
7
  6
CONTINUOUS
370
-3
390
F
  0
LAYER
  5
200
100
AcDbSymbolTableRecord
100
AcDbLayerTableRecord
  2
01___PRT_ALL_DTM_PLN
 70
0
 62
7
  6
CONTINUOUS
370
-3
390
F
  0
LAYER
  5
201
100
AcDbSymbolTableRecord
100
AcDbLayerTableRecord
  2
01___PRT_DEF_DTM_PLN
 70
0
 62
7
  6
CONTINUOUS
370
-3
390
F
  0
LAYER
  5
202
100
AcDbSymbolTableRecord
100
AcDbLayerTableRecord
  2
02_ALL_AXES
 70
0
 62
7
  6
CONTINUOUS
370
-3
390
F
  0
LAYER
  5
203
100
AcDbSymbolTableRecord
100
AcDbLayerTableRecord
  2
02__ASM_ALL_AXES
 70
0
 62
7
  6
CONTINUOUS
370
-3
390
F
  0
LAYER
  5
204
100
AcDbSymbolTableRecord
100
AcDbLayerTableRecord
  2
02___PRT_ALL_AXES
 70
0
 62
7
  6
CONTINUOUS
370
-3
390
F
  0
LAYER
  5
205
100
AcDbSymbolTableRecord
100
AcDbLayerTableRecord
  2
03_ALL_CURVES
 70
0
 62
7
  6
CONTINUOUS
370
-3
390
F
  0
LAYER
  5
206
100
AcDbSymbolTableRecord
100
AcDbLayerTableRecord
  2
03__ASM_ALL_CURVES
 70
0
 62
7
  6
CONTINUOUS
370
-3
390
F
  0
LAYER
  5
207
100
AcDbSymbolTableRecord
100
AcDbLayerTableRecord
  2
03___PRT_ALL_CURVES
 70
0
 62
7
  6
CONTINUOUS
370
-3
390
F
  0
LAYER
  5
208
100
AcDbSymbolTableRecord
100
AcDbLayerTableRecord
  2
04_ALL_DTM_PNT
 70
0
 62
7
  6
CONTINUOUS
370
-3
390
F
  0
LAYER
  5
209
100
AcDbSymbolTableRecord
100
AcDbLayerTableRecord
  2
04__ASM_ALL_DTM_PNT
 70
0
 62
7
  6
CONTINUOUS
370
-3
390
F
  0
LAYER
  5
20A
100
AcDbSymbolTableRecord
100
AcDbLayerTableRecord
  2
04___PRT_ALL_DTM_PNT
 70
0
 62
7
  6
CONTINUOUS
370
-3
390
F
  0
LAYER
  5
20B
100
AcDbSymbolTableRecord
100
AcDbLayerTableRecord
  2
05_ALL_DTM_CSYS
 70
0
 62
7
  6
CONTINUOUS
370
-3
390
F
  0
LAYER
  5
20C
100
AcDbSymbolTableRecord
100
AcDbLayerTableRecord
  2
05__ASM_ALL_DTM_CSYS
 70
0
 62
7
  6
CONTINUOUS
370
-3
390
F
  0
LAYER
  5
20D
100
AcDbSymbolTableRecord
100
AcDbLayerTableRecord
  2
05__ASM_DEF_DTM_CSYS
 70
0
 62
7
  6
CONTINUOUS
370
-3
390
F
  0
LAYER
  5
20E
100
AcDbSymbolTableRecord
100
AcDbLayerTableRecord
  2
05___PRT_ALL_DTM_CSYS
 70
0
 62
7
  6
CONTINUOUS
370
-3
390
F
  0
LAYER
  5
20F
100
AcDbSymbolTableRecord
100
AcDbLayerTableRecord
  2
05___PRT_DEF_DTM_CSYS
 70
0
 62
7
  6
CONTINUOUS
370
-3
390
F
  0
LAYER
  5
210
100
AcDbSymbolTableRecord
100
AcDbLayerTableRecord
  2
06_ALL_SURFS
 70
0
 62
7
  6
CONTINUOUS
370
-3
390
F
  0
LAYER
  5
211
100
AcDbSymbolTableRecord
100
AcDbLayerTableRecord
  2
06__ASM_ALL_SURFS
 70
0
 62
7
  6
CONTINUOUS
370
-3
390
F
  0
LAYER
  5
212
100
AcDbSymbolTableRecord
100
AcDbLayerTableRecord
  2
06___PRT_ALL_SURFS
 70
0
 62
7
  6
CONTINUOUS
370
-3
390
F
  0
LAYER
  5
213
100
AcDbSymbolTableRecord
100
AcDbLayerTableRecord
  2
07__ASM_ALL_SKELETONS
 70
0
 62
7
  6
CONTINUOUS
370
-3
390
F
  0
LAYER
  5
214
100
AcDbSymbolTableRecord
100
AcDbLayerTableRecord
  2
RING
 70
0
 62
7
  6
CONTINUOUS
370
-3
390
F
  0
LAYER
  5
215
100
AcDbSymbolTableRecord
100
AcDbLayerTableRecord
  2
SHELL
 70
0
 62
7
  6
CONTINUOUS
370
-3
390
F
  0
ENDTAB
  0
TABLE
  2
STYLE
  5
3
100
AcDbSymbolTable
 70
1
  0
STYLE
  5
11
100
AcDbSymbolTableRecord
100
AcDbTextStyleTableRecord
  2
STANDARD
 70
0
 40
0.0
 41
0.8
 50
0.0
 71
0
 42
0.2
  3
txt
  4

  0
STYLE
  5
216
100
AcDbSymbolTableRecord
100
AcDbTextStyleTableRecord
  2
TEXTSTYLE_1
 70
0
 40
0.0
 41
0.8
 50
0.0
 71
0
 42
0.2
  3
gdt
  4

  0
ENDTAB
  0
TABLE
  2
VIEW
  5
6
100
AcDbSymbolTable
 70
0
  0
ENDTAB
  0
TABLE
  2
UCS
  5
7
100
AcDbSymbolTable
 70
0
  0
ENDTAB
  0
TABLE
  2
APPID
  5
9
100
AcDbSymbolTable
 70
1
  0
APPID
  5
217
100
AcDbSymbolTableRecord
100
AcDbRegAppTableRecord
  2
ACAD
 70
0
  0
ENDTAB
  0
TABLE
  2
BLOCK_RECORD
  5
1
100
AcDbSymbolTable
 70
0
  0
BLOCK_RECORD
  5
218
100
AcDbSymbolTableRecord
100
AcDbBlockTableRecord
  2
*Model_Space
  0
BLOCK_RECORD
  5
219
100
AcDbSymbolTableRecord
100
AcDbBlockTableRecord
  2
*Paper_Space
  0
ENDTAB
  0
TABLE
  2
DIMSTYLE
  5
A
100
AcDbSymbolTable
 70
1
100
AcDbDimStyleTable
 71
0
  0
DIMSTYLE
105
21A
100
AcDbSymbolTableRecord
100
AcDbDimStyleTableRecord
  2
STANDARD
 70
0
  3

  4

 40
1.0
 41
0.1875
 42
0.0625
 43
0.38
 44
0.125
 45
0.0
 46
0.0
 47
0.0001
 48
0.0001
140
0.15625
141
0.09
142
0.0
143
25.4
144
1.0
145
0.0
146
1.0
147
0.09
 71
0.0
 72
0.0
 73
1
 74
1
 75
0
 76
0
 77
0
 78
4
 79
1
170
0
171
3
172
0
173
0
174
0
175
0
176
0
177
0
178
0
270
2
179
4
271
4
272
4
273
2
274
2
275
0
280
0
281
0
282
0
283
1
284
4
285
0
286
0
287
3
288
0
340
11
278
46
  0
ENDTAB
  0
ENDSEC
  0
SECTION
  2
BLOCKS
  0
BLOCK
  5
20
100
AcDbEntity
  8
0
100
AcDbBlockBegin
  2
*Model_Space
 70
0
 10
0.0
 20
0.0
 30
0.0
  3
*Model_Space
  1

  0
ENDBLK
  5
21
100
AcDbEntity
  8
0
100
AcDbBlockEnd
  0
BLOCK
  5
1C
100
AcDbEntity
  8
0
100
AcDbBlockBegin
  2
*Paper_Space
 70
0
 10
0.0
 20
0.0
 30
0.0
  3
*Paper_Space
  1

  0
ENDBLK
  5
1D
100
AcDbEntity
  8
0
100
AcDbBlockEnd
  0
ENDSEC
  0
SECTION
  2
ENTITIES
  0
MTEXT
  5
21B
100
AcDbEntity
  8
0
100
AcDbMText
 62
7
  6
CONTINUOUS
  7
STANDARD
 71
1
 72
1
 10
15.9560215477
 20
0.9479130325
 30
0.0
 11
1.0
 21
0.0
 31
0.0
 44
0.9
  1
SCALE: 1:1.000
 40
0.3
 41
3.36
  0
LINE
  5
21C
100
AcDbEntity
  8
0
100
AcDbLine
 62
7
  6
CONTINUOUS
 10
0.0
 20
0.0
 11
0.0
 21
17.0
  0
LINE
  5
21D
100
AcDbEntity
  8
0
100
AcDbLine
 62
7
  6
CONTINUOUS
 10
0.0
 20
0.0
 11
22.0
 21
0.0
  0
LINE
  5
21E
100
AcDbEntity
  8
0
100
AcDbLine
 62
7
  6
CONTINUOUS
 10
0.0
 20
17.0
 11
22.0
 21
17.0
  0
LINE
  5
21F
100
AcDbEntity
  8
0
100
AcDbLine
 62
7
  6
CONTINUOUS
 10
22.0
 20
0.0
 11
22.0
 21
17.0
  0
LINE
  5
220
100
AcDbEntity
  8
RING
100
AcDbLine
 62
7
  6
CONTINUOUS
 10
3.5108720839
 20
12.6500477814
 11
3.5108720839
 21
12.5500477814
  0
LINE
  5
221
100
AcDbEntity
  8
RING
100
AcDbLine
 62
7
  6
CONTINUOUS
 10
8.6308720839
 20
12.5500477814
 11
3.5108720839
 21
12.5500477814
  0
LINE
  5
222
100
AcDbEntity
  8
RING
100
AcDbLine
 62
7
  6
CONTINUOUS
 10
8.6308720839
 20
12.6500477814
 11
3.5108720839
 21
12.6500477814
  0
LINE
  5
223
100
AcDbEntity
  8
RING
100
AcDbLine
 62
7
  6
CONTINUOUS
 10
8.6308720839
 20
12.6500477814
 11
8.6308720839
 21
12.5500477814
  0
LINE
  5
224
100
AcDbEntity
  8
RING
100
AcDbLine
 62
7
  6
CONTINUOUS
 10
15.6103552569
 20
2.9006247044
 11
15.5103552569
 21
2.9006247044
  0
LINE
  5
225
100
AcDbEntity
  8
RING
100
AcDbLine
 62
7
  6
CONTINUOUS
 10
15.5103552569
 20
2.9006247044
 11
15.5103552569
 21
8.0206247044
  0
LINE
  5
226
100
AcDbEntity
  8
RING
100
AcDbLine
 62
7
  6
CONTINUOUS
 10
15.6103552569
 20
2.9006247044
 11
15.6103552569
 21
8.0206247044
  0
LINE
  5
227
100
AcDbEntity
  8
RING
100
AcDbLine
 62
7
  6
CONTINUOUS
 10
15.6103552569
 20
8.0206247044
 11
15.5103552569
 21
8.0206247044
  0
LINE
  5
228
100
AcDbEntity
  8
RING
100
AcDbLine
 62
7
  6
CONTINUOUS
 10
13.0373384234
 20
13.3058046094
 11
13.013131791
 21
13.2274719184
  0
LINE
  5
229
100
AcDbEntity
  8
RING
100
AcDbLine
 62
7
  6
CONTINUOUS
 10
17.9290931459
 20
11.7941380674
 11
17.9048865136
 21
11.7158053764
  0
CIRCLE
  5
22A
100
AcDbEntity
  8
RING
100
AcDbCircle
 62
7
  6
CONTINUOUS
 10
6.1303672762
 20
5.5201198968
 40
2.56
  0
CIRCLE
  5
22B
100
AcDbEntity
  8
RING
100
AcDbCircle
 62
7
  6
CONTINUOUS
 10
6.1303672762
 20
5.5201198968
 40
2.5395
  0
ARC
  5
22C
100
AcDbEntity
  8
RING
100
AcDbCircle
 62
7
  6
CONTINUOUS
 10
17.0951507651
 20
11.965482675
 40
0.8473736176
100
AcDbArc
 50
348.3987445313
 51
349.4669005233
  0
ARC
  5
22D
100
AcDbEntity
  8
RING
100
AcDbCircle
 62
7
  6
CONTINUOUS
 10
13.8181195186
 20
12.97862592
 40
0.8425708888
100
AcDbArc
 50
157.2593250872
 51
162.8220427591
  0
ARC
  5
22E
100
AcDbEntity
  8
RING
100
AcDbCircle
 62
7
  6
CONTINUOUS
 10
17.1012142237
 20
11.9641497458
 40
0.8411659835
100
AcDbArc
 50
342.8282241955
 51
348.4046256072
  0
ARC
  5
22F
100
AcDbEntity
  8
RING
100
AcDbCircle
 62
7
  6
CONTINUOUS
 10
13.8606762015
 20
13.0519765646
 40
0.8410975272
100
AcDbArc
 50
168.4438301632
 51
169.4665954938
  0
ARC
  5
230
100
AcDbEntity
  8
RING
100
AcDbCircle
 62
7
  6
CONTINUOUS
 10
13.8569945141
 20
13.0527335347
 40
0.8373388293
100
AcDbArc
 50
165.8430335538
 51
168.4441092349
  0
ARC
  5
231
100
AcDbEntity
  8
RING
100
AcDbCircle
 62
7
  6
CONTINUOUS
 10
17.1102534739
 20
12.0473380528
 40
0.8365941246
100
AcDbArc
 50
337.2146357489
 51
340.1999858021
  0
SPLINE
  5
232
100
AcDbEntity
  8
RING
100
AcDbSpline
 62
7
  6
CONTINUOUS
 70
0
 71
3
 72
15
 73
11
 74
0
 42
0.0000001
 43
0.0000001
 44
0.0000000001
 40
0.0
 40
0.0
 40
0.0
 40
0.0
 40
0.1369731129
 40
0.2698673615
 40
0.3988813405
 40
0.5243222711
 40
0.646626405
 40
0.7662955617
 40
0.8838865238
 40
1.0
 40
1.0
 40
1.0
 40
1.0
 10
13.1441813904
 20
12.5499713384
 30
0.0
 10
13.1305756531
 20
12.5776969158
 30
0.0
 10
13.1054836578
 20
12.6331876175
 30
0.0
 10
13.0740493073
 20
12.7175284205
 30
0.0
 10
13.0495121826
 20
12.801433461
 30
0.0
 10
13.0319742653
 20
12.8846429314
 30
0.0
 10
13.0214750735
 20
12.9669129203
 30
0.0
 10
13.0180642502
 20
13.0480170587
 30
0.0
 10
13.0217491929
 20
13.1277100843
 30
0.0
 10
13.0289663098
 20
13.1799970419
 30
0.0
 10
13.0337524345
 20
13.2057365525
 30
0.0
  0
SPLINE
  5
233
100
AcDbEntity
  8
RING
100
AcDbSpline
 62
7
  6
CONTINUOUS
 70
0
 71
3
 72
50
 73
46
 74
0
 42
0.0000001
 43
0.0000001
 44
0.0000000001
 40
0.0
 40
0.0
 40
0.0
 40
0.0
 40
0.0265242034
 40
0.0543666856
 40
0.0687839589
 40
0.0835284161
 40
0.1139815663
 40
0.1296825211
 40
0.1456859328
 40
0.1785525725
 40
0.2124841059
 40
0.2473619172
 40
0.2830504314
 40
0.3194025043
 40
0.3562607986
 40
0.3934610221
 40
0.4308340883
 40
0.4682085018
 40
0.5054128303
 40
0.5422778468
 40
0.5786392635
 40
0.6143394725
 40
0.649231299
 40
0.6831789983
 40
0.7160632018
 40
0.7320758454
 40
0.7477865338
 40
0.7782612229
 40
0.793016901
 40
0.8074442012
 40
0.8353012063
 40
0.8487408644
 40
0.8618585244
 40
0.8746619571
 40
0.8871623495
 40
0.8993733933
 40
0.9113115302
 40
0.9229968793
 40
0.9344525789
 40
0.9457044136
 40
0.9567812244
 40
0.9677146904
 40
0.978538443
 40
0.9892879078
 40
1.0
 40
1.0
 40
1.0
 40
1.0
 10
17.8411319293
 20
12.5499713384
 30
0.0
 10
17.8190845443
 20
12.5948991854
 30
0.0
 10
17.7692115049
 20
12.684742266
 30
0.0
 10
17.6962686348
 20
12.7922749176
 30
0.0
 10
17.6306105312
 20
12.8774946632
 30
0.0
 10
17.558532117
 20
12.9638784302
 30
0.0
 10
17.4799813221
 20
13.0478987528
 30
0.0
 10
17.3956348987
 20
13.1294069925
 30
0.0
 10
17.3052726187
 20
13.2111556021
 30
0.0
 10
17.1844373383
 20
13.3103537689
 30
0.0
 10
17.0291462727
 20
13.4231692945
 30
0.0
 10
16.863333523
 20
13.5300316177
 30
0.0
 10
16.6881361684
 20
13.630225829
 30
0.0
 10
16.5047394668
 20
13.7230653615
 30
0.0
 10
16.3143910024
 20
13.8079193159
 30
0.0
 10
16.118388169
 20
13.884217448
 30
0.0
 10
15.9180601419
 20
13.9514283384
 30
0.0
 10
15.7147751027
 20
14.0091091074
 30
0.0
 10
15.5099126902
 20
14.0568539483
 30
0.0
 10
15.3048691242
 20
14.0943467344
 30
0.0
 10
15.1010385281
 20
14.1213305297
 30
0.0
 10
14.8998061941
 20
14.1376158615
 30
0.0
 10
14.7025387847
 20
14.1431040186
 30
0.0
 10
14.5105793469
 20
14.1377396051
 30
0.0
 10
14.354752193
 20
14.1241517333
 30
0.0
 10
14.2339383922
 20
14.1077509754
 30
0.0
 10
14.1182158403
 20
14.088150962
 30
0.0
 10
14.0058528596
 20
14.0632012177
 30
0.0
 10
13.8974899647
 20
14.0326503528
 30
0.0
 10
13.7950980614
 20
13.999441746
 30
0.0
 10
13.6970809866
 20
13.9609797488
 30
0.0
 10
13.6042376534
 20
13.9170802045
 30
0.0
 10
13.5386359757
 20
13.8822047518
 30
0.0
 10
13.4763560869
 20
13.8450430334
 30
0.0
 10
13.4174989654
 20
13.805663042
 30
0.0
 10
13.3621653968
 20
13.7641310043
 30
0.0
 10
13.3104564114
 20
13.7205096877
 30
0.0
 10
13.2624593959
 20
13.6748759163
 30
0.0
 10
13.2182541957
 20
13.6273097589
 30
0.0
 10
13.1779225861
 20
13.5778877991
 30
0.0
 10
13.141540127
 20
13.5266918851
 30
0.0
 10
13.1091644223
 20
13.4738156182
 30
0.0
 10
13.0808531927
 20
13.4193484134
 30
0.0
 10
13.0566674642
 20
13.3633851354
 30
0.0
 10
13.0433082078
 20
13.3251144787
 30
0.0
 10
13.0373406173
 20
13.3058039309
 30
0.0
  0
SPLINE
  5
234
100
AcDbEntity
  8
RING
100
AcDbSpline
 62
7
  6
CONTINUOUS
 70
0
 71
3
 72
15
 73
11
 74
0
 42
0.0000001
 43
0.0000001
 44
0.0000000001
 40
0.0
 40
0.0
 40
0.0
 40
0.0
 40
0.1164327268
 40
0.2337732846
 40
0.3528877383
 40
0.4745781895
 40
0.5995746789
 40
0.7285164188
 40
0.8618929278
 40
1.0
 40
1.0
 40
1.0
 40
1.0
 10
17.929090952
 20
11.7941387459
 30
0.0
 10
17.9380226935
 20
11.8230410012
 30
0.0
 10
17.9528245428
 20
11.8820917801
 30
0.0
 10
17.9654458606
 20
11.9730706795
 30
0.0
 10
17.9685163468
 20
12.0662388156
 30
0.0
 10
17.9620183283
 20
12.161211694
 30
0.0
 10
17.9459979734
 20
12.2576259206
 30
0.0
 10
17.9205271595
 20
12.3551145572
 30
0.0
 10
17.8857254797
 20
12.4532763865
 30
0.0
 10
17.8569395691
 20
12.5177587554
 30
0.0
 10
17.8411319293
 20
12.5499713384
 30
0.0
  0
SPLINE
  5
235
100
AcDbEntity
  8
RING
100
AcDbSpline
 62
7
  6
CONTINUOUS
 70
0
 71
3
 72
15
 73
11
 74
0
 42
0.0000001
 43
0.0000001
 44
0.0000000001
 40
0.0
 40
0.0
 40
0.0
 40
0.0
 40
0.1381070722
 40
0.2714835812
 40
0.4004253211
 40
0.5254218105
 40
0.6471122617
 40
0.7662267154
 40
0.8835672732
 40
1.0
 40
1.0
 40
1.0
 40
1.0
 10
17.7980435466
 20
12.4716386474
 30
0.0
 10
17.8137246017
 20
12.4396840167
 30
0.0
 10
17.8422800002
 20
12.3757180106
 30
0.0
 10
17.8768029947
 20
12.2783422428
 30
0.0
 10
17.9020698431
 20
12.1816342769
 30
0.0
 10
17.91796191
 20
12.0859921173
 30
0.0
 10
17.9244078935
 20
11.991779764
 30
0.0
 10
17.9213619953
 20
11.8993577009
 30
0.0
 10
17.9088417466
 20
11.8091073435
 30
0.0
 10
17.8941584277
 20
11.7505294321
 30
0.0
 10
17.8852982099
 20
11.7218586206
 30
0.0
  0
SPLINE
  5
236
100
AcDbEntity
  8
RING
100
AcDbSpline
 62
7
  6
CONTINUOUS
 70
0
 71
3
 72
50
 73
46
 74
0
 42
0.0000001
 43
0.0000001
 44
0.0000000001
 40
0.0
 40
0.0
 40
0.0
 40
0.0
 40
0.0265242034
 40
0.0543666856
 40
0.0687839589
 40
0.0835284161
 40
0.1139815663
 40
0.1296825211
 40
0.1456859328
 40
0.1785525725
 40
0.2124841059
 40
0.2473619172
 40
0.2830504314
 40
0.3194025043
 40
0.3562607986
 40
0.3934610221
 40
0.4308340883
 40
0.4682085018
 40
0.5054128303
 40
0.5422778468
 40
0.5786392635
 40
0.6143394725
 40
0.649231299
 40
0.6831789983
 40
0.7160632018
 40
0.7320758454
 40
0.7477865338
 40
0.7782612229
 40
0.793016901
 40
0.8074442012
 40
0.8353012063
 40
0.8487408644
 40
0.8618585244
 40
0.8746619571
 40
0.8871623495
 40
0.8993733933
 40
0.9113115302
 40
0.9229968793
 40
0.9344525789
 40
0.9457044136
 40
0.9567812244
 40
0.9677146904
 40
0.978538443
 40
0.9892879078
 40
1.0
 40
1.0
 40
1.0
 40
1.0
 10
13.1010930077
 20
12.4716386474
 30
0.0
 10
13.1231403927
 20
12.4267108004
 30
0.0
 10
13.1730134321
 20
12.3368677198
 30
0.0
 10
13.2459563021
 20
12.2293350682
 30
0.0
 10
13.3116144058
 20
12.1441153226
 30
0.0
 10
13.3836928199
 20
12.0577315556
 30
0.0
 10
13.4622436149
 20
11.973711233
 30
0.0
 10
13.5465900383
 20
11.8922029934
 30
0.0
 10
13.6369523183
 20
11.8104543837
 30
0.0
 10
13.7577875987
 20
11.7112562169
 30
0.0
 10
13.9130786643
 20
11.5984406914
 30
0.0
 10
14.0788914139
 20
11.4915783681
 30
0.0
 10
14.2540887685
 20
11.3913841568
 30
0.0
 10
14.4374854702
 20
11.2985446243
 30
0.0
 10
14.6278339345
 20
11.2136906699
 30
0.0
 10
14.8238367679
 20
11.1373925378
 30
0.0
 10
15.024164795
 20
11.0701816474
 30
0.0
 10
15.2274498343
 20
11.0125008784
 30
0.0
 10
15.4323122467
 20
10.9647560375
 30
0.0
 10
15.6373558127
 20
10.9272632514
 30
0.0
 10
15.8411864088
 20
10.9002794561
 30
0.0
 10
16.0424187429
 20
10.8839941243
 30
0.0
 10
16.2396861523
 20
10.8785059672
 30
0.0
 10
16.4316455901
 20
10.8838703807
 30
0.0
 10
16.587472744
 20
10.8974582525
 30
0.0
 10
16.7082865448
 20
10.9138590104
 30
0.0
 10
16.8240090966
 20
10.9334590238
 30
0.0
 10
16.9363720773
 20
10.9584087681
 30
0.0
 10
17.0447349723
 20
10.988959633
 30
0.0
 10
17.1471268756
 20
11.0221682398
 30
0.0
 10
17.2451439503
 20
11.0606302371
 30
0.0
 10
17.3379872835
 20
11.1045297813
 30
0.0
 10
17.4035889612
 20
11.139405234
 30
0.0
 10
17.46586885
 20
11.1765669524
 30
0.0
 10
17.5247259715
 20
11.2159469438
 30
0.0
 10
17.5800595402
 20
11.2574789815
 30
0.0
 10
17.6317685255
 20
11.3011002981
 30
0.0
 10
17.679765541
 20
11.3467340696
 30
0.0
 10
17.7239707413
 20
11.3943002269
 30
0.0
 10
17.7643023508
 20
11.4437221867
 30
0.0
 10
17.80068481
 20
11.4949181007
 30
0.0
 10
17.8330605147
 20
11.5477943676
 30
0.0
 10
17.8613717443
 20
11.6022615724
 30
0.0
 10
17.8855574727
 20
11.6582248504
 30
0.0
 10
17.8989167292
 20
11.6964955071
 30
0.0
 10
17.9048843196
 20
11.7158060549
 30
0.0
  0
SPLINE
  5
237
100
AcDbEntity
  8
RING
100
AcDbSpline
 62
7
  6
CONTINUOUS
 70
0
 71
3
 72
45
 73
41
 74
0
 42
0.0000001
 43
0.0000001
 44
0.0000000001
 40
0.0
 40
0.0
 40
0.0
 40
0.0
 40
0.0106986528
 40
0.0214813584
 40
0.0323812702
 40
0.0434298505
 40
0.0660771431
 40
0.0896379958
 40
0.1018169857
 40
0.1142796826
 40
0.1400970045
 40
0.1534763526
 40
0.1671739176
 40
0.1955267439
 40
0.2251555078
 40
0.2560242324
 40
0.2880692234
 40
0.3212057301
 40
0.355328674
 40
0.3903179437
 40
0.4260397688
 40
0.4623499414
 40
0.4990962442
 40
0.5361202942
 40
0.5732603663
 40
0.6103529319
 40
0.6472353477
 40
0.6837474112
 40
0.7197343256
 40
0.755047824
 40
0.7895499512
 40
0.8231138333
 40
0.8556288222
 40
0.8714646258
 40
0.8870045435
 40
0.9171582481
 40
0.9317655236
 40
0.9460545326
 40
0.9736680534
 40
1.0
 40
1.0
 40
1.0
 40
1.0
 10
17.8815615576
 20
11.7233418039
 30
0.0
 10
17.8739204072
 20
11.7051489674
 30
0.0
 10
17.8572827728
 20
11.6691495364
 30
0.0
 10
17.8285013952
 20
11.616768095
 30
0.0
 10
17.7958725075
 20
11.5659203823
 30
0.0
 10
17.7469221717
 20
11.4997565943
 30
0.0
 10
17.6759232209
 20
11.4211788128
 30
0.0
 10
17.5944849249
 20
11.3503442966
 30
0.0
 10
17.5228306906
 20
11.2976585139
 30
0.0
 10
17.4450264806
 20
11.2465263338
 30
0.0
 10
17.3614949346
 20
11.2003318154
 30
0.0
 10
17.2731036023
 20
11.1589968275
 30
0.0
 10
17.1786705884
 20
11.119750927
 30
0.0
 10
17.0534874127
 20
11.0767681314
 30
0.0
 10
16.8947767596
 20
11.0354036138
 30
0.0
 10
16.7268866792
 20
11.0039437751
 30
0.0
 10
16.5509140121
 20
10.9825669272
 30
0.0
 10
16.3679948905
 20
10.9714240906
 30
0.0
 10
16.1793172277
 20
10.970572049
 30
0.0
 10
15.986106818
 20
10.9800211556
 30
0.0
 10
15.7896208199
 20
10.999709992
 30
0.0
 10
15.5911374657
 20
11.0295024724
 30
0.0
 10
15.3919522975
 20
11.069217065
 30
0.0
 10
15.1933603472
 20
11.1185793927
 30
0.0
 10
14.9966605337
 20
11.177282997
 30
0.0
 10
14.8031317791
 20
11.2449324061
 30
0.0
 10
14.6140387031
 20
11.3210942013
 30
0.0
 10
14.430613475
 20
11.4052701221
 30
0.0
 10
14.2540493923
 20
11.4969072095
 30
0.0
 10
14.085502055
 20
11.5954188037
 30
0.0
 10
13.9260599168
 20
11.7001507897
 30
0.0
 10
13.7767730631
 20
11.8104359116
 30
0.0
 10
13.6606172603
 20
11.9072038265
 30
0.0
 10
13.5737378711
 20
11.9868431268
 30
0.0
 10
13.4926027433
 20
12.0662084001
 30
0.0
 10
13.4170123246
 20
12.1479385864
 30
0.0
 10
13.3475973638
 20
12.2318904644
 30
0.0
 10
13.2842896591
 20
12.3147142157
 30
0.0
 10
13.2138523906
 20
12.4191829322
 30
0.0
 10
13.1655768279
 20
12.5063720208
 30
0.0
 10
13.1441813904
 20
12.5499713384
 30
0.0
  0
SPLINE
  5
238
100
AcDbEntity
  8
RING
100
AcDbSpline
 62
7
  6
CONTINUOUS
 70
0
 71
3
 72
15
 73
11
 74
0
 42
0.0000001
 43
0.0000001
 44
0.0000000001
 40
0.0
 40
0.0
 40
0.0
 40
0.0
 40
0.1164327268
 40
0.2337732846
 40
0.3528877383
 40
0.4745781895
 40
0.5995746789
 40
0.7285164188
 40
0.8618929278
 40
1.0
 40
1.0
 40
1.0
 40
1.0
 10
13.013133985
 20
13.2274712399
 30
0.0
 10
13.0042022434
 20
13.1985689846
 30
0.0
 10
12.9894003941
 20
13.1395182057
 30
0.0
 10
12.9767790763
 20
13.0485393063
 30
0.0
 10
12.9737085902
 20
12.9553711702
 30
0.0
 10
12.9802066086
 20
12.8603982918
 30
0.0
 10
12.9962269636
 20
12.7639840653
 30
0.0
 10
13.0216977775
 20
12.6664954286
 30
0.0
 10
13.0564994572
 20
12.5683335993
 30
0.0
 10
13.0852853679
 20
12.5038512304
 30
0.0
 10
13.1010930077
 20
12.4716386474
 30
0.0
  0
SPLINE
  5
239
100
AcDbEntity
  8
RING
100
AcDbSpline
 62
7
  6
CONTINUOUS
 70
0
 71
3
 72
50
 73
46
 74
0
 42
0.0000001
 43
0.0000001
 44
0.0000000001
 40
0.0
 40
0.0
 40
0.0
 40
0.0
 40
0.0107120922
 40
0.021461557
 40
0.0322853096
 40
0.0432187756
 40
0.0542955864
 40
0.0655474211
 40
0.0770031207
 40
0.0886884698
 40
0.1006266067
 40
0.1128376505
 40
0.1253380429
 40
0.1381414756
 40
0.1512591356
 40
0.1646987937
 40
0.1925557988
 40
0.206983099
 40
0.2217387771
 40
0.2522134662
 40
0.2679241546
 40
0.2839367982
 40
0.3168210017
 40
0.350768701
 40
0.3856605275
 40
0.4213607365
 40
0.4577221532
 40
0.4945871697
 40
0.5317914982
 40
0.5691659117
 40
0.6065389779
 40
0.6437392014
 40
0.6805974957
 40
0.7169495686
 40
0.7526380828
 40
0.7875158941
 40
0.8214474275
 40
0.8543140672
 40
0.8703174789
 40
0.8860184337
 40
0.9164715839
 40
0.9312160411
 40
0.9456333144
 40
0.9734757966
 40
1.0
 40
1.0
 40
1.0
 40
1.0
 10
13.0327200947
 20
13.2214186743
 30
0.0
 10
13.0386398978
 20
13.2405745868
 30
0.0
 10
13.0518921758
 20
13.2785387792
 30
0.0
 10
13.0758842295
 20
13.3340539139
 30
0.0
 10
13.1039687481
 20
13.3880849555
 30
0.0
 10
13.1360851943
 20
13.4405377991
 30
0.0
 10
13.1721763095
 20
13.4913237459
 30
0.0
 10
13.2121849511
 20
13.5403499439
 30
0.0
 10
13.2560361644
 20
13.5875352004
 30
0.0
 10
13.3036488287
 20
13.6328035451
 30
0.0
 10
13.3549437383
 20
13.6760755504
 30
0.0
 10
13.409834206
 20
13.7172750074
 30
0.0
 10
13.4682200108
 20
13.7563396511
 30
0.0
 10
13.5300011739
 20
13.7932037855
 30
0.0
 10
13.5950775257
 20
13.8277999621
 30
0.0
 10
13.6871773868
 20
13.871347967
 30
0.0
 10
13.7844095592
 20
13.9095019678
 30
0.0
 10
13.8859815274
 20
13.9424446463
 30
0.0
 10
13.9934766726
 20
13.9727508656
 30
0.0
 10
14.1049398716
 20
13.997500817
 30
0.0
 10
14.219735739
 20
14.0169438772
 30
0.0
 10
14.3395820855
 20
14.0332133009
 30
0.0
 10
14.4941614048
 20
14.0466923636
 30
0.0
 10
14.6845836674
 20
14.0520138199
 30
0.0
 10
14.8802713964
 20
14.0465696109
 30
0.0
 10
15.0798922996
 20
14.030414689
 30
0.0
 10
15.2820906585
 20
14.0036469748
 30
0.0
 10
15.4854922741
 20
13.9664544239
 30
0.0
 10
15.6887141867
 20
13.9190919148
 30
0.0
 10
15.8903713575
 20
13.8618730426
 30
0.0
 10
16.0890951953
 20
13.7952003644
 30
0.0
 10
16.2835284748
 20
13.7195132134
 30
0.0
 10
16.4723526643
 20
13.6353387536
 30
0.0
 10
16.6542807596
 20
13.5432426626
 30
0.0
 10
16.8280751666
 20
13.4438507878
 30
0.0
 10
16.9925601188
 20
13.337844198
 30
0.0
 10
17.1466076427
 20
13.225932078
 30
0.0
 10
17.2664752968
 20
13.1275282715
 30
0.0
 10
17.3561139727
 20
13.0464342894
 30
0.0
 10
17.4397849657
 20
12.9655787524
 30
0.0
 10
17.5177067406
 20
12.8822312488
 30
0.0
 10
17.5892079643
 20
12.7965392269
 30
0.0
 10
17.6543402902
 20
12.712001905
 30
0.0
 10
17.7266990474
 20
12.6053303547
 30
0.0
 10
17.7761727129
 20
12.5162067206
 30
0.0
 10
17.7980435466
 20
12.4716386474
 30
0.0
  0
SPLINE
  5
23A
100
AcDbEntity
  8
RING
100
AcDbSpline
 62
7
  6
CONTINUOUS
 70
0
 71
3
 72
15
 73
11
 74
0
 42
0.0000001
 43
0.0000001
 44
0.0000000001
 40
0.0
 40
0.0
 40
0.0
 40
0.0
 40
0.1381070722
 40
0.2714835812
 40
0.4004253211
 40
0.5254218105
 40
0.6471122617
 40
0.7662267154
 40
0.8835672732
 40
1.0
 40
1.0
 40
1.0
 40
1.0
 10
13.119974758
 20
12.4716386474
 30
0.0
 10
13.1042937029
 20
12.5035932781
 30
0.0
 10
13.0757383044
 20
12.5675592843
 30
0.0
 10
13.0412153099
 20
12.664935052
 30
0.0
 10
13.0159484616
 20
12.761643018
 30
0.0
 10
13.0000563946
 20
12.8572851775
 30
0.0
 10
12.9936104111
 20
12.9514975309
 30
0.0
 10
12.9966563093
 20
13.043919594
 30
0.0
 10
13.009176558
 20
13.1341699514
 30
0.0
 10
13.0238598769
 20
13.1927478628
 30
0.0
 10
13.0327200947
 20
13.2214186743
 30
0.0
  0
SPLINE
  5
23B
100
AcDbEntity
  8
RING
100
AcDbSpline
 62
7
  6
CONTINUOUS
 70
0
 71
3
 72
45
 73
41
 74
0
 42
0.0000001
 43
0.0000001
 44
0.0000000001
 40
0.0
 40
0.0
 40
0.0
 40
0.0
 40
0.0263335087
 40
0.0539488852
 40
0.0682389323
 40
0.0828473173
 40
0.1130034425
 40
0.1285446618
 40
0.14438182
 40
0.1768996522
 40
0.2104665092
 40
0.2449716815
 40
0.2802882256
 40
0.3162781147
 40
0.3527930098
 40
0.3896780393
 40
0.42677293
 40
0.4639149683
 40
0.5009405618
 40
0.5376879257
 40
0.5739986283
 40
0.6097204076
 40
0.644709031
 40
0.6788307067
 40
0.7119653296
 40
0.744007837
 40
0.774873523
 40
0.804498766
 40
0.8328476835
 40
0.8465431979
 40
0.8599204547
 40
0.8857335539
 40
0.898194189
 40
0.9103711846
 40
0.9339283818
 40
0.9565727246
 40
0.9676201943
 40
0.9785192859
 40
0.9893014929
 40
1.0
 40
1.0
 40
1.0
 40
1.0
 10
17.816925297
 20
12.4716386474
 30
0.0
 10
17.7953533099
 20
12.5155977353
 30
0.0
 10
17.7466783994
 20
12.6035062644
 30
0.0
 10
17.6756570824
 20
12.7088360973
 30
0.0
 10
17.6118236713
 20
12.7923422916
 30
0.0
 10
17.5418316116
 20
12.8769859381
 30
0.0
 10
17.4656122777
 20
12.9593889832
 30
0.0
 10
17.3838018323
 20
13.039407015
 30
0.0
 10
17.2961989615
 20
13.1197010156
 30
0.0
 10
17.1790756848
 20
13.2172634067
 30
0.0
 10
17.0285454688
 20
13.3284521269
 30
0.0
 10
16.8677756839
 20
13.4340400835
 30
0.0
 10
16.6978255162
 20
13.5333543193
 30
0.0
 10
16.5197928853
 20
13.6257352061
 30
0.0
 10
16.3348433687
 20
13.710591043
 30
0.0
 10
16.1441806391
 20
13.7873643076
 30
0.0
 10
15.9490474839
 20
13.8555524592
 30
0.0
 10
15.7507194795
 20
13.9147185733
 30
0.0
 10
15.5504865628
 20
13.9644638556
 30
0.0
 10
15.3496588394
 20
14.0044793833
 30
0.0
 10
15.1495424835
 20
14.034488649
 30
0.0
 10
14.9514441236
 20
14.0543086305
 30
0.0
 10
14.7566529455
 20
14.0638024432
 30
0.0
 10
14.5664368096
 20
14.0629081587
 30
0.0
 10
14.3820319324
 20
14.051636637
 30
0.0
 10
14.2046362852
 20
14.0300452289
 30
0.0
 10
14.0353955667
 20
13.9982865605
 30
0.0
 10
13.8754158149
 20
13.9565407567
 30
0.0
 10
13.7492382975
 20
13.9131689597
 30
0.0
 10
13.6540602704
 20
13.8735717485
 30
0.0
 10
13.5649755361
 20
13.8318691928
 30
0.0
 10
13.4807937145
 20
13.785266573
 30
0.0
 10
13.4023900644
 20
13.733685792
 30
0.0
 10
13.3301879644
 20
13.680539365
 30
0.0
 10
13.2481351395
 20
13.6090880857
 30
0.0
 10
13.176614676
 20
13.5298312708
 30
0.0
 10
13.127314748
 20
13.4630987028
 30
0.0
 10
13.0944578578
 20
13.4118145787
 30
0.0
 10
13.0654814724
 20
13.3589847187
 30
0.0
 10
13.0487361122
 20
13.3226784873
 30
0.0
 10
13.0410468064
 20
13.3043308517
 30
0.0
  0
SPLINE
  5
23C
100
AcDbEntity
  8
RING
100
AcDbSpline
 62
7
  6
CONTINUOUS
 70
0
 71
3
 72
50
 73
46
 74
0
 42
0.0000001
 43
0.0000001
 44
0.0000000001
 40
0.0
 40
0.0
 40
0.0
 40
0.0
 40
0.0107120922
 40
0.021461557
 40
0.0322853096
 40
0.0432187756
 40
0.0542955864
 40
0.0655474211
 40
0.0770031207
 40
0.0886884698
 40
0.1006266067
 40
0.1128376505
 40
0.1253380429
 40
0.1381414756
 40
0.1512591356
 40
0.1646987937
 40
0.1925557988
 40
0.206983099
 40
0.2217387771
 40
0.2522134662
 40
0.2679241546
 40
0.2839367982
 40
0.3168210017
 40
0.350768701
 40
0.3856605275
 40
0.4213607365
 40
0.4577221532
 40
0.4945871697
 40
0.5317914982
 40
0.5691659117
 40
0.6065389779
 40
0.6437392014
 40
0.6805974957
 40
0.7169495686
 40
0.7526380828
 40
0.7875158941
 40
0.8214474275
 40
0.8543140672
 40
0.8703174789
 40
0.8860184337
 40
0.9164715839
 40
0.9312160411
 40
0.9456333144
 40
0.9734757966
 40
1.0
 40
1.0
 40
1.0
 40
1.0
 10
17.8852982099
 20
11.7218586206
 30
0.0
 10
17.8793784068
 20
11.702702708
 30
0.0
 10
17.8661261288
 20
11.6647385156
 30
0.0
 10
17.8421340751
 20
11.609223381
 30
0.0
 10
17.8140495565
 20
11.5551923394
 30
0.0
 10
17.7819331104
 20
11.5027394957
 30
0.0
 10
17.7458419951
 20
11.451953549
 30
0.0
 10
17.7058333535
 20
11.402927351
 30
0.0
 10
17.6619821403
 20
11.3557420945
 30
0.0
 10
17.6143694759
 20
11.3104737497
 30
0.0
 10
17.5630745664
 20
11.2672017445
 30
0.0
 10
17.5081840986
 20
11.2260022875
 30
0.0
 10
17.4497982939
 20
11.1869376437
 30
0.0
 10
17.3880171307
 20
11.1500735094
 30
0.0
 10
17.3229407789
 20
11.1154773328
 30
0.0
 10
17.2308409178
 20
11.0719293278
 30
0.0
 10
17.1336087454
 20
11.0337753271
 30
0.0
 10
17.0320367772
 20
11.0008326486
 30
0.0
 10
16.924541632
 20
10.9705264292
 30
0.0
 10
16.813078433
 20
10.9457764778
 30
0.0
 10
16.6982825656
 20
10.9263334177
 30
0.0
 10
16.5784362191
 20
10.9100639939
 30
0.0
 10
16.4238568999
 20
10.8965849312
 30
0.0
 10
16.2334346372
 20
10.891263475
 30
0.0
 10
16.0377469083
 20
10.8967076839
 30
0.0
 10
15.838126005
 20
10.9128626058
 30
0.0
 10
15.6359276461
 20
10.93963032
 30
0.0
 10
15.4325260305
 20
10.9768228709
 30
0.0
 10
15.2293041179
 20
11.0241853801
 30
0.0
 10
15.0276469471
 20
11.0814042523
 30
0.0
 10
14.8289231093
 20
11.1480769304
 30
0.0
 10
14.6344898298
 20
11.2237640815
 30
0.0
 10
14.4456656403
 20
11.3079385413
 30
0.0
 10
14.263737545
 20
11.4000346323
 30
0.0
 10
14.089943138
 20
11.4994265071
 30
0.0
 10
13.9254581858
 20
11.6054330969
 30
0.0
 10
13.7714106619
 20
11.7173452169
 30
0.0
 10
13.6515430078
 20
11.8157490233
 30
0.0
 10
13.5619043319
 20
11.8968430054
 30
0.0
 10
13.4782333389
 20
11.9776985424
 30
0.0
 10
13.400311564
 20
12.061046046
 30
0.0
 10
13.3288103403
 20
12.146738068
 30
0.0
 10
13.2636780144
 20
12.2312753898
 30
0.0
 10
13.1913192572
 20
12.3379469401
 30
0.0
 10
13.1418455917
 20
12.4270705742
 30
0.0
 10
13.119974758
 20
12.4716386474
 30
0.0
  0
SPLINE
  5
23D
100
AcDbEntity
  8
RING
100
AcDbSpline
 62
7
  6
CONTINUOUS
 70
0
 71
3
 72
15
 73
11
 74
0
 42
0.0000001
 43
0.0000001
 44
0.0000000001
 40
0.0
 40
0.0
 40
0.0
 40
0.0
 40
0.1161134762
 40
0.2337044383
 40
0.353373595
 40
0.4756777289
 40
0.6011186595
 40
0.7301326385
 40
0.8630268871
 40
1.0
 40
1.0
 40
1.0
 40
1.0
 10
17.9282456856
 20
11.810579798
 30
0.0
 10
17.9330704461
 20
11.8365270896
 30
0.0
 10
17.9403458229
 20
11.8892361314
 30
0.0
 10
17.9440605121
 20
11.9695724754
 30
0.0
 10
17.9406221551
 20
12.0513313233
 30
0.0
 10
17.930038209
 20
12.134265433
 30
0.0
 10
17.9123587177
 20
12.218146608
 30
0.0
 10
17.8876235182
 20
12.3027289683
 30
0.0
 10
17.8559354152
 20
12.3877506086
 30
0.0
 10
17.8306408659
 20
12.4436892565
 30
0.0
 10
17.816925297
 20
12.4716386474
 30
0.0
  0
ENDSEC
  0
SECTION
  2
OBJECTS
  0
DICTIONARY
  5
C
100
AcDbDictionary
280
0
281
1
  3
ACAD_GROUP
350
D
  3
ACAD_MLINESTYLE
350
17
  3
ACAD_LAYOUT
350
1A
  3
ACAD_PLOTSETTINGS
350
19
  3
ACAD_PLOTSTYLENAME
350
E
  0
DICTIONARY
  5
D
102
{ACAD_REACTORS
330
C
102
}
100
AcDbDictionary
280
0
281
1
  0
ACDBDICTIONARYWDFLT
  5
E
102
{ACAD_REACTORS
330
C
102
}
100
AcDbDictionary
281
1
  3
Normal
350
F
100
AcDbDictionaryWithDefault
340
F
  0
DICTIONARY
  5
17
102
{ACAD_REACTORS
330
C
102
}
100
AcDbDictionary
280
0
281
1
  3
Standard
350
18
  0
DICTIONARY
  5
19
102
{ACAD_REACTORS
330
C
102
}
100
AcDbDictionary
281
1
  0
DICTIONARY
  5
1A
102
{ACAD_REACTORS
330
C
102
}
100
AcDbDictionary
281
1
  3
Model
350
23E
  3
Layout1
350
23F
  0
ACDBPLACEHOLDER
  5
F
102
{ACAD_REACTORS
330
E
102
}
  0
MLINESTYLE
  5
18
102
{ACAD_REACTORS
330
17
102
}
100
AcDbMlineStyle
  2
STANDARD
 70
0
  3

 62
256
 51
90.0
 52
90.0
 71
2
 49
0.5
 62
256
  6
BYLAYER
 49
-0.5
 62
256
  6
BYLAYER
  0
LAYOUT
  5
23E
102
{ACAD_REACTORS
330
1A
102
}
100
AcDbPlotSettings
  1

  2
none_device
  4
ANSI_C_(22.00_x_17.00_Inches)
  6

 40
0.0
 41
0.0
 42
0.0
 43
0.0
 44
558.8
 45
431.8
 46
0.0
 47
0.0
 48
0.0
 49
0.0
140
0.0
141
0.0
142
1.0
143
1.0
 70
1024
 72
0
 73
0
 74
0
  7

 75
0
147
1.0
148
0.0
149
0.0
100
AcDbLayout
  1
Model
 70
0
 71
0
 10
0.0
 20
0.0
 11
22.0
 21
17.0
 12
0.0
 22
0.0
 32
0.0
 14
0.0
 24
0.0
 34
0.0
 15
0.0
 25
0.0
 35
0.0
146
0.0
 13
0.0
 23
0.0
 33
0.0
 16
1.0
 26
0.0
 36
0.0
 17
0.0
 27
1.0
 37
0.0
 76
0
330
218
345
0
346
0
  0
LAYOUT
  5
23F
102
{ACAD_REACTORS
330
1A
102
}
100
AcDbPlotSettings
  1

  2
none_device
  4
ANSI_C_(22.00_x_17.00_Inches)
  6

 40
0.0
 41
0.0
 42
0.0
 43
0.0
 44
558.8
 45
431.8
 46
0.0
 47
0.0
 48
0.0
 49
0.0
140
0.0
141
0.0
142
1.0
143
1.0
 70
0
 72
0
 73
0
 74
0
  7

 75
0
147
1.0
148
0.0
149
0.0
100
AcDbLayout
  1
Layout1
 70
0
 71
1
 10
0.0
 20
0.0
 11
22.0
 21
17.0
 12
0.0
 22
0.0
 32
0.0
 14
0.0
 24
0.0
 34
0.0
 15
0.0
 25
0.0
 35
0.0
146
0.0
 13
0.0
 23
0.0
 33
0.0
 16
1.0
 26
0.0
 36
0.0
 17
0.0
 27
1.0
 37
0.0
 76
0
330
219
345
0
346
0
  0
ENDSEC
  0
EOF