999
DXF file: _cgs_temp_output.dxf
999
Pro/ENGINEER 2016360 by Parametric Technology Corporation
  0
SECTION
  2
HEADER
  9
$ACADVER
  1
AC1021
  9
$DWGCODEPAGE
  3
ANSI_1252
  9
$EXTMAX
 10
22.0
 20
17.0
 30
0.0
  9
$EXTMIN
 10
0.0
 20
0.0
 30
0.0
  9
$LIMMIN
 10
0.0
 20
0.0
  9
$LIMMAX
 10
22.0
 20
17.0
  9
$VIEWCTR
 10
11.0
 20
8.5
  9
$VIEWSIZE
 40
17.0
  9
$CLAYER
  8
0
  9
$LTSCALE
 40
1.21
  9
$CELTYPE
  6
BYLAYER
  9
$DIMSCALE
 40
1.0
  9
$DIMASZ
 40
0.1875
  9
$DIMEXO
 40
0.0625
  9
$DIMDLI
 40
0.836
  9
$DIMEXE
 40
0.125
  9
$DIMCEN
 40
0.198
  9
$DIMLFAC
 40
1.0
  9
$DIMBLK
  1
_CLOSED
  9
$DIMALT
 70
0
  9
$DIMALTF
 40
25.4
  9
$DIMTXT
 40
0.15625
  9
$DIMTOL
 70
0
  9
$DIMLIM
 70
0
  9
$DIMTFAC
 40
1.0
  9
$DIMGAP
 40
0.09
  9
$DIMDSEP
 70
46
  9
$AUNITS
 70
0
  9
$PDMODE
 70
3
  9
$PDSIZE
 40
0.3125
  9
$HANDSEED
  5
23E
  9
$TILEMODE
 70
1
  9
$MEASUREMENT
 70
0
  9
$INSUNITS
 70
1
  0
ENDSEC
  0
SECTION
  2
CLASSES
  0
CLASS
  1
ACDBDICTIONARYWDFLT
  2
AcDbDictionaryWithDefault
  3
AutoCAD 2000
 90
0
 91
1
280
0
281
0
  0
CLASS
  1
ACDBPLACEHOLDER
  2
AcDbPlaceHolder
  3
AutoCAD 2000
 90
0
 91
1
280
0
281
0
  0
CLASS
  1
LAYOUT
  2
AcDbLayout
  3
AutoCAD 2000
 90
0
 91
0
280
0
281
0
  0
ENDSEC
  0
SECTION
  2
TABLES
  0
TABLE
  2
VPORT
  5
8
100
AcDbSymbolTable
 70
2
  0
VPORT
  5
1F4
100
AcDbSymbolTableRecord
100
AcDbViewportTableRecord
  2
*ACTIVE
 70
0
 10
0.0
 20
0.0
 11
1.0
 21
1.0
 12
11.0
 22
8.5
 13
0.0
 23
0.0
 14
1.0
 24
1.0
 15
0.0
 25
0.0
 16
0.0
 26
0.0
 36
1.0
 17
0.0
 27
0.0
 37
0.0
 40
17.0
 41
1.2941176471
 42
50.0
 43
0.0
 44
0.0
 50
0.0
 51
0.0
 71
0
 72
100
 73
1
 74
1
 75
0
 76
0
 77
0
 78
0
  0
ENDTAB
  0
TABLE
  2
LTYPE
  5
5
100
AcDbSymbolTable
 70
6
  0
LTYPE
  5
14
100
AcDbSymbolTableRecord
100
AcDbLinetypeTableRecord
  2
BYBLOCK
 70
0
  3

 72
65
 73
0
 40
0.0
  0
LTYPE
  5
15
100
AcDbSymbolTableRecord
100
AcDbLinetypeTableRecord
  2
BYLAYER
 70
0
  3

 72
65
 73
0
 40
0.0
  0
LTYPE
  5
16
100
AcDbSymbolTableRecord
100
AcDbLinetypeTableRecord
  2
CONTINUOUS
 70
64
  3
Solid line
 72
65
 73
0
 40
0.0
  0
LTYPE
  5
1F5
100
AcDbSymbolTableRecord
100
AcDbLinetypeTableRecord
  2
CENTER
 70
64
  3
____ _ ____ _ ____ _ ____ _ ____ _ ____ _ ____
 72
65
 73
4
 40
0.6
 49
0.375
 74
0
 49
-0.075
 74
0
 49
0.075
 74
0
 49
-0.075
 74
0
  0
LTYPE
  5
1F6
100
AcDbSymbolTableRecord
100
AcDbLinetypeTableRecord
  2
HIDDEN
 70
64
  3
- - - - - - - - - - - - - - - - - - - -
 72
65
 73
2
 40
0.2
 49
0.1
 74
0
 49
-0.1
 74
0
  0
LTYPE
  5
1F7
100
AcDbSymbolTableRecord
100
AcDbLinetypeTableRecord
  2
PHANTOM
 70
64
  3
_____ _ _ _____ _ _ _____ _ _ _____
 72
65
 73
6
 40
0.8
 49
0.45
 74
0
 49
-0.05
 74
0
 49
0.1
 74
0
 49
-0.05
 74
0
 49
0.1
 74
0
 49
-0.05
 74
0
  0
LTYPE
  5
1F8
100
AcDbSymbolTableRecord
100
AcDbLinetypeTableRecord
  2
DOT
 70
64
  3
. . . . . . . . . . . . . . . . . . . .
 72
65
 73
2
 40
0.2
 49
0.1
 74
0
 49
-0.1
 74
0
  0
LTYPE
  5
1F9
100
AcDbSymbolTableRecord
100
AcDbLinetypeTableRecord
  2
DASHED
 70
64
  3
- - - - - - - - - - - - - - - - - - - -
 72
65
 73
2
 40
0.2
 49
0.1
 74
0
 49
-0.1
 74
0
  0
ENDTAB
  0
TABLE
  2
LAYER
  5
2
100
AcDbSymbolTable
 70
36
  0
LAYER
  5
10
100
AcDbSymbolTableRecord
100
AcDbLayerTableRecord
  2
0
 70
0
 62
7
  6
CONTINUOUS
370
-3
390
F
  0
LAYER
  5
1FA
100
AcDbSymbolTableRecord
100
AcDbLayerTableRecord
  2
DEFAULT_1
 70
0
 62
7
  6
CENTER
370
-3
390
F
  0
LAYER
  5
1FB
100
AcDbSymbolTableRecord
100
AcDbLayerTableRecord
  2
DEFAULT_2
 70
0
 62
8
  6
HIDDEN
370
-3
390
F
  0
LAYER
  5
1FC
100
AcDbSymbolTableRecord
100
AcDbLayerTableRecord
  2
DEFAULT_3
 70
0
 62
7
  6
PHANTOM
370
-3
390
F
  0
LAYER
  5
1FD
100
AcDbSymbolTableRecord
100
AcDbLayerTableRecord
  2
01_ALL_DTM_PLN
 70
0
 62
7
  6
CONTINUOUS
370
-3
390
F
  0
LAYER
  5
1FE
100
AcDbSymbolTableRecord
100
AcDbLayerTableRecord
  2
01__ASM_ALL_DTM_PLN
 70
0
 62
7
  6
CONTINUOUS
370
-3
390
F
  0
LAYER
  5
1FF
100
AcDbSymbolTableRecord
100
AcDbLayerTableRecord
  2
01__ASM_DEF_DTM_PLN
 70
0
 62
7
  6
CONTINUOUS
370
-3
390
F
  0
LAYER
  5
200
100
AcDbSymbolTableRecord
100
AcDbLayerTableRecord
  2
01___PRT_ALL_DTM_PLN
 70
0
 62
7
  6
CONTINUOUS
370
-3
390
F
  0
LAYER
  5
201
100
AcDbSymbolTableRecord
100
AcDbLayerTableRecord
  2
01___PRT_DEF_DTM_PLN
 70
0
 62
7
  6
CONTINUOUS
370
-3
390
F
  0
LAYER
  5
202
100
AcDbSymbolTableRecord
100
AcDbLayerTableRecord
  2
02_ALL_AXES
 70
0
 62
7
  6
CONTINUOUS
370
-3
390
F
  0
LAYER
  5
203
100
AcDbSymbolTableRecord
100
AcDbLayerTableRecord
  2
02__ASM_ALL_AXES
 70
0
 62
7
  6
CONTINUOUS
370
-3
390
F
  0
LAYER
  5
204
100
AcDbSymbolTableRecord
100
AcDbLayerTableRecord
  2
02___PRT_ALL_AXES
 70
0
 62
7
  6
CONTINUOUS
370
-3
390
F
  0
LAYER
  5
205
100
AcDbSymbolTableRecord
100
AcDbLayerTableRecord
  2
03_ALL_CURVES
 70
0
 62
7
  6
CONTINUOUS
370
-3
390
F
  0
LAYER
  5
206
100
AcDbSymbolTableRecord
100
AcDbLayerTableRecord
  2
03__ASM_ALL_CURVES
 70
0
 62
7
  6
CONTINUOUS
370
-3
390
F
  0
LAYER
  5
207
100
AcDbSymbolTableRecord
100
AcDbLayerTableRecord
  2
03___PRT_ALL_CURVES
 70
0
 62
7
  6
CONTINUOUS
370
-3
390
F
  0
LAYER
  5
208
100
AcDbSymbolTableRecord
100
AcDbLayerTableRecord
  2
04_ALL_DTM_PNT
 70
0
 62
7
  6
CONTINUOUS
370
-3
390
F
  0
LAYER
  5
209
100
AcDbSymbolTableRecord
100
AcDbLayerTableRecord
  2
04__ASM_ALL_DTM_PNT
 70
0
 62
7
  6
CONTINUOUS
370
-3
390
F
  0
LAYER
  5
20A
100
AcDbSymbolTableRecord
100
AcDbLayerTableRecord
  2
04___PRT_ALL_DTM_PNT
 70
0
 62
7
  6
CONTINUOUS
370
-3
390
F
  0
LAYER
  5
20B
100
AcDbSymbolTableRecord
100
AcDbLayerTableRecord
  2
05_ALL_DTM_CSYS
 70
0
 62
7
  6
CONTINUOUS
370
-3
390
F
  0
LAYER
  5
20C
100
AcDbSymbolTableRecord
100
AcDbLayerTableRecord
  2
05__ASM_ALL_DTM_CSYS
 70
0
 62
7
  6
CONTINUOUS
370
-3
390
F
  0
LAYER
  5
20D
100
AcDbSymbolTableRecord
100
AcDbLayerTableRecord
  2
05__ASM_DEF_DTM_CSYS
 70
0
 62
7
  6
CONTINUOUS
370
-3
390
F
  0
LAYER
  5
20E
100
AcDbSymbolTableRecord
100
AcDbLayerTableRecord
  2
05___PRT_ALL_DTM_CSYS
 70
0
 62
7
  6
CONTINUOUS
370
-3
390
F
  0
LAYER
  5
20F
100
AcDbSymbolTableRecord
100
AcDbLayerTableRecord
  2
05___PRT_DEF_DTM_CSYS
 70
0
 62
7
  6
CONTINUOUS
370
-3
390
F
  0
LAYER
  5
210
100
AcDbSymbolTableRecord
100
AcDbLayerTableRecord
  2
06_ALL_SURFS
 70
0
 62
7
  6
CONTINUOUS
370
-3
390
F
  0
LAYER
  5
211
100
AcDbSymbolTableRecord
100
AcDbLayerTableRecord
  2
06__ASM_ALL_SURFS
 70
0
 62
7
  6
CONTINUOUS
370
-3
390
F
  0
LAYER
  5
212
100
AcDbSymbolTableRecord
100
AcDbLayerTableRecord
  2
06___PRT_ALL_SURFS
 70
0
 62
7
  6
CONTINUOUS
370
-3
390
F
  0
LAYER
  5
213
100
AcDbSymbolTableRecord
100
AcDbLayerTableRecord
  2
07__ASM_ALL_SKELETONS
 70
0
 62
7
  6
CONTINUOUS
370
-3
390
F
  0
LAYER
  5
214
100
AcDbSymbolTableRecord
100
AcDbLayerTableRecord
  2
DRAWING
 70
0
 62
7
  6
CONTINUOUS
370
-3
390
F
  0
LAYER
  5
215
100
AcDbSymbolTableRecord
100
AcDbLayerTableRecord
  2
SHELL
 70
0
 62
7
  6
CONTINUOUS
370
-3
390
F
  0
ENDTAB
  0
TABLE
  2
STYLE
  5
3
100
AcDbSymbolTable
 70
1
  0
STYLE
  5
11
100
AcDbSymbolTableRecord
100
AcDbTextStyleTableRecord
  2
STANDARD
 70
0
 40
0.0
 41
0.8
 50
0.0
 71
0
 42
0.2
  3
txt
  4

  0
STYLE
  5
216
100
AcDbSymbolTableRecord
100
AcDbTextStyleTableRecord
  2
TEXTSTYLE_1
 70
0
 40
0.0
 41
0.8
 50
0.0
 71
0
 42
0.2
  3
gdt
  4

  0
ENDTAB
  0
TABLE
  2
VIEW
  5
6
100
AcDbSymbolTable
 70
0
  0
ENDTAB
  0
TABLE
  2
UCS
  5
7
100
AcDbSymbolTable
 70
0
  0
ENDTAB
  0
TABLE
  2
APPID
  5
9
100
AcDbSymbolTable
 70
1
  0
APPID
  5
217
100
AcDbSymbolTableRecord
100
AcDbRegAppTableRecord
  2
ACAD
 70
0
  0
ENDTAB
  0
TABLE
  2
BLOCK_RECORD
  5
1
100
AcDbSymbolTable
 70
0
  0
BLOCK_RECORD
  5
218
100
AcDbSymbolTableRecord
100
AcDbBlockTableRecord
  2
*Model_Space
  0
BLOCK_RECORD
  5
219
100
AcDbSymbolTableRecord
100
AcDbBlockTableRecord
  2
*Paper_Space
  0
ENDTAB
  0
TABLE
  2
DIMSTYLE
  5
A
100
AcDbSymbolTable
 70
1
100
AcDbDimStyleTable
 71
0
  0
DIMSTYLE
105
21A
100
AcDbSymbolTableRecord
100
AcDbDimStyleTableRecord
  2
STANDARD
 70
0
  3

  4

 40
1.0
 41
0.1875
 42
0.0625
 43
0.38
 44
0.125
 45
0.0
 46
0.0
 47
0.0001
 48
0.0001
140
0.15625
141
0.09
142
0.0
143
25.4
144
1.0
145
0.0
146
1.0
147
0.09
 71
0.0
 72
0.0
 73
1
 74
1
 75
0
 76
0
 77
0
 78
4
 79
1
170
0
171
3
172
0
173
0
174
0
175
0
176
0
177
0
178
0
270
2
179
4
271
4
272
4
273
2
274
2
275
0
280
0
281
0
282
0
283
1
284
4
285
0
286
0
287
3
288
0
340
11
278
46
  0
ENDTAB
  0
ENDSEC
  0
SECTION
  2
BLOCKS
  0
BLOCK
  5
20
100
AcDbEntity
  8
0
100
AcDbBlockBegin
  2
*Model_Space
 70
0
 10
0.0
 20
0.0
 30
0.0
  3
*Model_Space
  1

  0
ENDBLK
  5
21
100
AcDbEntity
  8
0
100
AcDbBlockEnd
  0
BLOCK
  5
1C
100
AcDbEntity
  8
0
100
AcDbBlockBegin
  2
*Paper_Space
 70
0
 10
0.0
 20
0.0
 30
0.0
  3
*Paper_Space
  1

  0
ENDBLK
  5
1D
100
AcDbEntity
  8
0
100
AcDbBlockEnd
  0
ENDSEC
  0
SECTION
  2
ENTITIES
  0
MTEXT
  5
21B
100
AcDbEntity
  8
0
100
AcDbMText
 62
7
  6
CONTINUOUS
  7
STANDARD
 71
1
 72
1
 10
15.9560215477
 20
0.9479130325
 30
0.0
 11
1.0
 21
0.0
 31
0.0
 44
0.9
  1
SCALE: 1:1.000
 40
0.3
 41
3.36
  0
LINE
  5
21C
100
AcDbEntity
  8
0
100
AcDbLine
 62
7
  6
CONTINUOUS
 10
0.0
 20
0.0
 11
0.0
 21
17.0
  0
LINE
  5
21D
100
AcDbEntity
  8
0
100
AcDbLine
 62
7
  6
CONTINUOUS
 10
0.0
 20
0.0
 11
22.0
 21
0.0
  0
LINE
  5
21E
100
AcDbEntity
  8
0
100
AcDbLine
 62
7
  6
CONTINUOUS
 10
0.0
 20
17.0
 11
22.0
 21
17.0
  0
LINE
  5
21F
100
AcDbEntity
  8
0
100
AcDbLine
 62
7
  6
CONTINUOUS
 10
22.0
 20
0.0
 11
22.0
 21
17.0
  0
LINE
  5
220
100
AcDbEntity
  8
DRAWING
100
AcDbLine
 62
7
  6
CONTINUOUS
 10
3.7958720839
 20
12.6500477814
 11
3.7958720839
 21
12.5500477814
  0
LINE
  5
221
100
AcDbEntity
  8
DRAWING
100
AcDbLine
 62
7
  6
CONTINUOUS
 10
8.3458720839
 20
12.5500477814
 11
3.7958720839
 21
12.5500477814
  0
LINE
  5
222
100
AcDbEntity
  8
DRAWING
100
AcDbLine
 62
7
  6
CONTINUOUS
 10
8.3458720839
 20
12.6500477814
 11
3.7958720839
 21
12.6500477814
  0
LINE
  5
223
100
AcDbEntity
  8
DRAWING
100
AcDbLine
 62
7
  6
CONTINUOUS
 10
8.3458720839
 20
12.6500477814
 11
8.3458720839
 21
12.5500477814
  0
LINE
  5
224
100
AcDbEntity
  8
DRAWING
100
AcDbLine
 62
7
  6
CONTINUOUS
 10
15.6103552569
 20
3.1856247044
 11
15.5103552569
 21
3.1856247044
  0
LINE
  5
225
100
AcDbEntity
  8
DRAWING
100
AcDbLine
 62
7
  6
CONTINUOUS
 10
15.5103552569
 20
3.1856513611
 11
15.5103552569
 21
7.7355980478
  0
LINE
  5
226
100
AcDbEntity
  8
DRAWING
100
AcDbLine
 62
7
  6
CONTINUOUS
 10
15.6103552569
 20
3.1856513611
 11
15.6103552569
 21
7.7355980478
  0
LINE
  5
227
100
AcDbEntity
  8
DRAWING
100
AcDbLine
 62
7
  6
CONTINUOUS
 10
15.6103552569
 20
7.7356247044
 11
15.5103552569
 21
7.7356247044
  0
LINE
  5
228
100
AcDbEntity
  8
DRAWING
100
AcDbLine
 62
7
  6
CONTINUOUS
 10
13.309633364
 20
13.2216591085
 11
13.2854267316
 21
13.1433264175
  0
LINE
  5
229
100
AcDbEntity
  8
DRAWING
100
AcDbLine
 62
7
  6
CONTINUOUS
 10
17.6567982053
 20
11.8782835683
 11
17.632591573
 21
11.7999508773
  0
CIRCLE
  5
22A
100
AcDbEntity
  8
DRAWING
100
AcDbCircle
 62
7
  6
CONTINUOUS
 10
6.1303672762
 20
5.5201198968
 40
2.275
  0
CIRCLE
  5
22B
100
AcDbEntity
  8
DRAWING
100
AcDbCircle
 62
7
  6
CONTINUOUS
 10
6.1303672762
 20
5.5201198968
 40
2.262
  0
ARC
  5
22C
100
AcDbEntity
  8
DRAWING
100
AcDbCircle
 62
7
  6
CONTINUOUS
 10
14.0017321141
 20
12.9218281293
 40
0.7497681992
100
AcDbArc
 50
156.5821770369
 51
162.8171747268
  0
ARC
  5
22D
100
AcDbEntity
  8
DRAWING
100
AcDbCircle
 62
7
  6
CONTINUOUS
 10
16.9183155786
 20
12.0206665457
 40
0.7475982007
100
AcDbArc
 50
342.8285299794
 51
349.0208496072
  0
ARC
  5
22E
100
AcDbEntity
  8
DRAWING
100
AcDbCircle
 62
7
  6
CONTINUOUS
 10
14.0361507556
 20
12.9975244918
 40
0.7473176476
100
AcDbArc
 50
167.2167433058
 51
169.0491994093
  0
ARC
  5
22F
100
AcDbEntity
  8
DRAWING
100
AcDbCircle
 62
7
  6
CONTINUOUS
 10
16.9321721219
 20
12.1023752973
 40
0.7454861226
100
AcDbArc
 50
336.5445478785
 51
340.8799540304
  0
SPLINE
  5
230
100
AcDbEntity
  8
DRAWING
100
AcDbSpline
 62
7
  6
CONTINUOUS
 70
0
 71
3
 72
15
 73
11
 74
0
 42
0.0000001
 43
0.0000001
 44
0.0000000001
 40
0.0
 40
0.0
 40
0.0
 40
0.0
 40
0.1370463897
 40
0.2699797552
 40
0.3990037182
 40
0.524425984
 40
0.6466930343
 40
0.7663211655
 40
0.8838842434
 40
1.0
 40
1.0
 40
1.0
 40
1.0
 10
13.3997758162
 20
12.5499713384
 30
0.0
 10
13.3875396163
 20
12.5749060922
 30
0.0
 10
13.3649913029
 20
12.6248132261
 30
0.0
 10
13.3368049886
 20
12.7006773185
 30
0.0
 10
13.3148826712
 20
12.7761431946
 30
0.0
 10
13.299322775
 20
12.8509721418
 30
0.0
 10
13.2901599167
 20
12.9249380987
 30
0.0
 10
13.2874358526
 20
12.9978337336
 30
0.0
 10
13.2911628965
 20
13.0694349852
 30
0.0
 10
13.2979705083
 20
13.1163847535
 30
0.0
 10
13.3024412634
 20
13.1394894435
 30
0.0
  0
SPLINE
  5
231
100
AcDbEntity
  8
DRAWING
100
AcDbSpline
 62
7
  6
CONTINUOUS
 70
0
 71
3
 72
48
 73
44
 74
0
 42
0.0000001
 43
0.0000001
 44
0.0000000001
 40
0.0
 40
0.0
 40
0.0
 40
0.0
 40
0.026523778
 40
0.0543677427
 40
0.0687858536
 40
0.0835308724
 40
0.1139841817
 40
0.129685452
 40
0.1456892742
 40
0.1785567073
 40
0.1953987296
 40
0.2124926503
 40
0.2473711772
 40
0.2830604996
 40
0.3194134982
 40
0.3562725655
 40
0.3934737364
 40
0.4308476047
 40
0.4682229495
 40
0.5054280662
 40
0.5422940643
 40
0.5786561387
 40
0.6143574402
 40
0.6492497651
 40
0.6831985676
 40
0.7160832932
 40
0.747803194
 40
0.7632026475
 40
0.7782834569
 40
0.8074614064
 40
0.8215584275
 40
0.835325697
 40
0.8618759517
 40
0.874679874
 40
0.8871807109
 40
0.91132045
 40
0.9344511186
 40
0.9457030841
 40
0.9567802232
 40
0.9677139828
 40
0.978537905
 40
0.9892876183
 40
1.0
 40
1.0
 40
1.0
 40
1.0
 10
17.578629546
 20
12.5499713384
 30
0.0
 10
17.5590374274
 20
12.5898958784
 30
0.0
 10
17.5147154382
 20
12.6697357635
 30
0.0
 10
17.4498947129
 20
12.765298574
 30
0.0
 10
17.3915446545
 20
12.8410330926
 30
0.0
 10
17.3274897953
 20
12.917799595
 30
0.0
 10
17.2576856269
 20
12.9924666988
 30
0.0
 10
17.1827282993
 20
13.0648987167
 30
0.0
 10
17.1024262976
 20
13.1375453076
 30
0.0
 10
17.0172035983
 20
13.2075116615
 30
0.0
 10
16.9275773137
 20
13.2747119561
 30
0.0
 10
16.8333014713
 20
13.3412581432
 30
0.0
 10
16.7096853352
 20
13.4209229926
 30
0.0
 10
16.5539959439
 20
13.5099646969
 30
0.0
 10
16.391013809
 20
13.592464383
 30
0.0
 10
16.2218590355
 20
13.6678773739
 30
0.0
 10
16.0476744152
 20
13.7356749408
 30
0.0
 10
15.8696504436
 20
13.7954091691
 30
0.0
 10
15.6889956262
 20
13.8466642904
 30
0.0
 10
15.5069405232
 20
13.8890954156
 30
0.0
 10
15.3247244472
 20
13.9224157654
 30
0.0
 10
15.1435852307
 20
13.9463908139
 30
0.0
 10
14.9647563033
 20
13.9608704891
 30
0.0
 10
14.7894508223
 20
13.9657385938
 30
0.0
 10
14.6188580568
 20
13.9609808473
 30
0.0
 10
14.4541392099
 20
13.9466073128
 30
0.0
 10
14.3214010992
 20
13.9265166684
 30
0.0
 10
14.219210331
 20
13.9055871282
 30
0.0
 10
14.1219764483
 20
13.8820396035
 30
0.0
 10
14.028179567
 20
13.8537745476
 30
0.0
 10
13.9384548264
 20
13.8205782828
 30
0.0
 10
13.8542930484
 20
13.7852985361
 30
0.0
 10
13.7744702834
 20
13.7454297312
 30
0.0
 10
13.69977604
 20
13.7008643562
 30
0.0
 10
13.6308433864
 20
13.6547492046
 30
0.0
 10
13.5521221568
 20
13.5923684074
 30
0.0
 10
13.4827863516
 20
13.5225471954
 30
0.0
 10
13.4345698809
 20
13.4634505758
 30
0.0
 10
13.4022350382
 20
13.4179548876
 30
0.0
 10
13.3734611213
 20
13.370966987
 30
0.0
 10
13.3483044198
 20
13.3225620305
 30
0.0
 10
13.3268123397
 20
13.2728287984
 30
0.0
 10
13.3149387252
 20
13.2388192568
 30
0.0
 10
13.3096349818
 20
13.2216586064
 30
0.0
  0
SPLINE
  5
232
100
AcDbEntity
  8
DRAWING
100
AcDbSpline
 62
7
  6
CONTINUOUS
 70
0
 71
3
 72
16
 73
12
 74
0
 42
0.0000001
 43
0.0000001
 44
0.0000000001
 40
0.0
 40
0.0
 40
0.0
 40
0.0
 40
0.0581782013
 40
0.116470866
 40
0.2338067559
 40
0.3529139697
 40
0.4745977362
 40
0.5995910415
 40
0.7285343026
 40
0.861906359
 40
1.0
 40
1.0
 40
1.0
 40
1.0
 10
17.6567965875
 20
11.8782840704
 30
0.0
 10
17.6607632163
 20
11.8911183884
 30
0.0
 10
17.6680114896
 20
11.9170330534
 30
0.0
 10
17.6797295286
 20
11.9697529052
 30
0.0
 10
17.6891037577
 20
12.0373008285
 30
0.0
 10
17.6918339553
 20
12.1200899735
 30
0.0
 10
17.686057239
 20
12.2044907849
 30
0.0
 10
17.6718219743
 20
12.290172942
 30
0.0
 10
17.6491834058
 20
12.376810103
 30
0.0
 10
17.618256611
 20
12.4640438933
 30
0.0
 10
17.5926765757
 20
12.5213465015
 30
0.0
 10
17.578629546
 20
12.5499713384
 30
0.0
  0
SPLINE
  5
233
100
AcDbEntity
  8
DRAWING
100
AcDbSpline
 62
7
  6
CONTINUOUS
 70
0
 71
3
 72
16
 73
12
 74
0
 42
0.0000001
 43
0.0000001
 44
0.0000000001
 40
0.0
 40
0.0
 40
0.0
 40
0.0
 40
0.138093641
 40
0.2714656974
 40
0.4004089585
 40
0.5254022638
 40
0.6470860303
 40
0.7661932441
 40
0.883529134
 40
0.9418217987
 40
1.0
 40
1.0
 40
1.0
 40
1.0
 10
17.5424491207
 20
12.4716386474
 30
0.0
 10
17.5564158817
 20
12.4431773811
 30
0.0
 10
17.5818497454
 20
12.3862022163
 30
0.0
 10
17.6125998156
 20
12.2994669048
 30
0.0
 10
17.6351090208
 20
12.2133248133
 30
0.0
 10
17.6492629412
 20
12.1281322685
 30
0.0
 10
17.6550066477
 20
12.0442137475
 30
0.0
 10
17.6522920512
 20
11.9618976833
 30
0.0
 10
17.6429713892
 20
11.8947357482
 30
0.0
 10
17.6313203103
 20
11.8423171526
 30
0.0
 10
17.6241134558
 20
11.8165505714
 30
0.0
 10
17.6201694935
 20
11.8037895924
 30
0.0
  0
SPLINE
  5
234
100
AcDbEntity
  8
DRAWING
100
AcDbSpline
 62
7
  6
CONTINUOUS
 70
0
 71
3
 72
48
 73
44
 74
0
 42
0.0000001
 43
0.0000001
 44
0.0000000001
 40
0.0
 40
0.0
 40
0.0
 40
0.0
 40
0.026523778
 40
0.0543677427
 40
0.0687858536
 40
0.0835308724
 40
0.1139841817
 40
0.129685452
 40
0.1456892742
 40
0.1785567073
 40
0.1953987296
 40
0.2124926503
 40
0.2473711772
 40
0.2830604996
 40
0.3194134982
 40
0.3562725655
 40
0.3934737364
 40
0.4308476047
 40
0.4682229495
 40
0.5054280662
 40
0.5422940643
 40
0.5786561387
 40
0.6143574402
 40
0.6492497651
 40
0.6831985676
 40
0.7160832932
 40
0.747803194
 40
0.7632026475
 40
0.7782834569
 40
0.8074614064
 40
0.8215584275
 40
0.835325697
 40
0.8618759517
 40
0.874679874
 40
0.8871807109
 40
0.91132045
 40
0.9344511186
 40
0.9457030841
 40
0.9567802232
 40
0.9677139828
 40
0.978537905
 40
0.9892876183
 40
1.0
 40
1.0
 40
1.0
 40
1.0
 10
13.3635953909
 20
12.4716386474
 30
0.0
 10
13.3831875095
 20
12.4317141074
 30
0.0
 10
13.4275094988
 20
12.3518742223
 30
0.0
 10
13.4923302241
 20
12.2563114118
 30
0.0
 10
13.5506802824
 20
12.1805768932
 30
0.0
 10
13.6147351417
 20
12.1038103908
 30
0.0
 10
13.68453931
 20
12.029143287
 30
0.0
 10
13.7594966376
 20
11.9567112691
 30
0.0
 10
13.8397986393
 20
11.8840646782
 30
0.0
 10
13.9250213386
 20
11.8140983243
 30
0.0
 10
14.0146476233
 20
11.7468980297
 30
0.0
 10
14.1089234657
 20
11.6803518426
 30
0.0
 10
14.2325396018
 20
11.6006869932
 30
0.0
 10
14.388228993
 20
11.511645289
 30
0.0
 10
14.5512111279
 20
11.4291456028
 30
0.0
 10
14.7203659015
 20
11.3537326119
 30
0.0
 10
14.8945505217
 20
11.2859350451
 30
0.0
 10
15.0725744934
 20
11.2262008167
 30
0.0
 10
15.2532293107
 20
11.1749456954
 30
0.0
 10
15.4352844138
 20
11.1325145702
 30
0.0
 10
15.6175004897
 20
11.0991942204
 30
0.0
 10
15.7986397062
 20
11.0752191719
 30
0.0
 10
15.9774686337
 20
11.0607394968
 30
0.0
 10
16.1527741146
 20
11.055871392
 30
0.0
 10
16.3233668801
 20
11.0606291385
 30
0.0
 10
16.4880857271
 20
11.075002673
 30
0.0
 10
16.6208238377
 20
11.0950933174
 30
0.0
 10
16.723014606
 20
11.1160228576
 30
0.0
 10
16.8202484886
 20
11.1395703823
 30
0.0
 10
16.91404537
 20
11.1678354382
 30
0.0
 10
17.0037701106
 20
11.2010317031
 30
0.0
 10
17.0879318886
 20
11.2363114498
 30
0.0
 10
17.1677546536
 20
11.2761802546
 30
0.0
 10
17.242448897
 20
11.3207456296
 30
0.0
 10
17.3113815506
 20
11.3668607812
 30
0.0
 10
17.3901027802
 20
11.4292415784
 30
0.0
 10
17.4594385853
 20
11.4990627904
 30
0.0
 10
17.507655056
 20
11.55815941
 30
0.0
 10
17.5399898987
 20
11.6036550982
 30
0.0
 10
17.5687638157
 20
11.6506429988
 30
0.0
 10
17.5939205172
 20
11.6990479554
 30
0.0
 10
17.6154125972
 20
11.7487811874
 30
0.0
 10
17.6272862118
 20
11.7827907291
 30
0.0
 10
17.6325899552
 20
11.7999513794
 30
0.0
  0
SPLINE
  5
235
100
AcDbEntity
  8
DRAWING
100
AcDbSpline
 62
7
  6
CONTINUOUS
 70
0
 71
3
 72
48
 73
44
 74
0
 42
0.0000001
 43
0.0000001
 44
0.0000000001
 40
0.0
 40
0.0
 40
0.0
 40
0.0
 40
0.0107011244
 40
0.0214915567
 40
0.0324040567
 40
0.0434694357
 40
0.0547165497
 40
0.066171799
 40
0.0897873093
 40
0.1144810986
 40
0.1403609915
 40
0.1674933388
 40
0.1959036465
 40
0.2105897344
 40
0.2255897185
 40
0.2565028004
 40
0.2724046146
 40
0.2885884333
 40
0.3217521771
 40
0.3387095983
 40
0.3558967472
 40
0.390894984
 40
0.4266168595
 40
0.4629185759
 40
0.4996483919
 40
0.5366488901
 40
0.573759051
 40
0.6108164106
 40
0.6476593159
 40
0.6841286702
 40
0.7200706947
 40
0.7553384038
 40
0.7897944844
 40
0.8066800464
 40
0.8233171577
 40
0.8557893386
 40
0.8716047861
 40
0.8871250119
 40
0.9172417421
 40
0.9318325557
 40
0.9461064315
 40
0.973692731
 40
1.0
 40
1.0
 40
1.0
 40
1.0
 10
17.6160585976
 20
11.8056450369
 30
0.0
 10
17.609075024
 20
11.7895451005
 30
0.0
 10
17.5939093982
 20
11.7576923081
 30
0.0
 10
17.5677821053
 20
11.7113724412
 30
0.0
 10
17.538252573
 20
11.6664258843
 30
0.0
 10
17.5053745452
 20
11.6229282693
 30
0.0
 10
17.4691974182
 20
11.5809512315
 30
0.0
 10
17.4161138319
 20
11.5265629947
 30
0.0
 10
17.3414450265
 20
11.4627105081
 30
0.0
 10
17.2407202536
 20
11.3940883417
 30
0.0
 10
17.1286344864
 20
11.3330505883
 30
0.0
 10
17.0059209158
 20
11.2799964886
 30
0.0
 10
16.8966886566
 20
11.243089942
 30
0.0
 10
16.8048458473
 20
11.2176829309
 30
0.0
 10
16.7081521621
 20
11.1946554223
 30
0.0
 10
16.6083545403
 20
11.176349598
 30
0.0
 10
16.50595109
 20
11.1625663623
 30
0.0
 10
16.3994969423
 20
11.1515719339
 30
0.0
 10
16.2908695206
 20
11.1452865558
 30
0.0
 10
16.1804912562
 20
11.143518356
 30
0.0
 10
16.0670949095
 20
11.1447932177
 30
0.0
 10
15.9230507766
 20
11.1521999128
 30
0.0
 10
15.7483844356
 20
11.1700977449
 30
0.0
 10
15.5719971494
 20
11.1969522385
 30
0.0
 10
15.3950338333
 20
11.2325776542
 30
0.0
 10
15.2186442107
 20
11.2767571225
 30
0.0
 10
15.0439685156
 20
11.3291875589
 30
0.0
 10
14.8721453245
 20
11.389546766
 30
0.0
 10
14.7042829952
 20
11.457424922
 30
0.0
 10
14.5414772078
 20
11.532399015
 30
0.0
 10
14.3847759511
 20
11.6139681426
 30
0.0
 10
14.235204475
 20
11.701615142
 30
0.0
 10
14.1165094637
 20
11.7797597842
 30
0.0
 10
14.0260118973
 20
11.8448857924
 30
0.0
 10
13.9399805464
 20
11.9105688624
 30
0.0
 10
13.8581782
 20
11.9788429069
 30
0.0
 10
13.7810840591
 20
12.0496221014
 30
0.0
 10
13.7090821944
 20
12.1201536891
 30
0.0
 10
13.6419999797
 20
12.1927809244
 30
0.0
 10
13.5803898904
 20
12.2673733617
 30
0.0
 10
13.5241917741
 20
12.3409663132
 30
0.0
 10
13.4616563168
 20
12.4337861258
 30
0.0
 10
13.4187819769
 20
12.5112408551
 30
0.0
 10
13.3997758162
 20
12.5499713384
 30
0.0
  0
SPLINE
  5
236
100
AcDbEntity
  8
DRAWING
100
AcDbSpline
 62
7
  6
CONTINUOUS
 70
0
 71
3
 72
16
 73
12
 74
0
 42
0.0000001
 43
0.0000001
 44
0.0000000001
 40
0.0
 40
0.0
 40
0.0
 40
0.0
 40
0.0581782013
 40
0.116470866
 40
0.2338067559
 40
0.3529139697
 40
0.4745977362
 40
0.5995910415
 40
0.7285343026
 40
0.861906359
 40
1.0
 40
1.0
 40
1.0
 40
1.0
 10
13.2854283494
 20
13.1433259154
 30
0.0
 10
13.2814617206
 20
13.1304915974
 30
0.0
 10
13.2742134474
 20
13.1045769325
 30
0.0
 10
13.2624954083
 20
13.0518570806
 30
0.0
 10
13.2531211793
 20
12.9843091573
 30
0.0
 10
13.2503909816
 20
12.9015200123
 30
0.0
 10
13.256167698
 20
12.8171192009
 30
0.0
 10
13.2704029627
 20
12.7314370438
 30
0.0
 10
13.2930415311
 20
12.6447998829
 30
0.0
 10
13.323968326
 20
12.5575660925
 30
0.0
 10
13.3495483613
 20
12.5002634843
 30
0.0
 10
13.3635953909
 20
12.4716386474
 30
0.0
  0
SPLINE
  5
237
100
AcDbEntity
  8
DRAWING
100
AcDbSpline
 62
7
  6
CONTINUOUS
 70
0
 71
3
 72
48
 73
44
 74
0
 42
0.0000001
 43
0.0000001
 44
0.0000000001
 40
0.0
 40
0.0
 40
0.0
 40
0.0
 40
0.0107123817
 40
0.021462095
 40
0.0322860172
 40
0.0432197768
 40
0.0542969159
 40
0.0655488814
 40
0.08867955
 40
0.1128192891
 40
0.125320126
 40
0.1381240483
 40
0.164674303
 40
0.1784415725
 40
0.1925385936
 40
0.2217165431
 40
0.2367973525
 40
0.252196806
 40
0.2839167068
 40
0.3168014324
 40
0.3507502349
 40
0.3856425598
 40
0.4213438613
 40
0.4577059357
 40
0.4945719338
 40
0.5317770505
 40
0.5691523953
 40
0.6065262636
 40
0.6437274345
 40
0.6805865018
 40
0.7169395004
 40
0.7526288228
 40
0.7875073497
 40
0.8046012704
 40
0.8214432927
 40
0.8543107258
 40
0.870314548
 40
0.8860158183
 40
0.9164691276
 40
0.9312141464
 40
0.9456322573
 40
0.973476222
 40
1.0
 40
1.0
 40
1.0
 40
1.0
 10
13.2978488111
 20
13.1394877025
 30
0.0
 10
13.3031222475
 20
13.156550292
 30
0.0
 10
13.3149280128
 20
13.1903654934
 30
0.0
 10
13.3362972809
 20
13.2398145355
 30
0.0
 10
13.3613102299
 20
13.2879428923
 30
0.0
 10
13.3899197244
 20
13.3346622906
 30
0.0
 10
13.4220697966
 20
13.3798980035
 30
0.0
 10
13.4700107446
 20
13.4386569281
 30
0.0
 10
13.5389503452
 20
13.5080791617
 30
0.0
 10
13.6172217391
 20
13.5701034973
 30
0.0
 10
13.6857604919
 20
13.6159551337
 30
0.0
 10
13.760027911
 20
13.6602658494
 30
0.0
 10
13.839394546
 20
13.6999068325
 30
0.0
 10
13.9230753995
 20
13.7349849807
 30
0.0
 10
14.0122874273
 20
13.7679915526
 30
0.0
 10
14.1055483265
 20
13.7960950939
 30
0.0
 10
14.202226587
 20
13.8195080613
 30
0.0
 10
14.303833408
 20
13.8403180041
 30
0.0
 10
14.4358130151
 20
13.8602938449
 30
0.0
 10
14.5995906115
 20
13.8745852449
 30
0.0
 10
14.7692085612
 20
13.8793158042
 30
0.0
 10
14.9435122965
 20
13.8744755172
 30
0.0
 10
15.1213193444
 20
13.8600785831
 30
0.0
 10
15.3014234797
 20
13.8362405349
 30
0.0
 10
15.4825983209
 20
13.8031105871
 30
0.0
 10
15.6636131091
 20
13.7609219254
 30
0.0
 10
15.8432356132
 20
13.7099596906
 30
0.0
 10
16.020242305
 20
13.6505668006
 30
0.0
 10
16.1934315846
 20
13.5831566485
 30
0.0
 10
16.3616197594
 20
13.508174589
 30
0.0
 10
16.5236705678
 20
13.4261463296
 30
0.0
 10
16.6784703054
 20
13.3376134351
 30
0.0
 10
16.8013800636
 20
13.2584038133
 30
0.0
 10
16.8951171869
 20
13.1922378902
 30
0.0
 10
16.9842313213
 20
13.1254215972
 30
0.0
 10
17.0689670338
 20
13.0558550511
 30
0.0
 10
17.1488101669
 20
12.9836235836
 30
0.0
 10
17.2233391669
 20
12.9116054629
 30
0.0
 10
17.2927444543
 20
12.8373650283
 30
0.0
 10
17.3564332858
 20
12.7610371916
 30
0.0
 10
17.4144499152
 20
12.6857354417
 30
0.0
 10
17.4789002364
 20
12.5907187044
 30
0.0
 10
17.5229689571
 20
12.5113350472
 30
0.0
 10
17.5424491207
 20
12.4716386474
 30
0.0
  0
SPLINE
  5
238
100
AcDbEntity
  8
DRAWING
100
AcDbSpline
 62
7
  6
CONTINUOUS
 70
0
 71
3
 72
16
 73
12
 74
0
 42
0.0000001
 43
0.0000001
 44
0.0000000001
 40
0.0
 40
0.0
 40
0.0
 40
0.0
 40
0.138093641
 40
0.2714656974
 40
0.4004089585
 40
0.5254022638
 40
0.6470860303
 40
0.7661932441
 40
0.883529134
 40
0.9418217987
 40
1.0
 40
1.0
 40
1.0
 40
1.0
 10
13.3755691839
 20
12.4716386474
 30
0.0
 10
13.3616024229
 20
12.5000999138
 30
0.0
 10
13.3361685592
 20
12.5570750786
 30
0.0
 10
13.305418489
 20
12.6438103901
 30
0.0
 10
13.2829092838
 20
12.7299524816
 30
0.0
 10
13.2687553634
 20
12.8151450263
 30
0.0
 10
13.2630116569
 20
12.8990635474
 30
0.0
 10
13.2657262534
 20
12.9813796116
 30
0.0
 10
13.2750469154
 20
13.0485415467
 30
0.0
 10
13.2866979943
 20
13.1009601423
 30
0.0
 10
13.2939048488
 20
13.1267267234
 30
0.0
 10
13.2978488111
 20
13.1394877025
 30
0.0
  0
SPLINE
  5
239
100
AcDbEntity
  8
DRAWING
100
AcDbSpline
 62
7
  6
CONTINUOUS
 70
0
 71
3
 72
48
 73
44
 74
0
 42
0.0000001
 43
0.0000001
 44
0.0000000001
 40
0.0
 40
0.0
 40
0.0
 40
0.0
 40
0.0263085195
 40
0.0538963041
 40
0.0681710103
 40
0.0827627112
 40
0.1128813773
 40
0.1284026445
 40
0.1442191756
 40
0.1766936313
 40
0.1933319227
 40
0.2102186855
 40
0.2446772041
 40
0.2799473517
 40
0.3158917608
 40
0.3523633855
 40
0.3892083902
 40
0.4262676192
 40
0.4633793659
 40
0.5003811129
 40
0.5371117958
 40
0.573413954
 40
0.6091358164
 40
0.6441335566
 40
0.6613202749
 40
0.6782771409
 40
0.7114393999
 40
0.7276222983
 40
0.7435230747
 40
0.7744337475
 40
0.78943238
 40
0.8041170249
 40
0.8325242215
 40
0.8596532523
 40
0.8855297662
 40
0.9102202809
 40
0.9338328349
 40
0.9452867979
 40
0.9565327909
 40
0.9675972481
 40
0.9785090519
 40
0.98929904
 40
1.0
 40
1.0
 40
1.0
 40
1.0
 10
17.5544229137
 20
12.4716386474
 30
0.0
 10
17.5353047978
 20
12.5105972714
 30
0.0
 10
17.4921772063
 20
12.58850823
 30
0.0
 10
17.42927139
 20
12.6818741351
 30
0.0
 10
17.3727398956
 20
12.7558998763
 30
0.0
 10
17.3107638446
 20
12.8309310036
 30
0.0
 10
17.2432828252
 20
12.9039849453
 30
0.0
 10
17.1708527143
 20
12.9749304794
 30
0.0
 10
17.0932997932
 20
13.0461248593
 30
0.0
 10
17.0110105492
 20
13.1147987896
 30
0.0
 10
16.9244671349
 20
13.1808659544
 30
0.0
 10
16.833430931
 20
13.2463723405
 30
0.0
 10
16.7140296259
 20
13.3249723753
 30
0.0
 10
16.563568574
 20
13.4131284313
 30
0.0
 10
16.4059360182
 20
13.4951692677
 30
0.0
 10
16.2421636095
 20
13.5705746385
 30
0.0
 10
16.0733058374
 20
13.63884058
 30
0.0
 10
15.9004651898
 20
13.6995415662
 30
0.0
 10
15.7247569026
 20
13.7522653454
 30
0.0
 10
15.5473265859
 20
13.7966877934
 30
0.0
 10
15.3693215394
 20
13.8325041404
 30
0.0
 10
15.1918985492
 20
13.8594961977
 30
0.0
 10
15.0162095968
 20
13.8774773466
 30
0.0
 10
14.8713243823
 20
13.8849078768
 30
0.0
 10
14.7572677544
 20
13.8861737133
 30
0.0
 10
14.6462489289
 20
13.8843783731
 30
0.0
 10
14.5369927108
 20
13.8780385418
 30
0.0
 10
14.4299242139
 20
13.8669612464
 30
0.0
 10
14.3269322293
 20
13.853078825
 30
0.0
 10
14.2265630822
 20
13.8346465824
 30
0.0
 10
14.1293180799
 20
13.8114642968
 30
0.0
 10
14.0369542811
 20
13.7858888928
 30
0.0
 10
13.9271059639
 20
13.7487414244
 30
0.0
 10
13.8037064684
 20
13.6953459748
 30
0.0
 10
13.6910015622
 20
13.6339200241
 30
0.0
 10
13.5897287911
 20
13.5648653139
 30
0.0
 10
13.5146620508
 20
13.5006137319
 30
0.0
 10
13.4613015162
 20
13.445887648
 30
0.0
 10
13.4249386598
 20
13.4036504763
 30
0.0
 10
13.3918952126
 20
13.3598841986
 30
0.0
 10
13.3622208867
 20
13.314660859
 30
0.0
 10
13.3359697764
 20
13.2680565496
 30
0.0
 10
13.3207357177
 20
13.2360091493
 30
0.0
 10
13.3137215411
 20
13.2198110216
 30
0.0
  0
SPLINE
  5
23A
100
AcDbEntity
  8
DRAWING
100
AcDbSpline
 62
7
  6
CONTINUOUS
 70
0
 71
3
 72
48
 73
44
 74
0
 42
0.0000001
 43
0.0000001
 44
0.0000000001
 40
0.0
 40
0.0
 40
0.0
 40
0.0
 40
0.0107123817
 40
0.021462095
 40
0.0322860172
 40
0.0432197768
 40
0.0542969159
 40
0.0655488814
 40
0.08867955
 40
0.1128192891
 40
0.125320126
 40
0.1381240483
 40
0.164674303
 40
0.1784415725
 40
0.1925385936
 40
0.2217165431
 40
0.2367973525
 40
0.252196806
 40
0.2839167068
 40
0.3168014324
 40
0.3507502349
 40
0.3856425598
 40
0.4213438613
 40
0.4577059357
 40
0.4945719338
 40
0.5317770505
 40
0.5691523953
 40
0.6065262636
 40
0.6437274345
 40
0.6805865018
 40
0.7169395004
 40
0.7526288228
 40
0.7875073497
 40
0.8046012704
 40
0.8214432927
 40
0.8543107258
 40
0.870314548
 40
0.8860158183
 40
0.9164691276
 40
0.9312141464
 40
0.9456322573
 40
0.973476222
 40
1.0
 40
1.0
 40
1.0
 40
1.0
 10
17.6201694935
 20
11.8037895924
 30
0.0
 10
17.6148960571
 20
11.7867270029
 30
0.0
 10
17.6030902918
 20
11.7529118015
 30
0.0
 10
17.5817210237
 20
11.7034627593
 30
0.0
 10
17.5567080747
 20
11.6553344025
 30
0.0
 10
17.5280985802
 20
11.6086150042
 30
0.0
 10
17.495948508
 20
11.5633792913
 30
0.0
 10
17.44800756
 20
11.5046203667
 30
0.0
 10
17.3790679595
 20
11.4351981331
 30
0.0
 10
17.3007965655
 20
11.3731737976
 30
0.0
 10
17.2322578127
 20
11.3273221612
 30
0.0
 10
17.1579903936
 20
11.2830114454
 30
0.0
 10
17.0786237587
 20
11.2433704623
 30
0.0
 10
16.9949429051
 20
11.2082923142
 30
0.0
 10
16.9057308773
 20
11.1752857422
 30
0.0
 10
16.8124699781
 20
11.147182201
 30
0.0
 10
16.7157917176
 20
11.1237692335
 30
0.0
 10
16.6141848967
 20
11.1029592907
 30
0.0
 10
16.4822052895
 20
11.08298345
 30
0.0
 10
16.3184276931
 20
11.06869205
 30
0.0
 10
16.1488097434
 20
11.0639614906
 30
0.0
 10
15.9745060081
 20
11.0688017776
 30
0.0
 10
15.7966989602
 20
11.0831987117
 30
0.0
 10
15.616594825
 20
11.10703676
 30
0.0
 10
15.4354199837
 20
11.1401667078
 30
0.0
 10
15.2544051955
 20
11.1823553694
 30
0.0
 10
15.0747826914
 20
11.2333176043
 30
0.0
 10
14.8977759996
 20
11.2927104942
 30
0.0
 10
14.72458672
 20
11.3601206464
 30
0.0
 10
14.5563985452
 20
11.4351027059
 30
0.0
 10
14.3943477368
 20
11.5171309653
 30
0.0
 10
14.2395479992
 20
11.6056638598
 30
0.0
 10
14.116638241
 20
11.6848734815
 30
0.0
 10
14.0229011177
 20
11.7510394047
 30
0.0
 10
13.9337869833
 20
11.8178556976
 30
0.0
 10
13.8490512708
 20
11.8874222437
 30
0.0
 10
13.7692081377
 20
11.9596537113
 30
0.0
 10
13.6946791377
 20
12.0316718319
 30
0.0
 10
13.6252738503
 20
12.1059122666
 30
0.0
 10
13.5615850188
 20
12.1822401032
 30
0.0
 10
13.5035683894
 20
12.2575418531
 30
0.0
 10
13.4391180682
 20
12.3525585905
 30
0.0
 10
13.3950493475
 20
12.4319422477
 30
0.0
 10
13.3755691839
 20
12.4716386474
 30
0.0
  0
SPLINE
  5
23B
100
AcDbEntity
  8
DRAWING
100
AcDbSpline
 62
7
  6
CONTINUOUS
 70
0
 71
3
 72
15
 73
11
 74
0
 42
0.0000001
 43
0.0000001
 44
0.0000000001
 40
0.0
 40
0.0
 40
0.0
 40
0.0
 40
0.1161160215
 40
0.2336770179
 40
0.353301964
 40
0.475565906
 40
0.6009862274
 40
0.7300104054
 40
0.8629469804
 40
1.0
 40
1.0
 40
1.0
 40
1.0
 10
17.6522301551
 20
11.8782851419
 30
0.0
 10
17.6567440158
 20
11.9015372465
 30
0.0
 10
17.6636223612
 20
11.9487879224
 30
0.0
 10
17.6674077301
 20
12.0208516611
 30
0.0
 10
17.6646944811
 20
12.0942203533
 30
0.0
 10
17.6554947853
 20
12.1686680701
 30
0.0
 10
17.6398507911
 20
12.2439857748
 30
0.0
 10
17.6177973488
 20
12.3199456049
 30
0.0
 10
17.5894335716
 20
12.3963069067
 30
0.0
 10
17.5667391943
 20
12.4465407063
 30
0.0
 10
17.5544229137
 20
12.4716386474
 30
0.0
  0
ENDSEC
  0
SECTION
  2
OBJECTS
  0
DICTIONARY
  5
C
100
AcDbDictionary
280
0
281
1
  3
ACAD_GROUP
350
D
  3
ACAD_MLINESTYLE
350
17
  3
ACAD_LAYOUT
350
1A
  3
ACAD_PLOTSETTINGS
350
19
  3
ACAD_PLOTSTYLENAME
350
E
  0
DICTIONARY
  5
D
102
{ACAD_REACTORS
330
C
102
}
100
AcDbDictionary
280
0
281
1
  0
ACDBDICTIONARYWDFLT
  5
E
102
{ACAD_REACTORS
330
C
102
}
100
AcDbDictionary
281
1
  3
Normal
350
F
100
AcDbDictionaryWithDefault
340
F
  0
DICTIONARY
  5
17
102
{ACAD_REACTORS
330
C
102
}
100
AcDbDictionary
280
0
281
1
  3
Standard
350
18
  0
DICTIONARY
  5
19
102
{ACAD_REACTORS
330
C
102
}
100
AcDbDictionary
281
1
  0
DICTIONARY
  5
1A
102
{ACAD_REACTORS
330
C
102
}
100
AcDbDictionary
281
1
  3
Model
350
23C
  3
Layout1
350
23D
  0
ACDBPLACEHOLDER
  5
F
102
{ACAD_REACTORS
330
E
102
}
  0
MLINESTYLE
  5
18
102
{ACAD_REACTORS
330
17
102
}
100
AcDbMlineStyle
  2
STANDARD
 70
0
  3

 62
256
 51
90.0
 52
90.0
 71
2
 49
0.5
 62
256
  6
BYLAYER
 49
-0.5
 62
256
  6
BYLAYER
  0
LAYOUT
  5
23C
102
{ACAD_REACTORS
330
1A
102
}
100
AcDbPlotSettings
  1

  2
none_device
  4
ANSI_C_(22.00_x_17.00_Inches)
  6

 40
0.0
 41
0.0
 42
0.0
 43
0.0
 44
558.8
 45
431.8
 46
0.0
 47
0.0
 48
0.0
 49
0.0
140
0.0
141
0.0
142
1.0
143
1.0
 70
1024
 72
0
 73
0
 74
0
  7

 75
0
147
1.0
148
0.0
149
0.0
100
AcDbLayout
  1
Model
 70
0
 71
0
 10
0.0
 20
0.0
 11
22.0
 21
17.0
 12
0.0
 22
0.0
 32
0.0
 14
0.0
 24
0.0
 34
0.0
 15
0.0
 25
0.0
 35
0.0
146
0.0
 13
0.0
 23
0.0
 33
0.0
 16
1.0
 26
0.0
 36
0.0
 17
0.0
 27
1.0
 37
0.0
 76
0
330
218
345
0
346
0
  0
LAYOUT
  5
23D
102
{ACAD_REACTORS
330
1A
102
}
100
AcDbPlotSettings
  1

  2
none_device
  4
ANSI_C_(22.00_x_17.00_Inches)
  6

 40
0.0
 41
0.0
 42
0.0
 43
0.0
 44
558.8
 45
431.8
 46
0.0
 47
0.0
 48
0.0
 49
0.0
140
0.0
141
0.0
142
1.0
143
1.0
 70
0
 72
0
 73
0
 74
0
  7

 75
0
147
1.0
148
0.0
149
0.0
100
AcDbLayout
  1
Layout1
 70
0
 71
1
 10
0.0
 20
0.0
 11
22.0
 21
17.0
 12
0.0
 22
0.0
 32
0.0
 14
0.0
 24
0.0
 34
0.0
 15
0.0
 25
0.0
 35
0.0
146
0.0
 13
0.0
 23
0.0
 33
0.0
 16
1.0
 26
0.0
 36
0.0
 17
0.0
 27
1.0
 37
0.0
 76
0
330
219
345
0
346
0
  0
ENDSEC
  0
EOF