999
DXF file: _cgs_temp_output.dxf
999
Pro/ENGINEER 2016360 by Parametric Technology Corporation
  0
SECTION
  2
HEADER
  9
$ACADVER
  1
AC1021
  9
$DWGCODEPAGE
  3
ANSI_1252
  9
$EXTMAX
 10
22.0
 20
17.0
 30
0.0
  9
$EXTMIN
 10
0.0
 20
0.0
 30
0.0
  9
$LIMMIN
 10
0.0
 20
0.0
  9
$LIMMAX
 10
22.0
 20
17.0
  9
$VIEWCTR
 10
11.0
 20
8.5
  9
$VIEWSIZE
 40
17.0
  9
$CLAYER
  8
0
  9
$LTSCALE
 40
1.21
  9
$CELTYPE
  6
BYLAYER
  9
$DIMSCALE
 40
1.0
  9
$DIMASZ
 40
0.1875
  9
$DIMEXO
 40
0.0625
  9
$DIMDLI
 40
0.836
  9
$DIMEXE
 40
0.125
  9
$DIMCEN
 40
0.198
  9
$DIMLFAC
 40
1.0
  9
$DIMBLK
  1
_CLOSED
  9
$DIMALT
 70
0
  9
$DIMALTF
 40
25.4
  9
$DIMTXT
 40
0.15625
  9
$DIMTOL
 70
0
  9
$DIMLIM
 70
0
  9
$DIMTFAC
 40
1.0
  9
$DIMGAP
 40
0.09
  9
$DIMDSEP
 70
46
  9
$AUNITS
 70
0
  9
$PDMODE
 70
3
  9
$PDSIZE
 40
0.3125
  9
$HANDSEED
  5
64F
  9
$TILEMODE
 70
1
  9
$MEASUREMENT
 70
0
  9
$INSUNITS
 70
1
  0
ENDSEC
  0
SECTION
  2
CLASSES
  0
CLASS
  1
ACDBDICTIONARYWDFLT
  2
AcDbDictionaryWithDefault
  3
AutoCAD 2000
 90
0
 91
1
280
0
281
0
  0
CLASS
  1
ACDBPLACEHOLDER
  2
AcDbPlaceHolder
  3
AutoCAD 2000
 90
0
 91
1
280
0
281
0
  0
CLASS
  1
LAYOUT
  2
AcDbLayout
  3
AutoCAD 2000
 90
0
 91
0
280
0
281
0
  0
ENDSEC
  0
SECTION
  2
TABLES
  0
TABLE
  2
VPORT
  5
8
100
AcDbSymbolTable
 70
2
  0
VPORT
  5
1F4
100
AcDbSymbolTableRecord
100
AcDbViewportTableRecord
  2
*ACTIVE
 70
0
 10
0.0
 20
0.0
 11
1.0
 21
1.0
 12
11.0
 22
8.5
 13
0.0
 23
0.0
 14
1.0
 24
1.0
 15
0.0
 25
0.0
 16
0.0
 26
0.0
 36
1.0
 17
0.0
 27
0.0
 37
0.0
 40
17.0
 41
1.2941176471
 42
50.0
 43
0.0
 44
0.0
 50
0.0
 51
0.0
 71
0
 72
100
 73
1
 74
1
 75
0
 76
0
 77
0
 78
0
  0
ENDTAB
  0
TABLE
  2
LTYPE
  5
5
100
AcDbSymbolTable
 70
6
  0
LTYPE
  5
14
100
AcDbSymbolTableRecord
100
AcDbLinetypeTableRecord
  2
BYBLOCK
 70
0
  3

 72
65
 73
0
 40
0.0
  0
LTYPE
  5
15
100
AcDbSymbolTableRecord
100
AcDbLinetypeTableRecord
  2
BYLAYER
 70
0
  3

 72
65
 73
0
 40
0.0
  0
LTYPE
  5
16
100
AcDbSymbolTableRecord
100
AcDbLinetypeTableRecord
  2
CONTINUOUS
 70
64
  3
Solid line
 72
65
 73
0
 40
0.0
  0
LTYPE
  5
1F5
100
AcDbSymbolTableRecord
100
AcDbLinetypeTableRecord
  2
CENTER
 70
64
  3
____ _ ____ _ ____ _ ____ _ ____ _ ____ _ ____
 72
65
 73
4
 40
0.6
 49
0.375
 74
0
 49
-0.075
 74
0
 49
0.075
 74
0
 49
-0.075
 74
0
  0
LTYPE
  5
1F6
100
AcDbSymbolTableRecord
100
AcDbLinetypeTableRecord
  2
HIDDEN
 70
64
  3
- - - - - - - - - - - - - - - - - - - -
 72
65
 73
2
 40
0.2
 49
0.1
 74
0
 49
-0.1
 74
0
  0
LTYPE
  5
1F7
100
AcDbSymbolTableRecord
100
AcDbLinetypeTableRecord
  2
PHANTOM
 70
64
  3
_____ _ _ _____ _ _ _____ _ _ _____
 72
65
 73
6
 40
0.8
 49
0.45
 74
0
 49
-0.05
 74
0
 49
0.1
 74
0
 49
-0.05
 74
0
 49
0.1
 74
0
 49
-0.05
 74
0
  0
LTYPE
  5
1F8
100
AcDbSymbolTableRecord
100
AcDbLinetypeTableRecord
  2
DOT
 70
64
  3
. . . . . . . . . . . . . . . . . . . .
 72
65
 73
2
 40
0.2
 49
0.1
 74
0
 49
-0.1
 74
0
  0
LTYPE
  5
1F9
100
AcDbSymbolTableRecord
100
AcDbLinetypeTableRecord
  2
DASHED
 70
64
  3
- - - - - - - - - - - - - - - - - - - -
 72
65
 73
2
 40
0.2
 49
0.1
 74
0
 49
-0.1
 74
0
  0
ENDTAB
  0
TABLE
  2
LAYER
  5
2
100
AcDbSymbolTable
 70
36
  0
LAYER
  5
10
100
AcDbSymbolTableRecord
100
AcDbLayerTableRecord
  2
0
 70
0
 62
7
  6
CONTINUOUS
370
-3
390
F
  0
LAYER
  5
1FA
100
AcDbSymbolTableRecord
100
AcDbLayerTableRecord
  2
DEFAULT_1
 70
0
 62
7
  6
CENTER
370
-3
390
F
  0
LAYER
  5
1FB
100
AcDbSymbolTableRecord
100
AcDbLayerTableRecord
  2
DEFAULT_2
 70
0
 62
8
  6
HIDDEN
370
-3
390
F
  0
LAYER
  5
1FC
100
AcDbSymbolTableRecord
100
AcDbLayerTableRecord
  2
DEFAULT_3
 70
0
 62
7
  6
PHANTOM
370
-3
390
F
  0
LAYER
  5
1FD
100
AcDbSymbolTableRecord
100
AcDbLayerTableRecord
  2
01_ALL_DTM_PLN
 70
0
 62
7
  6
CONTINUOUS
370
-3
390
F
  0
LAYER
  5
1FE
100
AcDbSymbolTableRecord
100
AcDbLayerTableRecord
  2
01__ASM_ALL_DTM_PLN
 70
0
 62
7
  6
CONTINUOUS
370
-3
390
F
  0
LAYER
  5
1FF
100
AcDbSymbolTableRecord
100
AcDbLayerTableRecord
  2
01__ASM_DEF_DTM_PLN
 70
0
 62
7
  6
CONTINUOUS
370
-3
390
F
  0
LAYER
  5
200
100
AcDbSymbolTableRecord
100
AcDbLayerTableRecord
  2
01___PRT_ALL_DTM_PLN
 70
0
 62
7
  6
CONTINUOUS
370
-3
390
F
  0
LAYER
  5
201
100
AcDbSymbolTableRecord
100
AcDbLayerTableRecord
  2
01___PRT_DEF_DTM_PLN
 70
0
 62
7
  6
CONTINUOUS
370
-3
390
F
  0
LAYER
  5
202
100
AcDbSymbolTableRecord
100
AcDbLayerTableRecord
  2
02_ALL_AXES
 70
0
 62
7
  6
CONTINUOUS
370
-3
390
F
  0
LAYER
  5
203
100
AcDbSymbolTableRecord
100
AcDbLayerTableRecord
  2
02__ASM_ALL_AXES
 70
0
 62
7
  6
CONTINUOUS
370
-3
390
F
  0
LAYER
  5
204
100
AcDbSymbolTableRecord
100
AcDbLayerTableRecord
  2
02___PRT_ALL_AXES
 70
0
 62
7
  6
CONTINUOUS
370
-3
390
F
  0
LAYER
  5
205
100
AcDbSymbolTableRecord
100
AcDbLayerTableRecord
  2
03_ALL_CURVES
 70
0
 62
7
  6
CONTINUOUS
370
-3
390
F
  0
LAYER
  5
206
100
AcDbSymbolTableRecord
100
AcDbLayerTableRecord
  2
03__ASM_ALL_CURVES
 70
0
 62
7
  6
CONTINUOUS
370
-3
390
F
  0
LAYER
  5
207
100
AcDbSymbolTableRecord
100
AcDbLayerTableRecord
  2
03___PRT_ALL_CURVES
 70
0
 62
7
  6
CONTINUOUS
370
-3
390
F
  0
LAYER
  5
208
100
AcDbSymbolTableRecord
100
AcDbLayerTableRecord
  2
04_ALL_DTM_PNT
 70
0
 62
7
  6
CONTINUOUS
370
-3
390
F
  0
LAYER
  5
209
100
AcDbSymbolTableRecord
100
AcDbLayerTableRecord
  2
04__ASM_ALL_DTM_PNT
 70
0
 62
7
  6
CONTINUOUS
370
-3
390
F
  0
LAYER
  5
20A
100
AcDbSymbolTableRecord
100
AcDbLayerTableRecord
  2
04___PRT_ALL_DTM_PNT
 70
0
 62
7
  6
CONTINUOUS
370
-3
390
F
  0
LAYER
  5
20B
100
AcDbSymbolTableRecord
100
AcDbLayerTableRecord
  2
05_ALL_DTM_CSYS
 70
0
 62
7
  6
CONTINUOUS
370
-3
390
F
  0
LAYER
  5
20C
100
AcDbSymbolTableRecord
100
AcDbLayerTableRecord
  2
05__ASM_ALL_DTM_CSYS
 70
0
 62
7
  6
CONTINUOUS
370
-3
390
F
  0
LAYER
  5
20D
100
AcDbSymbolTableRecord
100
AcDbLayerTableRecord
  2
05__ASM_DEF_DTM_CSYS
 70
0
 62
7
  6
CONTINUOUS
370
-3
390
F
  0
LAYER
  5
20E
100
AcDbSymbolTableRecord
100
AcDbLayerTableRecord
  2
05___PRT_ALL_DTM_CSYS
 70
0
 62
7
  6
CONTINUOUS
370
-3
390
F
  0
LAYER
  5
20F
100
AcDbSymbolTableRecord
100
AcDbLayerTableRecord
  2
05___PRT_DEF_DTM_CSYS
 70
0
 62
7
  6
CONTINUOUS
370
-3
390
F
  0
LAYER
  5
210
100
AcDbSymbolTableRecord
100
AcDbLayerTableRecord
  2
06_ALL_SURFS
 70
0
 62
7
  6
CONTINUOUS
370
-3
390
F
  0
LAYER
  5
211
100
AcDbSymbolTableRecord
100
AcDbLayerTableRecord
  2
06__ASM_ALL_SURFS
 70
0
 62
7
  6
CONTINUOUS
370
-3
390
F
  0
LAYER
  5
212
100
AcDbSymbolTableRecord
100
AcDbLayerTableRecord
  2
06___PRT_ALL_SURFS
 70
0
 62
7
  6
CONTINUOUS
370
-3
390
F
  0
LAYER
  5
213
100
AcDbSymbolTableRecord
100
AcDbLayerTableRecord
  2
07__ASM_ALL_SKELETONS
 70
0
 62
7
  6
CONTINUOUS
370
-3
390
F
  0
LAYER
  5
214
100
AcDbSymbolTableRecord
100
AcDbLayerTableRecord
  2
DRAWING
 70
0
 62
7
  6
CONTINUOUS
370
-3
390
F
  0
LAYER
  5
215
100
AcDbSymbolTableRecord
100
AcDbLayerTableRecord
  2
SHELL
 70
0
 62
7
  6
CONTINUOUS
370
-3
390
F
  0
ENDTAB
  0
TABLE
  2
STYLE
  5
3
100
AcDbSymbolTable
 70
1
  0
STYLE
  5
11
100
AcDbSymbolTableRecord
100
AcDbTextStyleTableRecord
  2
STANDARD
 70
0
 40
0.0
 41
0.8
 50
0.0
 71
0
 42
0.2
  3
txt
  4

  0
STYLE
  5
216
100
AcDbSymbolTableRecord
100
AcDbTextStyleTableRecord
  2
TEXTSTYLE_1
 70
0
 40
0.0
 41
0.8
 50
0.0
 71
0
 42
0.2
  3
gdt
  4

  0
ENDTAB
  0
TABLE
  2
VIEW
  5
6
100
AcDbSymbolTable
 70
0
  0
ENDTAB
  0
TABLE
  2
UCS
  5
7
100
AcDbSymbolTable
 70
0
  0
ENDTAB
  0
TABLE
  2
APPID
  5
9
100
AcDbSymbolTable
 70
1
  0
APPID
  5
217
100
AcDbSymbolTableRecord
100
AcDbRegAppTableRecord
  2
ACAD
 70
0
  0
ENDTAB
  0
TABLE
  2
BLOCK_RECORD
  5
1
100
AcDbSymbolTable
 70
0
  0
BLOCK_RECORD
  5
218
100
AcDbSymbolTableRecord
100
AcDbBlockTableRecord
  2
*Model_Space
  0
BLOCK_RECORD
  5
219
100
AcDbSymbolTableRecord
100
AcDbBlockTableRecord
  2
*Paper_Space
  0
ENDTAB
  0
TABLE
  2
DIMSTYLE
  5
A
100
AcDbSymbolTable
 70
1
100
AcDbDimStyleTable
 71
0
  0
DIMSTYLE
105
21A
100
AcDbSymbolTableRecord
100
AcDbDimStyleTableRecord
  2
STANDARD
 70
0
  3

  4

 40
1.0
 41
0.1875
 42
0.0625
 43
0.38
 44
0.125
 45
0.0
 46
0.0
 47
0.0001
 48
0.0001
140
0.15625
141
0.09
142
0.0
143
25.4
144
1.0
145
0.0
146
1.0
147
0.09
 71
0.0
 72
0.0
 73
1
 74
1
 75
0
 76
0
 77
0
 78
4
 79
1
170
0
171
3
172
0
173
0
174
0
175
0
176
0
177
0
178
0
270
2
179
4
271
4
272
4
273
2
274
2
275
0
280
0
281
0
282
0
283
1
284
4
285
0
286
0
287
3
288
0
340
11
278
46
  0
ENDTAB
  0
ENDSEC
  0
SECTION
  2
BLOCKS
  0
BLOCK
  5
20
100
AcDbEntity
  8
0
100
AcDbBlockBegin
  2
*Model_Space
 70
0
 10
0.0
 20
0.0
 30
0.0
  3
*Model_Space
  1

  0
ENDBLK
  5
21
100
AcDbEntity
  8
0
100
AcDbBlockEnd
  0
BLOCK
  5
1C
100
AcDbEntity
  8
0
100
AcDbBlockBegin
  2
*Paper_Space
 70
0
 10
0.0
 20
0.0
 30
0.0
  3
*Paper_Space
  1

  0
ENDBLK
  5
1D
100
AcDbEntity
  8
0
100
AcDbBlockEnd
  0
ENDSEC
  0
SECTION
  2
ENTITIES
  0
MTEXT
  5
21B
100
AcDbEntity
  8
0
100
AcDbMText
 62
7
  6
CONTINUOUS
  7
STANDARD
 71
1
 72
1
 10
15.9560215477
 20
0.9479130325
 30
0.0
 11
1.0
 21
0.0
 31
0.0
 44
0.9
  1
SCALE: 1:0.500
 40
0.3
 41
3.36
  0
LINE
  5
21C
100
AcDbEntity
  8
0
100
AcDbLine
 62
7
  6
CONTINUOUS
 10
0.0
 20
0.0
 11
0.0
 21
17.0
  0
LINE
  5
21D
100
AcDbEntity
  8
0
100
AcDbLine
 62
7
  6
CONTINUOUS
 10
0.0
 20
0.0
 11
22.0
 21
0.0
  0
LINE
  5
21E
100
AcDbEntity
  8
0
100
AcDbLine
 62
7
  6
CONTINUOUS
 10
0.0
 20
17.0
 11
22.0
 21
17.0
  0
LINE
  5
21F
100
AcDbEntity
  8
0
100
AcDbLine
 62
7
  6
CONTINUOUS
 10
22.0
 20
0.0
 11
22.0
 21
17.0
  0
LINE
  5
220
100
AcDbEntity
  8
0
100
AcDbLine
 62
7
  6
CONTINUOUS
 10
4.1928672762
 20
5.8001198968
 11
4.1928672762
 21
5.2401198968
  0
LINE
  5
221
100
AcDbEntity
  8
0
100
AcDbLine
 62
7
  6
CONTINUOUS
 10
4.2178672762
 20
5.8001198968
 11
4.2178672762
 21
5.6751198968
  0
LINE
  5
222
100
AcDbEntity
  8
0
100
AcDbLine
 62
7
  6
CONTINUOUS
 10
4.2178672762
 20
5.3101198968
 11
4.2178672762
 21
5.4101198968
  0
LINE
  5
223
100
AcDbEntity
  8
0
100
AcDbLine
 62
7
  6
CONTINUOUS
 10
4.2228672762
 20
5.6751198968
 11
4.2228672762
 21
5.7401198968
  0
LINE
  5
224
100
AcDbEntity
  8
0
100
AcDbLine
 62
7
  6
CONTINUOUS
 10
4.2428672762
 20
5.2401198968
 11
4.2428672762
 21
5.3101198968
  0
LINE
  5
225
100
AcDbEntity
  8
0
100
AcDbLine
 62
7
  6
CONTINUOUS
 10
4.3428672762
 20
5.3101198968
 11
4.3428672762
 21
5.2401198968
  0
LINE
  5
226
100
AcDbEntity
  8
0
100
AcDbLine
 62
7
  6
CONTINUOUS
 10
4.3628672762
 20
5.6751198968
 11
4.3628672762
 21
5.7401198968
  0
LINE
  5
227
100
AcDbEntity
  8
0
100
AcDbLine
 62
7
  6
CONTINUOUS
 10
4.3678672762
 20
5.4101198968
 11
4.3678672762
 21
5.3101198968
  0
LINE
  5
228
100
AcDbEntity
  8
0
100
AcDbLine
 62
7
  6
CONTINUOUS
 10
4.3678672762
 20
5.6751198968
 11
4.3678672762
 21
5.8001198968
  0
LINE
  5
229
100
AcDbEntity
  8
0
100
AcDbLine
 62
7
  6
CONTINUOUS
 10
5.5528672762
 20
3.8626198968
 11
6.7078672762
 21
3.8626198968
  0
LINE
  5
22A
100
AcDbEntity
  8
0
100
AcDbLine
 62
7
  6
CONTINUOUS
 10
4.2328672762
 20
5.7501198968
 11
4.2228672762
 21
5.7401198968
  0
LINE
  5
22B
100
AcDbEntity
  8
0
100
AcDbLine
 62
7
  6
CONTINUOUS
 10
5.5528672762
 20
3.9126198968
 11
6.7078672762
 21
3.9126198968
  0
LINE
  5
22C
100
AcDbEntity
  8
0
100
AcDbLine
 62
7
  6
CONTINUOUS
 10
4.2528672762
 20
5.2401198968
 11
4.2428672762
 21
5.2501198968
  0
LINE
  5
22D
100
AcDbEntity
  8
0
100
AcDbLine
 62
7
  6
CONTINUOUS
 10
4.7728672762
 20
5.2401198968
 11
4.7728672762
 21
4.4126198968
  0
LINE
  5
22E
100
AcDbEntity
  8
0
100
AcDbLine
 62
7
  6
CONTINUOUS
 10
4.7728672762
 20
5.8001198968
 11
4.7728672762
 21
6.6276198968
  0
LINE
  5
22F
100
AcDbEntity
  8
0
100
AcDbLine
 62
7
  6
CONTINUOUS
 10
4.8228672762
 20
4.4126198968
 11
4.8228672762
 21
6.6276198968
  0
LINE
  5
230
100
AcDbEntity
  8
0
100
AcDbLine
 62
7
  6
CONTINUOUS
 10
5.3324385803
 20
7.8972749288
 11
5.2856598396
 21
7.6245429935
  0
LINE
  5
231
100
AcDbEntity
  8
0
100
AcDbLine
 62
7
  6
CONTINUOUS
 10
4.4562372114
 20
3.9906050227
 11
4.3800494486
 21
3.7245855048
  0
LINE
  5
232
100
AcDbEntity
  8
0
100
AcDbLine
 62
7
  6
CONTINUOUS
 10
6.4428672762
 20
8.0080708609
 11
6.2823871352
 21
7.7826444128
  0
LINE
  5
233
100
AcDbEntity
  8
0
100
AcDbLine
 62
7
  6
CONTINUOUS
 10
3.9583965744
 20
4.8684524245
 11
3.7743322289
 21
4.661833752
  0
LINE
  5
234
100
AcDbEntity
  8
0
100
AcDbLine
 62
7
  6
CONTINUOUS
 10
7.4914015145
 20
7.6260975918
 11
7.2490050334
 21
7.4926251038
  0
LINE
  5
235
100
AcDbEntity
  8
0
100
AcDbLine
 62
7
  6
CONTINUOUS
 10
3.8907413724
 20
5.8753705614
 11
3.6352566452
 21
5.7690760964
  0
LINE
  5
236
100
AcDbEntity
  8
0
100
AcDbLine
 62
7
  6
CONTINUOUS
 10
3.9903683225
 20
4.2132301814
 11
4.2666715478
 21
4.2283128463
  0
LINE
  5
237
100
AcDbEntity
  8
0
100
AcDbLine
 62
7
  6
CONTINUOUS
 10
5.0228672762
 20
4.1626198968
 11
5.4528672762
 21
4.1626198968
  0
LINE
  5
238
100
AcDbEntity
  8
0
100
AcDbLine
 62
7
  6
CONTINUOUS
 10
6.8078672762
 20
4.1626198968
 11
7.2378672762
 21
4.1626198968
  0
LINE
  5
239
100
AcDbEntity
  8
0
100
AcDbLine
 62
7
  6
CONTINUOUS
 10
7.2378672762
 20
4.2126198968
 11
6.8078672762
 21
4.2126198968
  0
LINE
  5
23A
100
AcDbEntity
  8
0
100
AcDbLine
 62
7
  6
CONTINUOUS
 10
5.4528672762
 20
4.2126198968
 11
5.0228672762
 21
4.2126198968
  0
LINE
  5
23B
100
AcDbEntity
  8
0
100
AcDbLine
 62
7
  6
CONTINUOUS
 10
7.9940630045
 20
4.2283128463
 11
8.2703662299
 21
4.2132301814
  0
LINE
  5
23C
100
AcDbEntity
  8
0
100
AcDbLine
 62
7
  6
CONTINUOUS
 10
3.6352566452
 20
5.2711636971
 11
3.8907413724
 21
5.1648692321
  0
LINE
  5
23D
100
AcDbEntity
  8
0
100
AcDbLine
 62
7
  6
CONTINUOUS
 10
7.2490050334
 20
3.5476146898
 11
7.4914015145
 21
3.4141422017
  0
LINE
  5
23E
100
AcDbEntity
  8
0
100
AcDbLine
 62
7
  6
CONTINUOUS
 10
3.7743322289
 20
6.3784060415
 11
3.9583965744
 21
6.171787369
  0
LINE
  5
23F
100
AcDbEntity
  8
0
100
AcDbLine
 62
7
  6
CONTINUOUS
 10
6.2823871352
 20
3.2575953807
 11
6.4428672762
 21
3.0321689326
  0
LINE
  5
240
100
AcDbEntity
  8
0
100
AcDbLine
 62
7
  6
CONTINUOUS
 10
4.3800494486
 20
7.3156542887
 11
4.4562372114
 21
7.0496347708
  0
LINE
  5
241
100
AcDbEntity
  8
0
100
AcDbLine
 62
7
  6
CONTINUOUS
 10
5.2856598396
 20
3.4156968
 11
5.3324385803
 21
3.1429648647
  0
LINE
  5
242
100
AcDbEntity
  8
0
100
AcDbLine
 62
7
  6
CONTINUOUS
 10
4.3328672762
 20
5.2401198968
 11
4.3428672762
 21
5.2501198968
  0
LINE
  5
243
100
AcDbEntity
  8
0
100
AcDbLine
 62
7
  6
CONTINUOUS
 10
4.3528672762
 20
5.7501198968
 11
4.3628672762
 21
5.7401198968
  0
LINE
  5
244
100
AcDbEntity
  8
0
100
AcDbLine
 62
7
  6
CONTINUOUS
 10
5.5028672762
 20
4.1126198968
 11
5.5028672762
 21
3.9126198968
  0
LINE
  5
245
100
AcDbEntity
  8
0
100
AcDbLine
 62
7
  6
CONTINUOUS
 10
5.5028672762
 20
6.9276198968
 11
5.5028672762
 21
7.1276198968
  0
LINE
  5
246
100
AcDbEntity
  8
0
100
AcDbLine
 62
7
  6
CONTINUOUS
 10
5.5528672762
 20
4.1126198968
 11
5.5528672762
 21
3.9126198968
  0
LINE
  5
247
100
AcDbEntity
  8
0
100
AcDbLine
 62
7
  6
CONTINUOUS
 10
5.5528672762
 20
6.9276198968
 11
5.5528672762
 21
7.1276198968
  0
LINE
  5
248
100
AcDbEntity
  8
0
100
AcDbLine
 62
7
  6
CONTINUOUS
 10
4.1928672762
 20
5.2401198968
 11
4.3328672008
 21
5.2401198968
  0
LINE
  5
249
100
AcDbEntity
  8
0
100
AcDbLine
 62
7
  6
CONTINUOUS
 10
4.3333022277
 20
5.2401198968
 11
4.7728672762
 21
5.2401198968
  0
LINE
  5
24A
100
AcDbEntity
  8
0
100
AcDbLine
 62
7
  6
CONTINUOUS
 10
7.4878672762
 20
5.2401198968
 11
8.0078672008
 21
5.2401198968
  0
LINE
  5
24B
100
AcDbEntity
  8
0
100
AcDbLine
 62
7
  6
CONTINUOUS
 10
8.0083022277
 20
5.2401198968
 11
8.0678672762
 21
5.2401198968
  0
LINE
  5
24C
100
AcDbEntity
  8
0
100
AcDbLine
 62
7
  6
CONTINUOUS
 10
8.0178672762
 20
5.2501198968
 11
7.9178672762
 21
5.2501198968
  0
LINE
  5
24D
100
AcDbEntity
  8
0
100
AcDbLine
 62
7
  6
CONTINUOUS
 10
4.3428672762
 20
5.2501198968
 11
4.2428672762
 21
5.2501198968
  0
LINE
  5
24E
100
AcDbEntity
  8
0
100
AcDbLine
 62
7
  6
CONTINUOUS
 10
8.0428672762
 20
5.3101198968
 11
7.8928672762
 21
5.3101198968
  0
LINE
  5
24F
100
AcDbEntity
  8
0
100
AcDbLine
 62
7
  6
CONTINUOUS
 10
4.3678672762
 20
5.3101198968
 11
4.2178672762
 21
5.3101198968
  0
LINE
  5
250
100
AcDbEntity
  8
0
100
AcDbLine
 62
7
  6
CONTINUOUS
 10
5.9428672762
 20
6.6451198968
 11
5.9428672762
 21
6.5023844996
  0
LINE
  5
251
100
AcDbEntity
  8
0
100
AcDbLine
 62
7
  6
CONTINUOUS
 10
4.2178672762
 20
5.4101198968
 11
4.3678672762
 21
5.4101198968
  0
LINE
  5
252
100
AcDbEntity
  8
0
100
AcDbLine
 62
7
  6
CONTINUOUS
 10
7.8928672762
 20
5.4101198968
 11
8.0428672762
 21
5.4101198968
  0
LINE
  5
253
100
AcDbEntity
  8
0
100
AcDbLine
 62
7
  6
CONTINUOUS
 10
8.6378672762
 20
5.5201198968
 11
7.1303672762
 21
5.5201198968
  0
LINE
  5
254
100
AcDbEntity
  8
0
100
AcDbLine
 62
7
  6
CONTINUOUS
 10
5.1303672762
 20
5.5201198968
 11
3.6228672762
 21
5.5201198968
  0
LINE
  5
255
100
AcDbEntity
  8
0
100
AcDbLine
 62
7
  6
CONTINUOUS
 10
6.3178672762
 20
6.5023844996
 11
6.3178672762
 21
6.6451198968
  0
LINE
  5
256
100
AcDbEntity
  8
0
100
AcDbLine
 62
7
  6
CONTINUOUS
 10
4.2178672762
 20
5.6751198968
 11
4.3678672762
 21
5.6751198968
  0
LINE
  5
257
100
AcDbEntity
  8
0
100
AcDbLine
 62
7
  6
CONTINUOUS
 10
7.8928672762
 20
5.6751198968
 11
8.0428672762
 21
5.6751198968
  0
LINE
  5
258
100
AcDbEntity
  8
0
100
AcDbLine
 62
7
  6
CONTINUOUS
 10
4.2228672762
 20
5.7401198968
 11
4.3628672762
 21
5.7401198968
  0
LINE
  5
259
100
AcDbEntity
  8
0
100
AcDbLine
 62
7
  6
CONTINUOUS
 10
7.8978672762
 20
5.7401198968
 11
8.0378672762
 21
5.7401198968
  0
LINE
  5
25A
100
AcDbEntity
  8
0
100
AcDbLine
 62
7
  6
CONTINUOUS
 10
4.2328688891
 20
5.7501198968
 11
4.3528656632
 21
5.7501198968
  0
LINE
  5
25B
100
AcDbEntity
  8
0
100
AcDbLine
 62
7
  6
CONTINUOUS
 10
7.9078688891
 20
5.7501198968
 11
8.0278656632
 21
5.7501198968
  0
LINE
  5
25C
100
AcDbEntity
  8
0
100
AcDbLine
 62
7
  6
CONTINUOUS
 10
4.1928672762
 20
5.8001198968
 11
4.7728672762
 21
5.8001198968
  0
LINE
  5
25D
100
AcDbEntity
  8
0
100
AcDbLine
 62
7
  6
CONTINUOUS
 10
7.4878672762
 20
5.8001198968
 11
8.0678672762
 21
5.8001198968
  0
LINE
  5
25E
100
AcDbEntity
  8
0
100
AcDbLine
 62
7
  6
CONTINUOUS
 10
6.7078672762
 20
7.1276198968
 11
6.7078672762
 21
6.9276198968
  0
LINE
  5
25F
100
AcDbEntity
  8
0
100
AcDbLine
 62
7
  6
CONTINUOUS
 10
6.7078672762
 20
3.9126198968
 11
6.7078672762
 21
4.1126198968
  0
LINE
  5
260
100
AcDbEntity
  8
0
100
AcDbLine
 62
7
  6
CONTINUOUS
 10
6.7578672762
 20
7.1276198968
 11
6.7578672762
 21
6.9276198968
  0
LINE
  5
261
100
AcDbEntity
  8
0
100
AcDbLine
 62
7
  6
CONTINUOUS
 10
6.7578672762
 20
3.9126198968
 11
6.7578672762
 21
4.1126198968
  0
LINE
  5
262
100
AcDbEntity
  8
0
100
AcDbLine
 62
7
  6
CONTINUOUS
 10
6.928295972
 20
3.1429648647
 11
6.9750747127
 21
3.4156968
  0
LINE
  5
263
100
AcDbEntity
  8
0
100
AcDbLine
 62
7
  6
CONTINUOUS
 10
7.8044973409
 20
7.0496347708
 11
7.8806851037
 21
7.3156542887
  0
LINE
  5
264
100
AcDbEntity
  8
0
100
AcDbLine
 62
7
  6
CONTINUOUS
 10
5.8178672762
 20
3.0321689326
 11
5.9783474171
 21
3.2575953807
  0
LINE
  5
265
100
AcDbEntity
  8
0
100
AcDbLine
 62
7
  6
CONTINUOUS
 10
8.3023379779
 20
6.171787369
 11
8.4864023234
 21
6.3784060415
  0
LINE
  5
266
100
AcDbEntity
  8
0
100
AcDbLine
 62
7
  6
CONTINUOUS
 10
7.9078672762
 20
5.7501198968
 11
7.8978672762
 21
5.7401198968
  0
LINE
  5
267
100
AcDbEntity
  8
0
100
AcDbLine
 62
7
  6
CONTINUOUS
 10
4.7693330379
 20
3.4141422017
 11
5.011729519
 21
3.5476146898
  0
LINE
  5
268
100
AcDbEntity
  8
0
100
AcDbLine
 62
7
  6
CONTINUOUS
 10
8.3699931799
 20
5.1648692321
 11
8.6254779071
 21
5.2711636971
  0
LINE
  5
269
100
AcDbEntity
  8
0
100
AcDbLine
 62
7
  6
CONTINUOUS
 10
8.2703662299
 20
6.8270096122
 11
7.9940630045
 21
6.8119269472
  0
LINE
  5
26A
100
AcDbEntity
  8
0
100
AcDbLine
 62
7
  6
CONTINUOUS
 10
6.3178672762
 20
6.6451198968
 11
5.9428672762
 21
6.6451198968
  0
LINE
  5
26B
100
AcDbEntity
  8
0
100
AcDbLine
 62
7
  6
CONTINUOUS
 10
4.2666715478
 20
6.8119269472
 11
3.9903683225
 21
6.8270096122
  0
LINE
  5
26C
100
AcDbEntity
  8
0
100
AcDbLine
 62
7
  6
CONTINUOUS
 10
8.3699931799
 20
5.8753705614
 11
8.6254779071
 21
5.7690760964
  0
LINE
  5
26D
100
AcDbEntity
  8
0
100
AcDbLine
 62
7
  6
CONTINUOUS
 10
5.011729519
 20
7.4926251038
 11
4.7693330379
 21
7.6260975918
  0
LINE
  5
26E
100
AcDbEntity
  8
0
100
AcDbLine
 62
7
  6
CONTINUOUS
 10
7.9278672762
 20
5.2401198968
 11
7.9178672762
 21
5.2501198968
  0
LINE
  5
26F
100
AcDbEntity
  8
0
100
AcDbLine
 62
7
  6
CONTINUOUS
 10
8.4864023234
 20
4.661833752
 11
8.3023379779
 21
4.8684524245
  0
LINE
  5
270
100
AcDbEntity
  8
0
100
AcDbLine
 62
7
  6
CONTINUOUS
 10
5.9783474171
 20
7.7826444128
 11
5.8178672762
 21
8.0080708609
  0
LINE
  5
271
100
AcDbEntity
  8
0
100
AcDbLine
 62
7
  6
CONTINUOUS
 10
7.8806851037
 20
3.7245855048
 11
7.8044973409
 21
3.9906050227
  0
LINE
  5
272
100
AcDbEntity
  8
0
100
AcDbLine
 62
7
  6
CONTINUOUS
 10
6.9750747127
 20
7.6245429935
 11
6.928295972
 21
7.8972749288
  0
LINE
  5
273
100
AcDbEntity
  8
0
100
AcDbLine
 62
7
  6
CONTINUOUS
 10
7.4378672762
 20
6.6276198968
 11
7.4378672762
 21
4.4126198968
  0
LINE
  5
274
100
AcDbEntity
  8
0
100
AcDbLine
 62
7
  6
CONTINUOUS
 10
7.4878672762
 20
6.6276198968
 11
7.4878672762
 21
5.8001198968
  0
LINE
  5
275
100
AcDbEntity
  8
0
100
AcDbLine
 62
7
  6
CONTINUOUS
 10
7.4878672762
 20
4.4126198968
 11
7.4878672762
 21
5.2401198968
  0
LINE
  5
276
100
AcDbEntity
  8
0
100
AcDbLine
 62
7
  6
CONTINUOUS
 10
5.0228672762
 20
6.8276198968
 11
5.4528672762
 21
6.8276198968
  0
LINE
  5
277
100
AcDbEntity
  8
0
100
AcDbLine
 62
7
  6
CONTINUOUS
 10
6.8078672762
 20
6.8276198968
 11
7.2378672762
 21
6.8276198968
  0
LINE
  5
278
100
AcDbEntity
  8
0
100
AcDbLine
 62
7
  6
CONTINUOUS
 10
5.0228672762
 20
6.8776198968
 11
5.4528672762
 21
6.8776198968
  0
LINE
  5
279
100
AcDbEntity
  8
0
100
AcDbLine
 62
7
  6
CONTINUOUS
 10
6.8078672762
 20
6.8776198968
 11
7.2378672762
 21
6.8776198968
  0
LINE
  5
27A
100
AcDbEntity
  8
0
100
AcDbLine
 62
7
  6
CONTINUOUS
 10
8.0078672762
 20
5.2401198968
 11
8.0178672762
 21
5.2501198968
  0
LINE
  5
27B
100
AcDbEntity
  8
0
100
AcDbLine
 62
7
  6
CONTINUOUS
 10
5.5528672762
 20
7.1276198968
 11
6.7078672762
 21
7.1276198968
  0
LINE
  5
27C
100
AcDbEntity
  8
0
100
AcDbLine
 62
7
  6
CONTINUOUS
 10
5.5528672762
 20
7.1776198968
 11
6.7078672762
 21
7.1776198968
  0
LINE
  5
27D
100
AcDbEntity
  8
0
100
AcDbLine
 62
7
  6
CONTINUOUS
 10
8.0278672762
 20
5.7501198968
 11
8.0378672762
 21
5.7401198968
  0
LINE
  5
27E
100
AcDbEntity
  8
0
100
AcDbLine
 62
7
  6
CONTINUOUS
 10
7.8928672762
 20
5.8001198968
 11
7.8928672762
 21
5.6751198968
  0
LINE
  5
27F
100
AcDbEntity
  8
0
100
AcDbLine
 62
7
  6
CONTINUOUS
 10
7.8928672762
 20
5.3101198968
 11
7.8928672762
 21
5.4101198968
  0
LINE
  5
280
100
AcDbEntity
  8
0
100
AcDbLine
 62
7
  6
CONTINUOUS
 10
7.8978672762
 20
5.6751198968
 11
7.8978672762
 21
5.7401198968
  0
LINE
  5
281
100
AcDbEntity
  8
0
100
AcDbLine
 62
7
  6
CONTINUOUS
 10
7.9178672762
 20
5.2401198968
 11
7.9178672762
 21
5.3101198968
  0
LINE
  5
282
100
AcDbEntity
  8
0
100
AcDbLine
 62
7
  6
CONTINUOUS
 10
8.0178672762
 20
5.3101198968
 11
8.0178672762
 21
5.2401198968
  0
LINE
  5
283
100
AcDbEntity
  8
0
100
AcDbLine
 62
7
  6
CONTINUOUS
 10
8.0378672762
 20
5.6751198968
 11
8.0378672762
 21
5.7401198968
  0
LINE
  5
284
100
AcDbEntity
  8
0
100
AcDbLine
 62
7
  6
CONTINUOUS
 10
8.0428672762
 20
5.4101198968
 11
8.0428672762
 21
5.3101198968
  0
LINE
  5
285
100
AcDbEntity
  8
0
100
AcDbLine
 62
7
  6
CONTINUOUS
 10
8.0428672762
 20
5.6751198968
 11
8.0428672762
 21
5.8001198968
  0
LINE
  5
286
100
AcDbEntity
  8
0
100
AcDbLine
 62
7
  6
CONTINUOUS
 10
8.0678672762
 20
5.2401198968
 11
8.0678672762
 21
5.8001198968
  0
LINE
  5
287
100
AcDbEntity
  8
DRAWING
100
AcDbLine
 62
7
  6
CONTINUOUS
 10
3.5431220839
 20
12.6250477814
 11
3.5431220839
 21
12.5750477814
  0
LINE
  5
288
100
AcDbEntity
  8
0
100
AcDbLine
 62
7
  6
CONTINUOUS
 10
3.5633720839
 20
12.7300477814
 11
3.5633720839
 21
12.6250477814
  0
LINE
  5
289
100
AcDbEntity
  8
0
100
AcDbLine
 62
7
  6
CONTINUOUS
 10
3.5633720839
 20
12.5750477814
 11
3.5633720839
 21
12.4700477814
  0
LINE
  5
28A
100
AcDbEntity
  8
0
100
AcDbLine
 62
7
  6
CONTINUOUS
 10
3.5757614529
 20
12.4700477837
 11
3.5757614529
 21
12.5750477814
  0
LINE
  5
28B
100
AcDbEntity
  8
0
100
AcDbLine
 62
7
  6
CONTINUOUS
 10
3.5757614529
 20
12.6250477814
 11
3.5757614529
 21
12.7300491435
  0
LINE
  5
28C
100
AcDbEntity
  8
0
100
AcDbLine
 62
7
  6
CONTINUOUS
 10
3.7148370366
 20
12.730047779
 11
3.7148370366
 21
12.6250477814
  0
LINE
  5
28D
100
AcDbEntity
  8
0
100
AcDbLine
 62
7
  6
CONTINUOUS
 10
3.7148370366
 20
12.5750477814
 11
3.7148370366
 21
12.4700477837
  0
LINE
  5
28E
100
AcDbEntity
  8
0
100
AcDbLine
 62
7
  6
CONTINUOUS
 10
3.9308731302
 20
12.4700477834
 11
3.9308731302
 21
12.5750477814
  0
LINE
  5
28F
100
AcDbEntity
  8
0
100
AcDbLine
 62
7
  6
CONTINUOUS
 10
3.9308731302
 20
12.6250477814
 11
3.9308731302
 21
12.7300477793
  0
LINE
  5
290
100
AcDbEntity
  8
0
100
AcDbLine
 62
7
  6
CONTINUOUS
 10
4.0083720839
 20
12.7800477814
 11
4.0083720839
 21
12.7550477814
  0
LINE
  5
291
100
AcDbEntity
  8
0
100
AcDbLine
 62
7
  6
CONTINUOUS
 10
4.0083720839
 20
12.4450477814
 11
4.0083720839
 21
12.4200477814
  0
LINE
  5
292
100
AcDbEntity
  8
0
100
AcDbLine
 62
7
  6
CONTINUOUS
 10
4.1333720839
 20
13.1150477814
 11
4.1333720839
 21
12.7800477814
  0
LINE
  5
293
100
AcDbEntity
  8
0
100
AcDbLine
 62
7
  6
CONTINUOUS
 10
4.1333720839
 20
12.4200477814
 11
4.1333720839
 21
12.0850477814
  0
LINE
  5
294
100
AcDbEntity
  8
0
100
AcDbLine
 62
7
  6
CONTINUOUS
 10
4.1583720839
 20
13.1150477814
 11
4.1583720839
 21
12.9275477814
  0
LINE
  5
295
100
AcDbEntity
  8
0
100
AcDbLine
 62
7
  6
CONTINUOUS
 10
4.1583720839
 20
12.2725477814
 11
4.1583720839
 21
12.0850477814
  0
LINE
  5
296
100
AcDbEntity
  8
0
100
AcDbLine
 62
7
  6
CONTINUOUS
 10
4.1958720839
 20
12.2383971463
 11
4.1958720839
 21
12.2816984165
  0
LINE
  5
297
100
AcDbEntity
  8
0
100
AcDbLine
 62
7
  6
CONTINUOUS
 10
4.1958720839
 20
12.9183971463
 11
4.1958720839
 21
12.9616984165
  0
LINE
  5
298
100
AcDbEntity
  8
0
100
AcDbLine
 62
7
  6
CONTINUOUS
 10
4.2708720839
 20
12.9616984165
 11
4.2708720839
 21
12.9183971463
  0
LINE
  5
299
100
AcDbEntity
  8
0
100
AcDbLine
 62
7
  6
CONTINUOUS
 10
4.2708720839
 20
12.2816984165
 11
4.2708720839
 21
12.2383971463
  0
LINE
  5
29A
100
AcDbEntity
  8
0
100
AcDbLine
 62
7
  6
CONTINUOUS
 10
4.3083720839
 20
12.0850477814
 11
4.3083720839
 21
12.2725477814
  0
LINE
  5
29B
100
AcDbEntity
  8
0
100
AcDbLine
 62
7
  6
CONTINUOUS
 10
4.3083720839
 20
12.9275477814
 11
4.3083720839
 21
13.1150477814
  0
LINE
  5
29C
100
AcDbEntity
  8
0
100
AcDbLine
 62
7
  6
CONTINUOUS
 10
4.3205542563
 20
12.7300477792
 11
4.3205542563
 21
12.6250477814
  0
LINE
  5
29D
100
AcDbEntity
  8
0
100
AcDbLine
 62
7
  6
CONTINUOUS
 10
4.3205542563
 20
12.5750477814
 11
4.3205542563
 21
12.4700477835
  0
LINE
  5
29E
100
AcDbEntity
  8
0
100
AcDbLine
 62
7
  6
CONTINUOUS
 10
3.5883720839
 20
12.7550477814
 11
3.5633720839
 21
12.7300477814
  0
LINE
  5
29F
100
AcDbEntity
  8
0
100
AcDbLine
 62
7
  6
CONTINUOUS
 10
3.6020141493
 20
12.7550477814
 11
3.5757614529
 21
12.7300491435
  0
LINE
  5
2A0
100
AcDbEntity
  8
0
100
AcDbLine
 62
7
  6
CONTINUOUS
 10
3.5633720839
 20
12.4700477814
 11
3.5883720839
 21
12.4450477814
  0
LINE
  5
2A1
100
AcDbEntity
  8
0
100
AcDbLine
 62
7
  6
CONTINUOUS
 10
4.7098378456
 20
12.4700477837
 11
4.7098378456
 21
12.5750477814
  0
LINE
  5
2A2
100
AcDbEntity
  8
0
100
AcDbLine
 62
7
  6
CONTINUOUS
 10
4.7098378456
 20
12.6250477814
 11
4.7098378456
 21
12.730047779
  0
LINE
  5
2A3
100
AcDbEntity
  8
0
100
AcDbLine
 62
7
  6
CONTINUOUS
 10
4.7133720839
 20
13.1150477814
 11
4.7133720839
 21
12.7800477814
  0
LINE
  5
2A4
100
AcDbEntity
  8
0
100
AcDbLine
 62
7
  6
CONTINUOUS
 10
4.7133720839
 20
12.4200477814
 11
4.7133720839
 21
12.0850477814
  0
LINE
  5
2A5
100
AcDbEntity
  8
0
100
AcDbLine
 62
7
  6
CONTINUOUS
 10
4.7633720839
 20
13.1175477814
 11
4.7633720839
 21
13.1150477814
  0
LINE
  5
2A6
100
AcDbEntity
  8
0
100
AcDbLine
 62
7
  6
CONTINUOUS
 10
4.7633720839
 20
12.0850477814
 11
4.7633720839
 21
12.0825477814
  0
LINE
  5
2A7
100
AcDbEntity
  8
0
100
AcDbLine
 62
7
  6
CONTINUOUS
 10
4.1958720839
 20
12.9616984165
 11
4.2333720839
 21
12.9833490516
  0
LINE
  5
2A8
100
AcDbEntity
  8
0
100
AcDbLine
 62
7
  6
CONTINUOUS
 10
4.2333720839
 20
12.2167465112
 11
4.1958720839
 21
12.2383971463
  0
LINE
  5
2A9
100
AcDbEntity
  8
0
100
AcDbLine
 62
7
  6
CONTINUOUS
 10
4.2708720839
 20
12.9183971463
 11
4.2333720839
 21
12.8967465112
  0
LINE
  5
2AA
100
AcDbEntity
  8
0
100
AcDbLine
 62
7
  6
CONTINUOUS
 10
4.2333720839
 20
12.3033490516
 11
4.2708720839
 21
12.2816984165
  0
LINE
  5
2AB
100
AcDbEntity
  8
0
100
AcDbLine
 62
7
  6
CONTINUOUS
 10
5.272943388
 20
12.7300477793
 11
5.272943388
 21
12.6250477814
  0
LINE
  5
2AC
100
AcDbEntity
  8
0
100
AcDbLine
 62
7
  6
CONTINUOUS
 10
5.272943388
 20
12.5750477814
 11
5.272943388
 21
12.4700477835
  0
LINE
  5
2AD
100
AcDbEntity
  8
0
100
AcDbLine
 62
7
  6
CONTINUOUS
 10
5.4433720839
 20
12.4200477814
 11
5.4433720839
 21
12.0850477814
  0
LINE
  5
2AE
100
AcDbEntity
  8
0
100
AcDbLine
 62
7
  6
CONTINUOUS
 10
5.4433720839
 20
12.7800477814
 11
5.4433720839
 21
13.1150477814
  0
LINE
  5
2AF
100
AcDbEntity
  8
0
100
AcDbLine
 62
7
  6
CONTINUOUS
 10
5.4933720839
 20
13.1175477814
 11
5.4933720839
 21
13.1150477814
  0
LINE
  5
2B0
100
AcDbEntity
  8
0
100
AcDbLine
 62
7
  6
CONTINUOUS
 10
5.4933720839
 20
12.0825477814
 11
5.4933720839
 21
12.0850477814
  0
LINE
  5
2B1
100
AcDbEntity
  8
0
100
AcDbLine
 62
7
  6
CONTINUOUS
 10
4.1958720839
 20
12.2816984165
 11
4.2333720839
 21
12.3033490516
  0
LINE
  5
2B2
100
AcDbEntity
  8
0
100
AcDbLine
 62
7
  6
CONTINUOUS
 10
4.2708720839
 20
12.2383971463
 11
4.2333720839
 21
12.2167465112
  0
LINE
  5
2B3
100
AcDbEntity
  8
0
100
AcDbLine
 62
7
  6
CONTINUOUS
 10
4.7633720839
 20
12.0825477814
 11
7.3783720839
 21
12.0825477814
  0
LINE
  5
2B4
100
AcDbEntity
  8
0
100
AcDbLine
 62
7
  6
CONTINUOUS
 10
4.1333720839
 20
12.0850477814
 11
8.0083720839
 21
12.0850477814
  0
LINE
  5
2B5
100
AcDbEntity
  8
0
100
AcDbLine
 62
7
  6
CONTINUOUS
 10
4.2333720839
 20
12.8967465112
 11
4.1958720839
 21
12.9183971463
  0
LINE
  5
2B6
100
AcDbEntity
  8
0
100
AcDbLine
 62
7
  6
CONTINUOUS
 10
4.2333720839
 20
12.9833490516
 11
4.2708720839
 21
12.9616984165
  0
LINE
  5
2B7
100
AcDbEntity
  8
0
100
AcDbLine
 62
7
  6
CONTINUOUS
 10
6.0521220839
 20
12.2175718287
 11
6.0896220839
 21
12.2175718287
  0
LINE
  5
2B8
100
AcDbEntity
  8
0
100
AcDbLine
 62
7
  6
CONTINUOUS
 10
5.7583720839
 20
12.4700477837
 11
5.7583720839
 21
12.5750477814
  0
LINE
  5
2B9
100
AcDbEntity
  8
0
100
AcDbLine
 62
7
  6
CONTINUOUS
 10
5.7583720839
 20
12.6250477814
 11
5.7583720839
 21
12.730047779
  0
LINE
  5
2BA
100
AcDbEntity
  8
0
100
AcDbLine
 62
7
  6
CONTINUOUS
 10
6.0896220839
 20
12.282523734
 11
6.0521220839
 21
12.282523734
  0
LINE
  5
2BB
100
AcDbEntity
  8
0
100
AcDbLine
 62
7
  6
CONTINUOUS
 10
7.9208720839
 20
12.3350477814
 11
7.8958720839
 21
12.3350477814
  0
LINE
  5
2BC
100
AcDbEntity
  8
0
100
AcDbLine
 62
7
  6
CONTINUOUS
 10
4.2458720839
 20
12.3350477814
 11
4.2208720839
 21
12.3350477814
  0
LINE
  5
2BD
100
AcDbEntity
  8
0
100
AcDbLine
 62
7
  6
CONTINUOUS
 10
8.1333720839
 20
12.4200477814
 11
4.0083720839
 21
12.4200477814
  0
LINE
  5
2BE
100
AcDbEntity
  8
0
100
AcDbLine
 62
7
  6
CONTINUOUS
 10
8.5533720839
 20
12.4450477814
 11
3.5883720839
 21
12.4450477814
  0
LINE
  5
2BF
100
AcDbEntity
  8
0
100
AcDbLine
 62
7
  6
CONTINUOUS
 10
6.0333720839
 20
12.2500477814
 11
6.0521220839
 21
12.2175718287
  0
LINE
  5
2C0
100
AcDbEntity
  8
0
100
AcDbLine
 62
7
  6
CONTINUOUS
 10
8.5783720839
 20
12.4700477814
 11
8.5659827148
 21
12.4700477814
  0
LINE
  5
2C1
100
AcDbEntity
  8
0
100
AcDbLine
 62
7
  6
CONTINUOUS
 10
8.4269071311
 20
12.4700477814
 11
8.2108710375
 21
12.4700477814
  0
LINE
  5
2C2
100
AcDbEntity
  8
0
100
AcDbLine
 62
7
  6
CONTINUOUS
 10
7.8211899114
 20
12.4700477814
 11
7.4319063221
 21
12.4700477814
  0
LINE
  5
2C3
100
AcDbEntity
  8
0
100
AcDbLine
 62
7
  6
CONTINUOUS
 10
6.8688007797
 20
12.4700477814
 11
6.3833720839
 21
12.4700477814
  0
LINE
  5
2C4
100
AcDbEntity
  8
0
100
AcDbLine
 62
7
  6
CONTINUOUS
 10
5.7583720839
 20
12.4700477814
 11
5.272943388
 21
12.4700477814
  0
LINE
  5
2C5
100
AcDbEntity
  8
0
100
AcDbLine
 62
7
  6
CONTINUOUS
 10
4.7098378456
 20
12.4700477814
 11
4.3205542563
 21
12.4700477814
  0
LINE
  5
2C6
100
AcDbEntity
  8
0
100
AcDbLine
 62
7
  6
CONTINUOUS
 10
3.9308731302
 20
12.4700477814
 11
3.7148370366
 21
12.4700477814
  0
LINE
  5
2C7
100
AcDbEntity
  8
0
100
AcDbLine
 62
7
  6
CONTINUOUS
 10
3.5757614529
 20
12.4700477814
 11
3.5633720839
 21
12.4700477814
  0
LINE
  5
2C8
100
AcDbEntity
  8
DRAWING
100
AcDbLine
 62
7
  6
CONTINUOUS
 10
8.5986220839
 20
12.5750477814
 11
3.5431220839
 21
12.5750477814
  0
LINE
  5
2C9
100
AcDbEntity
  8
0
100
AcDbLine
 62
7
  6
CONTINUOUS
 10
6.1083720839
 20
12.2500477814
 11
6.0896220839
 21
12.282523734
  0
LINE
  5
2CA
100
AcDbEntity
  8
0
100
AcDbLine
 62
7
  6
CONTINUOUS
 10
6.0521220839
 20
12.282523734
 11
6.0333720839
 21
12.2500477814
  0
LINE
  5
2CB
100
AcDbEntity
  8
DRAWING
100
AcDbLine
 62
7
  6
CONTINUOUS
 10
8.5986220839
 20
12.6250477814
 11
3.5431220839
 21
12.6250477814
  0
LINE
  5
2CC
100
AcDbEntity
  8
0
100
AcDbLine
 62
7
  6
CONTINUOUS
 10
3.5633720839
 20
12.7300477814
 11
3.5757614529
 21
12.7300477814
  0
LINE
  5
2CD
100
AcDbEntity
  8
0
100
AcDbLine
 62
7
  6
CONTINUOUS
 10
3.7148370366
 20
12.7300477814
 11
3.9308731302
 21
12.7300477814
  0
LINE
  5
2CE
100
AcDbEntity
  8
0
100
AcDbLine
 62
7
  6
CONTINUOUS
 10
4.3205542563
 20
12.7300477814
 11
4.7098378456
 21
12.7300477814
  0
LINE
  5
2CF
100
AcDbEntity
  8
0
100
AcDbLine
 62
7
  6
CONTINUOUS
 10
5.272943388
 20
12.7300477814
 11
5.7583720839
 21
12.7300477814
  0
LINE
  5
2D0
100
AcDbEntity
  8
0
100
AcDbLine
 62
7
  6
CONTINUOUS
 10
6.3833720839
 20
12.7300477814
 11
6.8688007797
 21
12.7300477814
  0
LINE
  5
2D1
100
AcDbEntity
  8
0
100
AcDbLine
 62
7
  6
CONTINUOUS
 10
7.4319063221
 20
12.7300477814
 11
7.8211899114
 21
12.7300477814
  0
LINE
  5
2D2
100
AcDbEntity
  8
0
100
AcDbLine
 62
7
  6
CONTINUOUS
 10
8.2108710375
 20
12.7300477814
 11
8.4269071311
 21
12.7300477814
  0
LINE
  5
2D3
100
AcDbEntity
  8
0
100
AcDbLine
 62
7
  6
CONTINUOUS
 10
8.5659827148
 20
12.7300477814
 11
8.5783720839
 21
12.7300477814
  0
LINE
  5
2D4
100
AcDbEntity
  8
0
100
AcDbLine
 62
7
  6
CONTINUOUS
 10
3.5883720839
 20
12.7550477814
 11
8.5533720839
 21
12.7550477814
  0
LINE
  5
2D5
100
AcDbEntity
  8
0
100
AcDbLine
 62
7
  6
CONTINUOUS
 10
4.0083720839
 20
12.7800477814
 11
8.1333720839
 21
12.7800477814
  0
LINE
  5
2D6
100
AcDbEntity
  8
0
100
AcDbLine
 62
7
  6
CONTINUOUS
 10
6.3833720839
 20
12.730047779
 11
6.3833720839
 21
12.6250477814
  0
LINE
  5
2D7
100
AcDbEntity
  8
0
100
AcDbLine
 62
7
  6
CONTINUOUS
 10
6.3833720839
 20
12.5750477814
 11
6.3833720839
 21
12.4700477837
  0
LINE
  5
2D8
100
AcDbEntity
  8
0
100
AcDbLine
 62
7
  6
CONTINUOUS
 10
6.0896220839
 20
12.2175718287
 11
6.1083720839
 21
12.2500477814
  0
LINE
  5
2D9
100
AcDbEntity
  8
0
100
AcDbLine
 62
7
  6
CONTINUOUS
 10
4.2208720839
 20
12.8650477814
 11
4.2458720839
 21
12.8650477814
  0
LINE
  5
2DA
100
AcDbEntity
  8
0
100
AcDbLine
 62
7
  6
CONTINUOUS
 10
7.8958720839
 20
12.8650477814
 11
7.9208720839
 21
12.8650477814
  0
LINE
  5
2DB
100
AcDbEntity
  8
0
100
AcDbLine
 62
7
  6
CONTINUOUS
 10
4.1333720839
 20
13.1150477814
 11
8.0083720839
 21
13.1150477814
  0
LINE
  5
2DC
100
AcDbEntity
  8
0
100
AcDbLine
 62
7
  6
CONTINUOUS
 10
4.7633720839
 20
13.1175477814
 11
7.3783720839
 21
13.1175477814
  0
LINE
  5
2DD
100
AcDbEntity
  8
0
100
AcDbLine
 62
7
  6
CONTINUOUS
 10
6.6483720839
 20
13.1175477814
 11
6.6483720839
 21
13.1150477814
  0
LINE
  5
2DE
100
AcDbEntity
  8
0
100
AcDbLine
 62
7
  6
CONTINUOUS
 10
6.6483720839
 20
12.0825477814
 11
6.6483720839
 21
12.0850477814
  0
LINE
  5
2DF
100
AcDbEntity
  8
0
100
AcDbLine
 62
7
  6
CONTINUOUS
 10
6.6983720839
 20
12.0850477814
 11
6.6983720839
 21
12.4200477814
  0
LINE
  5
2E0
100
AcDbEntity
  8
0
100
AcDbLine
 62
7
  6
CONTINUOUS
 10
6.6983720839
 20
12.7800477814
 11
6.6983720839
 21
13.1150477814
  0
LINE
  5
2E1
100
AcDbEntity
  8
0
100
AcDbLine
 62
7
  6
CONTINUOUS
 10
7.8708720839
 20
12.9616984165
 11
7.9083720839
 21
12.9833490516
  0
LINE
  5
2E2
100
AcDbEntity
  8
0
100
AcDbLine
 62
7
  6
CONTINUOUS
 10
7.9458720839
 20
12.9183971463
 11
7.9083720839
 21
12.8967465112
  0
LINE
  5
2E3
100
AcDbEntity
  8
0
100
AcDbLine
 62
7
  6
CONTINUOUS
 10
7.9083720839
 20
12.2167465112
 11
7.8708720839
 21
12.2383971463
  0
LINE
  5
2E4
100
AcDbEntity
  8
0
100
AcDbLine
 62
7
  6
CONTINUOUS
 10
7.9083720839
 20
12.3033490516
 11
7.9458720839
 21
12.2816984165
  0
LINE
  5
2E5
100
AcDbEntity
  8
0
100
AcDbLine
 62
7
  6
CONTINUOUS
 10
6.8688007797
 20
12.4700477835
 11
6.8688007797
 21
12.5750477814
  0
LINE
  5
2E6
100
AcDbEntity
  8
0
100
AcDbLine
 62
7
  6
CONTINUOUS
 10
6.8688007797
 20
12.6250477814
 11
6.8688007797
 21
12.7300477793
  0
LINE
  5
2E7
100
AcDbEntity
  8
0
100
AcDbLine
 62
7
  6
CONTINUOUS
 10
7.8708720839
 20
12.2816984165
 11
7.9083720839
 21
12.3033490516
  0
LINE
  5
2E8
100
AcDbEntity
  8
0
100
AcDbLine
 62
7
  6
CONTINUOUS
 10
7.9083720839
 20
12.8967465112
 11
7.8708720839
 21
12.9183971463
  0
LINE
  5
2E9
100
AcDbEntity
  8
0
100
AcDbLine
 62
7
  6
CONTINUOUS
 10
7.3783720839
 20
12.0825477814
 11
7.3783720839
 21
12.0850477814
  0
LINE
  5
2EA
100
AcDbEntity
  8
0
100
AcDbLine
 62
7
  6
CONTINUOUS
 10
7.3783720839
 20
13.1150477814
 11
7.3783720839
 21
13.1175477814
  0
LINE
  5
2EB
100
AcDbEntity
  8
0
100
AcDbLine
 62
7
  6
CONTINUOUS
 10
7.4283720839
 20
12.0850477814
 11
7.4283720839
 21
12.4200477814
  0
LINE
  5
2EC
100
AcDbEntity
  8
0
100
AcDbLine
 62
7
  6
CONTINUOUS
 10
7.4283720839
 20
12.7800477814
 11
7.4283720839
 21
13.1150477814
  0
LINE
  5
2ED
100
AcDbEntity
  8
0
100
AcDbLine
 62
7
  6
CONTINUOUS
 10
7.4319063221
 20
12.730047779
 11
7.4319063221
 21
12.6250477814
  0
LINE
  5
2EE
100
AcDbEntity
  8
0
100
AcDbLine
 62
7
  6
CONTINUOUS
 10
7.4319063221
 20
12.5750477814
 11
7.4319063221
 21
12.4700477837
  0
LINE
  5
2EF
100
AcDbEntity
  8
0
100
AcDbLine
 62
7
  6
CONTINUOUS
 10
7.9458720839
 20
12.2383971463
 11
7.9083720839
 21
12.2167465112
  0
LINE
  5
2F0
100
AcDbEntity
  8
0
100
AcDbLine
 62
7
  6
CONTINUOUS
 10
7.9083720839
 20
12.9833490516
 11
7.9458720839
 21
12.9616984165
  0
LINE
  5
2F1
100
AcDbEntity
  8
0
100
AcDbLine
 62
7
  6
CONTINUOUS
 10
7.8211899114
 20
12.4700477835
 11
7.8211899114
 21
12.5750477814
  0
LINE
  5
2F2
100
AcDbEntity
  8
0
100
AcDbLine
 62
7
  6
CONTINUOUS
 10
7.8211899114
 20
12.6250477814
 11
7.8211899114
 21
12.7300477792
  0
LINE
  5
2F3
100
AcDbEntity
  8
0
100
AcDbLine
 62
7
  6
CONTINUOUS
 10
7.8333720839
 20
13.1150477814
 11
7.8333720839
 21
12.9275477814
  0
LINE
  5
2F4
100
AcDbEntity
  8
0
100
AcDbLine
 62
7
  6
CONTINUOUS
 10
7.8333720839
 20
12.2725477814
 11
7.8333720839
 21
12.0850477814
  0
LINE
  5
2F5
100
AcDbEntity
  8
0
100
AcDbLine
 62
7
  6
CONTINUOUS
 10
7.8708720839
 20
12.2383971463
 11
7.8708720839
 21
12.2816984165
  0
LINE
  5
2F6
100
AcDbEntity
  8
0
100
AcDbLine
 62
7
  6
CONTINUOUS
 10
7.8708720839
 20
12.9183971463
 11
7.8708720839
 21
12.9616984165
  0
LINE
  5
2F7
100
AcDbEntity
  8
0
100
AcDbLine
 62
7
  6
CONTINUOUS
 10
7.9458720839
 20
12.9616984165
 11
7.9458720839
 21
12.9183971463
  0
LINE
  5
2F8
100
AcDbEntity
  8
0
100
AcDbLine
 62
7
  6
CONTINUOUS
 10
7.9458720839
 20
12.2816984165
 11
7.9458720839
 21
12.2383971463
  0
LINE
  5
2F9
100
AcDbEntity
  8
0
100
AcDbLine
 62
7
  6
CONTINUOUS
 10
7.9833720839
 20
12.0850477814
 11
7.9833720839
 21
12.2725477814
  0
LINE
  5
2FA
100
AcDbEntity
  8
0
100
AcDbLine
 62
7
  6
CONTINUOUS
 10
7.9833720839
 20
12.9275477814
 11
7.9833720839
 21
13.1150477814
  0
LINE
  5
2FB
100
AcDbEntity
  8
0
100
AcDbLine
 62
7
  6
CONTINUOUS
 10
8.5783720839
 20
12.4700477814
 11
8.5533720839
 21
12.4450477814
  0
LINE
  5
2FC
100
AcDbEntity
  8
0
100
AcDbLine
 62
7
  6
CONTINUOUS
 10
8.5397300184
 20
12.4450477814
 11
8.5659827148
 21
12.4700464192
  0
LINE
  5
2FD
100
AcDbEntity
  8
0
100
AcDbLine
 62
7
  6
CONTINUOUS
 10
8.5533720839
 20
12.7550477814
 11
8.5783720839
 21
12.7300477814
  0
LINE
  5
2FE
100
AcDbEntity
  8
0
100
AcDbLine
 62
7
  6
CONTINUOUS
 10
8.0083720839
 20
12.0850477814
 11
8.0083720839
 21
12.4200477814
  0
LINE
  5
2FF
100
AcDbEntity
  8
0
100
AcDbLine
 62
7
  6
CONTINUOUS
 10
8.0083720839
 20
12.7800477814
 11
8.0083720839
 21
13.1150477814
  0
LINE
  5
300
100
AcDbEntity
  8
0
100
AcDbLine
 62
7
  6
CONTINUOUS
 10
8.1333720839
 20
12.7800477814
 11
8.1333720839
 21
12.7550477814
  0
LINE
  5
301
100
AcDbEntity
  8
0
100
AcDbLine
 62
7
  6
CONTINUOUS
 10
8.1333720839
 20
12.4450477814
 11
8.1333720839
 21
12.4200477814
  0
LINE
  5
302
100
AcDbEntity
  8
0
100
AcDbLine
 62
7
  6
CONTINUOUS
 10
8.2108710375
 20
12.7300477793
 11
8.2108710375
 21
12.6250477814
  0
LINE
  5
303
100
AcDbEntity
  8
0
100
AcDbLine
 62
7
  6
CONTINUOUS
 10
8.2108710375
 20
12.5750477814
 11
8.2108710375
 21
12.4700477834
  0
LINE
  5
304
100
AcDbEntity
  8
0
100
AcDbLine
 62
7
  6
CONTINUOUS
 10
8.4269071311
 20
12.4700477837
 11
8.4269071311
 21
12.5750477814
  0
LINE
  5
305
100
AcDbEntity
  8
0
100
AcDbLine
 62
7
  6
CONTINUOUS
 10
8.4269071311
 20
12.6250477814
 11
8.4269071311
 21
12.730047779
  0
LINE
  5
306
100
AcDbEntity
  8
0
100
AcDbLine
 62
7
  6
CONTINUOUS
 10
8.5659827148
 20
12.730047779
 11
8.5659827148
 21
12.6250477814
  0
LINE
  5
307
100
AcDbEntity
  8
0
100
AcDbLine
 62
7
  6
CONTINUOUS
 10
8.5659827148
 20
12.5750477814
 11
8.5659827148
 21
12.4700464192
  0
LINE
  5
308
100
AcDbEntity
  8
0
100
AcDbLine
 62
7
  6
CONTINUOUS
 10
8.5783720839
 20
12.7300477814
 11
8.5783720839
 21
12.6250477814
  0
LINE
  5
309
100
AcDbEntity
  8
0
100
AcDbLine
 62
7
  6
CONTINUOUS
 10
8.5783720839
 20
12.5750477814
 11
8.5783720839
 21
12.4700477814
  0
LINE
  5
30A
100
AcDbEntity
  8
DRAWING
100
AcDbLine
 62
7
  6
CONTINUOUS
 10
8.5986220839
 20
12.6250477814
 11
8.5986220839
 21
12.5750477814
  0
LINE
  5
30B
100
AcDbEntity
  8
DRAWING
100
AcDbLine
 62
7
  6
CONTINUOUS
 10
15.5853552569
 20
2.9328747044
 11
15.5353552569
 21
2.9328747044
  0
LINE
  5
30C
100
AcDbEntity
  8
0
100
AcDbLine
 62
7
  6
CONTINUOUS
 10
15.4303552593
 20
2.9726737403
 11
15.5353552569
 21
2.9726737403
  0
LINE
  5
30D
100
AcDbEntity
  8
0
100
AcDbLine
 62
7
  6
CONTINUOUS
 10
15.5853552569
 20
2.9726737403
 11
15.6903552546
 21
2.9726737403
  0
LINE
  5
30E
100
AcDbEntity
  8
0
100
AcDbLine
 62
7
  6
CONTINUOUS
 10
15.6903552548
 20
3.0834696724
 11
15.5853552569
 21
3.0834696724
  0
LINE
  5
30F
100
AcDbEntity
  8
0
100
AcDbLine
 62
7
  6
CONTINUOUS
 10
15.5353552569
 20
3.0834696724
 11
15.430355259
 21
3.0834696724
  0
LINE
  5
310
100
AcDbEntity
  8
0
100
AcDbLine
 62
7
  6
CONTINUOUS
 10
15.4303552593
 20
3.3546470094
 11
15.5353552569
 21
3.3546470094
  0
LINE
  5
311
100
AcDbEntity
  8
0
100
AcDbLine
 62
7
  6
CONTINUOUS
 10
15.5853552569
 20
3.3546470094
 11
15.6903552546
 21
3.3546470094
  0
LINE
  5
312
100
AcDbEntity
  8
0
100
AcDbLine
 62
7
  6
CONTINUOUS
 10
15.3803552569
 20
3.3981247044
 11
15.4053552569
 21
3.3981247044
  0
LINE
  5
313
100
AcDbEntity
  8
0
100
AcDbLine
 62
7
  6
CONTINUOUS
 10
15.7153552569
 20
3.3981247044
 11
15.7403552569
 21
3.3981247044
  0
LINE
  5
314
100
AcDbEntity
  8
0
100
AcDbLine
 62
7
  6
CONTINUOUS
 10
15.6903552548
 20
3.6650903125
 11
15.5853552569
 21
3.6650903125
  0
LINE
  5
315
100
AcDbEntity
  8
0
100
AcDbLine
 62
7
  6
CONTINUOUS
 10
15.5353552569
 20
3.6650903125
 11
15.4303552591
 21
3.6650903125
  0
LINE
  5
316
100
AcDbEntity
  8
0
100
AcDbLine
 62
7
  6
CONTINUOUS
 10
15.0453552569
 20
3.8031247044
 11
15.3803552569
 21
3.8031247044
  0
LINE
  5
317
100
AcDbEntity
  8
0
100
AcDbLine
 62
7
  6
CONTINUOUS
 10
15.7403552569
 20
3.8031247044
 11
16.0753552569
 21
3.8031247044
  0
LINE
  5
318
100
AcDbEntity
  8
0
100
AcDbLine
 62
7
  6
CONTINUOUS
 10
16.0778552569
 20
3.8531247044
 11
16.0753552569
 21
3.8531247044
  0
LINE
  5
319
100
AcDbEntity
  8
0
100
AcDbLine
 62
7
  6
CONTINUOUS
 10
15.0428552569
 20
3.8531247044
 11
15.0453552569
 21
3.8531247044
  0
LINE
  5
31A
100
AcDbEntity
  8
0
100
AcDbLine
 62
7
  6
CONTINUOUS
 10
15.0453552569
 20
4.1031247044
 11
15.3803552569
 21
4.1031247044
  0
LINE
  5
31B
100
AcDbEntity
  8
0
100
AcDbLine
 62
7
  6
CONTINUOUS
 10
15.7403552569
 20
4.1031247044
 11
16.0753552569
 21
4.1031247044
  0
LINE
  5
31C
100
AcDbEntity
  8
0
100
AcDbLine
 62
7
  6
CONTINUOUS
 10
15.0428552569
 20
4.1531247044
 11
15.0453552569
 21
4.1531247044
  0
LINE
  5
31D
100
AcDbEntity
  8
0
100
AcDbLine
 62
7
  6
CONTINUOUS
 10
16.0753552569
 20
4.1531247044
 11
16.0778552569
 21
4.1531247044
  0
LINE
  5
31E
100
AcDbEntity
  8
0
100
AcDbLine
 62
7
  6
CONTINUOUS
 10
15.430355259
 20
4.153734989
 11
15.5353552569
 21
4.153734989
  0
LINE
  5
31F
100
AcDbEntity
  8
0
100
AcDbLine
 62
7
  6
CONTINUOUS
 10
15.5853552569
 20
4.153734989
 11
15.6903552549
 21
4.153734989
  0
LINE
  5
320
100
AcDbEntity
  8
0
100
AcDbLine
 62
7
  6
CONTINUOUS
 10
15.6903552546
 20
4.6023385597
 11
15.5853552569
 21
4.6023385597
  0
LINE
  5
321
100
AcDbEntity
  8
0
100
AcDbLine
 62
7
  6
CONTINUOUS
 10
15.5353552569
 20
4.6023385597
 11
15.4303552593
 21
4.6023385597
  0
LINE
  5
322
100
AcDbEntity
  8
0
100
AcDbLine
 62
7
  6
CONTINUOUS
 10
15.0428552569
 20
3.8531247044
 11
15.0428552569
 21
7.0681247044
  0
LINE
  5
323
100
AcDbEntity
  8
0
100
AcDbLine
 62
7
  6
CONTINUOUS
 10
15.0453552569
 20
3.8031247044
 11
15.0453552569
 21
7.1181247044
  0
LINE
  5
324
100
AcDbEntity
  8
0
100
AcDbLine
 62
7
  6
CONTINUOUS
 10
15.3803552569
 20
3.3981415689
 11
15.3803552569
 21
7.52310784
  0
LINE
  5
325
100
AcDbEntity
  8
0
100
AcDbLine
 62
7
  6
CONTINUOUS
 10
15.4053552569
 20
2.9958359162
 11
15.4053552569
 21
7.5528883333
  0
LINE
  5
326
100
AcDbEntity
  8
0
100
AcDbLine
 62
7
  6
CONTINUOUS
 10
15.4053552569
 20
7.5532473294
 11
15.4053552569
 21
7.9254134927
  0
LINE
  5
327
100
AcDbEntity
  8
0
100
AcDbLine
 62
7
  6
CONTINUOUS
 10
16.0753552569
 20
5.1806247044
 11
15.7403552569
 21
5.1806247044
  0
LINE
  5
328
100
AcDbEntity
  8
0
100
AcDbLine
 62
7
  6
CONTINUOUS
 10
15.3803552569
 20
5.1806247044
 11
15.0453552569
 21
5.1806247044
  0
LINE
  5
329
100
AcDbEntity
  8
0
100
AcDbLine
 62
7
  6
CONTINUOUS
 10
15.4303552593
 20
5.2116685048
 11
15.5353552569
 21
5.2116685048
  0
LINE
  5
32A
100
AcDbEntity
  8
0
100
AcDbLine
 62
7
  6
CONTINUOUS
 10
15.5853552569
 20
5.2116685048
 11
15.6903566191
 21
5.2116685048
  0
LINE
  5
32B
100
AcDbEntity
  8
0
100
AcDbLine
 62
7
  6
CONTINUOUS
 10
15.6903566191
 20
5.2116685048
 11
15.7153552569
 21
5.2007460659
  0
LINE
  5
32C
100
AcDbEntity
  8
0
100
AcDbLine
 62
7
  6
CONTINUOUS
 10
15.4303552569
 20
2.9726737403
 11
15.4303552569
 21
3.0834696724
  0
LINE
  5
32D
100
AcDbEntity
  8
0
100
AcDbLine
 62
7
  6
CONTINUOUS
 10
15.4303552569
 20
3.3546470094
 11
15.4303552569
 21
3.6650903125
  0
LINE
  5
32E
100
AcDbEntity
  8
0
100
AcDbLine
 62
7
  6
CONTINUOUS
 10
15.4303552569
 20
4.153734989
 11
15.4303552569
 21
4.6023385597
  0
LINE
  5
32F
100
AcDbEntity
  8
0
100
AcDbLine
 62
7
  6
CONTINUOUS
 10
15.4303552569
 20
5.2116685048
 11
15.4303552569
 21
5.7095809041
  0
LINE
  5
330
100
AcDbEntity
  8
0
100
AcDbLine
 62
7
  6
CONTINUOUS
 10
15.4303552569
 20
6.3189108492
 11
15.4303552569
 21
6.7675144198
  0
LINE
  5
331
100
AcDbEntity
  8
0
100
AcDbLine
 62
7
  6
CONTINUOUS
 10
15.4303552569
 20
7.2561590964
 11
15.4303552569
 21
7.5666023995
  0
LINE
  5
332
100
AcDbEntity
  8
0
100
AcDbLine
 62
7
  6
CONTINUOUS
 10
15.4303552569
 20
7.8377797365
 11
15.4303552569
 21
7.9485756686
  0
LINE
  5
333
100
AcDbEntity
  8
DRAWING
100
AcDbLine
 62
7
  6
CONTINUOUS
 10
15.5353552569
 20
2.9329043226
 11
15.5353552569
 21
7.9883450863
  0
LINE
  5
334
100
AcDbEntity
  8
0
100
AcDbLine
 62
7
  6
CONTINUOUS
 10
16.0778552569
 20
5.4606247044
 11
15.5853552569
 21
5.4606247044
  0
LINE
  5
335
100
AcDbEntity
  8
0
100
AcDbLine
 62
7
  6
CONTINUOUS
 10
15.5353552569
 20
5.4606247044
 11
15.0428552569
 21
5.4606247044
  0
LINE
  5
336
100
AcDbEntity
  8
DRAWING
100
AcDbLine
 62
7
  6
CONTINUOUS
 10
15.5853552569
 20
2.9329043226
 11
15.5853552569
 21
7.9883450863
  0
LINE
  5
337
100
AcDbEntity
  8
0
100
AcDbLine
 62
7
  6
CONTINUOUS
 10
15.6903552569
 20
7.9485756686
 11
15.6903552569
 21
7.8377797365
  0
LINE
  5
338
100
AcDbEntity
  8
0
100
AcDbLine
 62
7
  6
CONTINUOUS
 10
15.6903552569
 20
7.5666023995
 11
15.6903552569
 21
7.2561590964
  0
LINE
  5
339
100
AcDbEntity
  8
0
100
AcDbLine
 62
7
  6
CONTINUOUS
 10
15.6903552569
 20
6.7675144198
 11
15.6903552569
 21
6.3189108492
  0
LINE
  5
33A
100
AcDbEntity
  8
0
100
AcDbLine
 62
7
  6
CONTINUOUS
 10
15.6903552569
 20
5.7095809041
 11
15.6903552569
 21
5.2116685048
  0
LINE
  5
33B
100
AcDbEntity
  8
0
100
AcDbLine
 62
7
  6
CONTINUOUS
 10
15.6903552569
 20
4.6023385597
 11
15.6903552569
 21
4.153734989
  0
LINE
  5
33C
100
AcDbEntity
  8
0
100
AcDbLine
 62
7
  6
CONTINUOUS
 10
15.6903552569
 20
3.6650903125
 11
15.6903552569
 21
3.3546470094
  0
LINE
  5
33D
100
AcDbEntity
  8
0
100
AcDbLine
 62
7
  6
CONTINUOUS
 10
15.6903552569
 20
3.0834696724
 11
15.6903552569
 21
2.9726737403
  0
LINE
  5
33E
100
AcDbEntity
  8
0
100
AcDbLine
 62
7
  6
CONTINUOUS
 10
15.7153552569
 20
7.9254134927
 11
15.7153552569
 21
3.3683610756
  0
LINE
  5
33F
100
AcDbEntity
  8
0
100
AcDbLine
 62
7
  6
CONTINUOUS
 10
15.7153552569
 20
3.3680020794
 11
15.7153552569
 21
2.9958359162
  0
LINE
  5
340
100
AcDbEntity
  8
0
100
AcDbLine
 62
7
  6
CONTINUOUS
 10
15.7403552569
 20
7.52310784
 11
15.7403552569
 21
3.3981415689
  0
LINE
  5
341
100
AcDbEntity
  8
0
100
AcDbLine
 62
7
  6
CONTINUOUS
 10
15.4053552569
 20
5.7205033429
 11
15.4303538948
 21
5.7095809041
  0
LINE
  5
342
100
AcDbEntity
  8
0
100
AcDbLine
 62
7
  6
CONTINUOUS
 10
15.6903552546
 20
5.7095809041
 11
15.5853552569
 21
5.7095809041
  0
LINE
  5
343
100
AcDbEntity
  8
0
100
AcDbLine
 62
7
  6
CONTINUOUS
 10
15.5353552569
 20
5.7095809041
 11
15.4303538948
 21
5.7095809041
  0
LINE
  5
344
100
AcDbEntity
  8
0
100
AcDbLine
 62
7
  6
CONTINUOUS
 10
15.0453552569
 20
5.7406247044
 11
15.3803552569
 21
5.7406247044
  0
LINE
  5
345
100
AcDbEntity
  8
0
100
AcDbLine
 62
7
  6
CONTINUOUS
 10
15.7403552569
 20
5.7406247044
 11
16.0753552569
 21
5.7406247044
  0
LINE
  5
346
100
AcDbEntity
  8
0
100
AcDbLine
 62
7
  6
CONTINUOUS
 10
16.0753552569
 20
3.8031247044
 11
16.0753552569
 21
7.1181247044
  0
LINE
  5
347
100
AcDbEntity
  8
0
100
AcDbLine
 62
7
  6
CONTINUOUS
 10
16.0778552569
 20
3.8531247044
 11
16.0778552569
 21
7.0681247044
  0
LINE
  5
348
100
AcDbEntity
  8
0
100
AcDbLine
 62
7
  6
CONTINUOUS
 10
15.4303552593
 20
6.3189108492
 11
15.5353552569
 21
6.3189108492
  0
LINE
  5
349
100
AcDbEntity
  8
0
100
AcDbLine
 62
7
  6
CONTINUOUS
 10
15.5853552569
 20
6.3189108492
 11
15.6903552546
 21
6.3189108492
  0
LINE
  5
34A
100
AcDbEntity
  8
0
100
AcDbLine
 62
7
  6
CONTINUOUS
 10
15.6903552549
 20
6.7675144198
 11
15.5853552569
 21
6.7675144198
  0
LINE
  5
34B
100
AcDbEntity
  8
0
100
AcDbLine
 62
7
  6
CONTINUOUS
 10
15.5353552569
 20
6.7675144198
 11
15.430355259
 21
6.7675144198
  0
LINE
  5
34C
100
AcDbEntity
  8
0
100
AcDbLine
 62
7
  6
CONTINUOUS
 10
16.0778552569
 20
6.7681247044
 11
16.0753552569
 21
6.7681247044
  0
LINE
  5
34D
100
AcDbEntity
  8
0
100
AcDbLine
 62
7
  6
CONTINUOUS
 10
15.0453552569
 20
6.7681247044
 11
15.0428552569
 21
6.7681247044
  0
LINE
  5
34E
100
AcDbEntity
  8
0
100
AcDbLine
 62
7
  6
CONTINUOUS
 10
16.0753552569
 20
6.8181247044
 11
15.7403552569
 21
6.8181247044
  0
LINE
  5
34F
100
AcDbEntity
  8
0
100
AcDbLine
 62
7
  6
CONTINUOUS
 10
15.3803552569
 20
6.8181247044
 11
15.0453552569
 21
6.8181247044
  0
LINE
  5
350
100
AcDbEntity
  8
0
100
AcDbLine
 62
7
  6
CONTINUOUS
 10
16.0778552569
 20
7.0681247044
 11
16.0753552569
 21
7.0681247044
  0
LINE
  5
351
100
AcDbEntity
  8
0
100
AcDbLine
 62
7
  6
CONTINUOUS
 10
15.0428552569
 20
7.0681247044
 11
15.0453552569
 21
7.0681247044
  0
LINE
  5
352
100
AcDbEntity
  8
0
100
AcDbLine
 62
7
  6
CONTINUOUS
 10
15.3803552569
 20
7.1181247044
 11
15.0453552569
 21
7.1181247044
  0
LINE
  5
353
100
AcDbEntity
  8
0
100
AcDbLine
 62
7
  6
CONTINUOUS
 10
15.7403552569
 20
7.1181247044
 11
16.0753552569
 21
7.1181247044
  0
LINE
  5
354
100
AcDbEntity
  8
0
100
AcDbLine
 62
7
  6
CONTINUOUS
 10
15.4303552591
 20
7.2561590964
 11
15.5353552569
 21
7.2561590964
  0
LINE
  5
355
100
AcDbEntity
  8
0
100
AcDbLine
 62
7
  6
CONTINUOUS
 10
15.5853552569
 20
7.2561590964
 11
15.6903552548
 21
7.2561590964
  0
LINE
  5
356
100
AcDbEntity
  8
0
100
AcDbLine
 62
7
  6
CONTINUOUS
 10
15.3803552569
 20
7.5231247044
 11
15.4053552569
 21
7.5231247044
  0
LINE
  5
357
100
AcDbEntity
  8
0
100
AcDbLine
 62
7
  6
CONTINUOUS
 10
15.7153552569
 20
7.5231247044
 11
15.7403552569
 21
7.5231247044
  0
LINE
  5
358
100
AcDbEntity
  8
0
100
AcDbLine
 62
7
  6
CONTINUOUS
 10
15.6903552546
 20
7.5666023995
 11
15.5853552569
 21
7.5666023995
  0
LINE
  5
359
100
AcDbEntity
  8
0
100
AcDbLine
 62
7
  6
CONTINUOUS
 10
15.5353552569
 20
7.5666023995
 11
15.4303552593
 21
7.5666023995
  0
LINE
  5
35A
100
AcDbEntity
  8
0
100
AcDbLine
 62
7
  6
CONTINUOUS
 10
15.430355259
 20
7.8377797365
 11
15.5353552569
 21
7.8377797365
  0
LINE
  5
35B
100
AcDbEntity
  8
0
100
AcDbLine
 62
7
  6
CONTINUOUS
 10
15.5853552569
 20
7.8377797365
 11
15.6903552548
 21
7.8377797365
  0
LINE
  5
35C
100
AcDbEntity
  8
0
100
AcDbLine
 62
7
  6
CONTINUOUS
 10
15.6903552546
 20
7.9485756686
 11
15.5853552569
 21
7.9485756686
  0
LINE
  5
35D
100
AcDbEntity
  8
0
100
AcDbLine
 62
7
  6
CONTINUOUS
 10
15.5353552569
 20
7.9485756686
 11
15.4303552593
 21
7.9485756686
  0
LINE
  5
35E
100
AcDbEntity
  8
DRAWING
100
AcDbLine
 62
7
  6
CONTINUOUS
 10
15.5853552569
 20
7.9883747044
 11
15.5353552569
 21
7.9883747044
  0
LINE
  5
35F
100
AcDbEntity
  8
0
100
AcDbLine
 62
7
  6
CONTINUOUS
 10
13.0439260795
 20
13.1493052786
 11
13.0693430427
 21
13.2315546017
  0
LINE
  5
360
100
AcDbEntity
  8
0
100
AcDbLine
 62
7
  6
CONTINUOUS
 10
13.0699182052
 20
13.2213481708
 11
13.0727471538
 21
13.2305026518
  0
LINE
  5
361
100
AcDbEntity
  8
0
100
AcDbLine
 62
7
  6
CONTINUOUS
 10
13.3427184494
 20
13.7287595659
 11
13.3246209548
 21
13.6701960519
  0
LINE
  5
362
100
AcDbEntity
  8
0
100
AcDbLine
 62
7
  6
CONTINUOUS
 10
13.0699182047
 20
13.2213481692
 11
13.0439260795
 21
13.1493052786
  0
LINE
  5
363
100
AcDbEntity
  8
0
100
AcDbLine
 62
7
  6
CONTINUOUS
 10
13.2745486289
 20
12.6277657122
 11
13.2743925303
 21
12.6206669747
  0
LINE
  5
364
100
AcDbEntity
  8
0
100
AcDbLine
 62
7
  6
CONTINUOUS
 10
13.0655527053
 20
12.5637261518
 11
13.1284902785
 21
12.7673922135
  0
LINE
  5
365
100
AcDbEntity
  8
0
100
AcDbLine
 62
7
  6
CONTINUOUS
 10
13.5436369314
 20
13.7180692247
 11
13.5667548646
 21
13.7928788839
  0
LINE
  5
366
100
AcDbEntity
  8
0
100
AcDbLine
 62
7
  6
CONTINUOUS
 10
13.5862864547
 20
13.8560831325
 11
13.6065741744
 21
13.9217342175
  0
LINE
  5
367
100
AcDbEntity
  8
0
100
AcDbLine
 62
7
  6
CONTINUOUS
 10
13.4308182113
 20
13.3226627448
 11
13.4284145397
 21
13.3182519308
  0
LINE
  5
368
100
AcDbEntity
  8
0
100
AcDbLine
 62
7
  6
CONTINUOUS
 10
13.5696764479
 20
12.5830232858
 11
13.4764809134
 21
12.2814424256
  0
LINE
  5
369
100
AcDbEntity
  8
0
100
AcDbLine
 62
7
  6
CONTINUOUS
 10
14.042508284
 20
14.0903007536
 11
14.0204541743
 21
14.0189336282
  0
LINE
  5
36A
100
AcDbEntity
  8
0
100
AcDbLine
 62
7
  6
CONTINUOUS
 10
14.0034807057
 20
13.9640074639
 11
13.9795710409
 21
13.8866357603
  0
LINE
  5
36B
100
AcDbEntity
  8
0
100
AcDbLine
 62
7
  6
CONTINUOUS
 10
13.5448948739
 20
12.4283162211
 11
13.4995074382
 21
12.2814424256
  0
LINE
  5
36C
100
AcDbEntity
  8
0
100
AcDbLine
 62
7
  6
CONTINUOUS
 10
13.5864200358
 20
12.3704846113
 11
13.5969018151
 21
12.4044036614
  0
LINE
  5
36D
100
AcDbEntity
  8
0
100
AcDbLine
 62
7
  6
CONTINUOUS
 10
13.5376376716
 20
12.2037411795
 11
13.5765623644
 21
12.3297015317
  0
LINE
  5
36E
100
AcDbEntity
  8
0
100
AcDbLine
 62
7
  6
CONTINUOUS
 10
13.1553901404
 20
12.7937638161
 11
13.1284902785
 21
12.7673922135
  0
LINE
  5
36F
100
AcDbEntity
  8
0
100
AcDbLine
 62
7
  6
CONTINUOUS
 10
13.9790538063
 20
13.8876298886
 11
13.9797083759
 21
13.8878888039
  0
LINE
  5
370
100
AcDbEntity
  8
0
100
AcDbLine
 62
7
  6
CONTINUOUS
 10
13.9792483859
 20
13.8874701865
 11
13.9799076789
 21
13.8877251212
  0
LINE
  5
371
100
AcDbEntity
  8
0
100
AcDbLine
 62
7
  6
CONTINUOUS
 10
13.130083404
 20
12.4089724947
 11
13.1470582707
 21
12.3893893219
  0
LINE
  5
372
100
AcDbEntity
  8
0
100
AcDbLine
 62
7
  6
CONTINUOUS
 10
13.2174365027
 20
12.2542177723
 11
13.2388973101
 21
12.2278461697
  0
LINE
  5
373
100
AcDbEntity
  8
0
100
AcDbLine
 62
7
  6
CONTINUOUS
 10
13.4764809134
 20
12.2814424256
 11
13.6473043587
 21
11.9333408433
  0
LINE
  5
374
100
AcDbEntity
  8
0
100
AcDbLine
 62
7
  6
CONTINUOUS
 10
13.4995074382
 20
12.2814424256
 11
13.5376376716
 21
12.2037411795
  0
LINE
  5
375
100
AcDbEntity
  8
0
100
AcDbLine
 62
7
  6
CONTINUOUS
 10
13.6489779529
 20
11.9768535411
 11
13.6184737662
 21
12.0390145379
  0
LINE
  5
376
100
AcDbEntity
  8
0
100
AcDbLine
 62
7
  6
CONTINUOUS
 10
13.6933574084
 20
11.9333408433
 11
13.6720044777
 21
11.9768535411
  0
LINE
  5
377
100
AcDbEntity
  8
0
100
AcDbLine
 62
7
  6
CONTINUOUS
 10
13.586237637
 20
12.3099853991
 11
13.5664099156
 21
12.350390047
  0
LINE
  5
378
100
AcDbEntity
  8
0
100
AcDbLine
 62
7
  6
CONTINUOUS
 10
13.7641105771
 20
11.9768535411
 11
13.7854635078
 21
11.9333408433
  0
LINE
  5
379
100
AcDbEntity
  8
0
100
AcDbLine
 62
7
  6
CONTINUOUS
 10
13.7496841827
 20
12.8696365172
 11
13.8428797172
 21
13.1712173774
  0
LINE
  5
37A
100
AcDbEntity
  8
0
100
AcDbLine
 62
7
  6
CONTINUOUS
 10
13.602233836
 20
12.3613308696
 11
13.6083408851
 21
12.3810932876
  0
LINE
  5
37B
100
AcDbEntity
  8
0
100
AcDbLine
 62
7
  6
CONTINUOUS
 10
13.7968500591
 20
12.8529158313
 11
13.7974552249
 21
12.8548741486
  0
LINE
  5
37C
100
AcDbEntity
  8
0
100
AcDbLine
 62
7
  6
CONTINUOUS
 10
13.6659813896
 20
12.4044036614
 11
13.6554996103
 21
12.3704846113
  0
LINE
  5
37D
100
AcDbEntity
  8
0
100
AcDbLine
 62
7
  6
CONTINUOUS
 10
13.6376665873
 20
12.2814424256
 11
13.683054023
 21
12.4283162211
  0
LINE
  5
37E
100
AcDbEntity
  8
0
100
AcDbLine
 62
7
  6
CONTINUOUS
 10
13.5314050722
 20
11.8754532733
 11
13.5864971388
 21
12.0537312663
  0
LINE
  5
37F
100
AcDbEntity
  8
0
100
AcDbLine
 62
7
  6
CONTINUOUS
 10
13.6489779529
 20
11.9768535411
 11
13.6681871538
 21
12.0390145379
  0
LINE
  5
380
100
AcDbEntity
  8
0
100
AcDbLine
 62
7
  6
CONTINUOUS
 10
13.6720044777
 20
11.9768535411
 11
13.6912136786
 21
12.0390145379
  0
LINE
  5
381
100
AcDbEntity
  8
0
100
AcDbLine
 62
7
  6
CONTINUOUS
 10
13.7549948176
 20
12.0384588731
 11
13.7565161705
 21
12.0367461223
  0
LINE
  5
382
100
AcDbEntity
  8
0
100
AcDbLine
 62
7
  6
CONTINUOUS
 10
13.7562481983
 20
12.0387071835
 11
13.75763651
 21
12.036969427
  0
LINE
  5
383
100
AcDbEntity
  8
0
100
AcDbLine
 62
7
  6
CONTINUOUS
 10
13.7566329153
 20
12.0390145379
 11
13.787137102
 21
11.9768535411
  0
LINE
  5
384
100
AcDbEntity
  8
0
100
AcDbLine
 62
7
  6
CONTINUOUS
 10
13.6757968207
 20
12.2037411795
 11
13.6376665873
 21
12.2814424256
  0
LINE
  5
385
100
AcDbEntity
  8
0
100
AcDbLine
 62
7
  6
CONTINUOUS
 10
13.6083408851
 20
12.3810932876
 11
13.5969018151
 21
12.4044036614
  0
LINE
  5
386
100
AcDbEntity
  8
0
100
AcDbLine
 62
7
  6
CONTINUOUS
 10
13.648121562
 20
12.3980528127
 11
13.636682492
 21
12.4213631865
  0
LINE
  5
387
100
AcDbEntity
  8
0
100
AcDbLine
 62
7
  6
CONTINUOUS
 10
14.0136279676
 20
13.6975196963
 11
14.0134794902
 21
13.6903886458
  0
LINE
  5
388
100
AcDbEntity
  8
0
100
AcDbLine
 62
7
  6
CONTINUOUS
 10
13.7260130499
 20
12.0390145379
 11
13.6933574084
 21
11.9333408433
  0
LINE
  5
389
100
AcDbEntity
  8
0
100
AcDbLine
 62
7
  6
CONTINUOUS
 10
13.7730080022
 20
12.0056456192
 11
13.7641105771
 21
11.9768535411
  0
LINE
  5
38A
100
AcDbEntity
  8
0
100
AcDbLine
 62
7
  6
CONTINUOUS
 10
14.3928830802
 20
13.9555076164
 11
14.4169784307
 21
14.0334801993
  0
LINE
  5
38B
100
AcDbEntity
  8
0
100
AcDbLine
 62
7
  6
CONTINUOUS
 10
14.4333519397
 20
14.0864648939
 11
14.4558203231
 21
14.1591726092
  0
LINE
  5
38C
100
AcDbEntity
  8
0
100
AcDbLine
 62
7
  6
CONTINUOUS
 10
15.3201424818
 20
11.077073112
 11
16.3839679299
 21
11.077073112
  0
LINE
  5
38D
100
AcDbEntity
  8
0
100
AcDbLine
 62
7
  6
CONTINUOUS
 10
15.3042852227
 20
11.1061952932
 11
16.3681106708
 21
11.1061952932
  0
LINE
  5
38E
100
AcDbEntity
  8
DRAWING
100
AcDbLine
 62
7
  6
CONTINUOUS
 10
15.9858109174
 20
10.9809853695
 11
15.9848639693
 21
10.9810531134
  0
LINE
  5
38F
100
AcDbEntity
  8
DRAWING
100
AcDbLine
 62
7
  6
CONTINUOUS
 10
15.9848034276
 20
10.9840546876
 11
15.9838502491
 21
10.9841470374
  0
LINE
  5
390
100
AcDbEntity
  8
DRAWING
100
AcDbLine
 62
7
  6
CONTINUOUS
 10
15.2624632989
 20
11.0997558102
 11
15.2572305267
 21
11.1010952868
  0
LINE
  5
391
100
AcDbEntity
  8
DRAWING
100
AcDbLine
 62
7
  6
CONTINUOUS
 10
15.2628868826
 20
11.1025774203
 11
15.2576831732
 21
11.1040360298
  0
LINE
  5
392
100
AcDbEntity
  8
DRAWING
100
AcDbLine
 62
7
  6
CONTINUOUS
 10
14.3604498747
 20
11.4433614286
 11
14.3559421214
 21
11.4455206671
  0
LINE
  5
393
100
AcDbEntity
  8
DRAWING
100
AcDbLine
 62
7
  6
CONTINUOUS
 10
14.3586908649
 20
11.4416490516
 11
14.3542916144
 21
11.4439235587
  0
LINE
  5
394
100
AcDbEntity
  8
0
100
AcDbLine
 62
7
  6
CONTINUOUS
 10
14.1815197352
 20
11.9333408433
 11
14.4339418799
 21
11.4189585946
  0
LINE
  5
395
100
AcDbEntity
  8
0
100
AcDbLine
 62
7
  6
CONTINUOUS
 10
14.0106962899
 20
12.2814424256
 11
13.7582741453
 21
12.7958246743
  0
LINE
  5
396
100
AcDbEntity
  8
0
100
AcDbLine
 62
7
  6
CONTINUOUS
 10
14.4793897637
 20
11.4170002773
 11
13.8037220292
 21
12.793866357
  0
LINE
  5
397
100
AcDbEntity
  8
0
100
AcDbLine
 62
7
  6
CONTINUOUS
 10
14.358182359
 20
11.4386276296
 11
14.3680283634
 21
11.2902577377
  0
LINE
  5
398
100
AcDbEntity
  8
0
100
AcDbLine
 62
7
  6
CONTINUOUS
 10
14.2764097451
 20
13.121392027
 11
14.3696052796
 21
13.4229728872
  0
LINE
  5
399
100
AcDbEntity
  8
0
100
AcDbLine
 62
7
  6
CONTINUOUS
 10
14.3235756215
 20
13.1046713412
 11
14.3241807873
 21
13.1066296584
  0
LINE
  5
39A
100
AcDbEntity
  8
0
100
AcDbLine
 62
7
  6
CONTINUOUS
 10
14.985901828
 20
14.0872255847
 11
15.0294131104
 21
14.1643579444
  0
LINE
  5
39B
100
AcDbEntity
  8
0
100
AcDbLine
 62
7
  6
CONTINUOUS
 10
14.740467595
 20
11.2635561025
 11
15.1365238224
 21
11.2635561025
  0
LINE
  5
39C
100
AcDbEntity
  8
0
100
AcDbLine
 62
7
  6
CONTINUOUS
 10
16.3845614693
 20
11.2635561025
 11
16.7806176967
 21
11.2635561025
  0
LINE
  5
39D
100
AcDbEntity
  8
0
100
AcDbLine
 62
7
  6
CONTINUOUS
 10
16.7647604376
 20
11.2926782837
 11
16.3687042102
 21
11.2926782837
  0
LINE
  5
39E
100
AcDbEntity
  8
0
100
AcDbLine
 62
7
  6
CONTINUOUS
 10
15.1206665633
 20
11.2926782837
 11
14.7246103359
 21
11.2926782837
  0
LINE
  5
39F
100
AcDbEntity
  8
0
100
AcDbLine
 62
7
  6
CONTINUOUS
 10
14.1421610623
 20
12.1073916344
 11
14.1415558965
 21
12.1054333172
  0
LINE
  5
3A0
100
AcDbEntity
  8
0
100
AcDbLine
 62
7
  6
CONTINUOUS
 10
14.9543725501
 20
13.9215266024
 11
14.8834470491
 21
13.7957971146
  0
LINE
  5
3A1
100
AcDbEntity
  8
0
100
AcDbLine
 62
7
  6
CONTINUOUS
 10
13.6258506146
 20
11.9770589773
 11
13.5362968375
 21
11.8690666978
  0
LINE
  5
3A2
100
AcDbEntity
  8
0
100
AcDbLine
 62
7
  6
CONTINUOUS
 10
15.9931864475
 20
13.8837637648
 11
16.1010605173
 21
13.9327925918
  0
LINE
  5
3A3
100
AcDbEntity
  8
0
100
AcDbLine
 62
7
  6
CONTINUOUS
 10
13.1553884849
 20
12.793763277
 11
13.2058291119
 21
12.8101896832
  0
LINE
  5
3A4
100
AcDbEntity
  8
0
100
AcDbLine
 62
7
  6
CONTINUOUS
 10
13.6157189334
 20
12.3535250862
 11
13.5864200358
 21
12.3704846113
  0
LINE
  5
3A5
100
AcDbEntity
  8
0
100
AcDbLine
 62
7
  6
CONTINUOUS
 10
13.6616066594
 20
12.3902470293
 11
13.648121562
 21
12.3980528127
  0
LINE
  5
3A6
100
AcDbEntity
  8
0
100
AcDbLine
 62
7
  6
CONTINUOUS
 10
13.636682492
 20
12.4213631865
 11
13.6659813896
 21
12.4044036614
  0
LINE
  5
3A7
100
AcDbEntity
  8
0
100
AcDbLine
 62
7
  6
CONTINUOUS
 10
15.2978946344
 20
11.0807321909
 11
15.410807873
 21
10.9291452677
  0
LINE
  5
3A8
100
AcDbEntity
  8
0
100
AcDbLine
 62
7
  6
CONTINUOUS
 10
13.9776404698
 20
13.8496333761
 11
14.0136279676
 21
13.6975196963
  0
LINE
  5
3A9
100
AcDbEntity
  8
0
100
AcDbLine
 62
7
  6
CONTINUOUS
 10
15.0314834444
 20
14.1591726092
 11
15.0085714034
 21
14.0850292174
  0
LINE
  5
3AA
100
AcDbEntity
  8
0
100
AcDbLine
 62
7
  6
CONTINUOUS
 10
14.9928404082
 20
14.0341236983
 11
14.9685462014
 21
13.9555076164
  0
LINE
  5
3AB
100
AcDbEntity
  8
0
100
AcDbLine
 62
7
  6
CONTINUOUS
 10
14.5843414403
 20
12.6217673631
 11
14.4247821521
 21
12.1054333172
  0
LINE
  5
3AC
100
AcDbEntity
  8
0
100
AcDbLine
 62
7
  6
CONTINUOUS
 10
16.0260199571
 20
13.6899612499
 11
15.8622291226
 21
13.6155182211
  0
LINE
  5
3AD
100
AcDbEntity
  8
0
100
AcDbLine
 62
7
  6
CONTINUOUS
 10
13.2623938014
 20
12.6102166763
 11
13.0803479246
 21
12.550931935
  0
LINE
  5
3AE
100
AcDbEntity
  8
0
100
AcDbLine
 62
7
  6
CONTINUOUS
 10
13.8868545979
 20
11.5779769673
 11
14.1110699823
 21
11.5863891823
  0
LINE
  5
3AF
100
AcDbEntity
  8
0
100
AcDbLine
 62
7
  6
CONTINUOUS
 10
17.5442248624
 20
11.5863891823
 11
17.7766964778
 21
11.5779769673
  0
LINE
  5
3B0
100
AcDbEntity
  8
0
100
AcDbLine
 62
7
  6
CONTINUOUS
 10
13.2388951255
 20
12.2278467088
 11
13.4791264531
 21
12.1685619676
  0
LINE
  5
3B1
100
AcDbEntity
  8
0
100
AcDbLine
 62
7
  6
CONTINUOUS
 10
17.0656224632
 20
11.1632604228
 11
17.3024759627
 21
11.088817394
  0
LINE
  5
3B2
100
AcDbEntity
  8
0
100
AcDbLine
 62
7
  6
CONTINUOUS
 10
13.0256223226
 20
12.909711946
 11
13.2342888327
 21
12.7944723186
  0
LINE
  5
3B3
100
AcDbEntity
  8
0
100
AcDbLine
 62
7
  6
CONTINUOUS
 10
16.2637764525
 20
10.9829815293
 11
16.4581000958
 21
10.8572520414
  0
LINE
  5
3B4
100
AcDbEntity
  8
0
100
AcDbLine
 62
7
  6
CONTINUOUS
 10
13.2892774834
 20
13.4885209062
 11
13.4250502146
 21
13.3401510142
  0
LINE
  5
3B5
100
AcDbEntity
  8
0
100
AcDbLine
 62
7
  6
CONTINUOUS
 10
15.1978289655
 20
11.2324756041
 11
15.2588373388
 21
11.1081536105
  0
LINE
  5
3B6
100
AcDbEntity
  8
0
100
AcDbLine
 62
7
  6
CONTINUOUS
 10
14.3391361109
 20
12.9823076648
 11
14.2781277376
 21
13.1066296584
  0
LINE
  5
3B7
100
AcDbEntity
  8
0
100
AcDbLine
 62
7
  6
CONTINUOUS
 10
15.2432768494
 20
11.2305172868
 11
15.3042852227
 21
11.1061952932
  0
LINE
  5
3B8
100
AcDbEntity
  8
0
100
AcDbLine
 62
7
  6
CONTINUOUS
 10
14.3845839948
 20
12.9803493475
 11
14.3235756215
 21
13.1046713412
  0
LINE
  5
3B9
100
AcDbEntity
  8
0
100
AcDbLine
 62
7
  6
CONTINUOUS
 10
14.9009307109
 20
12.8047445315
 11
14.8735123818
 21
12.7160187858
  0
LINE
  5
3BA
100
AcDbEntity
  8
0
100
AcDbLine
 62
7
  6
CONTINUOUS
 10
13.5969018151
 20
12.4044036614
 11
13.636682492
 21
12.4213631865
  0
LINE
  5
3BB
100
AcDbEntity
  8
0
100
AcDbLine
 62
7
  6
CONTINUOUS
 10
13.648121562
 20
12.3980528127
 11
13.6083408851
 21
12.3810932876
  0
LINE
  5
3BC
100
AcDbEntity
  8
0
100
AcDbLine
 62
7
  6
CONTINUOUS
 10
13.6554996103
 20
12.3704846113
 11
13.6157189334
 21
12.3535250862
  0
LINE
  5
3BD
100
AcDbEntity
  8
0
100
AcDbLine
 62
7
  6
CONTINUOUS
 10
13.6473043587
 20
11.9333408433
 11
13.6933574084
 21
11.9333408433
  0
LINE
  5
3BE
100
AcDbEntity
  8
0
100
AcDbLine
 62
7
  6
CONTINUOUS
 10
13.7854635078
 20
11.9333408433
 11
14.1815197352
 21
11.9333408433
  0
LINE
  5
3BF
100
AcDbEntity
  8
0
100
AcDbLine
 62
7
  6
CONTINUOUS
 10
16.6822003339
 20
11.9333408433
 11
17.0782565614
 21
11.9333408433
  0
LINE
  5
3C0
100
AcDbEntity
  8
0
100
AcDbLine
 62
7
  6
CONTINUOUS
 10
17.1703626608
 20
11.9333408433
 11
17.2164157105
 21
11.9333408433
  0
LINE
  5
3C1
100
AcDbEntity
  8
0
100
AcDbLine
 62
7
  6
CONTINUOUS
 10
15.4494530364
 20
13.8866357603
 11
15.4737929619
 21
13.9653997881
  0
LINE
  5
3C2
100
AcDbEntity
  8
0
100
AcDbLine
 62
7
  6
CONTINUOUS
 10
15.489376238
 20
14.0158272879
 11
15.5123902795
 21
14.0903007536
  0
LINE
  5
3C3
100
AcDbEntity
  8
0
100
AcDbLine
 62
7
  6
CONTINUOUS
 10
17.1720362549
 20
11.9768535411
 11
17.1490097301
 21
11.9768535411
  0
LINE
  5
3C4
100
AcDbEntity
  8
0
100
AcDbLine
 62
7
  6
CONTINUOUS
 10
17.0569036307
 20
11.9768535411
 11
17.0338771058
 21
11.9768535411
  0
LINE
  5
3C5
100
AcDbEntity
  8
0
100
AcDbLine
 62
7
  6
CONTINUOUS
 10
13.787137102
 20
11.9768535411
 11
13.7641105771
 21
11.9768535411
  0
LINE
  5
3C6
100
AcDbEntity
  8
0
100
AcDbLine
 62
7
  6
CONTINUOUS
 10
13.6720044777
 20
11.9768535411
 11
13.6489779529
 21
11.9768535411
  0
LINE
  5
3C7
100
AcDbEntity
  8
0
100
AcDbLine
 62
7
  6
CONTINUOUS
 10
13.6184737662
 20
12.0390145379
 11
13.7566329153
 21
12.0390145379
  0
LINE
  5
3C8
100
AcDbEntity
  8
0
100
AcDbLine
 62
7
  6
CONTINUOUS
 10
17.0033729192
 20
12.0390145379
 11
17.1415320683
 21
12.0390145379
  0
LINE
  5
3C9
100
AcDbEntity
  8
0
100
AcDbLine
 62
7
  6
CONTINUOUS
 10
16.5501303958
 20
12.1054333172
 11
16.2669041401
 21
12.1054333172
  0
LINE
  5
3CA
100
AcDbEntity
  8
0
100
AcDbLine
 62
7
  6
CONTINUOUS
 10
14.4247821521
 20
12.1054333172
 11
14.1415558965
 21
12.1054333172
  0
LINE
  5
3CB
100
AcDbEntity
  8
0
100
AcDbLine
 62
7
  6
CONTINUOUS
 10
17.1310039878
 20
12.1073916344
 11
16.5507355616
 21
12.1073916344
  0
LINE
  5
3CC
100
AcDbEntity
  8
0
100
AcDbLine
 62
7
  6
CONTINUOUS
 10
14.1405948939
 20
12.1073916344
 11
13.561892636
 21
12.1073916344
  0
LINE
  5
3CD
100
AcDbEntity
  8
0
100
AcDbLine
 62
7
  6
CONTINUOUS
 10
14.8299721098
 20
12.8047445315
 11
14.8735123818
 21
12.7160187858
  0
LINE
  5
3CE
100
AcDbEntity
  8
0
100
AcDbLine
 62
7
  6
CONTINUOUS
 10
15.3874010695
 20
13.1046713412
 11
15.3880062353
 21
13.1066296584
  0
LINE
  5
3CF
100
AcDbEntity
  8
0
100
AcDbLine
 62
7
  6
CONTINUOUS
 10
13.5376376716
 20
12.2037411795
 11
13.6757968207
 21
12.2037411795
  0
LINE
  5
3D0
100
AcDbEntity
  8
0
100
AcDbLine
 62
7
  6
CONTINUOUS
 10
16.9225368245
 20
12.2037411795
 11
17.0606959736
 21
12.2037411795
  0
LINE
  5
3D1
100
AcDbEntity
  8
0
100
AcDbLine
 62
7
  6
CONTINUOUS
 10
17.0455922651
 20
12.2814424256
 11
17.0225657403
 21
12.2814424256
  0
LINE
  5
3D2
100
AcDbEntity
  8
0
100
AcDbLine
 62
7
  6
CONTINUOUS
 10
16.8844065912
 20
12.2814424256
 11
16.5113768886
 21
12.2814424256
  0
LINE
  5
3D3
100
AcDbEntity
  8
0
100
AcDbLine
 62
7
  6
CONTINUOUS
 10
13.4764809134
 20
12.2814424256
 11
13.4995074382
 21
12.2814424256
  0
LINE
  5
3D4
100
AcDbEntity
  8
0
100
AcDbLine
 62
7
  6
CONTINUOUS
 10
13.6376665873
 20
12.2814424256
 11
14.0106962899
 21
12.2814424256
  0
LINE
  5
3D5
100
AcDbEntity
  8
0
100
AcDbLine
 62
7
  6
CONTINUOUS
 10
17.3272288304
 20
12.3698061492
 11
17.2811757807
 21
12.3698061492
  0
LINE
  5
3D6
100
AcDbEntity
  8
0
100
AcDbLine
 62
7
  6
CONTINUOUS
 10
17.720126106
 20
12.3893893219
 11
17.3332804885
 21
12.3893893219
  0
LINE
  5
3D7
100
AcDbEntity
  8
0
100
AcDbLine
 62
7
  6
CONTINUOUS
 10
13.5098390273
 20
12.3893893219
 11
13.1470582707
 21
12.3893893219
  0
LINE
  5
3D8
100
AcDbEntity
  8
0
100
AcDbLine
 62
7
  6
CONTINUOUS
 10
17.2579757698
 20
12.4089724947
 11
17.2241995223
 21
12.4089724947
  0
LINE
  5
3D9
100
AcDbEntity
  8
0
100
AcDbLine
 62
7
  6
CONTINUOUS
 10
17.025516009
 20
12.477274153
 11
17.0024894842
 21
12.477274153
  0
LINE
  5
3DA
100
AcDbEntity
  8
0
100
AcDbLine
 62
7
  6
CONTINUOUS
 10
13.6406168561
 20
12.477274153
 11
13.6175903312
 21
12.477274153
  0
LINE
  5
3DB
100
AcDbEntity
  8
0
100
AcDbLine
 62
7
  6
CONTINUOUS
 10
15.2189102545
 20
12.7160187858
 11
15.1753699825
 21
12.8047445315
  0
LINE
  5
3DC
100
AcDbEntity
  8
0
100
AcDbLine
 62
7
  6
CONTINUOUS
 10
16.1137652711
 20
13.9217342175
 11
16.0907180197
 21
13.8471532845
  0
LINE
  5
3DD
100
AcDbEntity
  8
0
100
AcDbLine
 62
7
  6
CONTINUOUS
 10
16.075182839
 20
13.7968814214
 11
16.0508280282
 21
13.7180692247
  0
LINE
  5
3DE
100
AcDbEntity
  8
0
100
AcDbLine
 62
7
  6
CONTINUOUS
 10
17.1387877997
 20
12.5830232858
 11
16.6045724231
 21
12.5830232858
  0
LINE
  5
3DF
100
AcDbEntity
  8
0
100
AcDbLine
 62
7
  6
CONTINUOUS
 10
13.8627018992
 20
12.5830232858
 11
13.5696764479
 21
12.5830232858
  0
LINE
  5
3E0
100
AcDbEntity
  8
0
100
AcDbLine
 62
7
  6
CONTINUOUS
 10
15.3874010695
 20
13.1046713412
 11
15.4484094429
 21
12.9803493475
  0
LINE
  5
3E1
100
AcDbEntity
  8
0
100
AcDbLine
 62
7
  6
CONTINUOUS
 10
16.3681106708
 20
11.1061952932
 11
16.3071022974
 21
11.2305172868
  0
LINE
  5
3E2
100
AcDbEntity
  8
0
100
AcDbLine
 62
7
  6
CONTINUOUS
 10
15.3880062353
 20
13.1066296584
 11
15.4490146087
 21
12.9823076648
  0
LINE
  5
3E3
100
AcDbEntity
  8
0
100
AcDbLine
 62
7
  6
CONTINUOUS
 10
16.3077074632
 20
11.2324756041
 11
16.3687158366
 21
11.1081536105
  0
LINE
  5
3E4
100
AcDbEntity
  8
0
100
AcDbLine
 62
7
  6
CONTINUOUS
 10
15.1753699825
 20
12.8047445315
 11
14.8299721098
 21
12.8047445315
  0
LINE
  5
3E5
100
AcDbEntity
  8
0
100
AcDbLine
 62
7
  6
CONTINUOUS
 10
13.9269258546
 20
12.9181883507
 11
14.3229820821
 21
12.9181883507
  0
LINE
  5
3E6
100
AcDbEntity
  8
0
100
AcDbLine
 62
7
  6
CONTINUOUS
 10
15.5710197289
 20
12.9181883507
 11
15.9670759563
 21
12.9181883507
  0
LINE
  5
3E7
100
AcDbEntity
  8
0
100
AcDbLine
 62
7
  6
CONTINUOUS
 10
13.9275310204
 20
12.920146668
 11
14.3235872479
 21
12.920146668
  0
LINE
  5
3E8
100
AcDbEntity
  8
0
100
AcDbLine
 62
7
  6
CONTINUOUS
 10
15.5716248947
 20
12.920146668
 11
15.9676811222
 21
12.920146668
  0
LINE
  5
3E9
100
AcDbEntity
  8
0
100
AcDbLine
 62
7
  6
CONTINUOUS
 10
15.434059285
 20
13.1066296584
 11
15.4950676584
 21
12.9823076648
  0
LINE
  5
3EA
100
AcDbEntity
  8
0
100
AcDbLine
 62
7
  6
CONTINUOUS
 10
16.4147688863
 20
11.1081536105
 11
16.3537605129
 21
11.2324756041
  0
LINE
  5
3EB
100
AcDbEntity
  8
0
100
AcDbLine
 62
7
  6
CONTINUOUS
 10
13.9122789271
 20
12.9512271664
 11
14.3083351545
 21
12.9512271664
  0
LINE
  5
3EC
100
AcDbEntity
  8
0
100
AcDbLine
 62
7
  6
CONTINUOUS
 10
15.5563728014
 20
12.9512271664
 11
15.9524290288
 21
12.9512271664
  0
LINE
  5
3ED
100
AcDbEntity
  8
0
100
AcDbLine
 62
7
  6
CONTINUOUS
 10
14.3235756215
 20
13.1046713412
 11
15.3874010695
 21
13.1046713412
  0
LINE
  5
3EE
100
AcDbEntity
  8
0
100
AcDbLine
 62
7
  6
CONTINUOUS
 10
14.3241807873
 20
13.1066296584
 11
15.3880062353
 21
13.1066296584
  0
LINE
  5
3EF
100
AcDbEntity
  8
0
100
AcDbLine
 62
7
  6
CONTINUOUS
 10
13.3229595143
 20
13.1923894616
 11
13.0904878989
 21
13.2008016765
  0
LINE
  5
3F0
100
AcDbEntity
  8
0
100
AcDbLine
 62
7
  6
CONTINUOUS
 10
17.6282892512
 20
12.550931935
 11
17.3880579236
 21
12.6102166763
  0
LINE
  5
3F1
100
AcDbEntity
  8
0
100
AcDbLine
 62
7
  6
CONTINUOUS
 10
13.8015619135
 20
13.6155182211
 11
13.5647084139
 21
13.6899612499
  0
LINE
  5
3F2
100
AcDbEntity
  8
0
100
AcDbLine
 62
7
  6
CONTINUOUS
 10
17.8415620541
 20
11.8690666978
 11
17.632895544
 21
11.9843063252
  0
LINE
  5
3F3
100
AcDbEntity
  8
0
100
AcDbLine
 62
7
  6
CONTINUOUS
 10
14.6034079242
 20
13.7957971146
 11
14.4090842809
 21
13.9215266024
  0
LINE
  5
3F4
100
AcDbEntity
  8
0
100
AcDbLine
 62
7
  6
CONTINUOUS
 10
15.5882631929
 20
13.283888525
 11
15.5272548196
 21
13.4082105187
  0
LINE
  5
3F5
100
AcDbEntity
  8
0
100
AcDbLine
 62
7
  6
CONTINUOUS
 10
16.5040801625
 20
13.5250945727
 11
16.5284058972
 21
13.6038126793
  0
LINE
  5
3F6
100
AcDbEntity
  8
0
100
AcDbLine
 62
7
  6
CONTINUOUS
 10
16.5440350242
 20
13.6543885526
 11
16.5670174055
 21
13.7287595659
  0
LINE
  5
3F7
100
AcDbEntity
  8
0
100
AcDbLine
 62
7
  6
CONTINUOUS
 10
16.981800968
 20
12.4044036614
 11
17.0215816449
 21
12.4213631865
  0
LINE
  5
3F8
100
AcDbEntity
  8
0
100
AcDbLine
 62
7
  6
CONTINUOUS
 10
17.0330207149
 20
12.3980528127
 11
16.993240038
 21
12.3810932876
  0
LINE
  5
3F9
100
AcDbEntity
  8
0
100
AcDbLine
 62
7
  6
CONTINUOUS
 10
17.0403987633
 20
12.3704846113
 11
17.0006180864
 21
12.3535250862
  0
LINE
  5
3FA
100
AcDbEntity
  8
0
100
AcDbLine
 62
7
  6
CONTINUOUS
 10
17.6282870666
 20
12.5509324741
 11
17.6618505308
 21
12.563725083
  0
LINE
  5
3FB
100
AcDbEntity
  8
0
100
AcDbLine
 62
7
  6
CONTINUOUS
 10
16.9803297788
 20
13.2008016765
 11
16.7561143944
 21
13.1923894616
  0
LINE
  5
3FC
100
AcDbEntity
  8
0
100
AcDbLine
 62
7
  6
CONTINUOUS
 10
14.3089286939
 20
13.1377101569
 11
15.372754142
 21
13.1377101569
  0
LINE
  5
3FD
100
AcDbEntity
  8
0
100
AcDbLine
 62
7
  6
CONTINUOUS
 10
16.0456245633
 20
13.2528080266
 11
15.6495683359
 21
13.2528080266
  0
LINE
  5
3FE
100
AcDbEntity
  8
0
100
AcDbLine
 62
7
  6
CONTINUOUS
 10
14.3170203604
 20
13.2528080266
 11
14.0054744616
 21
13.2528080266
  0
LINE
  5
3FF
100
AcDbEntity
  8
0
100
AcDbLine
 62
7
  6
CONTINUOUS
 10
17.4630984839
 20
12.8530480183
 11
17.5440183079
 21
12.8330784711
  0
LINE
  5
400
100
AcDbEntity
  8
0
100
AcDbLine
 62
7
  6
CONTINUOUS
 10
17.6240334194
 20
12.8133321906
 11
17.7033298114
 21
12.793763277
  0
LINE
  5
401
100
AcDbEntity
  8
0
100
AcDbLine
 62
7
  6
CONTINUOUS
 10
13.6397489742
 20
13.9327925918
 11
13.7022104955
 21
13.9131609426
  0
LINE
  5
402
100
AcDbEntity
  8
0
100
AcDbLine
 62
7
  6
CONTINUOUS
 10
13.7750544185
 20
13.8902661056
 11
13.8766024737
 21
13.858349563
  0
LINE
  5
403
100
AcDbEntity
  8
0
100
AcDbLine
 62
7
  6
CONTINUOUS
 10
17.0006180864
 20
12.3535250862
 11
16.9713191888
 21
12.3704846113
  0
LINE
  5
404
100
AcDbEntity
  8
0
100
AcDbLine
 62
7
  6
CONTINUOUS
 10
17.0465058124
 20
12.3902470293
 11
17.0330207149
 21
12.3980528127
  0
LINE
  5
405
100
AcDbEntity
  8
0
100
AcDbLine
 62
7
  6
CONTINUOUS
 10
17.0215816449
 20
12.4213631865
 11
17.0508805426
 21
12.4044036614
  0
LINE
  5
406
100
AcDbEntity
  8
0
100
AcDbLine
 62
7
  6
CONTINUOUS
 10
17.5779068933
 20
11.2902577377
 11
17.4421341621
 21
11.4386276296
  0
LINE
  5
407
100
AcDbEntity
  8
0
100
AcDbLine
 62
7
  6
CONTINUOUS
 10
15.5696821099
 20
13.6975196963
 11
15.4563765036
 21
13.8496333761
  0
LINE
  5
408
100
AcDbEntity
  8
0
100
AcDbLine
 62
7
  6
CONTINUOUS
 10
16.2122965285
 20
12.793866357
 11
16.8879642631
 21
11.4170002773
  0
LINE
  5
409
100
AcDbEntity
  8
0
100
AcDbLine
 62
7
  6
CONTINUOUS
 10
16.2129016943
 20
12.7958246743
 11
16.8885694289
 21
11.4189585946
  0
LINE
  5
40A
100
AcDbEntity
  8
0
100
AcDbLine
 62
7
  6
CONTINUOUS
 10
17.6047905753
 20
12.1685619676
 11
17.786836452
 21
12.2278467088
  0
LINE
  5
40B
100
AcDbEntity
  8
0
100
AcDbLine
 62
7
  6
CONTINUOUS
 10
16.8311549547
 20
13.4352208036
 11
16.8320642814
 21
13.4352549201
  0
LINE
  5
40C
100
AcDbEntity
  8
0
100
AcDbLine
 62
7
  6
CONTINUOUS
 10
16.9274714526
 20
13.4388344498
 11
17.055370339
 21
13.4436330185
  0
LINE
  5
40D
100
AcDbEntity
  8
0
100
AcDbLine
 62
7
  6
CONTINUOUS
 10
15.4659496765
 20
13.4392910171
 11
14.4021242285
 21
13.4392910171
  0
LINE
  5
40E
100
AcDbEntity
  8
0
100
AcDbLine
 62
7
  6
CONTINUOUS
 10
13.1770300218
 20
13.4432168231
 11
13.3359991289
 21
13.437464369
  0
LINE
  5
40F
100
AcDbEntity
  8
0
100
AcDbLine
 62
7
  6
CONTINUOUS
 10
17.736395825
 20
12.2114203026
 11
17.8823670613
 21
12.130805206
  0
LINE
  5
410
100
AcDbEntity
  8
0
100
AcDbLine
 62
7
  6
CONTINUOUS
 10
14.4841248411
 20
14.1643579444
 11
14.5878152095
 21
14.0972691605
  0
LINE
  5
411
100
AcDbEntity
  8
0
100
AcDbLine
 62
7
  6
CONTINUOUS
 10
14.6677501243
 20
14.0455504106
 11
14.6784484844
 21
14.0386284566
  0
LINE
  5
412
100
AcDbEntity
  8
0
100
AcDbLine
 62
7
  6
CONTINUOUS
 10
17.606225808
 20
11.5841456168
 11
17.6529474536
 21
11.5330890797
  0
LINE
  5
413
100
AcDbEntity
  8
0
100
AcDbLine
 62
7
  6
CONTINUOUS
 10
15.5314170639
 20
14.0924647181
 11
15.6047318501
 21
13.9940390331
  0
LINE
  5
414
100
AcDbEntity
  8
0
100
AcDbLine
 62
7
  6
CONTINUOUS
 10
16.258954744
 20
12.7958246743
 11
16.5113768886
 21
12.2814424256
  0
LINE
  5
415
100
AcDbEntity
  8
0
100
AcDbLine
 62
7
  6
CONTINUOUS
 10
16.9346224786
 20
11.4189585946
 11
16.6822003339
 21
11.9333408433
  0
LINE
  5
416
100
AcDbEntity
  8
0
100
AcDbLine
 62
7
  6
CONTINUOUS
 10
16.5090020176
 20
13.3401510142
 11
16.4991560133
 21
13.4885209062
  0
LINE
  5
417
100
AcDbEntity
  8
0
100
AcDbLine
 62
7
  6
CONTINUOUS
 10
16.5741965736
 20
13.7313522481
 11
16.5804618915
 21
13.6369398838
  0
LINE
  5
418
100
AcDbEntity
  8
0
100
AcDbLine
 62
7
  6
CONTINUOUS
 10
16.5113768886
 20
12.2814424256
 11
16.6045724231
 21
12.5830232858
  0
LINE
  5
419
100
AcDbEntity
  8
0
100
AcDbLine
 62
7
  6
CONTINUOUS
 10
16.5507355616
 20
12.1073916344
 11
16.5501303958
 21
12.1054333172
  0
LINE
  5
41A
100
AcDbEntity
  8
0
100
AcDbLine
 62
7
  6
CONTINUOUS
 10
15.9128118265
 20
10.8572520414
 11
15.9837373275
 21
10.9829815293
  0
LINE
  5
41B
100
AcDbEntity
  8
0
100
AcDbLine
 62
7
  6
CONTINUOUS
 10
17.2353238197
 20
12.7944723186
 11
17.3308875392
 21
12.909711946
  0
LINE
  5
41C
100
AcDbEntity
  8
0
100
AcDbLine
 62
7
  6
CONTINUOUS
 10
14.8411644196
 20
11.088817394
 11
15.0049552541
 21
11.1632604228
  0
LINE
  5
41D
100
AcDbEntity
  8
0
100
AcDbLine
 62
7
  6
CONTINUOUS
 10
16.9233902592
 20
11.9333408433
 11
17.0278180131
 21
11.7205394548
  0
LINE
  5
41E
100
AcDbEntity
  8
0
100
AcDbLine
 62
7
  6
CONTINUOUS
 10
16.6045724231
 20
12.5830232858
 11
16.3521502785
 21
13.0974055345
  0
LINE
  5
41F
100
AcDbEntity
  8
0
100
AcDbLine
 62
7
  6
CONTINUOUS
 10
16.8844065912
 20
12.2814424256
 11
16.9225368245
 21
12.2037411795
  0
LINE
  5
420
100
AcDbEntity
  8
0
100
AcDbLine
 62
7
  6
CONTINUOUS
 10
17.0338771058
 20
11.9768535411
 11
17.0033729192
 21
12.0390145379
  0
LINE
  5
421
100
AcDbEntity
  8
0
100
AcDbLine
 62
7
  6
CONTINUOUS
 10
17.0782565614
 20
11.9333408433
 11
17.0569036307
 21
11.9768535411
  0
LINE
  5
422
100
AcDbEntity
  8
0
100
AcDbLine
 62
7
  6
CONTINUOUS
 10
16.8895439069
 20
10.9291452677
 11
16.8535564091
 21
11.0812589475
  0
LINE
  5
423
100
AcDbEntity
  8
0
100
AcDbLine
 62
7
  6
CONTINUOUS
 10
17.0749945752
 20
13.4250131641
 11
17.0523462397
 21
13.3517231235
  0
LINE
  5
424
100
AcDbEntity
  8
0
100
AcDbLine
 62
7
  6
CONTINUOUS
 10
17.0362333408
 20
13.2995817637
 11
17.0120573321
 21
13.2213481708
  0
LINE
  5
425
100
AcDbEntity
  8
0
100
AcDbLine
 62
7
  6
CONTINUOUS
 10
16.3681106708
 20
11.1061952932
 11
16.3687158366
 21
11.1081536105
  0
LINE
  5
426
100
AcDbEntity
  8
0
100
AcDbLine
 62
7
  6
CONTINUOUS
 10
16.4164868788
 20
11.0933912419
 11
16.4690717979
 21
11.2635561025
  0
LINE
  5
427
100
AcDbEntity
  8
0
100
AcDbLine
 62
7
  6
CONTINUOUS
 10
17.232894992
 20
12.7900385271
 11
17.2353238197
 21
12.7944723186
  0
LINE
  5
428
100
AcDbEntity
  8
0
100
AcDbLine
 62
7
  6
CONTINUOUS
 10
17.7492042889
 20
12.4089724947
 11
17.720126106
 21
12.3893893219
  0
LINE
  5
429
100
AcDbEntity
  8
0
100
AcDbLine
 62
7
  6
CONTINUOUS
 10
16.9711367899
 20
12.3099853991
 11
16.9513090686
 21
12.350390047
  0
LINE
  5
42A
100
AcDbEntity
  8
0
100
AcDbLine
 62
7
  6
CONTINUOUS
 10
17.1490097301
 20
11.9768535411
 11
17.1703626608
 21
11.9333408433
  0
LINE
  5
42B
100
AcDbEntity
  8
0
100
AcDbLine
 62
7
  6
CONTINUOUS
 10
17.1415320683
 20
12.0390145379
 11
17.1720362549
 21
11.9768535411
  0
LINE
  5
42C
100
AcDbEntity
  8
0
100
AcDbLine
 62
7
  6
CONTINUOUS
 10
17.0606959736
 20
12.2037411795
 11
17.0225657403
 21
12.2814424256
  0
LINE
  5
42D
100
AcDbEntity
  8
0
100
AcDbLine
 62
7
  6
CONTINUOUS
 10
16.993240038
 20
12.3810932876
 11
16.981800968
 21
12.4044036614
  0
LINE
  5
42E
100
AcDbEntity
  8
0
100
AcDbLine
 62
7
  6
CONTINUOUS
 10
17.2164157105
 20
11.9333408433
 11
17.0455922651
 21
12.2814424256
  0
LINE
  5
42F
100
AcDbEntity
  8
0
100
AcDbLine
 62
7
  6
CONTINUOUS
 10
17.0330207149
 20
12.3980528127
 11
17.0215816449
 21
12.4213631865
  0
LINE
  5
430
100
AcDbEntity
  8
0
100
AcDbLine
 62
7
  6
CONTINUOUS
 10
16.8535564091
 20
11.0812589475
 11
16.8537048865
 21
11.088389998
  0
LINE
  5
431
100
AcDbEntity
  8
0
100
AcDbLine
 62
7
  6
CONTINUOUS
 10
16.9297940268
 20
12.4283162211
 11
16.8844065912
 21
12.2814424256
  0
LINE
  5
432
100
AcDbEntity
  8
0
100
AcDbLine
 62
7
  6
CONTINUOUS
 10
16.9713191888
 20
12.3704846113
 11
16.981800968
 21
12.4044036614
  0
LINE
  5
433
100
AcDbEntity
  8
0
100
AcDbLine
 62
7
  6
CONTINUOUS
 10
16.9225368245
 20
12.2037411795
 11
16.9614615173
 21
12.3297015317
  0
LINE
  5
434
100
AcDbEntity
  8
0
100
AcDbLine
 62
7
  6
CONTINUOUS
 10
16.987132989
 20
12.3613308696
 11
16.993240038
 21
12.3810932876
  0
LINE
  5
435
100
AcDbEntity
  8
0
100
AcDbLine
 62
7
  6
CONTINUOUS
 10
17.0508805426
 20
12.4044036614
 11
17.0403987633
 21
12.3704846113
  0
LINE
  5
436
100
AcDbEntity
  8
0
100
AcDbLine
 62
7
  6
CONTINUOUS
 10
17.0225657403
 20
12.2814424256
 11
17.0679531759
 21
12.4283162211
  0
LINE
  5
437
100
AcDbEntity
  8
0
100
AcDbLine
 62
7
  6
CONTINUOUS
 10
17.0455922651
 20
12.2814424256
 11
17.1387877997
 21
12.5830232858
  0
LINE
  5
438
100
AcDbEntity
  8
0
100
AcDbLine
 62
7
  6
CONTINUOUS
 10
15.0294131104
 20
14.1643579444
 11
15.0319760718
 21
14.1641018001
  0
LINE
  5
439
100
AcDbEntity
  8
0
100
AcDbLine
 62
7
  6
CONTINUOUS
 10
16.5693463295
 20
13.7336581773
 11
16.5741965736
 21
13.7313522481
  0
LINE
  5
43A
100
AcDbEntity
  8
DRAWING
100
AcDbLine
 62
7
  6
CONTINUOUS
 10
16.5817750623
 20
13.5782485572
 11
16.5857515066
 21
13.5763438186
  0
LINE
  5
43B
100
AcDbEntity
  8
DRAWING
100
AcDbLine
 62
7
  6
CONTINUOUS
 10
16.5908547881
 20
13.5869977293
 11
16.5868783438
 21
13.5889024679
  0
LINE
  5
43C
100
AcDbEntity
  8
0
100
AcDbLine
 62
7
  6
CONTINUOUS
 10
16.5694256295
 20
13.7337405224
 11
16.5741965736
 21
13.7313522481
  0
LINE
  5
43D
100
AcDbEntity
  8
DRAWING
100
AcDbLine
 62
7
  6
CONTINUOUS
 10
16.5926265627
 20
13.5887223924
 11
16.5887413215
 21
13.5907255031
  0
LINE
  5
43E
100
AcDbEntity
  8
DRAWING
100
AcDbLine
 62
7
  6
CONTINUOUS
 10
16.5835340721
 20
13.5799609342
 11
16.5874150916
 21
13.5779547234
  0
LINE
  5
43F
100
AcDbEntity
  8
0
100
AcDbLine
 62
7
  6
CONTINUOUS
 10
17.1387877997
 20
12.5830232858
 11
17.309611245
 21
12.2349217035
  0
LINE
  5
440
100
AcDbEntity
  8
0
100
AcDbLine
 62
7
  6
CONTINUOUS
 10
17.0530863067
 20
12.0390145379
 11
17.0338771058
 21
11.9768535411
  0
LINE
  5
441
100
AcDbEntity
  8
0
100
AcDbLine
 62
7
  6
CONTINUOUS
 10
17.3478826218
 20
12.9424917197
 11
17.3719161151
 21
13.0202641326
  0
LINE
  5
442
100
AcDbEntity
  8
0
100
AcDbLine
 62
7
  6
CONTINUOUS
 10
17.3884894876
 20
13.0738955857
 11
17.4108198648
 21
13.1461567125
  0
LINE
  5
443
100
AcDbEntity
  8
0
100
AcDbLine
 62
7
  6
CONTINUOUS
 10
17.0569036307
 20
11.9768535411
 11
17.0761128316
 21
12.0390145379
  0
LINE
  5
444
100
AcDbEntity
  8
0
100
AcDbLine
 62
7
  6
CONTINUOUS
 10
16.8948362331
 20
11.357950803
 11
16.8954413989
 21
11.3599091203
  0
LINE
  5
445
100
AcDbEntity
  8
0
100
AcDbLine
 62
7
  6
CONTINUOUS
 10
17.2241995223
 20
12.4089724947
 11
17.1310039878
 21
12.1073916344
  0
LINE
  5
446
100
AcDbEntity
  8
0
100
AcDbLine
 62
7
  6
CONTINUOUS
 10
17.1109122029
 20
12.0390145379
 11
17.0782565614
 21
11.9333408433
  0
LINE
  5
447
100
AcDbEntity
  8
0
100
AcDbLine
 62
7
  6
CONTINUOUS
 10
16.9432124411
 20
11.3451467517
 11
17.0364079756
 21
11.6467276119
  0
LINE
  5
448
100
AcDbEntity
  8
0
100
AcDbLine
 62
7
  6
CONTINUOUS
 10
17.1579071552
 20
12.0056456192
 11
17.1490097301
 21
11.9768535411
  0
LINE
  5
449
100
AcDbEntity
  8
0
100
AcDbLine
 62
7
  6
CONTINUOUS
 10
15.0294131104
 20
14.1643579444
 11
15.0319583763
 21
14.1641586702
  0
LINE
  5
44A
100
AcDbEntity
  8
0
100
AcDbLine
 62
7
  6
CONTINUOUS
 10
17.3332804885
 20
12.3893893219
 11
17.3272288304
 21
12.3698061492
  0
LINE
  5
44B
100
AcDbEntity
  8
0
100
AcDbLine
 62
7
  6
CONTINUOUS
 10
16.962317258
 20
11.1338848646
 11
16.8997166529
 21
10.9313092323
  0
LINE
  5
44C
100
AcDbEntity
  8
0
100
AcDbLine
 62
7
  6
CONTINUOUS
 10
17.309611245
 20
12.2349217035
 11
17.2164157105
 21
11.9333408433
  0
LINE
  5
44D
100
AcDbEntity
  8
0
100
AcDbLine
 62
7
  6
CONTINUOUS
 10
14.0425082845
 20
14.0903007552
 11
14.0837736517
 21
14.100408595
  0
LINE
  5
44E
100
AcDbEntity
  8
0
100
AcDbLine
 62
7
  6
CONTINUOUS
 10
17.5926357478
 20
12.1510129316
 11
17.5927918464
 21
12.1581116691
  0
LINE
  5
44F
100
AcDbEntity
  8
0
100
AcDbLine
 62
7
  6
CONTINUOUS
 10
17.724788104
 20
12.7673911447
 11
17.7037408304
 21
12.6992821422
  0
LINE
  5
450
100
AcDbEntity
  8
0
100
AcDbLine
 62
7
  6
CONTINUOUS
 10
17.6853092416
 20
12.6396374991
 11
17.6618505308
 21
12.563725083
  0
LINE
  5
451
100
AcDbEntity
  8
0
100
AcDbLine
 62
7
  6
CONTINUOUS
 10
17.812141533
 20
12.6126374912
 11
17.7930528416
 21
12.5508664633
  0
LINE
  5
452
100
AcDbEntity
  8
0
100
AcDbLine
 62
7
  6
CONTINUOUS
 10
17.7746212529
 20
12.4912218202
 11
17.7492042889
 21
12.4089724947
  0
LINE
  5
453
100
AcDbEntity
  8
0
100
AcDbLine
 62
7
  6
CONTINUOUS
 10
17.8137349887
 20
12.2542188411
 11
17.8365618063
 21
12.3280864498
  0
LINE
  5
454
100
AcDbEntity
  8
0
100
AcDbLine
 62
7
  6
CONTINUOUS
 10
17.8570340046
 20
12.3943345077
 11
17.876672562
 21
12.4578849028
  0
LINE
  5
455
100
AcDbEntity
  8
0
100
AcDbLine
 62
7
  6
CONTINUOUS
 10
17.6624437306
 20
11.4965154131
 11
17.5995064875
 21
11.2928504199
  0
LINE
  5
456
100
AcDbEntity
  8
0
100
AcDbLine
 62
7
  6
CONTINUOUS
 10
17.4363612803
 20
11.4561174159
 11
17.438769837
 21
11.460526713
  0
LINE
  5
457
100
AcDbEntity
  8
0
100
AcDbLine
 62
7
  6
CONTINUOUS
 10
17.9344462801
 20
12.0791182661
 11
17.9285673326
 21
12.060093985
  0
LINE
  5
458
100
AcDbEntity
  8
0
100
AcDbLine
 62
7
  6
CONTINUOUS
 10
17.8353616134
 20
11.6686397107
 11
17.8607785781
 21
11.7508890386
  0
LINE
  5
459
100
AcDbEntity
  8
0
100
AcDbLine
 62
7
  6
CONTINUOUS
 10
17.8093694881
 20
11.5965968201
 11
17.8353616134
 21
11.6686397107
  0
ARC
  5
45A
100
AcDbEntity
  8
0
100
AcDbCircle
 62
7
  6
CONTINUOUS
 10
5.0228672762
 20
4.4126198968
 40
0.25
100
AcDbArc
 50
180.0
 51
270.0
  0
ARC
  5
45B
100
AcDbEntity
  8
0
100
AcDbCircle
 62
7
  6
CONTINUOUS
 10
5.0228672762
 20
4.4126198968
 40
0.2
100
AcDbArc
 50
180.0
 51
270.0
  0
ARC
  5
45C
100
AcDbEntity
  8
0
100
AcDbCircle
 62
7
  6
CONTINUOUS
 10
5.4528672762
 20
4.1126198968
 40
0.1
100
AcDbArc
 50
0.0
 51
90.0
  0
ARC
  5
45D
100
AcDbEntity
  8
0
100
AcDbCircle
 62
7
  6
CONTINUOUS
 10
5.5528672762
 20
3.9126198968
 40
0.05
100
AcDbArc
 50
180.0
 51
270.0
  0
ARC
  5
45E
100
AcDbEntity
  8
0
100
AcDbCircle
 62
7
  6
CONTINUOUS
 10
5.4528672762
 20
4.1126198968
 40
0.05
100
AcDbArc
 50
0.0
 51
90.0
  0
ARC
  5
45F
100
AcDbEntity
  8
0
100
AcDbCircle
 62
7
  6
CONTINUOUS
 10
3.8763364848
 20
5.1302462743
 40
0.0375
100
AcDbArc
 50
9.8132023232
 51
67.4102388948
  0
ARC
  5
460
100
AcDbEntity
  8
0
100
AcDbCircle
 62
7
  6
CONTINUOUS
 10
3.9303958807
 20
4.8933965852
 40
0.0375
100
AcDbArc
 50
318.3040468195
 51
15.9010833911
  0
ARC
  5
461
100
AcDbEntity
  8
0
100
AcDbCircle
 62
7
  6
CONTINUOUS
 10
4.268715531
 20
4.1908685926
 40
0.0375
100
AcDbArc
 50
35.5274880375
 51
93.1245246091
  0
ARC
  5
462
100
AcDbEntity
  8
0
100
AcDbCircle
 62
7
  6
CONTINUOUS
 10
4.4201865924
 20
4.0009298892
 40
0.0375
100
AcDbArc
 50
344.0183325338
 51
41.6153691054
  0
ARC
  5
463
100
AcDbEntity
  8
0
100
AcDbCircle
 62
7
  6
CONTINUOUS
 10
5.0298175369
 20
3.514765434
 40
0.0375
100
AcDbArc
 50
61.2417737518
 51
118.8388103234
  0
ARC
  5
464
100
AcDbEntity
  8
0
100
AcDbCircle
 62
7
  6
CONTINUOUS
 10
5.2486995625
 20
3.4093574059
 40
0.0375
100
AcDbArc
 50
9.732618248
 51
67.3296548196
  0
ARC
  5
465
100
AcDbEntity
  8
0
100
AcDbCircle
 62
7
  6
CONTINUOUS
 10
6.0088969161
 20
3.2358473207
 40
0.0375
100
AcDbArc
 50
86.9560594661
 51
144.5530960377
  0
ARC
  5
466
100
AcDbEntity
  8
0
100
AcDbCircle
 62
7
  6
CONTINUOUS
 10
5.0228672762
 20
6.6276198968
 40
0.25
100
AcDbArc
 50
90.0
 51
180.0
  0
ARC
  5
467
100
AcDbEntity
  8
0
100
AcDbCircle
 62
7
  6
CONTINUOUS
 10
5.0228672762
 20
6.6276198968
 40
0.2
100
AcDbArc
 50
90.0
 51
180.0
  0
ARC
  5
468
100
AcDbEntity
  8
0
100
AcDbCircle
 62
7
  6
CONTINUOUS
 10
5.4528672762
 20
6.9276198968
 40
0.1
100
AcDbArc
 50
270.0
 51
360.0
  0
ARC
  5
469
100
AcDbEntity
  8
0
100
AcDbCircle
 62
7
  6
CONTINUOUS
 10
5.4528672762
 20
6.9276198968
 40
0.05
100
AcDbArc
 50
270.0
 51
360.0
  0
ARC
  5
46A
100
AcDbEntity
  8
0
100
AcDbCircle
 62
7
  6
CONTINUOUS
 10
5.5528672762
 20
7.1276198968
 40
0.05
100
AcDbArc
 50
90.0
 51
180.0
  0
ARC
  5
46B
100
AcDbEntity
  8
0
100
AcDbCircle
 62
7
  6
CONTINUOUS
 10
3.8763364848
 20
5.9099935193
 40
0.0375
100
AcDbArc
 50
292.5897611052
 51
350.1867976768
  0
ARC
  5
46C
100
AcDbEntity
  8
0
100
AcDbCircle
 62
7
  6
CONTINUOUS
 10
3.9303958807
 20
6.1468432083
 40
0.0375
100
AcDbArc
 50
344.0989166089
 51
41.6959531805
  0
ARC
  5
46D
100
AcDbEntity
  8
0
100
AcDbCircle
 62
7
  6
CONTINUOUS
 10
4.268715531
 20
6.8493712009
 40
0.0375
100
AcDbArc
 50
266.8754753909
 51
324.4725119625
  0
ARC
  5
46E
100
AcDbEntity
  8
0
100
AcDbCircle
 62
7
  6
CONTINUOUS
 10
4.4201865924
 20
7.0393099043
 40
0.0375
100
AcDbArc
 50
318.3846308946
 51
15.9816674663
  0
ARC
  5
46F
100
AcDbEntity
  8
0
100
AcDbCircle
 62
7
  6
CONTINUOUS
 10
5.0298175369
 20
7.5254743595
 40
0.0375
100
AcDbArc
 50
241.1611896766
 51
298.7582262482
  0
ARC
  5
470
100
AcDbEntity
  8
0
100
AcDbCircle
 62
7
  6
CONTINUOUS
 10
5.2486995625
 20
7.6308823876
 40
0.0375
100
AcDbArc
 50
292.6703451804
 51
350.267381752
  0
ARC
  5
471
100
AcDbEntity
  8
0
100
AcDbCircle
 62
7
  6
CONTINUOUS
 10
6.0088969161
 20
7.8043924728
 40
0.0375
100
AcDbArc
 50
215.4469039623
 51
273.0439405339
  0
ARC
  5
472
100
AcDbEntity
  8
0
100
AcDbCircle
 62
7
  6
CONTINUOUS
 10
7.2378672762
 20
4.4126198968
 40
0.25
100
AcDbArc
 50
270.0
 51
360.0
  0
ARC
  5
473
100
AcDbEntity
  8
0
100
AcDbCircle
 62
7
  6
CONTINUOUS
 10
7.2378672762
 20
4.4126198968
 40
0.2
100
AcDbArc
 50
270.0
 51
360.0
  0
ARC
  5
474
100
AcDbEntity
  8
0
100
AcDbCircle
 62
7
  6
CONTINUOUS
 10
6.8078672762
 20
4.1126198968
 40
0.1
100
AcDbArc
 50
90.0
 51
180.0
  0
ARC
  5
475
100
AcDbEntity
  8
0
100
AcDbCircle
 62
7
  6
CONTINUOUS
 10
6.8078672762
 20
4.1126198968
 40
0.05
100
AcDbArc
 50
90.0
 51
180.0
  0
ARC
  5
476
100
AcDbEntity
  8
0
100
AcDbCircle
 62
7
  6
CONTINUOUS
 10
6.7078672762
 20
3.9126198968
 40
0.05
100
AcDbArc
 50
270.0
 51
360.0
  0
ARC
  5
477
100
AcDbEntity
  8
0
100
AcDbCircle
 62
7
  6
CONTINUOUS
 10
6.2518376362
 20
3.2358473207
 40
0.0375
100
AcDbArc
 50
35.4469039623
 51
93.0439405339
  0
ARC
  5
478
100
AcDbEntity
  8
0
100
AcDbCircle
 62
7
  6
CONTINUOUS
 10
7.0120349898
 20
3.4093574059
 40
0.0375
100
AcDbArc
 50
112.6703451804
 51
170.267381752
  0
ARC
  5
479
100
AcDbEntity
  8
0
100
AcDbCircle
 62
7
  6
CONTINUOUS
 10
7.2309170154
 20
3.514765434
 40
0.0375
100
AcDbArc
 50
61.1611896766
 51
118.7582262482
  0
ARC
  5
47A
100
AcDbEntity
  8
0
100
AcDbCircle
 62
7
  6
CONTINUOUS
 10
7.8405479599
 20
4.0009298892
 40
0.0375
100
AcDbArc
 50
138.3846308946
 51
195.9816674663
  0
ARC
  5
47B
100
AcDbEntity
  8
0
100
AcDbCircle
 62
7
  6
CONTINUOUS
 10
7.9920190214
 20
4.1908685926
 40
0.0375
100
AcDbArc
 50
86.8754753909
 51
144.4725119625
  0
ARC
  5
47C
100
AcDbEntity
  8
0
100
AcDbCircle
 62
7
  6
CONTINUOUS
 10
8.3303386716
 20
4.8933965852
 40
0.0375
100
AcDbArc
 50
164.0989166089
 51
221.6959531805
  0
ARC
  5
47D
100
AcDbEntity
  8
0
100
AcDbCircle
 62
7
  6
CONTINUOUS
 10
8.3843980675
 20
5.1302462743
 40
0.0375
100
AcDbArc
 50
112.5897611052
 51
170.1867976768
  0
CIRCLE
  5
47E
100
AcDbEntity
  8
DRAWING
100
AcDbCircle
 62
7
  6
CONTINUOUS
 10
6.1303672762
 20
5.5201198968
 40
2.52775
  0
ARC
  5
47F
100
AcDbEntity
  8
0
100
AcDbCircle
 62
7
  6
CONTINUOUS
 10
6.1303672762
 20
5.5201198968
 40
2.5075
100
AcDbArc
 50
97.1591652973
 51
108.555120417
  0
ARC
  5
480
100
AcDbEntity
  8
0
100
AcDbCircle
 62
7
  6
CONTINUOUS
 10
6.1303672762
 20
5.5201198968
 40
2.5075
100
AcDbArc
 50
148.5877367259
 51
159.9836918455
  0
ARC
  5
481
100
AcDbEntity
  8
0
100
AcDbCircle
 62
7
  6
CONTINUOUS
 10
6.1303672762
 20
5.5201198968
 40
2.5075
100
AcDbArc
 50
122.8734510116
 51
134.2694061312
  0
ARC
  5
482
100
AcDbEntity
  8
0
100
AcDbCircle
 62
7
  6
CONTINUOUS
 10
6.1303672762
 20
5.5201198968
 40
2.5075
100
AcDbArc
 50
71.4448795831
 51
82.8408347027
  0
ARC
  5
483
100
AcDbEntity
  8
0
100
AcDbCircle
 62
7
  6
CONTINUOUS
 10
6.1303672762
 20
5.5201198968
 40
2.5075
100
AcDbArc
 50
45.7305938688
 51
57.1265489884
  0
ARC
  5
484
100
AcDbEntity
  8
0
100
AcDbCircle
 62
7
  6
CONTINUOUS
 10
6.1303672762
 20
5.5201198968
 40
2.5075
100
AcDbArc
 50
20.0163081545
 51
31.4122632741
  0
ARC
  5
485
100
AcDbEntity
  8
0
100
AcDbCircle
 62
7
  6
CONTINUOUS
 10
6.1303672762
 20
5.5201198968
 40
2.5075
100
AcDbArc
 50
328.5877367259
 51
339.9836918455
  0
ARC
  5
486
100
AcDbEntity
  8
0
100
AcDbCircle
 62
7
  6
CONTINUOUS
 10
6.1303672762
 20
5.5201198968
 40
2.5075
100
AcDbArc
 50
302.8734510116
 51
314.2694061312
  0
ARC
  5
487
100
AcDbEntity
  8
0
100
AcDbCircle
 62
7
  6
CONTINUOUS
 10
6.1303672762
 20
5.5201198968
 40
2.5075
100
AcDbArc
 50
277.1591652973
 51
288.555120417
  0
ARC
  5
488
100
AcDbEntity
  8
0
100
AcDbCircle
 62
7
  6
CONTINUOUS
 10
6.1303672762
 20
5.5201198968
 40
2.5075
100
AcDbArc
 50
251.4448795831
 51
262.8408347027
  0
ARC
  5
489
100
AcDbEntity
  8
0
100
AcDbCircle
 62
7
  6
CONTINUOUS
 10
6.1303672762
 20
5.5201198968
 40
2.5075
100
AcDbArc
 50
225.7305938688
 51
237.1265489884
  0
ARC
  5
48A
100
AcDbEntity
  8
0
100
AcDbCircle
 62
7
  6
CONTINUOUS
 10
6.1303672762
 20
5.5201198968
 40
2.5075
100
AcDbArc
 50
200.0163081545
 51
211.4122632741
  0
ARC
  5
48B
100
AcDbEntity
  8
0
100
AcDbCircle
 62
7
  6
CONTINUOUS
 10
6.1303672762
 20
5.5201198968
 40
2.5075
100
AcDbArc
 50
174.3020224402
 51
185.6979775598
  0
ARC
  5
48C
100
AcDbEntity
  8
0
100
AcDbCircle
 62
7
  6
CONTINUOUS
 10
6.1303672762
 20
5.5201198968
 40
2.5075
100
AcDbArc
 50
354.3020224402
 51
5.6979775598
  0
ARC
  5
48D
100
AcDbEntity
  8
DRAWING
100
AcDbCircle
 62
7
  6
CONTINUOUS
 10
6.1303672762
 20
5.5201198968
 40
2.5075
100
AcDbArc
 50
159.9872202628
 51
174.2913549409
  0
ARC
  5
48E
100
AcDbEntity
  8
DRAWING
100
AcDbCircle
 62
7
  6
CONTINUOUS
 10
6.1303672762
 20
5.5201198968
 40
2.5075
100
AcDbArc
 50
134.2729345485
 51
148.5842083086
  0
ARC
  5
48F
100
AcDbEntity
  8
DRAWING
100
AcDbCircle
 62
7
  6
CONTINUOUS
 10
6.1303672762
 20
5.5201198968
 40
2.5075
100
AcDbArc
 50
108.5586488342
 51
122.8699225943
  0
ARC
  5
490
100
AcDbEntity
  8
DRAWING
100
AcDbCircle
 62
7
  6
CONTINUOUS
 10
6.1303672762
 20
5.5201198968
 40
2.5075
100
AcDbArc
 50
82.8443631199
 51
97.1556368801
  0
ARC
  5
491
100
AcDbEntity
  8
DRAWING
100
AcDbCircle
 62
7
  6
CONTINUOUS
 10
6.1303672762
 20
5.5201198968
 40
2.5075
100
AcDbArc
 50
57.1300774057
 51
71.4413511658
  0
ARC
  5
492
100
AcDbEntity
  8
DRAWING
100
AcDbCircle
 62
7
  6
CONTINUOUS
 10
6.1303672762
 20
5.5201198968
 40
2.5075
100
AcDbArc
 50
31.4157916914
 51
45.7270654515
  0
ARC
  5
493
100
AcDbEntity
  8
DRAWING
100
AcDbCircle
 62
7
  6
CONTINUOUS
 10
6.1303672762
 20
5.5201198968
 40
2.5075
100
AcDbArc
 50
5.7086450591
 51
20.0127797372
  0
ARC
  5
494
100
AcDbEntity
  8
DRAWING
100
AcDbCircle
 62
7
  6
CONTINUOUS
 10
6.1303672762
 20
5.5201198968
 40
2.5075
100
AcDbArc
 50
339.9872202628
 51
354.2913549409
  0
ARC
  5
495
100
AcDbEntity
  8
DRAWING
100
AcDbCircle
 62
7
  6
CONTINUOUS
 10
6.1303672762
 20
5.5201198968
 40
2.5075
100
AcDbArc
 50
314.2729345485
 51
328.5842083086
  0
ARC
  5
496
100
AcDbEntity
  8
DRAWING
100
AcDbCircle
 62
7
  6
CONTINUOUS
 10
6.1303672762
 20
5.5201198968
 40
2.5075
100
AcDbArc
 50
288.5586488342
 51
302.8699225943
  0
ARC
  5
497
100
AcDbEntity
  8
DRAWING
100
AcDbCircle
 62
7
  6
CONTINUOUS
 10
6.1303672762
 20
5.5201198968
 40
2.5075
100
AcDbArc
 50
262.8443631199
 51
277.1556368801
  0
ARC
  5
498
100
AcDbEntity
  8
DRAWING
100
AcDbCircle
 62
7
  6
CONTINUOUS
 10
6.1303672762
 20
5.5201198968
 40
2.5075
100
AcDbArc
 50
237.1300774057
 51
251.4413511658
  0
ARC
  5
499
100
AcDbEntity
  8
DRAWING
100
AcDbCircle
 62
7
  6
CONTINUOUS
 10
6.1303672762
 20
5.5201198968
 40
2.5075
100
AcDbArc
 50
211.4157916914
 51
225.7270654515
  0
ARC
  5
49A
100
AcDbEntity
  8
DRAWING
100
AcDbCircle
 62
7
  6
CONTINUOUS
 10
6.1303672762
 20
5.5201198968
 40
2.5075
100
AcDbArc
 50
185.7086450591
 51
200.0127797372
  0
ARC
  5
49B
100
AcDbEntity
  8
0
100
AcDbCircle
 62
7
  6
CONTINUOUS
 10
6.1303672762
 20
5.5201198968
 40
2.4825
100
AcDbArc
 50
71.1339023889
 51
83.1518118968
  0
ARC
  5
49C
100
AcDbEntity
  8
0
100
AcDbCircle
 62
7
  6
CONTINUOUS
 10
6.1303672762
 20
5.5201198968
 40
2.4825
100
AcDbArc
 50
122.5624738175
 51
134.5803833254
  0
ARC
  5
49D
100
AcDbEntity
  8
0
100
AcDbCircle
 62
7
  6
CONTINUOUS
 10
6.1303672762
 20
5.5201198968
 40
2.4825
100
AcDbArc
 50
45.4196166746
 51
57.4375261825
  0
ARC
  5
49E
100
AcDbEntity
  8
0
100
AcDbCircle
 62
7
  6
CONTINUOUS
 10
6.1303672762
 20
5.5201198968
 40
2.4825
100
AcDbArc
 50
148.2767595318
 51
160.2946690397
  0
ARC
  5
49F
100
AcDbEntity
  8
0
100
AcDbCircle
 62
7
  6
CONTINUOUS
 10
6.1303672762
 20
5.5201198968
 40
2.4825
100
AcDbArc
 50
96.8481881032
 51
108.8660976111
  0
ARC
  5
4A0
100
AcDbEntity
  8
0
100
AcDbCircle
 62
7
  6
CONTINUOUS
 10
6.1303672762
 20
5.5201198968
 40
2.4825
100
AcDbArc
 50
19.7053309604
 51
31.7232404682
  0
ARC
  5
4A1
100
AcDbEntity
  8
0
100
AcDbCircle
 62
7
  6
CONTINUOUS
 10
6.1303672762
 20
5.5201198968
 40
2.4825
100
AcDbArc
 50
225.4196166746
 51
237.4375261825
  0
ARC
  5
4A2
100
AcDbEntity
  8
0
100
AcDbCircle
 62
7
  6
CONTINUOUS
 10
6.1303672762
 20
5.5201198968
 40
2.4825
100
AcDbArc
 50
251.1339023889
 51
263.1518118968
  0
ARC
  5
4A3
100
AcDbEntity
  8
0
100
AcDbCircle
 62
7
  6
CONTINUOUS
 10
6.1303672762
 20
5.5201198968
 40
2.4825
100
AcDbArc
 50
302.5624738175
 51
314.5803833254
  0
ARC
  5
4A4
100
AcDbEntity
  8
0
100
AcDbCircle
 62
7
  6
CONTINUOUS
 10
6.1303672762
 20
5.5201198968
 40
2.4825
100
AcDbArc
 50
199.7053309604
 51
211.7232404682
  0
ARC
  5
4A5
100
AcDbEntity
  8
0
100
AcDbCircle
 62
7
  6
CONTINUOUS
 10
6.1303672762
 20
5.5201198968
 40
2.4825
100
AcDbArc
 50
173.9910452461
 51
186.0089547539
  0
ARC
  5
4A6
100
AcDbEntity
  8
0
100
AcDbCircle
 62
7
  6
CONTINUOUS
 10
6.1303672762
 20
5.5201198968
 40
2.4825
100
AcDbArc
 50
276.8481881032
 51
288.8660976111
  0
ARC
  5
4A7
100
AcDbEntity
  8
0
100
AcDbCircle
 62
7
  6
CONTINUOUS
 10
6.1303672762
 20
5.5201198968
 40
2.4825
100
AcDbArc
 50
353.9910452461
 51
6.0089547539
  0
ARC
  5
4A8
100
AcDbEntity
  8
0
100
AcDbCircle
 62
7
  6
CONTINUOUS
 10
6.1303672762
 20
5.5201198968
 40
2.4825
100
AcDbArc
 50
328.2767595318
 51
340.2946690397
  0
ARC
  5
4A9
100
AcDbEntity
  8
0
100
AcDbCircle
 62
7
  6
CONTINUOUS
 10
6.1303672762
 20
5.5201198968
 40
2.25
100
AcDbArc
 50
164.0989166089
 51
170.1867976768
  0
ARC
  5
4AA
100
AcDbEntity
  8
0
100
AcDbCircle
 62
7
  6
CONTINUOUS
 10
6.1303672762
 20
5.5201198968
 40
2.25
100
AcDbArc
 50
138.3846308946
 51
144.4725119625
  0
ARC
  5
4AB
100
AcDbEntity
  8
0
100
AcDbCircle
 62
7
  6
CONTINUOUS
 10
6.1303672762
 20
5.5201198968
 40
2.25
100
AcDbArc
 50
112.6703451804
 51
118.7582262482
  0
ARC
  5
4AC
100
AcDbEntity
  8
0
100
AcDbCircle
 62
7
  6
CONTINUOUS
 10
6.1303672762
 20
5.5201198968
 40
2.25
100
AcDbArc
 50
86.9560594661
 51
93.0439405339
  0
ARC
  5
4AD
100
AcDbEntity
  8
0
100
AcDbCircle
 62
7
  6
CONTINUOUS
 10
6.1303672762
 20
5.5201198968
 40
2.25
100
AcDbArc
 50
61.2417737518
 51
67.3296548196
  0
ARC
  5
4AE
100
AcDbEntity
  8
0
100
AcDbCircle
 62
7
  6
CONTINUOUS
 10
6.1303672762
 20
5.5201198968
 40
2.25
100
AcDbArc
 50
35.5274880375
 51
41.6153691054
  0
ARC
  5
4AF
100
AcDbEntity
  8
0
100
AcDbCircle
 62
7
  6
CONTINUOUS
 10
6.1303672762
 20
5.5201198968
 40
2.25
100
AcDbArc
 50
9.8132023232
 51
15.9010833911
  0
ARC
  5
4B0
100
AcDbEntity
  8
0
100
AcDbCircle
 62
7
  6
CONTINUOUS
 10
6.1303672762
 20
5.5201198968
 40
2.25
100
AcDbArc
 50
189.8132023232
 51
195.9010833911
  0
ARC
  5
4B1
100
AcDbEntity
  8
0
100
AcDbCircle
 62
7
  6
CONTINUOUS
 10
6.1303672762
 20
5.5201198968
 40
2.25
100
AcDbArc
 50
215.5274880375
 51
221.6153691054
  0
ARC
  5
4B2
100
AcDbEntity
  8
0
100
AcDbCircle
 62
7
  6
CONTINUOUS
 10
6.1303672762
 20
5.5201198968
 40
2.25
100
AcDbArc
 50
241.2417737518
 51
247.3296548196
  0
ARC
  5
4B3
100
AcDbEntity
  8
0
100
AcDbCircle
 62
7
  6
CONTINUOUS
 10
6.1303672762
 20
5.5201198968
 40
2.25
100
AcDbArc
 50
266.9560594661
 51
273.0439405339
  0
ARC
  5
4B4
100
AcDbEntity
  8
0
100
AcDbCircle
 62
7
  6
CONTINUOUS
 10
6.1303672762
 20
5.5201198968
 40
2.25
100
AcDbArc
 50
292.6703451804
 51
298.7582262482
  0
ARC
  5
4B5
100
AcDbEntity
  8
0
100
AcDbCircle
 62
7
  6
CONTINUOUS
 10
6.1303672762
 20
5.5201198968
 40
2.25
100
AcDbArc
 50
318.3846308946
 51
324.4725119625
  0
ARC
  5
4B6
100
AcDbEntity
  8
0
100
AcDbCircle
 62
7
  6
CONTINUOUS
 10
6.1303672762
 20
5.5201198968
 40
2.25
100
AcDbArc
 50
344.0989166089
 51
350.1867976768
  0
CIRCLE
  5
4B7
100
AcDbEntity
  8
0
100
AcDbCircle
 62
7
  6
CONTINUOUS
 10
6.1303672762
 20
5.5201198968
 40
2.0625
  0
CIRCLE
  5
4B8
100
AcDbEntity
  8
0
100
AcDbCircle
 62
7
  6
CONTINUOUS
 10
6.1303672762
 20
5.5201198968
 40
2.0125
  0
ARC
  5
4B9
100
AcDbEntity
  8
0
100
AcDbCircle
 62
7
  6
CONTINUOUS
 10
6.1303672762
 20
5.5201198968
 40
1.0
100
AcDbArc
 50
100.8069228749
 51
79.1930771251
  0
ARC
  5
4BA
100
AcDbEntity
  8
0
100
AcDbCircle
 62
7
  6
CONTINUOUS
 10
7.2378672762
 20
6.6276198968
 40
0.25
100
AcDbArc
 50
0.0
 51
90.0
  0
ARC
  5
4BB
100
AcDbEntity
  8
0
100
AcDbCircle
 62
7
  6
CONTINUOUS
 10
7.2378672762
 20
6.6276198968
 40
0.2
100
AcDbArc
 50
0.0
 51
90.0
  0
ARC
  5
4BC
100
AcDbEntity
  8
0
100
AcDbCircle
 62
7
  6
CONTINUOUS
 10
6.8078672762
 20
6.9276198968
 40
0.1
100
AcDbArc
 50
180.0
 51
270.0
  0
ARC
  5
4BD
100
AcDbEntity
  8
0
100
AcDbCircle
 62
7
  6
CONTINUOUS
 10
6.7078672762
 20
7.1276198968
 40
0.05
100
AcDbArc
 50
0.0
 51
90.0
  0
ARC
  5
4BE
100
AcDbEntity
  8
0
100
AcDbCircle
 62
7
  6
CONTINUOUS
 10
6.8078672762
 20
6.9276198968
 40
0.05
100
AcDbArc
 50
180.0
 51
270.0
  0
ARC
  5
4BF
100
AcDbEntity
  8
0
100
AcDbCircle
 62
7
  6
CONTINUOUS
 10
6.2518376362
 20
7.8043924728
 40
0.0375
100
AcDbArc
 50
266.9560594661
 51
324.5530960377
  0
ARC
  5
4C0
100
AcDbEntity
  8
0
100
AcDbCircle
 62
7
  6
CONTINUOUS
 10
7.0120349898
 20
7.6308823876
 40
0.0375
100
AcDbArc
 50
189.732618248
 51
247.3296548196
  0
ARC
  5
4C1
100
AcDbEntity
  8
0
100
AcDbCircle
 62
7
  6
CONTINUOUS
 10
7.2309170154
 20
7.5254743595
 40
0.0375
100
AcDbArc
 50
241.2417737518
 51
298.8388103234
  0
ARC
  5
4C2
100
AcDbEntity
  8
0
100
AcDbCircle
 62
7
  6
CONTINUOUS
 10
8.3303386716
 20
6.1468432083
 40
0.0375
100
AcDbArc
 50
138.3040468194
 51
195.9010833911
  0
ARC
  5
4C3
100
AcDbEntity
  8
0
100
AcDbCircle
 62
7
  6
CONTINUOUS
 10
8.3843980675
 20
5.9099935193
 40
0.0375
100
AcDbArc
 50
189.8132023232
 51
247.4102388948
  0
ARC
  5
4C4
100
AcDbEntity
  8
0
100
AcDbCircle
 62
7
  6
CONTINUOUS
 10
7.8405479599
 20
7.0393099043
 40
0.0375
100
AcDbArc
 50
164.0183325337
 51
221.6153691054
  0
ARC
  5
4C5
100
AcDbEntity
  8
0
100
AcDbCircle
 62
7
  6
CONTINUOUS
 10
7.9920190214
 20
6.8493712009
 40
0.0375
100
AcDbArc
 50
215.5274880375
 51
273.1245246091
  0
CIRCLE
  5
4C6
100
AcDbEntity
  8
0
100
AcDbCircle
 62
7
  6
CONTINUOUS
 10
4.2333720839
 20
12.2600477814
 40
0.07
  0
CIRCLE
  5
4C7
100
AcDbEntity
  8
0
100
AcDbCircle
 62
7
  6
CONTINUOUS
 10
4.2333720839
 20
12.9400477814
 40
0.07
  0
CIRCLE
  5
4C8
100
AcDbEntity
  8
0
100
AcDbCircle
 62
7
  6
CONTINUOUS
 10
7.9083720839
 20
12.2600477814
 40
0.07
  0
CIRCLE
  5
4C9
100
AcDbEntity
  8
0
100
AcDbCircle
 62
7
  6
CONTINUOUS
 10
7.9083720839
 20
12.9400477814
 40
0.07
  0
ARC
  5
4CA
100
AcDbEntity
  8
0
100
AcDbCircle
 62
7
  6
CONTINUOUS
 10
4.2208720839
 20
12.2725477814
 40
0.0625
100
AcDbArc
 50
90.0
 51
180.0
  0
ARC
  5
4CB
100
AcDbEntity
  8
0
100
AcDbCircle
 62
7
  6
CONTINUOUS
 10
4.2458720839
 20
12.2725477814
 40
0.0625
100
AcDbArc
 50
0.0
 51
90.0
  0
ARC
  5
4CC
100
AcDbEntity
  8
0
100
AcDbCircle
 62
7
  6
CONTINUOUS
 10
7.9208720839
 20
12.2725477814
 40
0.0625
100
AcDbArc
 50
0.0
 51
90.0
  0
ARC
  5
4CD
100
AcDbEntity
  8
0
100
AcDbCircle
 62
7
  6
CONTINUOUS
 10
7.8958720839
 20
12.2725477814
 40
0.0625
100
AcDbArc
 50
90.0
 51
180.0
  0
ARC
  5
4CE
100
AcDbEntity
  8
0
100
AcDbCircle
 62
7
  6
CONTINUOUS
 10
7.8958720839
 20
12.9275477814
 40
0.0625
100
AcDbArc
 50
180.0
 51
270.0
  0
ARC
  5
4CF
100
AcDbEntity
  8
0
100
AcDbCircle
 62
7
  6
CONTINUOUS
 10
7.9208720839
 20
12.9275477814
 40
0.0625
100
AcDbArc
 50
270.0
 51
360.0
  0
ARC
  5
4D0
100
AcDbEntity
  8
0
100
AcDbCircle
 62
7
  6
CONTINUOUS
 10
4.2208720839
 20
12.9275477814
 40
0.0625
100
AcDbArc
 50
180.0
 51
270.0
  0
ARC
  5
4D1
100
AcDbEntity
  8
0
100
AcDbCircle
 62
7
  6
CONTINUOUS
 10
4.2458720839
 20
12.9275477814
 40
0.0625
100
AcDbArc
 50
270.0
 51
360.0
  0
CIRCLE
  5
4D2
100
AcDbEntity
  8
0
100
AcDbCircle
 62
7
  6
CONTINUOUS
 10
4.2333720839
 20
12.2600477814
 40
0.06
  0
CIRCLE
  5
4D3
100
AcDbEntity
  8
0
100
AcDbCircle
 62
7
  6
CONTINUOUS
 10
4.2333720839
 20
12.9400477814
 40
0.06
  0
CIRCLE
  5
4D4
100
AcDbEntity
  8
0
100
AcDbCircle
 62
7
  6
CONTINUOUS
 10
7.9083720839
 20
12.2600477814
 40
0.06
  0
CIRCLE
  5
4D5
100
AcDbEntity
  8
0
100
AcDbCircle
 62
7
  6
CONTINUOUS
 10
7.9083720839
 20
12.9400477814
 40
0.06
  0
CIRCLE
  5
4D6
100
AcDbEntity
  8
0
100
AcDbCircle
 62
7
  6
CONTINUOUS
 10
6.0708720839
 20
12.2500477814
 40
0.0575
  0
ARC
  5
4D7
100
AcDbEntity
  8
0
100
AcDbCircle
 62
7
  6
CONTINUOUS
 10
7.7393650392
 20
3.6054563865
 40
13.5490838857
100
AcDbArc
 50
46.4471846667
 51
46.5615809354
  0
ARC
  5
4D8
100
AcDbEntity
  8
0
100
AcDbCircle
 62
7
  6
CONTINUOUS
 10
16.2726757349
 20
7.490170013
 40
6.6437760171
100
AcDbArc
 50
96.4059362729
 51
96.5710807405
  0
ARC
  5
4D9
100
AcDbEntity
  8
0
100
AcDbCircle
 62
7
  6
CONTINUOUS
 10
12.7275396526
 20
10.0441911289
 40
5.1479961484
100
AcDbArc
 50
48.8695621691
 51
49.0570240999
  0
ARC
  5
4DA
100
AcDbEntity
  8
DRAWING
100
AcDbCircle
 62
7
  6
CONTINUOUS
 10
14.590042022
 20
9.6594787823
 40
4.4110924051
100
AcDbArc
 50
72.6268710848
 51
75.7344417231
  0
ARC
  5
4DB
100
AcDbEntity
  8
DRAWING
100
AcDbCircle
 62
7
  6
CONTINUOUS
 10
14.5901797083
 20
9.6598320889
 40
4.410714104
100
AcDbArc
 50
72.2111155136
 51
72.627207662
  0
ARC
  5
4DC
100
AcDbEntity
  8
DRAWING
100
AcDbCircle
 62
7
  6
CONTINUOUS
 10
14.5995270392
 20
9.6957224747
 40
4.3736290653
100
AcDbArc
 50
75.737867378
 51
76.1693902738
  0
ARC
  5
4DD
100
AcDbEntity
  8
DRAWING
100
AcDbCircle
 62
7
  6
CONTINUOUS
 10
14.5985691128
 20
9.6875150823
 40
4.3701949048
100
AcDbArc
 50
72.6192670735
 51
75.7558575246
  0
ARC
  5
4DE
100
AcDbEntity
  8
DRAWING
100
AcDbCircle
 62
7
  6
CONTINUOUS
 10
14.6066254608
 20
9.7187754088
 40
4.3379133469
100
AcDbArc
 50
75.7574019446
 51
76.1924319387
  0
ARC
  5
4DF
100
AcDbEntity
  8
0
100
AcDbCircle
 62
7
  6
CONTINUOUS
 10
14.6573708729
 20
9.874579806
 40
4.3073577521
100
AcDbArc
 50
70.206768011
 51
70.417229345
  0
ARC
  5
4E0
100
AcDbEntity
  8
0
100
AcDbCircle
 62
7
  6
CONTINUOUS
 10
14.6844615887
 20
9.9358568285
 40
4.2343981383
100
AcDbArc
 50
63.6031203115
 51
70.2725732988
  0
ARC
  5
4E1
100
AcDbEntity
  8
0
100
AcDbCircle
 62
7
  6
CONTINUOUS
 10
14.6215243629
 20
9.732191875
 40
4.2343980916
100
AcDbArc
 50
63.6031202748
 51
70.2725733356
  0
ARC
  5
4E2
100
AcDbEntity
  8
0
100
AcDbCircle
 62
7
  6
CONTINUOUS
 10
14.6774605112
 20
9.9705243624
 40
4.2094695734
100
AcDbArc
 50
78.2954184908
 51
78.5455261393
  0
ARC
  5
4E3
100
AcDbEntity
  8
0
100
AcDbCircle
 62
7
  6
CONTINUOUS
 10
14.6237818334
 20
9.7400703239
 40
4.1914090808
100
AcDbArc
 50
63.4209017582
 51
70.4547918521
  0
ARC
  5
4E4
100
AcDbEntity
  8
0
100
AcDbCircle
 62
7
  6
CONTINUOUS
 10
14.6999373421
 20
9.985205131
 40
4.1888547405
100
AcDbArc
 50
63.4934206316
 51
70.242207795
  0
ARC
  5
4E5
100
AcDbEntity
  8
0
100
AcDbCircle
 62
7
  6
CONTINUOUS
 10
14.6972209978
 20
10.1117072075
 40
4.0612445847
100
AcDbArc
 50
78.4209879057
 51
85.2789061952
  0
ARC
  5
4E6
100
AcDbEntity
  8
0
100
AcDbCircle
 62
7
  6
CONTINUOUS
 10
14.6342837599
 20
9.9080422538
 40
4.0612445415
100
AcDbArc
 50
78.4209878692
 51
85.2789062317
  0
ARC
  5
4E7
100
AcDbEntity
  8
0
100
AcDbCircle
 62
7
  6
CONTINUOUS
 10
14.6366077407
 20
9.9140907403
 40
4.0200145103
100
AcDbArc
 50
78.2336080244
 51
85.4662860765
  0
ARC
  5
4E8
100
AcDbEntity
  8
0
100
AcDbCircle
 62
7
  6
CONTINUOUS
 10
14.7123791085
 20
10.1633542013
 40
4.0135479699
100
AcDbArc
 50
78.4874128356
 51
85.4329816305
  0
ARC
  5
4E9
100
AcDbEntity
  8
DRAWING
100
AcDbCircle
 62
7
  6
CONTINUOUS
 10
14.7527282929
 20
10.0247667178
 40
4.0108609666
100
AcDbArc
 50
62.3922724802
 51
62.6948769636
  0
ARC
  5
4EA
100
AcDbEntity
  8
DRAWING
100
AcDbCircle
 62
7
  6
CONTINUOUS
 10
14.7588771519
 20
10.0453760167
 40
3.9777711493
100
AcDbArc
 50
62.3280065398
 51
62.6329541059
  0
ARC
  5
4EB
100
AcDbEntity
  8
0
100
AcDbCircle
 62
7
  6
CONTINUOUS
 10
14.655842926
 20
9.8726771694
 40
3.9223644003
100
AcDbArc
 50
72.5974095081
 51
76.0860229797
  0
ARC
  5
4EC
100
AcDbEntity
  8
DRAWING
100
AcDbCircle
 62
7
  6
CONTINUOUS
 10
14.8141276993
 20
10.1494801774
 40
3.8599155271
100
AcDbArc
 50
58.9461849583
 51
62.336676801
  0
ARC
  5
4ED
100
AcDbEntity
  8
DRAWING
100
AcDbCircle
 62
7
  6
CONTINUOUS
 10
14.8385538645
 20
10.1835472299
 40
3.8303869242
100
AcDbArc
 50
58.4758906997
 51
62.4292522935
  0
ARC
  5
4EE
100
AcDbEntity
  8
DRAWING
100
AcDbCircle
 62
7
  6
CONTINUOUS
 10
14.6890508917
 20
10.2969924389
 40
3.7531673244
100
AcDbArc
 50
85.9004866405
 51
86.2649824745
  0
ARC
  5
4EF
100
AcDbEntity
  8
DRAWING
100
AcDbCircle
 62
7
  6
CONTINUOUS
 10
14.9018243039
 20
10.2986604324
 40
3.6868780902
100
AcDbArc
 50
58.3770070011
 51
58.9178177738
  0
ARC
  5
4F0
100
AcDbEntity
  8
DRAWING
100
AcDbCircle
 62
7
  6
CONTINUOUS
 10
14.6999952193
 20
10.5109873354
 40
3.5389153051
100
AcDbArc
 50
86.2161039813
 51
90.3838573759
  0
ARC
  5
4F1
100
AcDbEntity
  8
0
100
AcDbCircle
 62
7
  6
CONTINUOUS
 10
14.976180818
 20
10.6213541127
 40
3.3594422884
100
AcDbArc
 50
57.192504804
 51
61.0526267918
  0
ARC
  5
4F2
100
AcDbEntity
  8
0
100
AcDbCircle
 62
7
  6
CONTINUOUS
 10
14.9257275208
 20
10.4196418365
 40
3.3115604565
100
AcDbArc
 50
57.1645872734
 51
61.0805443224
  0
ARC
  5
4F3
100
AcDbEntity
  8
0
100
AcDbCircle
 62
7
  6
CONTINUOUS
 10
15.1573343743
 20
10.773647989
 40
3.2758755443
100
AcDbArc
 50
54.1170237601
 51
54.5917828488
  0
ARC
  5
4F4
100
AcDbEntity
  8
0
100
AcDbCircle
 62
7
  6
CONTINUOUS
 10
14.7482163485
 20
10.6919004746
 40
3.0960943459
100
AcDbArc
 50
87.9630514501
 51
92.0369485499
  0
ARC
  5
4F5
100
AcDbEntity
  8
0
100
AcDbCircle
 62
7
  6
CONTINUOUS
 10
14.8232569088
 20
10.988754619
 40
3.0421062858
100
AcDbArc
 50
87.9268862122
 51
92.0731137878
  0
ARC
  5
4F6
100
AcDbEntity
  8
0
100
AcDbCircle
 62
7
  6
CONTINUOUS
 10
14.7311654585
 20
11.2369437171
 40
2.9378194507
100
AcDbArc
 50
94.8236862226
 51
95.3900690605
  0
ARC
  5
4F7
100
AcDbEntity
  8
0
100
AcDbCircle
 62
7
  6
CONTINUOUS
 10
15.6080612339
 20
11.2883841505
 40
2.5886787329
100
AcDbArc
 50
45.8610304587
 51
46.033811458
  0
ARC
  5
4F8
100
AcDbEntity
  8
0
100
AcDbCircle
 62
7
  6
CONTINUOUS
 10
14.7573675894
 20
11.4782150049
 40
2.1908590927
100
AcDbArc
 50
98.5530124847
 51
98.8927980585
  0
ARC
  5
4F9
100
AcDbEntity
  8
0
100
AcDbCircle
 62
7
  6
CONTINUOUS
 10
16.3349260643
 20
11.2503814642
 40
0.0327181986
100
AcDbArc
 50
159.2992890666
 51
162.8266792174
  0
ARC
  5
4FA
100
AcDbEntity
  8
0
100
AcDbCircle
 62
7
  6
CONTINUOUS
 10
14.6195931455
 20
11.8219485404
 40
2.3406157316
100
AcDbArc
 50
102.7303418665
 51
103.2336371198
  0
ARC
  5
4FB
100
AcDbEntity
  8
0
100
AcDbCircle
 62
7
  6
CONTINUOUS
 10
15.0428551438
 20
13.302250102
 40
1.9182829262
100
AcDbArc
 50
218.9014846957
 51
220.779476643
  0
ARC
  5
4FC
100
AcDbEntity
  8
0
100
AcDbCircle
 62
7
  6
CONTINUOUS
 10
14.9539800198
 20
13.2310422996
 40
1.8044006543
100
AcDbArc
 50
216.766331792
 51
218.9140673211
  0
ARC
  5
4FD
100
AcDbEntity
  8
0
100
AcDbCircle
 62
7
  6
CONTINUOUS
 10
14.6643034338
 20
13.1498218402
 40
1.6975944711
100
AcDbArc
 50
211.7517318777
 51
212.8953849041
  0
ARC
  5
4FE
100
AcDbEntity
  8
0
100
AcDbCircle
 62
7
  6
CONTINUOUS
 10
14.5485604836
 20
12.4467741596
 40
1.5493234289
100
AcDbArc
 50
111.5667001756
 51
114.3447899805
  0
ARC
  5
4FF
100
AcDbEntity
  8
0
100
AcDbCircle
 62
7
  6
CONTINUOUS
 10
14.4490812586
 20
13.0562724597
 40
1.4692694053
100
AcDbArc
 50
206.1395575377
 51
207.1162484226
  0
ARC
  5
500
100
AcDbEntity
  8
0
100
AcDbCircle
 62
7
  6
CONTINUOUS
 10
14.4200161601
 20
13.0141545861
 40
1.4180103749
100
AcDbArc
 50
205.1290296259
 51
206.1417148431
  0
ARC
  5
501
100
AcDbEntity
  8
0
100
AcDbCircle
 62
7
  6
CONTINUOUS
 10
14.5795156971
 20
12.673181957
 40
1.3171586598
100
AcDbArc
 50
217.2751675065
 51
217.6251100784
  0
ARC
  5
502
100
AcDbEntity
  8
0
100
AcDbCircle
 62
7
  6
CONTINUOUS
 10
14.2321438949
 20
12.9637457472
 40
1.2332682933
100
AcDbArc
 50
198.9266429108
 51
199.7166259738
  0
ARC
  5
503
100
AcDbEntity
  8
DRAWING
100
AcDbCircle
 62
7
  6
CONTINUOUS
 10
13.9643155154
 20
12.9868733097
 40
0.9518689586
100
AcDbArc
 50
183.7232729575
 51
184.6569239628
  0
ARC
  5
504
100
AcDbEntity
  8
0
100
AcDbCircle
 62
7
  6
CONTINUOUS
 10
14.1897231515
 20
13.8260911382
 40
0.9052644128
100
AcDbArc
 50
21.5885244664
 51
21.9419060776
  0
ARC
  5
505
100
AcDbEntity
  8
DRAWING
100
AcDbCircle
 62
7
  6
CONTINUOUS
 10
13.8865867979
 20
12.9742466033
 40
0.8571053685
100
AcDbArc
 50
147.0354261208
 51
154.0573438302
  0
ARC
  5
506
100
AcDbEntity
  8
DRAWING
100
AcDbCircle
 62
7
  6
CONTINUOUS
 10
13.86156056
 20
12.9888338947
 40
0.8489201559
100
AcDbArc
 50
168.9752391456
 51
175.1377602537
  0
ARC
  5
507
100
AcDbEntity
  8
DRAWING
100
AcDbCircle
 62
7
  6
CONTINUOUS
 10
13.8517820977
 20
12.9890243635
 40
0.8394342444
100
AcDbArc
 50
154.0115044429
 51
159.9999625688
  0
ARC
  5
508
100
AcDbEntity
  8
DRAWING
100
AcDbCircle
 62
7
  6
CONTINUOUS
 10
13.8577473668
 20
13.0306787969
 40
0.8328141081
100
AcDbArc
 50
156.7996812907
 51
162.817966455
  0
ARC
  5
509
100
AcDbEntity
  8
DRAWING
100
AcDbCircle
 62
7
  6
CONTINUOUS
 10
13.8431156164
 20
12.9924256546
 40
0.8301287567
100
AcDbArc
 50
162.8266303681
 51
168.9751140172
  0
ARC
  5
50A
100
AcDbEntity
  8
DRAWING
100
AcDbCircle
 62
7
  6
CONTINUOUS
 10
13.8429849778
 20
12.9924347561
 40
0.8300012557
100
AcDbArc
 50
160.0134872805
 51
162.824567923
  0
ARC
  5
50B
100
AcDbEntity
  8
DRAWING
100
AcDbCircle
 62
7
  6
CONTINUOUS
 10
13.8605229068
 20
12.986835714
 40
0.8281605031
100
AcDbArc
 50
154.0516934737
 51
162.8127019389
  0
ARC
  5
50C
100
AcDbEntity
  8
0
100
AcDbCircle
 62
7
  6
CONTINUOUS
 10
14.1489437293
 20
12.8078818085
 40
0.6615601877
100
AcDbArc
 50
164.176050498
 51
166.3685538565
  0
ARC
  5
50D
100
AcDbEntity
  8
0
100
AcDbCircle
 62
7
  6
CONTINUOUS
 10
13.6320549799
 20
12.3655804822
 40
0.0795900165
100
AcDbArc
 50
270.0570367642
 51
275.1480123812
  0
ARC
  5
50E
100
AcDbEntity
  8
0
100
AcDbCircle
 62
7
  6
CONTINUOUS
 10
13.7655097445
 20
12.0812465317
 40
0.0436944732
100
AcDbArc
 50
255.9700246516
 51
258.5176611814
  0
ARC
  5
50F
100
AcDbEntity
  8
0
100
AcDbCircle
 62
7
  6
CONTINUOUS
 10
14.3566836731
 20
12.9605071215
 40
0.0327978218
100
AcDbArc
 50
342.8295287169
 51
346.28149797
  0
ARC
  5
510
100
AcDbEntity
  8
0
100
AcDbCircle
 62
7
  6
CONTINUOUS
 10
14.9470223467
 20
14.0451118754
 40
0.0131714452
100
AcDbArc
 50
324.3029034262
 51
330.512549471
  0
ARC
  5
511
100
AcDbEntity
  8
0
100
AcDbCircle
 62
7
  6
CONTINUOUS
 10
13.4189335394
 20
13.3263424911
 40
0.012443618
100
AcDbArc
 50
342.7963698323
 51
353.0798500001
  0
ARC
  5
512
100
AcDbEntity
  8
0
100
AcDbCircle
 62
7
  6
CONTINUOUS
 10
16.3147423681
 20
13.1425785526
 40
2.2868548879
100
AcDbArc
 50
283.233614549
 51
283.7556003234
  0
ARC
  5
513
100
AcDbEntity
  8
0
100
AcDbCircle
 62
7
  6
CONTINUOUS
 10
16.3256978958
 20
13.0977945519
 40
2.2407503301
100
AcDbArc
 50
283.7557912457
 51
284.574146838
  0
ARC
  5
514
100
AcDbEntity
  8
0
100
AcDbCircle
 62
7
  6
CONTINUOUS
 10
16.4668625537
 20
12.9411548434
 40
2.0559285133
100
AcDbArc
 50
281.864124969
 51
282.1539684201
  0
ARC
  5
515
100
AcDbEntity
  8
0
100
AcDbCircle
 62
7
  6
CONTINUOUS
 10
15.9282060561
 20
11.7436454922
 40
1.8805829234
100
AcDbArc
 50
36.8166677305
 51
40.6160455272
  0
ARC
  5
516
100
AcDbEntity
  8
0
100
AcDbCircle
 62
7
  6
CONTINUOUS
 10
16.3627092396
 20
12.3484280287
 40
1.31715866
100
AcDbArc
 50
37.2751675065
 51
37.6251100784
  0
ARC
  5
517
100
AcDbEntity
  8
0
100
AcDbCircle
 62
7
  6
CONTINUOUS
 10
16.3591582889
 20
12.3831884191
 40
1.2167293224
100
AcDbArc
 50
297.3818786139
 51
298.3410654721
  0
ARC
  5
518
100
AcDbEntity
  8
0
100
AcDbCircle
 62
7
  6
CONTINUOUS
 10
16.3753280421
 20
12.4147766074
 40
1.2081290924
100
AcDbArc
 50
298.0566320134
 51
298.3592966391
  0
ARC
  5
519
100
AcDbEntity
  8
DRAWING
100
AcDbCircle
 62
7
  6
CONTINUOUS
 10
16.3379367959
 20
15.3159308728
 40
4.403741693
100
AcDbArc
 50
251.6114401045
 51
256.8686053897
  0
ARC
  5
51A
100
AcDbEntity
  8
DRAWING
100
AcDbCircle
 62
7
  6
CONTINUOUS
 10
16.3312018472
 20
15.2941176675
 40
4.3693180531
100
AcDbArc
 50
251.7630785265
 51
256.7075981734
  0
ARC
  5
51B
100
AcDbEntity
  8
0
100
AcDbCircle
 62
7
  6
CONTINUOUS
 10
16.2434025433
 20
15.03870832
 40
4.1914090808
100
AcDbArc
 50
243.4209017582
 51
250.4547918521
  0
ARC
  5
51C
100
AcDbEntity
  8
0
100
AcDbCircle
 62
7
  6
CONTINUOUS
 10
16.230576636
 20
14.8646879036
 40
4.0200145103
100
AcDbArc
 50
258.2336080244
 51
265.4662860765
  0
ARC
  5
51D
100
AcDbEntity
  8
DRAWING
100
AcDbCircle
 62
7
  6
CONTINUOUS
 10
16.1831739957
 20
14.9759007351
 40
3.9773953209
100
AcDbArc
 50
242.32799436
 51
242.624564305
  0
ARC
  5
51E
100
AcDbEntity
  8
0
100
AcDbCircle
 62
7
  6
CONTINUOUS
 10
16.2115713242
 20
14.9068629294
 40
3.9231597525
100
AcDbArc
 50
252.597532003
 51
255.9198265816
  0
ARC
  5
51F
100
AcDbEntity
  8
0
100
AcDbCircle
 62
7
  6
CONTINUOUS
 10
16.2039537309
 20
14.8776700388
 40
3.8929907328
100
AcDbArc
 50
255.9240461961
 51
256.0434483382
  0
ARC
  5
520
100
AcDbEntity
  8
DRAWING
100
AcDbCircle
 62
7
  6
CONTINUOUS
 10
16.1280972376
 20
14.8721298084
 40
3.8599155271
100
AcDbArc
 50
238.9461849583
 51
242.336676801
  0
ARC
  5
521
100
AcDbEntity
  8
DRAWING
100
AcDbCircle
 62
7
  6
CONTINUOUS
 10
16.0904292067
 20
14.7947164877
 40
3.8261865768
100
AcDbArc
 50
237.1144880914
 51
243.1033738725
  0
ARC
  5
522
100
AcDbEntity
  8
DRAWING
100
AcDbCircle
 62
7
  6
CONTINUOUS
 10
16.0861168255
 20
14.7779433941
 40
3.7973385316
100
AcDbArc
 50
237.3058087565
 51
242.9436390452
  0
ARC
  5
523
100
AcDbEntity
  8
DRAWING
100
AcDbCircle
 62
7
  6
CONTINUOUS
 10
16.2531397141
 20
14.7241015631
 40
3.7526502002
100
AcDbArc
 50
265.9149413073
 51
266.2649923358
  0
ARC
  5
524
100
AcDbEntity
  8
DRAWING
100
AcDbCircle
 62
7
  6
CONTINUOUS
 10
16.040400633
 20
14.7229495533
 40
3.6868780902
100
AcDbArc
 50
238.3770070011
 51
238.9178177738
  0
ARC
  5
525
100
AcDbEntity
  8
0
100
AcDbCircle
 62
7
  6
CONTINUOUS
 10
16.1413782006
 20
14.6797738951
 40
3.5986144654
100
AcDbArc
 50
251.7994384839
 51
255.0041668353
  0
ARC
  5
526
100
AcDbEntity
  8
DRAWING
100
AcDbCircle
 62
7
  6
CONTINUOUS
 10
16.2422297176
 20
14.5106226504
 40
3.5389153051
100
AcDbArc
 50
266.2161039813
 51
270.3838573759
  0
ARC
  5
527
100
AcDbEntity
  8
DRAWING
100
AcDbCircle
 62
7
  6
CONTINUOUS
 10
16.228817302
 20
14.4628772059
 40
3.5302988728
100
AcDbArc
 50
265.6957207178
 51
271.7480056984
  0
ARC
  5
528
100
AcDbEntity
  8
0
100
AcDbCircle
 62
7
  6
CONTINUOUS
 10
16.1235144775
 20
14.6218077672
 40
3.5093312393
100
AcDbArc
 50
253.1546534162
 51
253.6270339652
  0
ARC
  5
529
100
AcDbEntity
  8
0
100
AcDbCircle
 62
7
  6
CONTINUOUS
 10
16.1231704523
 20
14.6206194795
 40
3.5080941633
100
AcDbArc
 50
253.6269540825
 51
254.5988859277
  0
ARC
  5
52A
100
AcDbEntity
  8
DRAWING
100
AcDbCircle
 62
7
  6
CONTINUOUS
 10
16.2422414644
 20
14.3534072403
 40
3.3817035049
100
AcDbArc
 50
270.4015037545
 51
270.5824722608
  0
ARC
  5
52B
100
AcDbEntity
  8
0
100
AcDbCircle
 62
7
  6
CONTINUOUS
 10
15.9414568559
 20
14.3591368073
 40
3.3115604565
100
AcDbArc
 50
237.1645872734
 51
241.0805443224
  0
ARC
  5
52C
100
AcDbEntity
  8
0
100
AcDbCircle
 62
7
  6
CONTINUOUS
 10
16.1189680282
 20
14.0868781692
 40
3.0960943459
100
AcDbArc
 50
267.9630514501
 51
272.0369485499
  0
ARC
  5
52D
100
AcDbEntity
  8
0
100
AcDbCircle
 62
7
  6
CONTINUOUS
 10
16.6072623076
 20
12.3608426301
 40
1.4496103709
100
AcDbArc
 50
298.658403259
 51
300.0268515701
  0
ARC
  5
52E
100
AcDbEntity
  8
0
100
AcDbCircle
 62
7
  6
CONTINUOUS
 10
16.9819642835
 20
12.5910019233
 40
1.211062907
100
AcDbArc
 50
109.6760894074
 51
110.0372089698
  0
ARC
  5
52F
100
AcDbEntity
  8
0
100
AcDbCircle
 62
7
  6
CONTINUOUS
 10
16.8557456168
 20
12.0584472425
 40
1.0673887433
100
AcDbArc
 50
313.2232145916
 51
314.1711568817
  0
ARC
  5
530
100
AcDbEntity
  8
DRAWING
100
AcDbCircle
 62
7
  6
CONTINUOUS
 10
16.9862073618
 20
12.0353191196
 40
0.9435511288
100
AcDbArc
 50
2.5829602766
 51
4.6625823265
  0
ARC
  5
531
100
AcDbEntity
  8
DRAWING
100
AcDbCircle
 62
7
  6
CONTINUOUS
 10
17.0360175781
 20
12.0127645517
 40
0.8658898207
100
AcDbArc
 50
329.6193993725
 51
329.9730817075
  0
ARC
  5
532
100
AcDbEntity
  8
DRAWING
100
AcDbCircle
 62
7
  6
CONTINUOUS
 10
17.0616237296
 20
12.0016883416
 40
0.8580855047
100
AcDbArc
 50
331.5269769193
 51
332.5468705974
  0
ARC
  5
533
100
AcDbEntity
  8
0
100
AcDbCircle
 62
7
  6
CONTINUOUS
 10
17.0229763929
 20
11.9164903443
 40
0.8495243898
100
AcDbArc
 50
348.8227959703
 51
357.2311960752
  0
ARC
  5
534
100
AcDbEntity
  8
DRAWING
100
AcDbCircle
 62
7
  6
CONTINUOUS
 10
17.0716048304
 20
11.9965483261
 40
0.8468587293
100
AcDbArc
 50
332.5441422727
 51
336.793475846
  0
ARC
  5
535
100
AcDbEntity
  8
DRAWING
100
AcDbCircle
 62
7
  6
CONTINUOUS
 10
17.0819585019
 20
11.9912110815
 40
0.835313919
100
AcDbArc
 50
345.659897193
 51
351.688965517
  0
ARC
  5
536
100
AcDbEntity
  8
DRAWING
100
AcDbCircle
 62
7
  6
CONTINUOUS
 10
17.0844775701
 20
11.990931189
 40
0.8328141081
100
AcDbArc
 50
336.7996812907
 51
342.817966455
  0
ARC
  5
537
100
AcDbEntity
  8
DRAWING
100
AcDbCircle
 62
7
  6
CONTINUOUS
 10
17.0879055083
 20
11.9897521283
 40
0.8291908585
100
AcDbArc
 50
342.8258297423
 51
345.6557898544
  0
ARC
  5
538
100
AcDbEntity
  8
DRAWING
100
AcDbCircle
 62
7
  6
CONTINUOUS
 10
17.0709589786
 20
11.9948346807
 40
0.82663256
100
AcDbArc
 50
342.836043703
 51
351.4766688281
  0
ARC
  5
539
100
AcDbEntity
  8
0
100
AcDbCircle
 62
7
  6
CONTINUOUS
 10
17.0482797779
 20
11.9118512308
 40
0.8238017618
100
AcDbArc
 50
342.8286361511
 51
348.7981897066
  0
ARC
  5
53A
100
AcDbEntity
  8
0
100
AcDbCircle
 62
7
  6
CONTINUOUS
 10
16.7306386384
 20
12.0100571408
 40
0.6612770813
100
AcDbArc
 50
339.2771567714
 51
340.6256564787
  0
ARC
  5
53B
100
AcDbEntity
  8
0
100
AcDbCircle
 62
7
  6
CONTINUOUS
 10
17.0169541328
 20
12.3655804822
 40
0.0795900165
100
AcDbArc
 50
270.0570367642
 51
275.1480123812
  0
ARC
  5
53C
100
AcDbEntity
  8
0
100
AcDbCircle
 62
7
  6
CONTINUOUS
 10
17.1504088975
 20
12.0812465317
 40
0.0436944732
100
AcDbArc
 50
255.9700246517
 51
258.5176611814
  0
ARC
  5
53D
100
AcDbEntity
  8
0
100
AcDbCircle
 62
7
  6
CONTINUOUS
 10
16.5640077665
 20
19.8283102854
 40
8.598042377
100
AcDbArc
 50
276.7721956037
 51
276.9171646039
  0
ARC
  5
53E
100
AcDbEntity
  8
0
100
AcDbCircle
 62
7
  6
CONTINUOUS
 10
17.6076059414
 20
17.8012012042
 40
6.9326324383
100
AcDbArc
 50
229.0674536582
 51
229.2291096166
  0
LINE
  5
53F
100
AcDbEntity
  8
0
100
AcDbLine
 62
7
  6
CONTINUOUS
 10
8.4269071311
 20
12.730047779
 11
8.4079948376
 21
12.7550477814
  0
LINE
  5
540
100
AcDbEntity
  8
0
100
AcDbLine
 62
7
  6
CONTINUOUS
 10
7.8211899114
 20
12.7300477792
 11
7.8133617504
 21
12.7550477814
  0
LINE
  5
541
100
AcDbEntity
  8
0
100
AcDbLine
 62
7
  6
CONTINUOUS
 10
3.7337493301
 20
12.7550477814
 11
3.7148370366
 21
12.730047779
  0
LINE
  5
542
100
AcDbEntity
  8
0
100
AcDbLine
 62
7
  6
CONTINUOUS
 10
3.7148370366
 20
12.4700477837
 11
3.7337493301
 21
12.4450477814
  0
LINE
  5
543
100
AcDbEntity
  8
0
100
AcDbLine
 62
7
  6
CONTINUOUS
 10
4.3205542563
 20
12.4700477835
 11
4.3283824173
 21
12.4450477814
  0
LINE
  5
544
100
AcDbEntity
  8
0
100
AcDbLine
 62
7
  6
CONTINUOUS
 10
4.3283824173
 20
12.7550477814
 11
4.3205542563
 21
12.7300477792
  0
LINE
  5
545
100
AcDbEntity
  8
0
100
AcDbLine
 62
7
  6
CONTINUOUS
 10
7.8133617504
 20
12.4450477814
 11
7.8211899114
 21
12.4700477835
  0
LINE
  5
546
100
AcDbEntity
  8
0
100
AcDbLine
 62
7
  6
CONTINUOUS
 10
8.4079948376
 20
12.4450477814
 11
8.4269071311
 21
12.4700477837
  0
LINE
  5
547
100
AcDbEntity
  8
0
100
AcDbLine
 62
7
  6
CONTINUOUS
 10
5.272943388
 20
12.4700477835
 11
5.2681369532
 21
12.4450477814
  0
LINE
  5
548
100
AcDbEntity
  8
0
100
AcDbLine
 62
7
  6
CONTINUOUS
 10
3.6020120673
 20
12.4450477814
 11
3.5757614529
 21
12.4700477837
  0
LINE
  5
549
100
AcDbEntity
  8
0
100
AcDbLine
 62
7
  6
CONTINUOUS
 10
6.3833720839
 20
12.4700477837
 11
6.3668830266
 21
12.4450477814
  0
LINE
  5
54A
100
AcDbEntity
  8
0
100
AcDbLine
 62
7
  6
CONTINUOUS
 10
6.8736072145
 20
12.4450477814
 11
6.8688007797
 21
12.4700477835
  0
LINE
  5
54B
100
AcDbEntity
  8
0
100
AcDbLine
 62
7
  6
CONTINUOUS
 10
4.7098378456
 20
12.730047779
 11
4.7347436652
 21
12.7550477814
  0
LINE
  5
54C
100
AcDbEntity
  8
0
100
AcDbLine
 62
7
  6
CONTINUOUS
 10
7.4319063221
 20
12.4700477837
 11
7.4070005025
 21
12.4450477814
  0
LINE
  5
54D
100
AcDbEntity
  8
0
100
AcDbLine
 62
7
  6
CONTINUOUS
 10
7.4070005025
 20
12.7550477814
 11
7.4319063221
 21
12.730047779
  0
LINE
  5
54E
100
AcDbEntity
  8
0
100
AcDbLine
 62
7
  6
CONTINUOUS
 10
8.2108710375
 20
12.4700477834
 11
8.1824813585
 21
12.4450477814
  0
LINE
  5
54F
100
AcDbEntity
  8
0
100
AcDbLine
 62
7
  6
CONTINUOUS
 10
8.5397321005
 20
12.7550477814
 11
8.5659827148
 21
12.730047779
  0
LINE
  5
550
100
AcDbEntity
  8
0
100
AcDbLine
 62
7
  6
CONTINUOUS
 10
6.3668830266
 20
12.7550477814
 11
6.3833720839
 21
12.730047779
  0
LINE
  5
551
100
AcDbEntity
  8
0
100
AcDbLine
 62
7
  6
CONTINUOUS
 10
6.8688007797
 20
12.7300477793
 11
6.8736072145
 21
12.7550477814
  0
LINE
  5
552
100
AcDbEntity
  8
0
100
AcDbLine
 62
7
  6
CONTINUOUS
 10
5.7748611411
 20
12.4450477814
 11
5.7583720839
 21
12.4700477837
  0
LINE
  5
553
100
AcDbEntity
  8
0
100
AcDbLine
 62
7
  6
CONTINUOUS
 10
3.9308731302
 20
12.7300477793
 11
3.9592628092
 21
12.7550477814
  0
LINE
  5
554
100
AcDbEntity
  8
0
100
AcDbLine
 62
7
  6
CONTINUOUS
 10
3.9592628092
 20
12.4450477814
 11
3.9308731302
 21
12.4700477834
  0
LINE
  5
555
100
AcDbEntity
  8
0
100
AcDbLine
 62
7
  6
CONTINUOUS
 10
4.7347436652
 20
12.4450477814
 11
4.7098378456
 21
12.4700477837
  0
LINE
  5
556
100
AcDbEntity
  8
0
100
AcDbLine
 62
7
  6
CONTINUOUS
 10
5.7583720839
 20
12.730047779
 11
5.7748611411
 21
12.7550477814
  0
LINE
  5
557
100
AcDbEntity
  8
0
100
AcDbLine
 62
7
  6
CONTINUOUS
 10
5.2681369532
 20
12.7550477814
 11
5.272943388
 21
12.7300477793
  0
LINE
  5
558
100
AcDbEntity
  8
0
100
AcDbLine
 62
7
  6
CONTINUOUS
 10
8.1824813585
 20
12.7550477814
 11
8.2108710375
 21
12.7300477793
  0
LINE
  5
559
100
AcDbEntity
  8
0
100
AcDbLine
 62
7
  6
CONTINUOUS
 10
15.7153552569
 20
6.7659647021
 11
15.6903552549
 21
6.7675144198
  0
LINE
  5
55A
100
AcDbEntity
  8
0
100
AcDbLine
 62
7
  6
CONTINUOUS
 10
15.7153552569
 20
7.552888332
 11
15.6903552546
 21
7.5666023995
  0
LINE
  5
55B
100
AcDbEntity
  8
0
100
AcDbLine
 62
7
  6
CONTINUOUS
 10
15.7153552569
 20
7.9254134905
 11
15.6903552546
 21
7.9485756686
  0
LINE
  5
55C
100
AcDbEntity
  8
0
100
AcDbLine
 62
7
  6
CONTINUOUS
 10
15.4303552593
 20
7.9485756686
 11
15.4053552569
 21
7.9254134905
  0
LINE
  5
55D
100
AcDbEntity
  8
0
100
AcDbLine
 62
7
  6
CONTINUOUS
 10
15.4303552593
 20
7.5666023995
 11
15.4053552569
 21
7.552888332
  0
LINE
  5
55E
100
AcDbEntity
  8
0
100
AcDbLine
 62
7
  6
CONTINUOUS
 10
15.430355259
 20
6.7675144198
 11
15.4053552569
 21
6.7659647021
  0
LINE
  5
55F
100
AcDbEntity
  8
0
100
AcDbLine
 62
7
  6
CONTINUOUS
 10
15.6903552548
 20
7.8377797365
 11
15.7153552569
 21
7.8097570013
  0
LINE
  5
560
100
AcDbEntity
  8
0
100
AcDbLine
 62
7
  6
CONTINUOUS
 10
15.6903552548
 20
7.2561590964
 11
15.7153552569
 21
7.2288260505
  0
LINE
  5
561
100
AcDbEntity
  8
0
100
AcDbLine
 62
7
  6
CONTINUOUS
 10
15.7153552569
 20
5.7205024767
 11
15.6903552546
 21
5.7095809041
  0
LINE
  5
562
100
AcDbEntity
  8
0
100
AcDbLine
 62
7
  6
CONTINUOUS
 10
15.6903552546
 20
6.3189108492
 11
15.7153552569
 21
6.2976811375
  0
LINE
  5
563
100
AcDbEntity
  8
0
100
AcDbLine
 62
7
  6
CONTINUOUS
 10
15.4053552569
 20
7.8097570013
 11
15.430355259
 21
7.8377797365
  0
LINE
  5
564
100
AcDbEntity
  8
0
100
AcDbLine
 62
7
  6
CONTINUOUS
 10
15.4053552569
 20
7.2288260505
 11
15.4303552591
 21
7.2561590964
  0
LINE
  5
565
100
AcDbEntity
  8
0
100
AcDbLine
 62
7
  6
CONTINUOUS
 10
15.4053552569
 20
6.2976811375
 11
15.4303552593
 21
6.3189108492
  0
LINE
  5
566
100
AcDbEntity
  8
0
100
AcDbLine
 62
7
  6
CONTINUOUS
 10
15.6903552546
 20
2.9726737403
 11
15.7153552569
 21
2.9958359184
  0
LINE
  5
567
100
AcDbEntity
  8
0
100
AcDbLine
 62
7
  6
CONTINUOUS
 10
15.6903552546
 20
3.3546470094
 11
15.7153552569
 21
3.3683610769
  0
LINE
  5
568
100
AcDbEntity
  8
0
100
AcDbLine
 62
7
  6
CONTINUOUS
 10
15.6903552549
 20
4.153734989
 11
15.7153552569
 21
4.1552847068
  0
LINE
  5
569
100
AcDbEntity
  8
0
100
AcDbLine
 62
7
  6
CONTINUOUS
 10
15.4053552569
 20
4.1552847068
 11
15.430355259
 21
4.153734989
  0
LINE
  5
56A
100
AcDbEntity
  8
0
100
AcDbLine
 62
7
  6
CONTINUOUS
 10
15.4053552569
 20
3.3683610769
 11
15.4303552593
 21
3.3546470094
  0
LINE
  5
56B
100
AcDbEntity
  8
0
100
AcDbLine
 62
7
  6
CONTINUOUS
 10
15.4053552569
 20
2.9958359184
 11
15.4303552593
 21
2.9726737403
  0
LINE
  5
56C
100
AcDbEntity
  8
0
100
AcDbLine
 62
7
  6
CONTINUOUS
 10
15.4303552591
 20
3.6650903125
 11
15.4053552569
 21
3.6924233584
  0
LINE
  5
56D
100
AcDbEntity
  8
0
100
AcDbLine
 62
7
  6
CONTINUOUS
 10
15.7153552569
 20
3.1114924076
 11
15.6903552548
 21
3.0834696724
  0
LINE
  5
56E
100
AcDbEntity
  8
0
100
AcDbLine
 62
7
  6
CONTINUOUS
 10
15.430355259
 20
3.0834696724
 11
15.4053552569
 21
3.1114924076
  0
LINE
  5
56F
100
AcDbEntity
  8
0
100
AcDbLine
 62
7
  6
CONTINUOUS
 10
15.7153552569
 20
3.6924233584
 11
15.6903552548
 21
3.6650903125
  0
LINE
  5
570
100
AcDbEntity
  8
0
100
AcDbLine
 62
7
  6
CONTINUOUS
 10
15.7153552569
 20
4.6235682714
 11
15.6903552546
 21
4.6023385597
  0
LINE
  5
571
100
AcDbEntity
  8
0
100
AcDbLine
 62
7
  6
CONTINUOUS
 10
15.4303552593
 20
4.6023385597
 11
15.4053552569
 21
4.6235682714
  0
LINE
  5
572
100
AcDbEntity
  8
0
100
AcDbLine
 62
7
  6
CONTINUOUS
 10
15.4053552569
 20
5.2007469322
 11
15.4303552593
 21
5.2116685048
  0
SPLINE
  5
573
100
AcDbEntity
  8
0
100
AcDbSpline
 62
7
  6
CONTINUOUS
 70
0
 71
3
 72
9
 73
5
 74
0
 42
0.0000001
 43
0.0000001
 44
0.0000000001
 40
0.0
 40
0.0
 40
0.0
 40
0.0
 40
0.246650419
 40
1.0
 40
1.0
 40
1.0
 40
1.0
 10
13.6820319428
 20
12.4246574347
 30
0.0
 10
13.6815784765
 20
12.4250301624
 30
0.0
 10
13.6797080505
 20
12.4265021861
 30
0.0
 10
13.6777144241
 20
12.4278165617
 30
0.0
 10
13.6761627571
 20
12.4287147069
 30
0.0
  0
SPLINE
  5
574
100
AcDbEntity
  8
0
100
AcDbSpline
 62
7
  6
CONTINUOUS
 70
0
 71
3
 72
11
 73
7
 74
0
 42
0.0000001
 43
0.0000001
 44
0.0000000001
 40
0.0
 40
0.0
 40
0.0
 40
0.0
 40
0.2343477161
 40
0.4789997798
 40
0.7344033939
 40
1.0
 40
1.0
 40
1.0
 40
1.0
 10
13.6761627571
 20
12.4287147069
 30
0.0
 10
13.6740544146
 20
12.4299350704
 30
0.0
 10
13.6695423819
 20
12.4320918026
 30
0.0
 10
13.6622370621
 20
12.4343835197
 30
0.0
 10
13.6543783447
 20
12.435764874
 30
0.0
 10
13.6489566699
 20
12.4360609203
 30
0.0
 10
13.646195774
 20
12.4360609203
 30
0.0
  0
SPLINE
  5
575
100
AcDbEntity
  8
0
100
AcDbSpline
 62
7
  6
CONTINUOUS
 70
0
 71
3
 72
21
 73
17
 74
0
 42
0.0000001
 43
0.0000001
 44
0.0000000001
 40
0.0
 40
0.0
 40
0.0
 40
0.0
 40
0.1412803952
 40
0.2775689372
 40
0.343746925
 40
0.4086049716
 40
0.4721712045
 40
0.5344880464
 40
0.5956147687
 40
0.6556367493
 40
0.7146646985
 40
0.7728268381
 40
0.830271862
 40
0.8871634672
 40
0.9436771603
 40
1.0
 40
1.0
 40
1.0
 40
1.0
 10
13.6321342101
 20
12.285990505
 30
0.0
 10
13.6295641161
 20
12.285990505
 30
0.0
 10
13.6245104502
 20
12.28624753
 30
0.0
 10
13.6183237767
 20
12.2872538515
 30
0.0
 10
13.6136115064
 20
12.2884661466
 30
0.0
 10
13.6102421835
 20
12.2895603419
 30
0.0
 10
13.6070161163
 20
12.2908447943
 30
0.0
 10
13.603944835
 20
12.2923141222
 30
0.0
 10
13.6010401078
 20
12.2939635369
 30
0.0
 10
13.5983130533
 20
12.295787278
 30
0.0
 10
13.5957733808
 20
12.2977779956
 30
0.0
 10
13.5934310186
 20
12.299929032
 30
0.0
 10
13.5912948368
 20
12.3022323416
 30
0.0
 10
13.589372354
 20
12.3046789951
 30
0.0
 10
13.5876717538
 20
12.3072601872
 30
0.0
 10
13.5866892355
 20
12.3090656977
 30
0.0
 10
13.5862378401
 20
12.3099854989
 30
0.0
  0
SPLINE
  5
576
100
AcDbEntity
  8
0
100
AcDbSpline
 62
7
  6
CONTINUOUS
 70
0
 71
3
 72
25
 73
21
 74
0
 42
0.0000001
 43
0.0000001
 44
0.0000000001
 40
0.0
 40
0.0
 40
0.0
 40
0.0
 40
0.0653493146
 40
0.1326143867
 40
0.2012705645
 40
0.2707828979
 40
0.340543641
 40
0.4099421938
 40
0.4783843753
 40
0.5453222057
 40
0.610284126
 40
0.6729053185
 40
0.7329607007
 40
0.7903955012
 40
0.8453515769
 40
0.8981832267
 40
0.9239963826
 40
0.9495051008
 40
0.9748054732
 40
1.0
 40
1.0
 40
1.0
 40
1.0
 10
13.646195774
 20
12.4360609203
 30
0.0
 10
13.6432363063
 20
12.4360609203
 30
0.0
 10
13.6372261235
 20
12.4357091534
 30
0.0
 10
13.6282210629
 20
12.4342001266
 30
0.0
 10
13.6192356887
 20
12.4317273358
 30
0.0
 10
13.6104342367
 20
12.4283379541
 30
0.0
 10
13.6019748959
 20
12.4240920657
 30
0.0
 10
13.5940109531
 20
12.4190669161
 30
0.0
 10
13.5866863162
 20
12.4133531662
 30
0.0
 10
13.5801336181
 20
12.4070534369
 30
0.0
 10
13.5744717912
 20
12.4002804404
 30
0.0
 10
13.5698043551
 20
12.3931546879
 30
0.0
 10
13.5662174531
 20
12.3858029033
 30
0.0
 10
13.5637796657
 20
12.3783549221
 30
0.0
 10
13.5625407235
 20
12.370945372
 30
0.0
 10
13.5625344298
 20
12.3648624678
 30
0.0
 10
13.5631580511
 20
12.3601816011
 30
0.0
 10
13.5639266443
 20
12.356792609
 30
0.0
 10
13.564995772
 20
12.3535159474
 30
0.0
 10
13.5659073842
 20
12.3514144015
 30
0.0
 10
13.5664100591
 20
12.3503901174
 30
0.0
  0
SPLINE
  5
577
100
AcDbEntity
  8
0
100
AcDbSpline
 62
7
  6
CONTINUOUS
 70
0
 71
3
 72
15
 73
11
 74
0
 42
0.0000001
 43
0.0000001
 44
0.0000000001
 40
0.0
 40
0.0
 40
0.0
 40
0.0
 40
0.119223836
 40
0.2415933355
 40
0.3663518964
 40
0.4928325067
 40
0.6202567429
 40
0.7477986682
 40
0.8746439245
 40
1.0
 40
1.0
 40
1.0
 40
1.0
 10
13.6116767333
 20
12.3404445218
 30
0.0
 10
13.6138437496
 20
12.3404445218
 30
0.0
 10
13.6182374315
 20
12.3406646234
 30
0.0
 10
13.6248369208
 20
12.3416140596
 30
0.0
 10
13.6314544053
 20
12.3431769272
 30
0.0
 10
13.6379998568
 20
12.3453311528
 30
0.0
 10
13.6443876855
 20
12.3480471898
 30
0.0
 10
13.6505324799
 20
12.3512901292
 30
0.0
 10
13.6563519334
 20
12.355015969
 30
0.0
 10
13.659993359
 20
12.3578116426
 30
0.0
 10
13.661737247
 20
12.3592780354
 30
0.0
  0
SPLINE
  5
578
100
AcDbEntity
  8
0
100
AcDbSpline
 62
7
  6
CONTINUOUS
 70
0
 71
3
 72
15
 73
11
 74
0
 42
0.0000001
 43
0.0000001
 44
0.0000000001
 40
0.0
 40
0.0
 40
0.0
 40
0.0
 40
0.1126028077
 40
0.227073057
 40
0.3445829408
 40
0.4660654341
 40
0.5921419943
 40
0.7231605433
 40
0.8592358853
 40
1.0
 40
1.0
 40
1.0
 40
1.0
 10
13.6791429228
 20
12.4156142444
 30
0.0
 10
13.6783088206
 20
12.4170740209
 30
0.0
 10
13.6763847908
 20
12.419886335
 30
0.0
 10
13.6728354679
 20
12.4236378045
 30
0.0
 10
13.6686585078
 20
12.4268948707
 30
0.0
 10
13.6639143449
 20
12.4296132513
 30
0.0
 10
13.6586693528
 20
12.4317609202
 30
0.0
 10
13.6529930172
 20
12.4333105882
 30
0.0
 10
13.6469633798
 20
12.434242694
 30
0.0
 10
13.6428264399
 20
12.4344437509
 30
0.0
 10
13.6407246921
 20
12.4344437509
 30
0.0
  0
SPLINE
  5
579
100
AcDbEntity
  8
0
100
AcDbSpline
 62
7
  6
CONTINUOUS
 70
0
 71
3
 72
36
 73
32
 74
0
 42
0.0000001
 43
0.0000001
 44
0.0000000001
 40
0.0
 40
0.0
 40
0.0
 40
0.0
 40
0.0336310073
 40
0.0680451216
 40
0.1030800152
 40
0.1386023308
 40
0.2104706778
 40
0.2465306038
 40
0.2824386297
 40
0.3531116054
 40
0.3876271244
 40
0.4214057988
 40
0.4862990204
 40
0.5173470503
 40
0.5474097303
 40
0.5765115692
 40
0.6047158558
 40
0.6321302728
 40
0.658902044
 40
0.6852155228
 40
0.7112824947
 40
0.7373301628
 40
0.7635872757
 40
0.7902680825
 40
0.8175627281
 40
0.8456268123
 40
0.8745721661
 40
0.9044679711
 40
0.9353527264
 40
0.9672255057
 40
1.0
 40
1.0
 40
1.0
 40
1.0
 10
13.6407246921
 20
12.4344437509
 30
0.0
 10
13.6388949547
 20
12.4344437509
 30
0.0
 10
13.6351913268
 20
12.4342868377
 30
0.0
 10
13.6296192496
 20
12.4336066639
 30
0.0
 10
13.6240139998
 20
12.432482509
 30
0.0
 10
13.6165444027
 20
12.4304013633
 30
0.0
 10
13.6092671694
 20
12.4274948927
 30
0.0
 10
13.602341737
 20
12.4238396772
 30
0.0
 10
13.5957482028
 20
12.4197372207
 30
0.0
 10
13.5896745957
 20
12.4149889024
 30
0.0
 10
13.5842830055
 20
12.4096787685
 30
0.0
 10
13.5795333286
 20
12.404199334
 30
0.0
 10
13.5755696786
 20
12.3983079383
 30
0.0
 10
13.5725723392
 20
12.3921326905
 30
0.0
 10
13.5708718563
 20
12.3875191963
 30
0.0
 10
13.5697027052
 20
12.3829022092
 30
0.0
 10
13.5690788334
 20
12.3783248623
 30
0.0
 10
13.5690059522
 20
12.3738316293
 30
0.0
 10
13.5694879606
 20
12.3694663336
 30
0.0
 10
13.5705199402
 20
12.365272254
 30
0.0
 10
13.5720937297
 20
12.3612919052
 30
0.0
 10
13.5741929825
 20
12.3575653838
 30
0.0
 10
13.5767966778
 20
12.3541304548
 30
0.0
 10
13.5798776999
 20
12.3510209581
 30
0.0
 10
13.5834045476
 20
12.3482666666
 30
0.0
 10
13.5873421037
 20
12.3458940245
 30
0.0
 10
13.5916507089
 20
12.3439237748
 30
0.0
 10
13.5962890819
 20
12.3423745242
 30
0.0
 10
13.6012132169
 20
12.3412593085
 30
0.0
 10
13.6063743491
 20
12.3405898979
 30
0.0
 10
13.6098935956
 20
12.3404445218
 30
0.0
 10
13.6116767333
 20
12.3404445218
 30
0.0
  0
SPLINE
  5
57A
100
AcDbEntity
  8
0
100
AcDbSpline
 62
7
  6
CONTINUOUS
 70
0
 71
3
 72
21
 73
17
 74
0
 42
0.0000001
 43
0.0000001
 44
0.0000000001
 40
0.0
 40
0.0
 40
0.0
 40
0.0
 40
0.0563222808
 40
0.1128352183
 40
0.1697259552
 40
0.2271703984
 40
0.2853326734
 40
0.3443614046
 40
0.4043842689
 40
0.4655114782
 40
0.5278283785
 40
0.5913944463
 40
0.6562522708
 40
0.7224301078
 40
0.8587190002
 40
1.0
 40
1.0
 40
1.0
 40
1.0
 10
13.5664100591
 20
12.3503901174
 30
0.0
 10
13.5668614533
 20
12.3494703263
 30
0.0
 10
13.5678439678
 20
12.3476648399
 30
0.0
 10
13.5695445399
 20
12.3450836752
 30
0.0
 10
13.5714669901
 20
12.3426370447
 30
0.0
 10
13.5736031555
 20
12.3403337496
 30
0.0
 10
13.5759455315
 20
12.3381827164
 30
0.0
 10
13.5784852303
 20
12.3361919768
 30
0.0
 10
13.5812123124
 20
12.3343682033
 30
0.0
 10
13.5841170587
 20
12.3327187652
 30
0.0
 10
13.5871883502
 20
12.3312494373
 30
0.0
 10
13.5904144165
 20
12.3299649935
 30
0.0
 10
13.5937837321
 20
12.3288708013
 30
0.0
 10
13.5984960041
 20
12.3276585029
 30
0.0
 10
13.6046826964
 20
12.3266521836
 30
0.0
 10
13.6097363823
 20
12.326395153
 30
0.0
 10
13.6123064887
 20
12.326395153
 30
0.0
  0
SPLINE
  5
57B
100
AcDbEntity
  8
0
100
AcDbSpline
 62
7
  6
CONTINUOUS
 70
0
 71
3
 72
13
 73
9
 74
0
 42
0.0000001
 43
0.0000001
 44
0.0000000001
 40
0.0
 40
0.0
 40
0.0
 40
0.0
 40
0.1192633708
 40
0.240922246
 40
0.4897249948
 40
0.6163282521
 40
0.7438688033
 40
1.0
 40
1.0
 40
1.0
 40
1.0
 10
13.6123064887
 20
12.326395153
 30
0.0
 10
13.6140879059
 20
12.326395153
 30
0.0
 10
13.6176877625
 20
12.3265224818
 30
0.0
 10
13.624968537
 20
12.327268113
 30
0.0
 10
13.6322687671
 20
12.3287447605
 30
0.0
 10
13.6394693061
 20
12.3308991777
 30
0.0
 10
13.6466303681
 20
12.3335192337
 30
0.0
 10
13.6518313436
 20
12.3359676741
 30
0.0
 10
13.6551905446
 20
12.3377986386
 30
0.0
  0
SPLINE
  5
57C
100
AcDbEntity
  8
0
100
AcDbSpline
 62
7
  6
CONTINUOUS
 70
0
 71
3
 72
9
 73
5
 74
0
 42
0.0000001
 43
0.0000001
 44
0.0000000001
 40
0.0
 40
0.0
 40
0.0
 40
0.0
 40
0.246650419
 40
1.0
 40
1.0
 40
1.0
 40
1.0
 10
17.0669310957
 20
12.4246574347
 30
0.0
 10
17.0664776295
 20
12.4250301624
 30
0.0
 10
17.0646072034
 20
12.4265021861
 30
0.0
 10
17.0626135771
 20
12.4278165617
 30
0.0
 10
17.0610619101
 20
12.4287147069
 30
0.0
  0
SPLINE
  5
57D
100
AcDbEntity
  8
0
100
AcDbSpline
 62
7
  6
CONTINUOUS
 70
0
 71
3
 72
11
 73
7
 74
0
 42
0.0000001
 43
0.0000001
 44
0.0000000001
 40
0.0
 40
0.0
 40
0.0
 40
0.0
 40
0.2343477161
 40
0.4789997798
 40
0.7344033939
 40
1.0
 40
1.0
 40
1.0
 40
1.0
 10
17.0610619101
 20
12.4287147069
 30
0.0
 10
17.0589535676
 20
12.4299350704
 30
0.0
 10
17.0544415348
 20
12.4320918026
 30
0.0
 10
17.0471362151
 20
12.4343835197
 30
0.0
 10
17.0392774977
 20
12.435764874
 30
0.0
 10
17.0338558229
 20
12.4360609203
 30
0.0
 10
17.031094927
 20
12.4360609203
 30
0.0
  0
SPLINE
  5
57E
100
AcDbEntity
  8
0
100
AcDbSpline
 62
7
  6
CONTINUOUS
 70
0
 71
3
 72
21
 73
17
 74
0
 42
0.0000001
 43
0.0000001
 44
0.0000000001
 40
0.0
 40
0.0
 40
0.0
 40
0.0
 40
0.1412803952
 40
0.2775689372
 40
0.343746925
 40
0.4086049716
 40
0.4721712045
 40
0.5344880464
 40
0.5956147687
 40
0.6556367493
 40
0.7146646985
 40
0.7728268381
 40
0.830271862
 40
0.8871634672
 40
0.9436771603
 40
1.0
 40
1.0
 40
1.0
 40
1.0
 10
17.017033363
 20
12.285990505
 30
0.0
 10
17.0144632691
 20
12.285990505
 30
0.0
 10
17.0094096031
 20
12.28624753
 30
0.0
 10
17.0032229297
 20
12.2872538515
 30
0.0
 10
16.9985106593
 20
12.2884661466
 30
0.0
 10
16.9951413365
 20
12.2895603419
 30
0.0
 10
16.9919152692
 20
12.2908447943
 30
0.0
 10
16.9888439879
 20
12.2923141222
 30
0.0
 10
16.9859392607
 20
12.2939635369
 30
0.0
 10
16.9832122062
 20
12.295787278
 30
0.0
 10
16.9806725337
 20
12.2977779956
 30
0.0
 10
16.9783301715
 20
12.299929032
 30
0.0
 10
16.9761939898
 20
12.3022323416
 30
0.0
 10
16.974271507
 20
12.3046789951
 30
0.0
 10
16.9725709067
 20
12.3072601872
 30
0.0
 10
16.9715883884
 20
12.3090656977
 30
0.0
 10
16.971136993
 20
12.3099854989
 30
0.0
  0
SPLINE
  5
57F
100
AcDbEntity
  8
0
100
AcDbSpline
 62
7
  6
CONTINUOUS
 70
0
 71
3
 72
25
 73
21
 74
0
 42
0.0000001
 43
0.0000001
 44
0.0000000001
 40
0.0
 40
0.0
 40
0.0
 40
0.0
 40
0.0653493146
 40
0.1326143867
 40
0.2012705645
 40
0.2707828979
 40
0.340543641
 40
0.4099421938
 40
0.4783843753
 40
0.5453222057
 40
0.610284126
 40
0.6729053185
 40
0.7329607007
 40
0.7903955012
 40
0.8453515769
 40
0.8981832267
 40
0.9239963826
 40
0.9495051008
 40
0.9748054732
 40
1.0
 40
1.0
 40
1.0
 40
1.0
 10
17.031094927
 20
12.4360609203
 30
0.0
 10
17.0281354592
 20
12.4360609203
 30
0.0
 10
17.0221252765
 20
12.4357091534
 30
0.0
 10
17.0131202158
 20
12.4342001266
 30
0.0
 10
17.0041348417
 20
12.4317273358
 30
0.0
 10
16.9953333896
 20
12.4283379541
 30
0.0
 10
16.9868740488
 20
12.4240920657
 30
0.0
 10
16.9789101061
 20
12.4190669161
 30
0.0
 10
16.9715854691
 20
12.4133531662
 30
0.0
 10
16.965032771
 20
12.4070534369
 30
0.0
 10
16.9593709442
 20
12.4002804404
 30
0.0
 10
16.9547035081
 20
12.3931546879
 30
0.0
 10
16.9511166061
 20
12.3858029033
 30
0.0
 10
16.9486788187
 20
12.3783549221
 30
0.0
 10
16.9474398765
 20
12.370945372
 30
0.0
 10
16.9474335827
 20
12.3648624678
 30
0.0
 10
16.9480572041
 20
12.3601816011
 30
0.0
 10
16.9488257972
 20
12.356792609
 30
0.0
 10
16.9498949249
 20
12.3535159474
 30
0.0
 10
16.9508065372
 20
12.3514144015
 30
0.0
 10
16.951309212
 20
12.3503901174
 30
0.0
  0
SPLINE
  5
580
100
AcDbEntity
  8
0
100
AcDbSpline
 62
7
  6
CONTINUOUS
 70
0
 71
3
 72
15
 73
11
 74
0
 42
0.0000001
 43
0.0000001
 44
0.0000000001
 40
0.0
 40
0.0
 40
0.0
 40
0.0
 40
0.119223836
 40
0.2415933355
 40
0.3663518964
 40
0.4928325067
 40
0.6202567429
 40
0.7477986682
 40
0.8746439245
 40
1.0
 40
1.0
 40
1.0
 40
1.0
 10
16.9965758863
 20
12.3404445218
 30
0.0
 10
16.9987429025
 20
12.3404445218
 30
0.0
 10
17.0031365845
 20
12.3406646234
 30
0.0
 10
17.0097360738
 20
12.3416140596
 30
0.0
 10
17.0163535583
 20
12.3431769272
 30
0.0
 10
17.0228990097
 20
12.3453311528
 30
0.0
 10
17.0292868385
 20
12.3480471898
 30
0.0
 10
17.0354316329
 20
12.3512901292
 30
0.0
 10
17.0412510864
 20
12.355015969
 30
0.0
 10
17.0448925119
 20
12.3578116426
 30
0.0
 10
17.0466363999
 20
12.3592780354
 30
0.0
  0
SPLINE
  5
581
100
AcDbEntity
  8
0
100
AcDbSpline
 62
7
  6
CONTINUOUS
 70
0
 71
3
 72
15
 73
11
 74
0
 42
0.0000001
 43
0.0000001
 44
0.0000000001
 40
0.0
 40
0.0
 40
0.0
 40
0.0
 40
0.1126028077
 40
0.227073057
 40
0.3445829408
 40
0.4660654341
 40
0.5921419943
 40
0.7231605433
 40
0.8592358853
 40
1.0
 40
1.0
 40
1.0
 40
1.0
 10
17.0640420758
 20
12.4156142444
 30
0.0
 10
17.0632079736
 20
12.4170740209
 30
0.0
 10
17.0612839438
 20
12.419886335
 30
0.0
 10
17.0577346209
 20
12.4236378045
 30
0.0
 10
17.0535576608
 20
12.4268948707
 30
0.0
 10
17.0488134978
 20
12.4296132513
 30
0.0
 10
17.0435685058
 20
12.4317609202
 30
0.0
 10
17.0378921701
 20
12.4333105882
 30
0.0
 10
17.0318625328
 20
12.434242694
 30
0.0
 10
17.0277255928
 20
12.4344437509
 30
0.0
 10
17.0256238451
 20
12.4344437509
 30
0.0
  0
SPLINE
  5
582
100
AcDbEntity
  8
0
100
AcDbSpline
 62
7
  6
CONTINUOUS
 70
0
 71
3
 72
36
 73
32
 74
0
 42
0.0000001
 43
0.0000001
 44
0.0000000001
 40
0.0
 40
0.0
 40
0.0
 40
0.0
 40
0.0336310073
 40
0.0680451216
 40
0.1030800152
 40
0.1386023308
 40
0.2104706778
 40
0.2465306038
 40
0.2824386297
 40
0.3531116054
 40
0.3876271244
 40
0.4214057988
 40
0.4862990204
 40
0.5173470503
 40
0.5474097303
 40
0.5765115692
 40
0.6047158558
 40
0.6321302728
 40
0.658902044
 40
0.6852155228
 40
0.7112824947
 40
0.7373301628
 40
0.7635872757
 40
0.7902680825
 40
0.8175627281
 40
0.8456268123
 40
0.8745721661
 40
0.9044679711
 40
0.9353527264
 40
0.9672255057
 40
1.0
 40
1.0
 40
1.0
 40
1.0
 10
17.0256238451
 20
12.4344437509
 30
0.0
 10
17.0237941077
 20
12.4344437509
 30
0.0
 10
17.0200904798
 20
12.4342868377
 30
0.0
 10
17.0145184025
 20
12.4336066639
 30
0.0
 10
17.0089131528
 20
12.432482509
 30
0.0
 10
17.0014435556
 20
12.4304013633
 30
0.0
 10
16.9941663224
 20
12.4274948927
 30
0.0
 10
16.9872408899
 20
12.4238396772
 30
0.0
 10
16.9806473557
 20
12.4197372207
 30
0.0
 10
16.9745737487
 20
12.4149889024
 30
0.0
 10
16.9691821585
 20
12.4096787685
 30
0.0
 10
16.9644324816
 20
12.404199334
 30
0.0
 10
16.9604688315
 20
12.3983079383
 30
0.0
 10
16.9574714921
 20
12.3921326905
 30
0.0
 10
16.9557710093
 20
12.3875191963
 30
0.0
 10
16.9546018582
 20
12.3829022092
 30
0.0
 10
16.9539779864
 20
12.3783248623
 30
0.0
 10
16.9539051052
 20
12.3738316293
 30
0.0
 10
16.9543871136
 20
12.3694663336
 30
0.0
 10
16.9554190932
 20
12.365272254
 30
0.0
 10
16.9569928827
 20
12.3612919052
 30
0.0
 10
16.9590921354
 20
12.3575653838
 30
0.0
 10
16.9616958307
 20
12.3541304548
 30
0.0
 10
16.9647768529
 20
12.3510209581
 30
0.0
 10
16.9683037006
 20
12.3482666666
 30
0.0
 10
16.9722412567
 20
12.3458940245
 30
0.0
 10
16.9765498619
 20
12.3439237748
 30
0.0
 10
16.9811882349
 20
12.3423745242
 30
0.0
 10
16.9861123698
 20
12.3412593085
 30
0.0
 10
16.9912735021
 20
12.3405898979
 30
0.0
 10
16.9947927485
 20
12.3404445218
 30
0.0
 10
16.9965758863
 20
12.3404445218
 30
0.0
  0
SPLINE
  5
583
100
AcDbEntity
  8
0
100
AcDbSpline
 62
7
  6
CONTINUOUS
 70
0
 71
3
 72
21
 73
17
 74
0
 42
0.0000001
 43
0.0000001
 44
0.0000000001
 40
0.0
 40
0.0
 40
0.0
 40
0.0
 40
0.0563222808
 40
0.1128352183
 40
0.1697259552
 40
0.2271703984
 40
0.2853326734
 40
0.3443614046
 40
0.4043842689
 40
0.4655114782
 40
0.5278283785
 40
0.5913944463
 40
0.6562522708
 40
0.7224301078
 40
0.8587190002
 40
1.0
 40
1.0
 40
1.0
 40
1.0
 10
16.951309212
 20
12.3503901174
 30
0.0
 10
16.9517606062
 20
12.3494703263
 30
0.0
 10
16.9527431207
 20
12.3476648399
 30
0.0
 10
16.9544436929
 20
12.3450836752
 30
0.0
 10
16.956366143
 20
12.3426370447
 30
0.0
 10
16.9585023085
 20
12.3403337496
 30
0.0
 10
16.9608446845
 20
12.3381827164
 30
0.0
 10
16.9633843832
 20
12.3361919768
 30
0.0
 10
16.9661114654
 20
12.3343682033
 30
0.0
 10
16.9690162117
 20
12.3327187652
 30
0.0
 10
16.9720875032
 20
12.3312494373
 30
0.0
 10
16.9753135695
 20
12.3299649935
 30
0.0
 10
16.978682885
 20
12.3288708013
 30
0.0
 10
16.9833951571
 20
12.3276585029
 30
0.0
 10
16.9895818494
 20
12.3266521836
 30
0.0
 10
16.9946355352
 20
12.326395153
 30
0.0
 10
16.9972056417
 20
12.326395153
 30
0.0
  0
SPLINE
  5
584
100
AcDbEntity
  8
0
100
AcDbSpline
 62
7
  6
CONTINUOUS
 70
0
 71
3
 72
13
 73
9
 74
0
 42
0.0000001
 43
0.0000001
 44
0.0000000001
 40
0.0
 40
0.0
 40
0.0
 40
0.0
 40
0.1192633708
 40
0.240922246
 40
0.4897249948
 40
0.6163282521
 40
0.7438688033
 40
1.0
 40
1.0
 40
1.0
 40
1.0
 10
16.9972056417
 20
12.326395153
 30
0.0
 10
16.9989870588
 20
12.326395153
 30
0.0
 10
17.0025869154
 20
12.3265224818
 30
0.0
 10
17.0098676899
 20
12.327268113
 30
0.0
 10
17.01716792
 20
12.3287447605
 30
0.0
 10
17.0243684591
 20
12.3308991777
 30
0.0
 10
17.0315295211
 20
12.3335192337
 30
0.0
 10
17.0367304966
 20
12.3359676741
 30
0.0
 10
17.0400896976
 20
12.3377986386
 30
0.0
  0
SPLINE
  5
585
100
AcDbEntity
  8
0
100
AcDbSpline
 62
7
  6
CONTINUOUS
 70
0
 71
3
 72
15
 73
11
 74
0
 42
0.0000001
 43
0.0000001
 44
0.0000000001
 40
0.0
 40
0.0
 40
0.0
 40
0.0
 40
0.1164344503
 40
0.233774773
 40
0.3528842141
 40
0.4745721574
 40
0.5995740841
 40
0.7285310562
 40
0.8619094481
 40
1.0
 40
1.0
 40
1.0
 40
1.0
 10
16.3012637509
 20
11.8101860202
 30
0.0
 10
16.3047531349
 20
11.8214760067
 30
0.0
 10
16.3105317732
 20
11.8445437361
 30
0.0
 10
16.3154635505
 20
11.8800815056
 30
0.0
 10
16.3166650846
 20
11.9164745827
 30
0.0
 10
16.3141248175
 20
11.9535729605
 30
0.0
 10
16.3078682962
 20
11.9912368508
 30
0.0
 10
16.2979153809
 20
12.0293198663
 30
0.0
 10
16.2843216101
 20
12.0676644711
 30
0.0
 10
16.273078256
 20
12.0928517918
 30
0.0
 10
16.2669041401
 20
12.1054333172
 30
0.0
  0
SPLINE
  5
586
100
AcDbEntity
  8
0
100
AcDbSpline
 62
7
  6
CONTINUOUS
 70
0
 71
3
 72
15
 73
11
 74
0
 42
0.0000001
 43
0.0000001
 44
0.0000000001
 40
0.0
 40
0.0
 40
0.0
 40
0.0
 40
0.0995239097
 40
0.2031756041
 40
0.3135588284
 40
0.4323804129
 40
0.5605570152
 40
0.6983123956
 40
0.84524367
 40
1.0
 40
1.0
 40
1.0
 40
1.0
 10
16.3043201642
 20
11.2619469041
 30
0.0
 10
16.3052060488
 20
11.2642912372
 30
0.0
 10
16.3075771966
 20
11.2688816869
 30
0.0
 10
16.3126597201
 20
11.2749936013
 30
0.0
 10
16.3192022372
 20
11.2803069521
 30
0.0
 10
16.3270658893
 20
11.2847559427
 30
0.0
 10
16.3361236508
 20
11.2882748188
 30
0.0
 10
16.3462270701
 20
11.2908221261
 30
0.0
 10
16.3572051929
 20
11.2923506508
 30
0.0
 10
16.3648072618
 20
11.2926782837
 30
0.0
 10
16.3687042102
 20
11.2926782837
 30
0.0
  0
SPLINE
  5
587
100
AcDbEntity
  8
0
100
AcDbSpline
 62
7
  6
CONTINUOUS
 70
0
 71
3
 72
15
 73
11
 74
0
 42
0.0000001
 43
0.0000001
 44
0.0000000001
 40
0.0
 40
0.0
 40
0.0
 40
0.0
 40
0.1557870904
 40
0.3032534627
 40
0.4411339025
 40
0.5690827695
 40
0.6873883028
 40
0.7971124527
 40
0.9003276496
 40
1.0
 40
1.0
 40
1.0
 40
1.0
 10
16.7806176967
 20
11.2635561025
 30
0.0
 10
16.7906852774
 20
11.2635561025
 30
0.0
 10
16.8102975999
 20
11.264424855
 30
0.0
 10
16.8385627638
 20
11.2685089895
 30
0.0
 10
16.8644618637
 20
11.2752984384
 30
0.0
 10
16.887530999
 20
11.2846831021
 30
0.0
 10
16.9073771054
 20
11.2965193059
 30
0.0
 10
16.9236227445
 20
11.3106632433
 30
0.0
 10
16.9359195376
 20
11.3268849651
 30
0.0
 10
16.9413075584
 20
11.3389936413
 30
0.0
 10
16.9432107156
 20
11.3451472865
 30
0.0
  0
SPLINE
  5
588
100
AcDbEntity
  8
0
100
AcDbSpline
 62
7
  6
CONTINUOUS
 70
0
 71
3
 72
14
 73
10
 74
0
 42
0.0000001
 43
0.0000001
 44
0.0000000001
 40
0.0
 40
0.0
 40
0.0
 40
0.0
 40
0.1556949266
 40
0.3033531307
 40
0.5689019967
 40
0.6872270216
 40
0.7970121575
 40
0.9002982101
 40
1.0
 40
1.0
 40
1.0
 40
1.0
 10
16.3839679299
 20
11.077073112
 30
0.0
 10
16.3859790607
 20
11.077073112
 30
0.0
 10
16.3899021763
 20
11.077248708
 30
0.0
 10
16.3971786305
 20
11.0782988943
 30
0.0
 10
16.4038207084
 20
11.080386191
 30
0.0
 10
16.4093202094
 20
11.0836666644
 30
0.0
 10
16.4125670013
 20
11.0864973529
 30
0.0
 10
16.4150289867
 20
11.0897390454
 30
0.0
 10
16.4161063679
 20
11.0921608747
 30
0.0
 10
16.4164866328
 20
11.0933913149
 30
0.0
  0
SPLINE
  5
589
100
AcDbEntity
  8
0
100
AcDbSpline
 62
7
  6
CONTINUOUS
 70
0
 71
3
 72
15
 73
11
 74
0
 42
0.0000001
 43
0.0000001
 44
0.0000000001
 40
0.0
 40
0.0
 40
0.0
 40
0.0
 40
0.100189984
 40
0.211905691
 40
0.3337857792
 40
0.4637276801
 40
0.5987315565
 40
0.7354179983
 40
0.8704280347
 40
1.0
 40
1.0
 40
1.0
 40
1.0
 10
15.2588373388
 20
11.1081536105
 30
0.0
 10
15.2598921755
 20
11.1060040792
 30
0.0
 10
15.262688797
 20
11.1017289609
 30
0.0
 10
15.268220416
 20
11.0959367878
 30
0.0
 10
15.275124624
 20
11.0906143801
 30
0.0
 10
15.283136834
 20
11.0859572357
 30
0.0
 10
15.2919603094
 20
11.0821265472
 30
0.0
 10
15.3012727954
 20
11.0792715095
 30
0.0
 10
15.3107178614
 20
11.0775037505
 30
0.0
 10
15.31704589
 20
11.077073112
 30
0.0
 10
15.3201424818
 20
11.077073112
 30
0.0
  0
SPLINE
  5
58A
100
AcDbEntity
  8
0
100
AcDbSpline
 62
7
  6
CONTINUOUS
 70
0
 71
3
 72
15
 73
11
 74
0
 42
0.0000001
 43
0.0000001
 44
0.0000000001
 40
0.0
 40
0.0
 40
0.0
 40
0.0
 40
0.1295720522
 40
0.2645822641
 40
0.4012687856
 40
0.5362726512
 40
0.6662145378
 40
0.7880945326
 40
0.899810092
 40
1.0
 40
1.0
 40
1.0
 40
1.0
 10
15.1365238224
 20
11.2635561025
 30
0.0
 10
15.1396204163
 20
11.2635561025
 30
0.0
 10
15.1459484511
 20
11.2631254611
 30
0.0
 10
15.1553935253
 20
11.261357702
 30
0.0
 10
15.1647060161
 20
11.2585026593
 30
0.0
 10
15.1735294917
 20
11.2546719681
 30
0.0
 10
15.1815416981
 20
11.2500148229
 30
0.0
 10
15.1884458986
 20
11.2446924158
 30
0.0
 10
15.1939775137
 20
11.2389002493
 30
0.0
 10
15.1967741295
 20
11.2346251337
 30
0.0
 10
15.1978289655
 20
11.2324756041
 30
0.0
  0
SPLINE
  5
58B
100
AcDbEntity
  8
0
100
AcDbSpline
 62
7
  6
CONTINUOUS
 70
0
 71
3
 72
19
 73
15
 74
0
 42
0.0000001
 43
0.0000001
 44
0.0000000001
 40
0.0
 40
0.0
 40
0.0
 40
0.0
 40
0.0487189202
 40
0.1003498982
 40
0.1548284258
 40
0.2120438411
 40
0.2718358961
 40
0.3339651039
 40
0.4638607468
 40
0.5988319003
 40
0.7354795434
 40
0.8703264551
 40
0.9360545326
 40
1.0
 40
1.0
 40
1.0
 40
1.0
 10
14.4339418799
 20
11.4189585946
 30
0.0
 10
14.436507518
 20
11.4137303738
 30
0.0
 10
14.4424478494
 20
11.4032750849
 30
0.0
 10
14.4532213692
 20
11.3881920912
 30
0.0
 10
14.4660182621
 20
11.373412459
 30
0.0
 10
14.4807054063
 20
11.3590810083
 30
0.0
 10
14.4971446481
 20
11.3453278924
 30
0.0
 10
14.5215517493
 20
11.3276742381
 30
0.0
 10
14.55543639
 20
11.3079639355
 30
0.0
 10
14.5995619302
 20
11.2888254745
 30
0.0
 10
14.6461099713
 20
11.2745549507
 30
0.0
 10
14.6858270293
 20
11.2671026222
 30
0.0
 10
14.717318317
 20
11.2640796382
 30
0.0
 10
14.7328236159
 20
11.2635561025
 30
0.0
 10
14.740467595
 20
11.2635561025
 30
0.0
  0
SPLINE
  5
58C
100
AcDbEntity
  8
0
100
AcDbSpline
 62
7
  6
CONTINUOUS
 70
0
 71
3
 72
11
 73
7
 74
0
 42
0.0000001
 43
0.0000001
 44
0.0000000001
 40
0.0
 40
0.0
 40
0.0
 40
0.0
 40
0.2230783145
 40
0.4585777296
 40
0.7162979502
 40
1.0
 40
1.0
 40
1.0
 40
1.0
 10
17.5927920595
 20
12.1581116033
 30
0.0
 10
17.5931530011
 20
12.1592844111
 30
0.0
 10
17.5942741274
 20
12.1615929231
 30
0.0
 10
17.5969569202
 20
12.1645390531
 30
0.0
 10
17.6005393259
 20
12.1669304068
 30
0.0
 10
17.6033067099
 20
12.1680787345
 30
0.0
 10
17.6047905753
 20
12.1685619676
 30
0.0
  0
SPLINE
  5
58D
100
AcDbEntity
  8
0
100
AcDbSpline
 62
7
  6
CONTINUOUS
 70
0
 71
3
 72
11
 73
7
 74
0
 42
0.0000001
 43
0.0000001
 44
0.0000000001
 40
0.0
 40
0.0
 40
0.0
 40
0.0
 40
0.2231577075
 40
0.4586965791
 40
0.7163893937
 40
1.0
 40
1.0
 40
1.0
 40
1.0
 10
16.8537050786
 20
11.0883899387
 30
0.0
 10
16.8540652831
 20
11.0895602825
 30
0.0
 10
16.8551831221
 20
11.091863936
 30
0.0
 10
16.85785704
 20
11.0948054359
 30
0.0
 10
16.8614274282
 20
11.09719486
 30
0.0
 10
16.8641858823
 20
11.0983437794
 30
0.0
 10
16.8656649794
 20
11.0988276777
 30
0.0
  0
SPLINE
  5
58E
100
AcDbEntity
  8
0
100
AcDbSpline
 62
7
  6
CONTINUOUS
 70
0
 71
3
 72
14
 73
10
 74
0
 42
0.0000001
 43
0.0000001
 44
0.0000000001
 40
0.0
 40
0.0
 40
0.0
 40
0.0
 40
0.0997018606
 40
0.2029879576
 40
0.3127731639
 40
0.4310982239
 40
0.6966469568
 40
0.8443050627
 40
1.0
 40
1.0
 40
1.0
 40
1.0
 10
16.3520427667
 20
11.2472378995
 30
0.0
 10
16.352423032
 20
11.2484683406
 30
0.0
 10
16.3535004129
 20
11.2508901717
 30
0.0
 10
16.3559624008
 20
11.2541318657
 30
0.0
 10
16.3592091963
 20
11.2569625529
 30
0.0
 10
16.3647086963
 20
11.2602430271
 30
0.0
 10
16.3713507723
 20
11.2623303223
 30
0.0
 10
16.3786272238
 20
11.2633805077
 30
0.0
 10
16.3825503383
 20
11.2635561025
 30
0.0
 10
16.3845614693
 20
11.2635561025
 30
0.0
  0
SPLINE
  5
58F
100
AcDbEntity
  8
0
100
AcDbSpline
 62
7
  6
CONTINUOUS
 70
0
 71
3
 72
15
 73
11
 74
0
 42
0.0000001
 43
0.0000001
 44
0.0000000001
 40
0.0
 40
0.0
 40
0.0
 40
0.0
 40
0.1381135755
 40
0.2714886407
 40
0.4004247798
 40
0.5254202226
 40
0.6471125918
 40
0.7662285734
 40
0.8835681003
 40
1.0
 40
1.0
 40
1.0
 40
1.0
 10
17.2811757807
 20
12.3698061492
 30
0.0
 10
17.2936032714
 20
12.3444815857
 30
0.0
 10
17.3162337314
 20
12.293789167
 30
0.0
 10
17.3435925593
 20
12.2166209854
 30
0.0
 10
17.3636137563
 20
12.1399831555
 30
0.0
 10
17.3762090888
 20
12.0641898868
 30
0.0
 10
17.3813152592
 20
11.9895280345
 30
0.0
 10
17.378905132
 20
11.9162848374
 30
0.0
 10
17.368979463
 20
11.8447638077
 30
0.0
 10
17.3573443686
 20
11.7983423142
 30
0.0
 10
17.3503234662
 20
11.7756212817
 30
0.0
  0
SPLINE
  5
590
100
AcDbEntity
  8
0
100
AcDbSpline
 62
7
  6
CONTINUOUS
 70
0
 71
3
 72
11
 73
7
 74
0
 42
0.0000001
 43
0.0000001
 44
0.0000000001
 40
0.0
 40
0.0
 40
0.0
 40
0.0
 40
0.2376142656
 40
0.484082411
 40
0.7385474534
 40
1.0
 40
1.0
 40
1.0
 40
1.0
 10
13.8565530473
 20
11.9323310588
 30
0.0
 10
13.8929045161
 20
11.8969904996
 30
0.0
 10
13.9695568513
 20
11.8276222711
 30
0.0
 10
14.0930817783
 20
11.7296212693
 30
0.0
 10
14.2264750522
 20
11.6363650314
 30
0.0
 10
14.3202006283
 20
11.5785058773
 30
0.0
 10
14.3684405546
 20
11.5504897403
 30
0.0
  0
SPLINE
  5
591
100
AcDbEntity
  8
0
100
AcDbSpline
 62
7
  6
CONTINUOUS
 70
0
 71
3
 72
20
 73
16
 74
0
 42
0.0000001
 43
0.0000001
 44
0.0000000001
 40
0.0
 40
0.0
 40
0.0
 40
0.0
 40
0.0768294231
 40
0.1516377328
 40
0.2949227583
 40
0.4296769518
 40
0.556086477
 40
0.6163874635
 40
0.6748965719
 40
0.7317796346
 40
0.7872407366
 40
0.8415150205
 40
0.8948689934
 40
0.9475942851
 40
1.0
 40
1.0
 40
1.0
 40
1.0
 10
16.4230975567
 20
11.1135186093
 30
0.0
 10
16.4543378694
 20
11.118122266
 30
0.0
 10
16.515814358
 20
11.1285279845
 30
0.0
 10
16.6343165319
 20
11.154174814
 30
0.0
 10
16.773788974
 20
11.1948943553
 30
0.0
 10
16.9277399159
 20
11.2585032097
 30
0.0
 10
17.043145545
 20
11.3237026552
 30
0.0
 10
17.1252093704
 20
11.3823492576
 30
0.0
 10
17.180743023
 20
11.4286199297
 30
0.0
 10
17.2310377437
 20
11.4777357584
 30
0.0
 10
17.2759474758
 20
11.5295456054
 30
0.0
 10
17.3153246353
 20
11.5839010199
 30
0.0
 10
17.349040507
 20
11.6406411065
 30
0.0
 10
17.3769925672
 20
11.6995798406
 30
0.0
 10
17.3917353215
 20
11.7402797489
 30
0.0
 10
17.3980944085
 20
11.7608589439
 30
0.0
  0
SPLINE
  5
592
100
AcDbEntity
  8
0
100
AcDbSpline
 62
7
  6
CONTINUOUS
 70
0
 71
3
 72
11
 73
7
 74
0
 42
0.0000001
 43
0.0000001
 44
0.0000000001
 40
0.0
 40
0.0
 40
0.0
 40
0.0
 40
0.2022918212
 40
0.4339230205
 40
0.7010377174
 40
1.0
 40
1.0
 40
1.0
 40
1.0
 10
17.5190073745
 20
11.5766589668
 30
0.0
 10
17.5199463351
 20
11.5783142368
 30
0.0
 10
17.5227898032
 20
11.581413036
 30
0.0
 10
17.5287044363
 20
11.5845214177
 30
0.0
 10
17.536062532
 20
11.5862697801
 30
0.0
 10
17.5414142426
 20
11.5864908873
 30
0.0
 10
17.5442248624
 20
11.5863891823
 30
0.0
  0
SPLINE
  5
593
100
AcDbEntity
  8
0
100
AcDbSpline
 62
7
  6
CONTINUOUS
 70
0
 71
3
 72
9
 73
5
 74
0
 42
0.0000001
 43
0.0000001
 44
0.0000000001
 40
0.0
 40
0.0
 40
0.0
 40
0.0
 40
0.5044576657
 40
1.0
 40
1.0
 40
1.0
 40
1.0
 10
17.438769837
 20
11.460526713
 30
0.0
 10
17.4538948636
 20
11.4788483583
 30
0.0
 10
17.4823855027
 20
11.5164300433
 30
0.0
 10
17.5074922778
 20
11.5563592913
 30
0.0
 10
17.5190073745
 20
11.5766589668
 30
0.0
  0
SPLINE
  5
594
100
AcDbEntity
  8
0
100
AcDbSpline
 62
7
  6
CONTINUOUS
 70
0
 71
3
 72
11
 73
7
 74
0
 42
0.0000001
 43
0.0000001
 44
0.0000000001
 40
0.0
 40
0.0
 40
0.0
 40
0.0
 40
0.2157238416
 40
0.4594382533
 40
0.7243127837
 40
1.0
 40
1.0
 40
1.0
 40
1.0
 10
17.0323369477
 20
11.1632762164
 30
0.0
 10
17.0345590713
 20
11.1642820674
 30
0.0
 10
17.0396061093
 20
11.1657402512
 30
0.0
 10
17.0478092674
 20
11.1663916006
 30
0.0
 10
17.0566786907
 20
11.1656142461
 30
0.0
 10
17.0626487094
 20
11.1641950733
 30
0.0
 10
17.0656224632
 20
11.1632604228
 30
0.0
  0
SPLINE
  5
595
100
AcDbEntity
  8
0
100
AcDbSpline
 62
7
  6
CONTINUOUS
 70
0
 71
3
 72
9
 73
5
 74
0
 42
0.0000001
 43
0.0000001
 44
0.0000000001
 40
0.0
 40
0.0
 40
0.0
 40
0.0
 40
0.255733922
 40
1.0
 40
1.0
 40
1.0
 40
1.0
 10
16.8656649794
 20
11.0988276777
 30
0.0
 10
16.8801469134
 20
11.103565557
 30
0.0
 10
16.9365365621
 20
11.1228107865
 30
0.0
 10
16.991937816
 20
11.1449894258
 30
0.0
 10
17.0323369477
 20
11.1632762164
 30
0.0
  0
SPLINE
  5
596
100
AcDbEntity
  8
0
100
AcDbSpline
 62
7
  6
CONTINUOUS
 70
0
 71
3
 72
9
 73
5
 74
0
 42
0.0000001
 43
0.0000001
 44
0.0000000001
 40
0.0
 40
0.0
 40
0.0
 40
0.0
 40
0.5105933547
 40
1.0
 40
1.0
 40
1.0
 40
1.0
 10
16.4581000958
 20
10.8572520414
 30
0.0
 10
16.5233929496
 20
10.8627632876
 30
0.0
 10
16.650957093
 20
10.8777862623
 30
0.0
 10
16.7771155933
 20
10.9020735501
 30
0.0
 10
16.8382537959
 20
10.9164516327
 30
0.0
  0
SPLINE
  5
597
100
AcDbEntity
  8
0
100
AcDbSpline
 62
7
  6
CONTINUOUS
 70
0
 71
3
 72
11
 73
7
 74
0
 42
0.0000001
 43
0.0000001
 44
0.0000000001
 40
0.0
 40
0.0
 40
0.0
 40
0.0
 40
0.2417902421
 40
0.4962059902
 40
0.7525880811
 40
1.0
 40
1.0
 40
1.0
 40
1.0
 10
16.229015514
 20
10.9927402037
 30
0.0
 10
16.2319631946
 20
10.9928478872
 30
0.0
 10
16.2380390295
 20
10.9925197764
 30
0.0
 10
16.2470614734
 20
10.9906657899
 30
0.0
 10
16.2557931146
 20
10.9875251126
 30
0.0
 10
16.2612423838
 20
10.984621099
 30
0.0
 10
16.2637764525
 20
10.9829815293
 30
0.0
  0
SPLINE
  5
598
100
AcDbEntity
  8
0
100
AcDbSpline
 62
7
  6
CONTINUOUS
 70
0
 71
3
 72
11
 73
7
 74
0
 42
0.0000001
 43
0.0000001
 44
0.0000000001
 40
0.0
 40
0.0
 40
0.0
 40
0.0
 40
0.2023030872
 40
0.4338985362
 40
0.7009961215
 40
1.0
 40
1.0
 40
1.0
 40
1.0
 10
15.9837373275
 20
10.9829815293
 30
0.0
 10
15.9846717691
 20
10.9846380118
 30
0.0
 10
15.9875064562
 20
10.9877411175
 30
0.0
 10
15.9934120298
 20
10.9908570055
 30
0.0
 10
16.0007631209
 20
10.992613114
 30
0.0
 10
16.0061113234
 20
10.9928392768
 30
0.0
 10
16.0089205424
 20
10.9927402037
 30
0.0
  0
SPLINE
  5
599
100
AcDbEntity
  8
0
100
AcDbSpline
 62
7
  6
CONTINUOUS
 70
0
 71
3
 72
11
 73
7
 74
0
 42
0.0000001
 43
0.0000001
 44
0.0000000001
 40
0.0
 40
0.0
 40
0.0
 40
0.0
 40
0.215650876
 40
0.4593289177
 40
0.7242250431
 40
1.0
 40
1.0
 40
1.0
 40
1.0
 10
15.0049552541
 20
11.1632604228
 30
0.0
 10
15.0071741285
 20
11.1642689025
 30
0.0
 10
15.0122160905
 20
11.1657326565
 30
0.0
 10
15.0204141486
 20
11.1663919329
 30
0.0
 10
15.0292813022
 20
11.1656224707
 30
0.0
 10
15.0352510957
 20
11.1642083677
 30
0.0
 10
15.0382252688
 20
11.1632762164
 30
0.0
  0
SPLINE
  5
59A
100
AcDbEntity
  8
0
100
AcDbSpline
 62
7
  6
CONTINUOUS
 70
0
 71
3
 72
11
 73
7
 74
0
 42
0.0000001
 43
0.0000001
 44
0.0000000001
 40
0.0
 40
0.0
 40
0.0
 40
0.0
 40
0.2956299472
 40
0.5634098828
 40
0.7974433136
 40
1.0
 40
1.0
 40
1.0
 40
1.0
 10
14.3400536656
 20
11.460526713
 30
0.0
 10
14.3425934885
 20
11.4591211548
 30
0.0
 10
14.347244714
 20
11.4560738604
 30
0.0
 10
14.3529691734
 20
11.450655615
 30
0.0
 10
14.3568364563
 20
11.4448370844
 30
0.0
 10
14.3580506618
 20
11.4406121808
 30
0.0
 10
14.358182359
 20
11.4386276296
 30
0.0
  0
SPLINE
  5
59B
100
AcDbEntity
  8
0
100
AcDbSpline
 62
7
  6
CONTINUOUS
 70
0
 71
3
 72
11
 73
7
 74
0
 42
0.0000001
 43
0.0000001
 44
0.0000000001
 40
0.0
 40
0.0
 40
0.0
 40
0.0
 40
0.2417037429
 40
0.496088553
 40
0.7525005766
 40
1.0
 40
1.0
 40
1.0
 40
1.0
 10
14.1110699823
 20
11.5863891823
 30
0.0
 10
14.1140163795
 20
11.5864997265
 30
0.0
 10
14.1200908668
 20
11.5861770789
 30
0.0
 10
14.1291133886
 20
11.5843306322
 30
0.0
 10
14.137848148
 20
11.5811966412
 30
0.0
 10
14.143300884
 20
11.5782967003
 30
0.0
 10
14.1458372625
 20
11.5766589668
 30
0.0
  0
SPLINE
  5
59C
100
AcDbEntity
  8
0
100
AcDbSpline
 62
7
  6
CONTINUOUS
 70
0
 71
3
 72
9
 73
5
 74
0
 42
0.0000001
 43
0.0000001
 44
0.0000000001
 40
0.0
 40
0.0
 40
0.0
 40
0.0
 40
0.48911088
 40
1.0
 40
1.0
 40
1.0
 40
1.0
 10
13.5362968375
 20
11.8690666978
 30
0.0
 10
13.5894214213
 20
11.817056284
 30
0.0
 10
13.7027295633
 20
11.7154433472
 30
0.0
 10
13.8235615234
 20
11.6229710686
 30
0.0
 10
13.8868545979
 20
11.5779769673
 30
0.0
  0
SPLINE
  5
59D
100
AcDbEntity
  8
0
100
AcDbSpline
 62
7
  6
CONTINUOUS
 70
0
 71
3
 72
11
 73
7
 74
0
 42
0.0000001
 43
0.0000001
 44
0.0000000001
 40
0.0
 40
0.0
 40
0.0
 40
0.0
 40
0.2698860552
 40
0.5332479822
 40
0.779307904
 40
1.0
 40
1.0
 40
1.0
 40
1.0
 10
13.4791264531
 20
12.1685619676
 30
0.0
 10
13.4821662543
 20
12.1678117997
 30
0.0
 10
13.4880730257
 20
12.1658927633
 30
0.0
 10
13.49621743
 20
12.1618914166
 30
0.0
 10
13.5031664157
 20
12.1569858247
 30
0.0
 10
13.5069726535
 20
12.1530640928
 30
0.0
 10
13.5085049126
 20
12.1510129316
 30
0.0
  0
LINE
  5
59E
100
AcDbEntity
  8
0
100
AcDbLine
 62
7
  6
CONTINUOUS
 10
17.78683645
 20
12.2278467081
 11
17.8137349887
 21
12.2542188411
  0
SPLINE
  5
59F
100
AcDbEntity
  8
0
100
AcDbSpline
 62
7
  6
CONTINUOUS
 70
0
 71
3
 72
9
 73
5
 74
0
 42
0.0000001
 43
0.0000001
 44
0.0000000001
 40
0.0
 40
0.0
 40
0.0
 40
0.0
 40
0.2554847799
 40
1.0
 40
1.0
 40
1.0
 40
1.0
 10
17.812141533
 20
12.6126374912
 30
0.0
 10
17.8184343278
 20
12.5998141235
 30
0.0
 10
17.8423238669
 20
12.5492634491
 30
0.0
 10
17.8631709144
 20
12.4972593826
 30
0.0
 10
17.8766722322
 20
12.4578838358
 30
0.0
  0
SPLINE
  5
5A0
100
AcDbEntity
  8
0
100
AcDbSpline
 62
7
  6
CONTINUOUS
 70
0
 71
3
 72
17
 73
13
 74
0
 42
0.0000001
 43
0.0000001
 44
0.0000000001
 40
0.0
 40
0.0
 40
0.0
 40
0.0
 40
0.0487257051
 40
0.1003638736
 40
0.1548499883
 40
0.2120733719
 40
0.3339353823
 40
0.4638491154
 40
0.5988390659
 40
0.7355057396
 40
0.8703714311
 40
1.0
 40
1.0
 40
1.0
 40
1.0
 10
14.4793897637
 20
11.4170002773
 30
0.0
 10
14.4814422742
 20
11.4128177007
 30
0.0
 10
14.486194543
 20
11.4044534466
 30
0.0
 10
14.4948133417
 20
11.3923871623
 30
0.0
 10
14.5050509238
 20
11.3805630166
 30
0.0
 10
14.521051957
 20
11.3649515377
 30
0.0
 10
14.544539808
 20
11.3468464089
 30
0.0
 10
14.5765819889
 20
11.3282061872
 30
0.0
 10
14.6118858888
 20
11.3128936282
 30
0.0
 10
14.649127406
 20
11.301476279
 30
0.0
 10
14.6869046383
 20
11.2943904422
 30
0.0
 10
14.7122155234
 20
11.2926782837
 30
0.0
 10
14.7246103359
 20
11.2926782837
 30
0.0
  0
SPLINE
  5
5A1
100
AcDbEntity
  8
0
100
AcDbSpline
 62
7
  6
CONTINUOUS
 70
0
 71
3
 72
15
 73
11
 74
0
 42
0.0000001
 43
0.0000001
 44
0.0000000001
 40
0.0
 40
0.0
 40
0.0
 40
0.0
 40
0.1296314875
 40
0.2645691707
 40
0.4012513998
 40
0.5362781566
 40
0.6662256102
 40
0.7881021015
 40
0.8997685822
 40
1.0
 40
1.0
 40
1.0
 40
1.0
 10
15.1206665633
 20
11.2926782837
 30
0.0
 10
15.1268626302
 20
11.2926782837
 30
0.0
 10
15.1395184962
 20
11.2918207733
 30
0.0
 10
15.158407185
 20
11.2882798944
 30
0.0
 10
15.1770290892
 20
11.2825699027
 30
0.0
 10
15.1946805125
 20
11.2749149692
 30
0.0
 10
15.2107025794
 20
11.2655933739
 30
0.0
 10
15.2245086659
 20
11.254950264
 30
0.0
 10
15.2355770928
 20
11.2433708546
 30
0.0
 10
15.2411662904
 20
11.2348181538
 30
0.0
 10
15.2432768494
 20
11.2305172868
 30
0.0
  0
SPLINE
  5
5A2
100
AcDbEntity
  8
0
100
AcDbSpline
 62
7
  6
CONTINUOUS
 70
0
 71
3
 72
15
 73
11
 74
0
 42
0.0000001
 43
0.0000001
 44
0.0000000001
 40
0.0
 40
0.0
 40
0.0
 40
0.0
 40
0.1557870904
 40
0.3032534627
 40
0.4411339025
 40
0.5690827695
 40
0.6873883028
 40
0.7971124527
 40
0.9003276496
 40
1.0
 40
1.0
 40
1.0
 40
1.0
 10
16.7647604376
 20
11.2926782837
 30
0.0
 10
16.7728145021
 20
11.2926782837
 30
0.0
 10
16.7885043602
 20
11.2933732856
 30
0.0
 10
16.8111164912
 20
11.2966405932
 30
0.0
 10
16.8318357712
 20
11.3020721524
 30
0.0
 10
16.8502910794
 20
11.3095798833
 30
0.0
 10
16.8661679645
 20
11.3190488464
 30
0.0
 10
16.8791644758
 20
11.3303639963
 30
0.0
 10
16.8890019103
 20
11.3433413738
 30
0.0
 10
16.8933123269
 20
11.3530283147
 30
0.0
 10
16.8948348527
 20
11.3579512308
 30
0.0
  0
SPLINE
  5
5A3
100
AcDbEntity
  8
0
100
AcDbSpline
 62
7
  6
CONTINUOUS
 70
0
 71
3
 72
9
 73
5
 74
0
 42
0.0000001
 43
0.0000001
 44
0.0000000001
 40
0.0
 40
0.0
 40
0.0
 40
0.0
 40
0.2453841898
 40
1.0
 40
1.0
 40
1.0
 40
1.0
 10
13.1413086841
 20
12.3865833686
 30
0.0
 10
13.1470020614
 20
12.3754638226
 30
0.0
 10
13.1707727075
 20
12.3304415593
 30
0.0
 10
13.1967608355
 20
12.2865973741
 30
0.0
 10
13.2174368324
 20
12.2542188393
 30
0.0
  0
SPLINE
  5
5A4
100
AcDbEntity
  8
0
100
AcDbSpline
 62
7
  6
CONTINUOUS
 70
0
 71
3
 72
23
 73
19
 74
0
 42
0.0000001
 43
0.0000001
 44
0.0000000001
 40
0.0
 40
0.0
 40
0.0
 40
0.0
 40
0.0565875656
 40
0.1154206554
 40
0.1762650245
 40
0.2388473425
 40
0.3028578993
 40
0.3679624609
 40
0.4338060141
 40
0.5000222491
 40
0.5662375344
 40
0.6320791317
 40
0.6971797085
 40
0.7611854526
 40
0.8237613278
 40
0.8845983741
 40
0.9434226579
 40
1.0
 40
1.0
 40
1.0
 40
1.0
 10
14.8312741658
 20
12.7074044053
 30
0.0
 10
14.8498980477
 20
12.6891303372
 30
0.0
 10
14.8893207727
 20
12.6532976373
 30
0.0
 10
14.9531307646
 20
12.6028711494
 30
0.0
 10
15.0223114829
 20
12.5550621919
 30
0.0
 10
15.0962858317
 20
12.5102773801
 30
0.0
 10
15.1744345772
 20
12.4688800557
 30
0.0
 10
15.2561092855
 20
12.4312234392
 30
0.0
 10
15.3406258012
 20
12.3976164738
 30
0.0
 10
15.4272787836
 20
12.3683411681
 30
0.0
 10
15.515345248
 20
12.3436450122
 30
0.0
 10
15.6040876551
 20
12.3237279297
 30
0.0
 10
15.6927667486
 20
12.3087646074
 30
0.0
 10
15.7806408583
 20
12.2988721037
 30
0.0
 10
15.8669774489
 20
12.2941382505
 30
0.0
 10
15.9510589054
 20
12.2946023967
 30
0.0
 10
16.0321798336
 20
12.3002568367
 30
0.0
 10
16.0849344983
 20
12.3076157104
 30
0.0
 10
16.1106149962
 20
12.3122044577
 30
0.0
  0
LINE
  5
5A5
100
AcDbEntity
  8
0
100
AcDbLine
 62
7
  6
CONTINUOUS
 10
17.6529474521
 20
11.5330890813
 11
17.6624437306
 21
11.4965154131
  0
SPLINE
  5
5A6
100
AcDbEntity
  8
0
100
AcDbSpline
 62
7
  6
CONTINUOUS
 70
0
 71
3
 72
9
 73
5
 74
0
 42
0.0000001
 43
0.0000001
 44
0.0000000001
 40
0.0
 40
0.0
 40
0.0
 40
0.0
 40
0.5131995844
 40
1.0
 40
1.0
 40
1.0
 40
1.0
 10
17.335650762
 20
11.0998757664
 30
0.0
 10
17.3820182292
 20
11.1256066943
 30
0.0
 10
17.4697573771
 20
11.180668923
 30
0.0
 10
17.5500854293
 20
11.2462019512
 30
0.0
 10
17.5867386927
 20
11.2806504488
 30
0.0
  0
LINE
  5
5A7
100
AcDbEntity
  8
0
100
AcDbLine
 62
7
  6
CONTINUOUS
 10
17.3024759601
 20
11.0888173948
 11
17.3356507626
 21
11.0998757683
  0
LINE
  5
5A8
100
AcDbEntity
  8
0
100
AcDbLine
 62
7
  6
CONTINUOUS
 10
17.9246639125
 20
12.0970987845
 11
17.9344462801
 21
12.0791182661
  0
LINE
  5
5A9
100
AcDbEntity
  8
0
100
AcDbLine
 62
7
  6
CONTINUOUS
 10
17.7766964752
 20
11.5779769674
 11
17.8093694886
 21
11.5965968217
  0
SPLINE
  5
5AA
100
AcDbEntity
  8
0
100
AcDbSpline
 62
7
  6
CONTINUOUS
 70
0
 71
3
 72
12
 73
8
 74
0
 42
0.0000001
 43
0.0000001
 44
0.0000000001
 40
0.0
 40
0.0
 40
0.0
 40
0.0
 40
0.2713337312
 40
0.5253790344
 40
0.7660830884
 40
0.8834911145
 40
1.0
 40
1.0
 40
1.0
 40
1.0
 10
17.0278180131
 20
11.7205394548
 30
0.0
 10
17.0308484936
 20
11.7143639848
 30
0.0
 10
17.0358730249
 20
11.7019581766
 30
0.0
 10
17.0400517881
 20
11.6828884644
 30
0.0
 10
17.0403829805
 20
11.6672529344
 30
0.0
 10
17.0387248811
 20
11.655316055
 30
0.0
 10
17.0372789905
 20
11.6495500546
 30
0.0
 10
17.0364062501
 20
11.6467281467
 30
0.0
  0
SPLINE
  5
5AB
100
AcDbEntity
  8
0
100
AcDbSpline
 62
7
  6
CONTINUOUS
 70
0
 71
3
 72
10
 73
6
 74
0
 42
0.0000001
 43
0.0000001
 44
0.0000000001
 40
0.0
 40
0.0
 40
0.0
 40
0.0
 40
0.2412789635
 40
0.4886829544
 40
1.0
 40
1.0
 40
1.0
 40
1.0
 10
13.959216471
 20
11.9327976554
 30
0.0
 10
13.9852644753
 20
11.909130597
 30
0.0
 10
14.0391837215
 20
11.8624574457
 30
0.0
 10
14.1536736088
 20
11.7720251571
 30
0.0
 10
14.2449247169
 20
11.7091088999
 30
0.0
 10
14.3079155074
 20
11.6691736879
 30
0.0
  0
SPLINE
  5
5AC
100
AcDbEntity
  8
0
100
AcDbSpline
 62
7
  6
CONTINUOUS
 70
0
 71
3
 72
9
 73
5
 74
0
 42
0.0000001
 43
0.0000001
 44
0.0000000001
 40
0.0
 40
0.0
 40
0.0
 40
0.0
 40
0.5120479332
 40
1.0
 40
1.0
 40
1.0
 40
1.0
 10
16.4474063375
 20
11.1888150345
 30
0.0
 10
16.4980766587
 20
11.1971782931
 30
0.0
 10
16.5964795677
 20
11.2171352724
 30
0.0
 10
16.6929480826
 20
11.2450971636
 30
0.0
 10
16.7392689769
 20
11.2608901255
 30
0.0
  0
SPLINE
  5
5AD
100
AcDbEntity
  8
0
100
AcDbSpline
 62
7
  6
CONTINUOUS
 70
0
 71
3
 72
14
 73
10
 74
0
 42
0.0000001
 43
0.0000001
 44
0.0000000001
 40
0.0
 40
0.0
 40
0.0
 40
0.0
 40
0.2717073679
 40
0.4009552623
 40
0.5262661944
 40
0.6481673026
 40
0.7672755141
 40
0.8842958845
 40
1.0
 40
1.0
 40
1.0
 40
1.0
 10
16.9491883704
 20
11.3516396324
 30
0.0
 10
16.9966592665
 20
11.3772637012
 30
0.0
 10
17.0643553003
 20
11.4199023819
 30
0.0
 10
17.1454206759
 20
11.4859722494
 30
0.0
 10
17.1991925288
 20
11.5380320513
 30
0.0
 10
17.2467273315
 20
11.5932141996
 30
0.0
 10
17.2878451449
 20
11.6513393816
 30
0.0
 10
17.3223826955
 20
11.7121867327
 30
0.0
 10
17.3410045543
 20
11.7545798676
 30
0.0
 10
17.349133096
 20
11.7760657219
 30
0.0
  0
SPLINE
  5
5AE
100
AcDbEntity
  8
0
100
AcDbSpline
 62
7
  6
CONTINUOUS
 70
0
 71
3
 72
11
 73
7
 74
0
 42
0.0000001
 43
0.0000001
 44
0.0000000001
 40
0.0
 40
0.0
 40
0.0
 40
0.0
 40
0.2710451881
 40
0.5252759824
 40
0.7663125261
 40
1.0
 40
1.0
 40
1.0
 40
1.0
 10
16.3537605129
 20
11.2324756041
 30
0.0
 10
16.3531552881
 20
11.2337089226
 30
0.0
 10
16.3521524267
 20
11.2361890951
 30
0.0
 10
16.3513169846
 20
11.2400034736
 30
0.0
 10
16.3512323547
 20
11.2437219939
 30
0.0
 10
16.3516930309
 20
11.2461062443
 30
0.0
 10
16.3520427667
 20
11.2472378995
 30
0.0
  0
SPLINE
  5
5AF
100
AcDbEntity
  8
0
100
AcDbSpline
 62
7
  6
CONTINUOUS
 70
0
 71
3
 72
9
 73
5
 74
0
 42
0.0000001
 43
0.0000001
 44
0.0000000001
 40
0.0
 40
0.0
 40
0.0
 40
0.0
 40
0.2453123551
 40
1.0
 40
1.0
 40
1.0
 40
1.0
 10
13.1470582707
 20
12.3893893219
 30
0.0
 10
13.1525345319
 20
12.3782298749
 30
0.0
 10
13.175446843
 20
12.333029417
 30
0.0
 10
13.2006534588
 20
12.2889997099
 30
0.0
 10
13.2207772005
 20
12.256480359
 30
0.0
  0
SPLINE
  5
5B0
100
AcDbEntity
  8
0
100
AcDbSpline
 62
7
  6
CONTINUOUS
 70
0
 71
3
 72
9
 73
5
 74
0
 42
0.0000001
 43
0.0000001
 44
0.0000000001
 40
0.0
 40
0.0
 40
0.0
 40
0.0
 40
0.2447296993
 40
1.0
 40
1.0
 40
1.0
 40
1.0
 10
17.8137349882
 20
12.2542188393
 30
0.0
 10
17.8092969333
 20
12.2671621228
 30
0.0
 10
17.790276874
 20
12.31974428
 30
0.0
 10
17.7678073997
 20
12.3710633406
 30
0.0
 10
17.7492042889
 20
12.4089724947
 30
0.0
  0
SPLINE
  5
5B1
100
AcDbEntity
  8
0
100
AcDbSpline
 62
7
  6
CONTINUOUS
 70
0
 71
3
 72
15
 73
11
 74
0
 42
0.0000001
 43
0.0000001
 44
0.0000000001
 40
0.0
 40
0.0
 40
0.0
 40
0.0
 40
0.1164317363
 40
0.233771202
 40
0.3528870751
 40
0.4745793613
 40
0.5995749123
 40
0.7285114165
 40
0.861886658
 40
1.0
 40
1.0
 40
1.0
 40
1.0
 10
17.3980944085
 20
11.7608589439
 30
0.0
 10
17.4052897558
 20
11.7841444336
 30
0.0
 10
17.4172140002
 20
11.831719193
 30
0.0
 10
17.4273860772
 20
11.9050170931
 30
0.0
 10
17.4298562978
 20
11.9800799308
 30
0.0
 10
17.4246231926
 20
12.0565967161
 30
0.0
 10
17.4117150076
 20
12.1342731373
 30
0.0
 10
17.3911962924
 20
12.2128151291
 30
0.0
 10
17.3631577301
 20
12.2919005902
 30
0.0
 10
17.3399650567
 20
12.3438524487
 30
0.0
 10
17.3272288304
 20
12.3698061492
 30
0.0
  0
SPLINE
  5
5B2
100
AcDbEntity
  8
0
100
AcDbSpline
 62
7
  6
CONTINUOUS
 70
0
 71
3
 72
14
 73
10
 74
0
 42
0.0000001
 43
0.0000001
 44
0.0000000001
 40
0.0
 40
0.0
 40
0.0
 40
0.0
 40
0.1159529409
 40
0.2328727084
 40
0.3516839606
 40
0.4732416297
 40
0.5982968509
 40
0.7274908789
 40
1.0
 40
1.0
 40
1.0
 40
1.0
 10
17.3503234662
 20
11.7756212817
 30
0.0
 10
17.3430563221
 20
11.752103362
 30
0.0
 10
17.325794544
 20
11.7056492727
 30
0.0
 10
17.2921061572
 20
11.638864347
 30
0.0
 10
17.2507420743
 20
11.5751151246
 30
0.0
 10
17.2018817139
 20
11.5146924768
 30
0.0
 10
17.1457504258
 20
11.457821103
 30
0.0
 10
17.0600507005
 20
11.3858018207
 30
0.0
 10
16.987678195
 20
11.3397627871
 30
0.0
 10
16.9367629983
 20
11.3122995156
 30
0.0
  0
SPLINE
  5
5B3
100
AcDbEntity
  8
0
100
AcDbSpline
 62
7
  6
CONTINUOUS
 70
0
 71
3
 72
11
 73
7
 74
0
 42
0.0000001
 43
0.0000001
 44
0.0000000001
 40
0.0
 40
0.0
 40
0.0
 40
0.0
 40
0.2359047436
 40
0.4812855836
 40
0.7360662385
 40
1.0
 40
1.0
 40
1.0
 40
1.0
 10
16.8563805095
 20
11.2725980597
 30
0.0
 10
16.8248627926
 20
11.2583662995
 30
0.0
 10
16.7594195159
 20
11.2318075006
 30
0.0
 10
16.6567808778
 20
11.1982719056
 30
0.0
 10
16.5482164448
 20
11.1704138017
 30
0.0
 10
16.4735132217
 20
11.1559560836
 30
0.0
 10
16.4353390419
 20
11.1496546506
 30
0.0
  0
SPLINE
  5
5B4
100
AcDbEntity
  8
0
100
AcDbSpline
 62
7
  6
CONTINUOUS
 70
0
 71
3
 72
11
 73
7
 74
0
 42
0.0000001
 43
0.0000001
 44
0.0000000001
 40
0.0
 40
0.0
 40
0.0
 40
0.0
 40
0.2603835123
 40
0.5143393448
 40
0.76109953
 40
1.0
 40
1.0
 40
1.0
 40
1.0
 10
14.3428928156
 20
11.6007836968
 30
0.0
 10
14.3021122908
 20
11.6255663605
 30
0.0
 10
14.2227248828
 20
11.6764755503
 30
0.0
 10
14.1092611742
 20
11.7577150979
 30
0.0
 10
14.003414159
 20
11.8424967838
 30
0.0
 10
13.9372052454
 20
11.9020761048
 30
0.0
 10
13.9055904933
 20
11.9323659175
 30
0.0
  0
SPLINE
  5
5B5
100
AcDbEntity
  8
0
100
AcDbSpline
 62
7
  6
CONTINUOUS
 70
0
 71
3
 72
11
 73
7
 74
0
 42
0.0000001
 43
0.0000001
 44
0.0000000001
 40
0.0
 40
0.0
 40
0.0
 40
0.0
 40
0.2712945005
 40
0.5254922905
 40
0.766352027
 40
1.0
 40
1.0
 40
1.0
 40
1.0
 10
16.3071022974
 20
11.2305172868
 30
0.0
 10
16.3058906992
 20
11.2329862645
 30
0.0
 10
16.3038823791
 20
11.2379479118
 30
0.0
 10
16.3022099952
 20
11.2455776414
 30
0.0
 10
16.3020487615
 20
11.2530123028
 30
0.0
 10
16.3029672467
 20
11.2577789366
 30
0.0
 10
16.3036665754
 20
11.2600419443
 30
0.0
  0
SPLINE
  5
5B6
100
AcDbEntity
  8
0
100
AcDbSpline
 62
7
  6
CONTINUOUS
 70
0
 71
3
 72
35
 73
31
 74
0
 42
0.0000001
 43
0.0000001
 44
0.0000000001
 40
0.0
 40
0.0
 40
0.0
 40
0.0
 40
0.0265267658
 40
0.0543760493
 40
0.0835392948
 40
0.1139969435
 40
0.145702687
 40
0.17857534
 40
0.2125135179
 40
0.2473973471
 40
0.2830925691
 40
0.31945122
 40
0.3935017584
 40
0.4682419414
 40
0.5423032908
 40
0.6143547057
 40
0.6492529931
 40
0.6832068297
 40
0.7160972049
 40
0.7478218535
 40
0.778302404
 40
0.8074848832
 40
0.8353473171
 40
0.861901903
 40
0.8872020688
 40
0.9113458908
 40
0.9344800432
 40
0.9568005722
 40
0.9785482392
 40
1.0
 40
1.0
 40
1.0
 40
1.0
 10
14.4247821521
 20
12.1054333172
 30
0.0
 10
14.433393663
 20
12.087884903
 30
0.0
 10
14.4528768565
 20
12.0527902001
 30
0.0
 10
14.4874720532
 20
12.0017869528
 30
0.0
 10
14.5279168783
 20
11.951513512
 30
0.0
 10
14.5739138851
 20
11.902310603
 30
0.0
 10
14.6251590145
 20
11.8545040851
 30
0.0
 10
14.6813015759
 20
11.8084081728
 30
0.0
 10
14.7419652397
 20
11.7643413442
 30
0.0
 10
14.8067341566
 20
11.7225968167
 30
0.0
 10
14.8751722033
 20
11.6834586786
 30
0.0
 10
14.9712641402
 20
11.6348164802
 30
0.0
 10
15.0974343194
 20
11.5822900104
 30
0.0
 10
15.2545413786
 20
11.5336764775
 30
0.0
 10
15.4140934302
 20
11.5003880014
 30
0.0
 10
15.546958082
 20
11.4860070037
 30
0.0
 10
15.6507936492
 20
11.4831153207
 30
0.0
 10
15.7257804129
 20
11.4852120888
 30
0.0
 10
15.7981856741
 20
11.4915250165
 30
0.0
 10
15.8675211744
 20
11.502024858
 30
0.0
 10
15.9333192802
 20
11.516631986
 30
0.0
 10
15.9951346834
 20
11.5352623583
 30
0.0
 10
16.0525527832
 20
11.5577878362
 30
0.0
 10
16.1051829086
 20
11.5840739031
 30
0.0
 10
16.1526683744
 20
11.6139508697
 30
0.0
 10
16.1946770964
 20
11.6472373541
 30
0.0
 10
16.2309070437
 20
11.6837223877
 30
0.0
 10
16.2610860365
 20
11.7231730583
 30
0.0
 10
16.2849675218
 20
11.7653089871
 30
0.0
 10
16.2965959272
 20
11.7950831632
 30
0.0
 10
16.3012637509
 20
11.8101860202
 30
0.0
  0
SPLINE
  5
5B7
100
AcDbEntity
  8
0
100
AcDbSpline
 62
7
  6
CONTINUOUS
 70
0
 71
3
 72
12
 73
8
 74
0
 42
0.0000001
 43
0.0000001
 44
0.0000000001
 40
0.0
 40
0.0
 40
0.0
 40
0.0
 40
0.1165088855
 40
0.2339169116
 40
0.4746209656
 40
0.7286662688
 40
1.0
 40
1.0
 40
1.0
 40
1.0
 10
16.9432107156
 20
11.3451472865
 30
0.0
 10
16.944083456
 20
11.3479691944
 30
0.0
 10
16.9455293466
 20
11.3537351948
 30
0.0
 10
16.947187446
 20
11.3656720742
 30
0.0
 10
16.9468562536
 20
11.3813076042
 30
0.0
 10
16.9426774903
 20
11.4003773164
 30
0.0
 10
16.9376529591
 20
11.4127831246
 30
0.0
 10
16.9346224786
 20
11.4189585946
 30
0.0
  0
SPLINE
  5
5B8
100
AcDbEntity
  8
0
100
AcDbSpline
 62
7
  6
CONTINUOUS
 70
0
 71
3
 72
11
 73
7
 74
0
 42
0.0000001
 43
0.0000001
 44
0.0000000001
 40
0.0
 40
0.0
 40
0.0
 40
0.0
 40
0.2336874905
 40
0.474723893
 40
0.7289546513
 40
1.0
 40
1.0
 40
1.0
 40
1.0
 10
16.4164866328
 20
11.0933913149
 30
0.0
 10
16.4168363684
 20
11.0945229704
 30
0.0
 10
16.4172970438
 20
11.0969072202
 30
0.0
 10
16.4172124176
 20
11.1006257399
 30
0.0
 10
16.416376974
 20
11.1044401184
 30
0.0
 10
16.4153741115
 20
11.1069202911
 30
0.0
 10
16.4147688863
 20
11.1081536105
 30
0.0
  0
SPLINE
  5
5B9
100
AcDbEntity
  8
0
100
AcDbSpline
 62
7
  6
CONTINUOUS
 70
0
 71
3
 72
11
 73
7
 74
0
 42
0.0000001
 43
0.0000001
 44
0.0000000001
 40
0.0
 40
0.0
 40
0.0
 40
0.0
 40
0.233658935
 40
0.4744440454
 40
0.7285748979
 40
1.0
 40
1.0
 40
1.0
 40
1.0
 10
16.8948348527
 20
11.3579512308
 30
0.0
 10
16.8962346081
 20
11.3624771829
 30
0.0
 10
16.8980711892
 20
11.3720094753
 30
0.0
 10
16.897749934
 20
11.3868759605
 30
0.0
 10
16.8944086955
 20
11.4021363601
 30
0.0
 10
16.8903886475
 20
11.4120599013
 30
0.0
 10
16.8879642631
 20
11.4170002773
 30
0.0
  0
SPLINE
  5
5BA
100
AcDbEntity
  8
0
100
AcDbSpline
 62
7
  6
CONTINUOUS
 70
0
 71
3
 72
15
 73
11
 74
0
 42
0.0000001
 43
0.0000001
 44
0.0000000001
 40
0.0
 40
0.0
 40
0.0
 40
0.0
 40
0.1381135898
 40
0.2714887133
 40
0.4004249021
 40
0.5254203361
 40
0.6471126677
 40
0.7662286091
 40
0.8835681102
 40
1.0
 40
1.0
 40
1.0
 40
1.0
 10
17.3332804885
 20
12.3893893219
 30
0.0
 10
17.346016738
 20
12.3634355741
 30
0.0
 10
17.3692094462
 20
12.3114837
 30
0.0
 10
17.3972480013
 20
12.2323982717
 30
0.0
 10
17.4177666312
 20
12.1538563776
 30
0.0
 10
17.4306748755
 20
12.0761800432
 30
0.0
 10
17.4359079091
 20
11.9996632565
 30
0.0
 10
17.4334378907
 20
11.9246003749
 30
0.0
 10
17.4232656277
 20
11.8513024408
 30
0.0
 10
17.4113414619
 20
11.803727626
 30
0.0
 10
17.4041461272
 20
11.780442098
 30
0.0
  0
SPLINE
  5
5BB
100
AcDbEntity
  8
0
100
AcDbSpline
 62
7
  6
CONTINUOUS
 70
0
 71
3
 72
9
 73
5
 74
0
 42
0.0000001
 43
0.0000001
 44
0.0000000001
 40
0.0
 40
0.0
 40
0.0
 40
0.0
 40
0.2444575686
 40
1.0
 40
1.0
 40
1.0
 40
1.0
 10
17.786836452
 20
12.2278467088
 30
0.0
 10
17.7823136156
 20
12.2413574733
 30
0.0
 10
17.7628299526
 20
12.2962944626
 30
0.0
 10
17.7395254923
 20
12.3498575289
 30
0.0
 10
17.720126106
 20
12.3893893219
 30
0.0
  0
SPLINE
  5
5BC
100
AcDbEntity
  8
0
100
AcDbSpline
 62
7
  6
CONTINUOUS
 70
0
 71
3
 72
11
 73
7
 74
0
 42
0.0000001
 43
0.0000001
 44
0.0000000001
 40
0.0
 40
0.0
 40
0.0
 40
0.0
 40
0.2335108673
 40
0.4750198316
 40
0.7295091471
 40
1.0
 40
1.0
 40
1.0
 40
1.0
 10
16.3037455983
 20
11.2600958859
 30
0.0
 10
16.3032204648
 20
11.2579449248
 30
0.0
 10
16.3025960694
 20
11.2534489502
 30
0.0
 10
16.3029889264
 20
11.2465044548
 30
0.0
 10
16.304680155
 20
11.2394022934
 30
0.0
 10
16.306577569
 20
11.2347780866
 30
0.0
 10
16.3077074632
 20
11.2324756041
 30
0.0
  0
SPLINE
  5
5BD
100
AcDbEntity
  8
0
100
AcDbSpline
 62
7
  6
CONTINUOUS
 70
0
 71
3
 72
9
 73
5
 74
0
 42
0.0000001
 43
0.0000001
 44
0.0000000001
 40
0.0
 40
0.0
 40
0.0
 40
0.0
 40
0.4938906962
 40
1.0
 40
1.0
 40
1.0
 40
1.0
 10
17.6147246694
 20
12.0061983798
 30
0.0
 10
17.6130724328
 20
12.0302781156
 30
0.0
 10
17.6076353995
 20
12.0789088969
 30
0.0
 10
17.5982811294
 20
12.1269323494
 30
0.0
 10
17.5926357478
 20
12.1510129316
 30
0.0
  0
SPLINE
  5
5BE
100
AcDbEntity
  8
0
100
AcDbSpline
 62
7
  6
CONTINUOUS
 70
0
 71
3
 72
9
 73
5
 74
0
 42
0.0000001
 43
0.0000001
 44
0.0000000001
 40
0.0
 40
0.0
 40
0.0
 40
0.0
 40
0.264963778
 40
1.0
 40
1.0
 40
1.0
 40
1.0
 10
17.6165370902
 20
11.9998118641
 30
0.0
 10
17.6162779031
 20
12.0003400317
 30
0.0
 10
17.6153806409
 20
12.0023702736
 30
0.0
 10
17.6148363938
 20
12.0045701057
 30
0.0
 10
17.6147246694
 20
12.0061983798
 30
0.0
  0
SPLINE
  5
5BF
100
AcDbEntity
  8
0
100
AcDbSpline
 62
7
  6
CONTINUOUS
 70
0
 71
3
 72
11
 73
7
 74
0
 42
0.0000001
 43
0.0000001
 44
0.0000000001
 40
0.0
 40
0.0
 40
0.0
 40
0.0
 40
0.2793819456
 40
0.5414987278
 40
0.782303331
 40
1.0
 40
1.0
 40
1.0
 40
1.0
 10
17.632895544
 20
11.9843063252
 30
0.0
 10
17.6310327146
 20
11.9853351043
 30
0.0
 10
17.6275276733
 20
11.9875298147
 30
0.0
 10
17.6228928854
 20
11.9913028735
 30
0.0
 10
17.61916553
 20
11.9953599039
 30
0.0
 10
17.6172675891
 20
11.9983232638
 30
0.0
 10
17.6165370902
 20
11.9998118641
 30
0.0
  0
SPLINE
  5
5C0
100
AcDbEntity
  8
0
100
AcDbSpline
 62
7
  6
CONTINUOUS
 70
0
 71
3
 72
11
 73
7
 74
0
 42
0.0000001
 43
0.0000001
 44
0.0000000001
 40
0.0
 40
0.0
 40
0.0
 40
0.0
 40
0.2488601389
 40
0.4975620653
 40
0.7474915686
 40
1.0
 40
1.0
 40
1.0
 40
1.0
 10
17.7766964778
 20
11.5779769673
 30
0.0
 10
17.7864278186
 20
11.6008613324
 30
0.0
 10
17.8038146329
 20
11.6475285265
 30
0.0
 10
17.8233930196
 20
11.7197152616
 30
0.0
 10
17.8363629898
 20
11.7937457664
 30
0.0
 10
17.8405544686
 20
11.8438547535
 30
0.0
 10
17.8415620541
 20
11.8690666978
 30
0.0
  0
SPLINE
  5
5C1
100
AcDbEntity
  8
0
100
AcDbSpline
 62
7
  6
CONTINUOUS
 70
0
 71
3
 72
11
 73
7
 74
0
 42
0.0000001
 43
0.0000001
 44
0.0000000001
 40
0.0
 40
0.0
 40
0.0
 40
0.0
 40
0.2714251021
 40
0.5255559546
 40
0.766341065
 40
1.0
 40
1.0
 40
1.0
 40
1.0
 10
16.8885694289
 20
11.4189585946
 30
0.0
 10
16.8909938133
 20
11.4140182186
 30
0.0
 10
16.8950138614
 20
11.4040946773
 30
0.0
 10
16.8983550999
 20
11.3888342778
 30
0.0
 10
16.898676355
 20
11.3739677926
 30
0.0
 10
16.896839774
 20
11.3644355002
 30
0.0
 10
16.8954400185
 20
11.3599095481
 30
0.0
  0
SPLINE
  5
5C2
100
AcDbEntity
  8
0
100
AcDbSpline
 62
7
  6
CONTINUOUS
 70
0
 71
3
 72
11
 73
7
 74
0
 42
0.0000001
 43
0.0000001
 44
0.0000000001
 40
0.0
 40
0.0
 40
0.0
 40
0.0
 40
0.2713678636
 40
0.5255190433
 40
0.7662922953
 40
1.0
 40
1.0
 40
1.0
 40
1.0
 10
17.4376496772
 20
11.4450456695
 30
0.0
 10
17.4371952008
 20
11.4459717951
 30
0.0
 10
17.4364418827
 20
11.4478324756
 30
0.0
 10
17.4358150148
 20
11.4506934791
 30
0.0
 10
17.4357542494
 20
11.4534811642
 30
0.0
 10
17.4360986482
 20
11.4552686605
 30
0.0
 10
17.4363613531
 20
11.4561173934
 30
0.0
  0
SPLINE
  5
5C3
100
AcDbEntity
  8
0
100
AcDbSpline
 62
7
  6
CONTINUOUS
 70
0
 71
3
 72
9
 73
5
 74
0
 42
0.0000001
 43
0.0000001
 44
0.0000000001
 40
0.0
 40
0.0
 40
0.0
 40
0.0
 40
0.265131174
 40
1.0
 40
1.0
 40
1.0
 40
1.0
 10
17.4421341621
 20
11.4386276296
 30
0.0
 10
17.4416661815
 20
11.43913903
 30
0.0
 10
17.4399598244
 20
11.4411191555
 30
0.0
 10
17.4384961248
 20
11.4433207907
 30
0.0
 10
17.4376496772
 20
11.4450456695
 30
0.0
  0
SPLINE
  5
5C4
100
AcDbEntity
  8
0
100
AcDbSpline
 62
7
  6
CONTINUOUS
 70
0
 71
3
 72
9
 73
5
 74
0
 42
0.0000001
 43
0.0000001
 44
0.0000000001
 40
0.0
 40
0.0
 40
0.0
 40
0.0
 40
0.5131775659
 40
1.0
 40
1.0
 40
1.0
 40
1.0
 10
17.3326557543
 20
11.1057830398
 30
0.0
 10
17.3781956156
 20
11.1321102159
 30
0.0
 10
17.4641894972
 20
11.1883884156
 30
0.0
 10
17.5423968241
 20
11.255198873
 30
0.0
 10
17.5779068933
 20
11.2902577377
 30
0.0
  0
LINE
  5
5C5
100
AcDbEntity
  8
0
100
AcDbLine
 62
7
  6
CONTINUOUS
 10
17.8715090372
 20
11.8754532733
 11
17.8415620518
 21
11.8690666991
  0
SPLINE
  5
5C6
100
AcDbEntity
  8
0
100
AcDbSpline
 62
7
  6
CONTINUOUS
 70
0
 71
3
 72
21
 73
17
 74
0
 42
0.0000001
 43
0.0000001
 44
0.0000000001
 40
0.0
 40
0.0
 40
0.0
 40
0.0
 40
0.0507156229
 40
0.1025765947
 40
0.1565321639
 40
0.213234134
 40
0.3354639776
 40
0.4010163643
 40
0.4687842252
 40
0.5380836691
 40
0.6081223169
 40
0.6780596467
 40
0.7470544109
 40
0.8143207756
 40
0.8792626755
 40
1.0
 40
1.0
 40
1.0
 40
1.0
 10
14.8291626615
 20
13.2416278253
 30
0.0
 10
14.8301330993
 20
13.239650347
 30
0.0
 10
14.832553362
 20
13.235859296
 30
0.0
 10
14.8373883212
 20
13.2310119416
 30
0.0
 10
14.8433213383
 20
13.2271030656
 30
0.0
 10
14.8526855746
 20
13.2231586716
 30
0.0
 10
14.8633846175
 20
13.2215955853
 30
0.0
 10
14.8744838445
 20
13.2221880427
 30
0.0
 10
14.8831696408
 20
13.2237537123
 30
0.0
 10
14.8917867403
 20
13.2264023354
 30
0.0
 10
14.9001315099
 20
13.2300561355
 30
0.0
 10
14.9079906683
 20
13.2346365743
 30
0.0
 10
14.9151753625
 20
13.2400162118
 30
0.0
 10
14.9215056381
 20
13.2460793157
 30
0.0
 10
14.9284184612
 20
13.2546351794
 30
0.0
 10
14.9321950732
 20
13.2619488114
 30
0.0
 10
14.9337433685
 20
13.2669590969
 30
0.0
  0
SPLINE
  5
5C7
100
AcDbEntity
  8
0
100
AcDbSpline
 62
7
  6
CONTINUOUS
 70
0
 71
3
 72
11
 73
7
 74
0
 42
0.0000001
 43
0.0000001
 44
0.0000000001
 40
0.0
 40
0.0
 40
0.0
 40
0.0
 40
0.2390158302
 40
0.4829581175
 40
0.7359658642
 40
1.0
 40
1.0
 40
1.0
 40
1.0
 10
13.681595692
 20
12.4558500226
 30
0.0
 10
13.6825859577
 20
12.4538325474
 30
0.0
 10
13.6841644311
 20
12.4495339276
 30
0.0
 10
13.6851879217
 20
12.4426450879
 30
0.0
 10
13.684856804
 20
12.4354576905
 30
0.0
 10
13.6837870178
 20
12.4306881933
 30
0.0
 10
13.683054023
 20
12.4283162211
 30
0.0
  0
SPLINE
  5
5C8
100
AcDbEntity
  8
0
100
AcDbSpline
 62
7
  6
CONTINUOUS
 70
0
 71
3
 72
12
 73
8
 74
0
 42
0.0000001
 43
0.0000001
 44
0.0000000001
 40
0.0
 40
0.0
 40
0.0
 40
0.0
 40
0.1165088855
 40
0.2339169116
 40
0.4746209656
 40
0.7286662688
 40
1.0
 40
1.0
 40
1.0
 40
1.0
 10
13.7496859082
 20
12.8696359824
 30
0.0
 10
13.7488131679
 20
12.8668140745
 30
0.0
 10
13.7473672772
 20
12.8610480741
 30
0.0
 10
13.7457091779
 20
12.8491111947
 30
0.0
 10
13.7460403703
 20
12.8334756647
 30
0.0
 10
13.7502191335
 20
12.8144059525
 30
0.0
 10
13.7552436647
 20
12.8020001443
 30
0.0
 10
13.7582741453
 20
12.7958246743
 30
0.0
  0
SPLINE
  5
5C9
100
AcDbEntity
  8
0
100
AcDbSpline
 62
7
  6
CONTINUOUS
 70
0
 71
3
 72
11
 73
7
 74
0
 42
0.0000001
 43
0.0000001
 44
0.0000000001
 40
0.0
 40
0.0
 40
0.0
 40
0.0
 40
0.2336874905
 40
0.474723893
 40
0.7289546513
 40
1.0
 40
1.0
 40
1.0
 40
1.0
 10
14.2764099911
 20
13.121391954
 30
0.0
 10
14.2760602555
 20
13.1202602985
 30
0.0
 10
14.2755995801
 20
13.1178760487
 30
0.0
 10
14.2756842063
 20
13.114157529
 30
0.0
 10
14.2765196499
 20
13.1103431505
 30
0.0
 10
14.2775225124
 20
13.1078629777
 30
0.0
 10
14.2781277376
 20
13.1066296584
 30
0.0
  0
SPLINE
  5
5CA
100
AcDbEntity
  8
0
100
AcDbSpline
 62
7
  6
CONTINUOUS
 70
0
 71
3
 72
11
 73
7
 74
0
 42
0.0000001
 43
0.0000001
 44
0.0000000001
 40
0.0
 40
0.0
 40
0.0
 40
0.0
 40
0.2390158302
 40
0.4829581175
 40
0.7359658642
 40
1.0
 40
1.0
 40
1.0
 40
1.0
 10
17.0664948449
 20
12.4558500226
 30
0.0
 10
17.0674851107
 20
12.4538325474
 30
0.0
 10
17.0690635841
 20
12.4495339276
 30
0.0
 10
17.0700870746
 20
12.4426450879
 30
0.0
 10
17.069755957
 20
12.4354576905
 30
0.0
 10
17.0686861708
 20
12.4306881933
 30
0.0
 10
17.0679531759
 20
12.4283162211
 30
0.0
  0
SPLINE
  5
5CB
100
AcDbEntity
  8
0
100
AcDbSpline
 62
7
  6
CONTINUOUS
 70
0
 71
3
 72
9
 73
5
 74
0
 42
0.0000001
 43
0.0000001
 44
0.0000000001
 40
0.0
 40
0.0
 40
0.0
 40
0.0
 40
0.497332803
 40
1.0
 40
1.0
 40
1.0
 40
1.0
 10
13.043926263
 20
13.1493052219
 30
0.0
 10
13.0336295817
 20
13.1159863445
 30
0.0
 10
13.0171902739
 20
13.0475994102
 30
0.0
 10
13.0095056973
 20
12.9776970549
 30
0.0
 10
13.0077786562
 20
12.9424917179
 30
0.0
  0
SPLINE
  5
5CC
100
AcDbEntity
  8
0
100
AcDbSpline
 62
7
  6
CONTINUOUS
 70
0
 71
3
 72
19
 73
15
 74
0
 42
0.0000001
 43
0.0000001
 44
0.0000000001
 40
0.0
 40
0.0
 40
0.0
 40
0.0
 40
0.1519110962
 40
0.2955111971
 40
0.4304553106
 40
0.4947632543
 40
0.5570189574
 40
0.6756989423
 40
0.7325094738
 40
0.7878658955
 40
0.8420097705
 40
0.8952116901
 40
0.947769059
 40
1.0
 40
1.0
 40
1.0
 40
1.0
 10
14.8735123818
 20
12.7160187858
 30
0.0
 10
14.8429990036
 20
12.7118226038
 30
0.0
 10
14.7839415147
 20
12.7011505312
 30
0.0
 10
14.6998042212
 20
12.677438104
 30
0.0
 10
14.6351640003
 20
12.6513995867
 30
0.0
 10
14.5880244518
 20
12.6270484684
 30
0.0
 10
14.5454192264
 20
12.6013644614
 30
0.0
 10
14.5067667449
 20
12.5722011248
 30
0.0
 10
14.4730411578
 20
12.5396824899
 30
0.0
 10
14.4507910349
 20
12.5142875522
 30
0.0
 10
14.4312947629
 20
12.4876222289
 30
0.0
 10
14.4146145736
 20
12.459765391
 30
0.0
 10
14.4008144879
 20
12.4308057195
 30
0.0
 10
14.3935498917
 20
12.410798334
 30
0.0
 10
14.3904227667
 20
12.4006805441
 30
0.0
  0
SPLINE
  5
5CD
100
AcDbEntity
  8
0
100
AcDbSpline
 62
7
  6
CONTINUOUS
 70
0
 71
3
 72
11
 73
7
 74
0
 42
0.0000001
 43
0.0000001
 44
0.0000000001
 40
0.0
 40
0.0
 40
0.0
 40
0.0
 40
0.2704909197
 40
0.524980206
 40
0.7664891152
 40
1.0
 40
1.0
 40
1.0
 40
1.0
 10
14.3845839948
 20
12.9803493475
 30
0.0
 10
14.3857138897
 20
12.9780468637
 30
0.0
 10
14.387611305
 20
12.9734226553
 30
0.0
 10
14.3893025339
 20
12.9663204915
 30
0.0
 10
14.3896953879
 20
12.9593759943
 30
0.0
 10
14.3890709922
 20
12.9548800186
 30
0.0
 10
14.388545858
 20
12.9527290568
 30
0.0
  0
SPLINE
  5
5CE
100
AcDbEntity
  8
0
100
AcDbSpline
 62
7
  6
CONTINUOUS
 70
0
 71
3
 72
23
 73
19
 74
0
 42
0.0000001
 43
0.0000001
 44
0.0000000001
 40
0.0
 40
0.0
 40
0.0
 40
0.0
 40
0.0488068415
 40
0.1001503514
 40
0.1540139957
 40
0.2103555064
 40
0.2690681659
 40
0.3299807256
 40
0.3928796509
 40
0.457517435
 40
0.5236131306
 40
0.5908639728
 40
0.6589486459
 40
0.7275319823
 40
0.7962662225
 40
0.8648174807
 40
0.9328584528
 40
1.0
 40
1.0
 40
1.0
 40
1.0
 10
16.2669041401
 20
12.1054333172
 30
0.0
 10
16.2578997989
 20
12.1237822354
 30
0.0
 10
16.2374201883
 20
12.1604749072
 30
0.0
 10
16.2008581664
 20
12.2137030658
 30
0.0
 10
16.1579453771
 20
12.2661004927
 30
0.0
 10
16.1090201414
 20
12.3172787324
 30
0.0
 10
16.0544405275
 20
12.3668740938
 30
0.0
 10
15.9946064824
 20
12.414520406
 30
0.0
 10
15.9299639165
 20
12.459870657
 30
0.0
 10
15.8609875074
 20
12.5025846262
 30
0.0
 10
15.7881921978
 20
12.5423547339
 30
0.0
 10
15.7121129087
 20
12.5788786265
 30
0.0
 10
15.6333164897
 20
12.6118915846
 30
0.0
 10
15.5523878481
 20
12.6411438918
 30
0.0
 10
15.4699275986
 20
12.6664229442
 30
0.0
 10
15.3865381701
 20
12.6875414975
 30
0.0
 10
15.3028527419
 20
12.7043321128
 30
0.0
 10
15.246823464
 20
12.712636661
 30
0.0
 10
15.2189102545
 20
12.7160187858
 30
0.0
  0
SPLINE
  5
5CF
100
AcDbEntity
  8
0
100
AcDbSpline
 62
7
  6
CONTINUOUS
 70
0
 71
3
 72
11
 73
7
 74
0
 42
0.0000001
 43
0.0000001
 44
0.0000000001
 40
0.0
 40
0.0
 40
0.0
 40
0.0
 40
0.2710451881
 40
0.5252759824
 40
0.7663125261
 40
1.0
 40
1.0
 40
1.0
 40
1.0
 10
14.3391361109
 20
12.9823076648
 30
0.0
 10
14.3397413357
 20
12.9810743463
 30
0.0
 10
14.3407441972
 20
12.9785941738
 30
0.0
 10
14.3415796393
 20
12.9747797953
 30
0.0
 10
14.3416642691
 20
12.971061275
 30
0.0
 10
14.3412035929
 20
12.9686770246
 30
0.0
 10
14.3408538571
 20
12.9675453694
 30
0.0
  0
SPLINE
  5
5D0
100
AcDbEntity
  8
0
100
AcDbSpline
 62
7
  6
CONTINUOUS
 70
0
 71
3
 72
9
 73
5
 74
0
 42
0.0000001
 43
0.0000001
 44
0.0000000001
 40
0.0
 40
0.0
 40
0.0
 40
0.0
 40
0.4900898437
 40
1.0
 40
1.0
 40
1.0
 40
1.0
 10
14.1039711411
 20
14.1051583531
 30
0.0
 10
14.160579121
 20
14.1184710476
 30
0.0
 10
14.2771409206
 20
14.1412747553
 30
0.0
 10
14.3949626269
 20
14.1560890053
 30
0.0
 10
14.4551991746
 20
14.1617728976
 30
0.0
  0
SPLINE
  5
5D1
100
AcDbEntity
  8
0
100
AcDbSpline
 62
7
  6
CONTINUOUS
 70
0
 71
3
 72
9
 73
5
 74
0
 42
0.0000001
 43
0.0000001
 44
0.0000000001
 40
0.0
 40
0.0
 40
0.0
 40
0.0
 40
0.4938906962
 40
1.0
 40
1.0
 40
1.0
 40
1.0
 10
13.2524597073
 20
12.772580264
 30
0.0
 10
13.2541119439
 20
12.7485005283
 30
0.0
 10
13.2595489772
 20
12.6998697469
 30
0.0
 10
13.2689032473
 20
12.6518462944
 30
0.0
 10
13.2745486289
 20
12.6277657122
 30
0.0
  0
SPLINE
  5
5D2
100
AcDbEntity
  8
0
100
AcDbSpline
 62
7
  6
CONTINUOUS
 70
0
 71
3
 72
11
 73
7
 74
0
 42
0.0000001
 43
0.0000001
 44
0.0000000001
 40
0.0
 40
0.0
 40
0.0
 40
0.0
 40
0.2955695531
 40
0.5633535241
 40
0.7974251655
 40
1.0
 40
1.0
 40
1.0
 40
1.0
 10
13.2342888327
 20
12.7944723186
 30
0.0
 10
13.2368310195
 20
12.7930683528
 30
0.0
 10
13.241487547
 20
12.7900236492
 30
0.0
 10
13.2472215162
 20
12.7846084285
 30
0.0
 10
13.2510999255
 20
12.7787914403
 30
0.0
 10
13.2523234565
 20
12.7745659857
 30
0.0
 10
13.2524597073
 20
12.772580264
 30
0.0
  0
SPLINE
  5
5D3
100
AcDbEntity
  8
0
100
AcDbSpline
 62
7
  6
CONTINUOUS
 70
0
 71
3
 72
11
 73
7
 74
0
 42
0.0000001
 43
0.0000001
 44
0.0000000001
 40
0.0
 40
0.0
 40
0.0
 40
0.0
 40
0.2853553583
 40
0.5454207086
 40
0.7813899685
 40
1.0
 40
1.0
 40
1.0
 40
1.0
 10
13.4250502146
 20
13.3401510142
 30
0.0
 10
13.4261425461
 20
13.3389573348
 30
0.0
 10
13.4280741062
 20
13.3365233698
 30
0.0
 10
13.4302087132
 20
13.3326103228
 30
0.0
 10
13.4313622712
 20
13.3286890821
 30
0.0
 10
13.4314360701
 20
13.3260737313
 30
0.0
 10
13.431286506
 20
13.3248432098
 30
0.0
  0
SPLINE
  5
5D4
100
AcDbEntity
  8
0
100
AcDbSpline
 62
7
  6
CONTINUOUS
 70
0
 71
3
 72
9
 73
5
 74
0
 42
0.0000001
 43
0.0000001
 44
0.0000000001
 40
0.0
 40
0.0
 40
0.0
 40
0.0
 40
0.2452565598
 40
1.0
 40
1.0
 40
1.0
 40
1.0
 10
13.0711788072
 20
12.5476799492
 30
0.0
 10
13.0753360027
 20
12.5360788504
 30
0.0
 10
13.0929873288
 20
12.4890298674
 30
0.0
 10
13.113376363
 20
12.4430178645
 30
0.0
 10
13.130083404
 20
12.4089724947
 30
0.0
  0
SPLINE
  5
5D5
100
AcDbEntity
  8
0
100
AcDbSpline
 62
7
  6
CONTINUOUS
 70
0
 71
3
 72
11
 73
7
 74
0
 42
0.0000001
 43
0.0000001
 44
0.0000000001
 40
0.0
 40
0.0
 40
0.0
 40
0.0
 40
0.220692096
 40
0.4667520178
 40
0.7301139448
 40
1.0
 40
1.0
 40
1.0
 40
1.0
 10
17.4337200243
 20
12.8705970542
 30
0.0
 10
17.4352522835
 20
12.868545893
 30
0.0
 10
17.4390585213
 20
12.8646241611
 30
0.0
 10
17.4460075069
 20
12.8597185692
 30
0.0
 10
17.4541519113
 20
12.8557172225
 30
0.0
 10
17.4600586827
 20
12.8537981861
 30
0.0
 10
17.4630984839
 20
12.8530480183
 30
0.0
  0
SPLINE
  5
5D6
100
AcDbEntity
  8
0
100
AcDbSpline
 62
7
  6
CONTINUOUS
 70
0
 71
3
 72
9
 73
5
 74
0
 42
0.0000001
 43
0.0000001
 44
0.0000000001
 40
0.0
 40
0.0
 40
0.0
 40
0.0
 40
0.5103616431
 40
1.0
 40
1.0
 40
1.0
 40
1.0
 10
17.0774287147
 20
13.4278142056
 30
0.0
 10
17.1365425863
 20
13.3850485362
 30
0.0
 10
17.2495999107
 20
13.2973384857
 30
0.0
 10
17.3559098081
 20
13.201512557
 30
0.0
 10
17.4059280995
 20
13.152543288
 30
0.0
  0
SPLINE
  5
5D7
100
AcDbEntity
  8
0
100
AcDbSpline
 62
7
  6
CONTINUOUS
 70
0
 71
3
 72
11
 73
7
 74
0
 42
0.0000001
 43
0.0000001
 44
0.0000000001
 40
0.0
 40
0.0
 40
0.0
 40
0.0
 40
0.2474994234
 40
0.503911447
 40
0.7582962571
 40
1.0
 40
1.0
 40
1.0
 40
1.0
 10
16.7963876744
 20
13.444951019
 30
0.0
 10
16.798924053
 20
13.4433132855
 30
0.0
 10
16.8043767889
 20
13.4404133446
 30
0.0
 10
16.8131115484
 20
13.4372793536
 30
0.0
 10
16.8221340702
 20
13.435432907
 30
0.0
 10
16.8282085575
 20
13.4351102593
 30
0.0
 10
16.8311549547
 20
13.4352208036
 30
0.0
  0
SPLINE
  5
5D8
100
AcDbEntity
  8
0
100
AcDbSpline
 62
7
  6
CONTINUOUS
 70
0
 71
3
 72
11
 73
7
 74
0
 42
0.0000001
 43
0.0000001
 44
0.0000000001
 40
0.0
 40
0.0
 40
0.0
 40
0.0
 40
0.2177364141
 40
0.4585438467
 40
0.7206398057
 40
1.0
 40
1.0
 40
1.0
 40
1.0
 10
16.5858571262
 20
13.5765643163
 30
0.0
 10
16.5865861433
 20
13.5750787356
 30
0.0
 10
16.5884793458
 20
13.5721213018
 30
0.0
 10
16.5921965833
 20
13.5680713594
 30
0.0
 10
16.5968183649
 20
13.5643038001
 30
0.0
 10
16.6003136026
 20
13.5621113215
 30
0.0
 10
16.6021712714
 20
13.5610832728
 30
0.0
  0
SPLINE
  5
5D9
100
AcDbEntity
  8
0
100
AcDbSpline
 62
7
  6
CONTINUOUS
 70
0
 71
3
 72
11
 73
7
 74
0
 42
0.0000001
 43
0.0000001
 44
0.0000000001
 40
0.0
 40
0.0
 40
0.0
 40
0.0
 40
0.2952838071
 40
0.5616939121
 40
0.795203538
 40
1.0
 40
1.0
 40
1.0
 40
1.0
 10
14.9333043946
 20
14.0288697821
 30
0.0
 10
14.9359402317
 20
14.0287768237
 30
0.0
 10
14.9409791299
 20
14.0289672495
 30
0.0
 10
14.9479632091
 20
14.0304952816
 30
0.0
 10
14.9537124455
 20
14.0332159112
 30
0.0
 10
14.9566522172
 20
14.0359404035
 30
0.0
 10
14.9577190499
 20
14.0374263364
 30
0.0
  0
SPLINE
  5
5DA
100
AcDbEntity
  8
0
100
AcDbSpline
 62
7
  6
CONTINUOUS
 70
0
 71
3
 72
11
 73
7
 74
0
 42
0.0000001
 43
0.0000001
 44
0.0000000001
 40
0.0
 40
0.0
 40
0.0
 40
0.0
 40
0.2474119189
 40
0.5037940098
 40
0.7582097579
 40
1.0
 40
1.0
 40
1.0
 40
1.0
 10
14.6784484844
 20
14.0386284566
 30
0.0
 10
14.6809825531
 20
14.0369888868
 30
0.0
 10
14.6864318224
 20
14.0340848733
 30
0.0
 10
14.6951634635
 20
14.0309441959
 30
0.0
 10
14.7041859074
 20
14.0290902094
 30
0.0
 10
14.7102617424
 20
14.0287620986
 30
0.0
 10
14.713209423
 20
14.0288697821
 30
0.0
  0
SPLINE
  5
5DB
100
AcDbEntity
  8
0
100
AcDbSpline
 62
7
  6
CONTINUOUS
 70
0
 71
3
 72
11
 73
7
 74
0
 42
0.0000001
 43
0.0000001
 44
0.0000000001
 40
0.0
 40
0.0
 40
0.0
 40
0.0
 40
0.2756872163
 40
0.5405617467
 40
0.7842761584
 40
1.0
 40
1.0
 40
1.0
 40
1.0
 10
13.8766024737
 20
13.858349563
 30
0.0
 10
13.8795762275
 20
13.8574149126
 30
0.0
 10
13.8855462463
 20
13.8559957397
 30
0.0
 10
13.8944156695
 20
13.8552183852
 30
0.0
 10
13.9026188277
 20
13.8558697346
 30
0.0
 10
13.9076658657
 20
13.8573279184
 30
0.0
 10
13.9098879892
 20
13.8583337695
 30
0.0
  0
SPLINE
  5
5DC
100
AcDbEntity
  8
0
100
AcDbSpline
 62
7
  6
CONTINUOUS
 70
0
 71
3
 72
14
 73
10
 74
0
 42
0.0000001
 43
0.0000001
 44
0.0000000001
 40
0.0
 40
0.0
 40
0.0
 40
0.0
 40
0.1172222351
 40
0.2352623542
 40
0.354907077
 40
0.4768851426
 40
0.6018644037
 40
0.730439893
 40
1.0
 40
1.0
 40
1.0
 40
1.0
 10
13.456986652
 20
12.9787533544
 30
0.0
 10
13.4501836278
 20
12.9567374956
 30
0.0
 10
13.4387839435
 20
12.9118195646
 30
0.0
 10
13.4285702095
 20
12.8426915085
 30
0.0
 10
13.4252384929
 20
12.7719539878
 30
0.0
 10
13.4287874966
 20
12.6998711815
 30
0.0
 10
13.4392093353
 20
12.6266847432
 30
0.0
 10
13.4625455559
 20
12.5264369674
 30
0.0
 10
13.4898262315
 20
12.4526371949
 30
0.0
 10
13.5116011097
 20
12.4043291081
 30
0.0
  0
SPLINE
  5
5DD
100
AcDbEntity
  8
0
100
AcDbSpline
 62
7
  6
CONTINUOUS
 70
0
 71
3
 72
27
 73
23
 74
0
 42
0.0000001
 43
0.0000001
 44
0.0000000001
 40
0.0
 40
0.0
 40
0.0
 40
0.0
 40
0.0239688641
 40
0.0480085644
 40
0.0721889341
 40
0.0965774202
 40
0.12123881
 40
0.1462346016
 40
0.1974291937
 40
0.250580985
 40
0.3060005398
 40
0.3346427767
 40
0.3639297698
 40
0.4244814668
 40
0.4877413784
 40
0.5537101385
 40
0.6223317917
 40
0.6934971906
 40
0.7670534808
 40
0.8428098765
 40
0.9205420709
 40
1.0
 40
1.0
 40
1.0
 40
1.0
 10
13.5047575943
 20
12.9639910167
 30
0.0
 10
13.5090682507
 20
12.9779411557
 30
0.0
 10
13.5186331901
 20
13.0056047409
 30
0.0
 10
13.5357385394
 20
13.0461494629
 30
0.0
 10
13.5555838035
 20
13.0857135926
 30
0.0
 10
13.5781346205
 20
13.1242380243
 30
0.0
 10
13.6033604724
 20
13.1616675671
 30
0.0
 10
13.6408043645
 20
13.2104146643
 30
0.0
 10
13.6944064808
 20
13.2684312304
 30
0.0
 10
13.7681882192
 20
13.3321739405
 30
0.0
 10
13.8368628625
 20
13.3800808722
 30
0.0
 10
13.8961505133
 20
13.4155102713
 30
0.0
 10
13.959741676
 20
13.4496939105
 30
0.0
 10
14.044719311
 20
13.4884073631
 30
0.0
 10
14.1534952875
 20
13.5278742855
 30
0.0
 10
14.2695754678
 20
13.5606630514
 30
0.0
 10
14.3922935291
 20
13.5865838745
 30
0.0
 10
14.5209497577
 20
13.6054978875
 30
0.0
 10
14.654808129
 20
13.6173013142
 30
0.0
 10
14.7931037796
 20
13.6219230036
 30
0.0
 10
14.9350402995
 20
13.6193470778
 30
0.0
 10
15.0306210889
 20
13.6128962829
 30
0.0
 10
15.0788246697
 20
13.6085082655
 30
0.0
  0
SPLINE
  5
5DE
100
AcDbEntity
  8
0
100
AcDbSpline
 62
7
  6
CONTINUOUS
 70
0
 71
3
 72
15
 73
11
 74
0
 42
0.0000001
 43
0.0000001
 44
0.0000000001
 40
0.0
 40
0.0
 40
0.0
 40
0.0
 40
0.1252237485
 40
0.2528499396
 40
0.3816511753
 40
0.5103656876
 40
0.6377344088
 40
0.7625375664
 40
0.8836338045
 40
1.0
 40
1.0
 40
1.0
 40
1.0
 10
15.0788246697
 20
13.6085082655
 30
0.0
 10
15.1572834026
 20
13.601366093
 30
0.0
 10
15.3152110667
 20
13.580906377
 30
0.0
 10
15.550701517
 20
13.5330765767
 30
0.0
 10
15.7844233367
 20
13.4684062075
 30
0.0
 10
16.0129754117
 20
13.3878329577
 30
0.0
 10
16.233052967
 20
13.2925235435
 30
0.0
 10
16.4414772086
 20
13.1838516974
 30
0.0
 10
16.6352186683
 20
13.063400871
 30
0.0
 10
16.755460796
 20
12.9743758423
 30
0.0
 10
16.812263374
 20
12.9281887679
 30
0.0
  0
SPLINE
  5
5DF
100
AcDbEntity
  8
0
100
AcDbSpline
 62
7
  6
CONTINUOUS
 70
0
 71
3
 72
11
 73
7
 74
0
 42
0.0000001
 43
0.0000001
 44
0.0000000001
 40
0.0
 40
0.0
 40
0.0
 40
0.0
 40
0.2630245176
 40
0.5176476344
 40
0.7634057558
 40
1.0
 40
1.0
 40
1.0
 40
1.0
 10
16.812263374
 20
12.9281887679
 30
0.0
 10
16.8448264959
 20
12.9017111786
 30
0.0
 10
16.9075680711
 20
12.8479167505
 30
0.0
 10
16.9954782991
 20
12.763498773
 30
0.0
 10
17.0752914024
 20
12.6770382206
 30
0.0
 10
17.1237617324
 20
12.6171619798
 30
0.0
 10
17.1464505037
 20
12.5869886607
 30
0.0
  0
SPLINE
  5
5E0
100
AcDbEntity
  8
0
100
AcDbSpline
 62
7
  6
CONTINUOUS
 70
0
 71
3
 72
9
 73
5
 74
0
 42
0.0000001
 43
0.0000001
 44
0.0000000001
 40
0.0
 40
0.0
 40
0.0
 40
0.0
 40
0.5127414393
 40
1.0
 40
1.0
 40
1.0
 40
1.0
 10
17.1464505037
 20
12.5869886607
 30
0.0
 10
17.17273195
 20
12.5520375186
 30
0.0
 10
17.2211880417
 20
12.4817047202
 30
0.0
 10
17.2628683786
 20
12.4071127123
 30
0.0
 10
17.2811757807
 20
12.3698061492
 30
0.0
  0
SPLINE
  5
5E1
100
AcDbEntity
  8
0
100
AcDbSpline
 62
7
  6
CONTINUOUS
 70
0
 71
3
 72
11
 73
7
 74
0
 42
0.0000001
 43
0.0000001
 44
0.0000000001
 40
0.0
 40
0.0
 40
0.0
 40
0.0
 40
0.233658935
 40
0.4744440454
 40
0.7285748979
 40
1.0
 40
1.0
 40
1.0
 40
1.0
 10
13.7968514395
 20
12.8529154035
 30
0.0
 10
13.7954516841
 20
12.8483894515
 30
0.0
 10
13.7936151031
 20
12.838857159
 30
0.0
 10
13.7939363582
 20
12.8239906738
 30
0.0
 10
13.7972775967
 20
12.8087302743
 30
0.0
 10
13.8012976447
 20
12.798806733
 30
0.0
 10
13.8037220292
 20
12.793866357
 30
0.0
  0
SPLINE
  5
5E2
100
AcDbEntity
  8
0
100
AcDbSpline
 62
7
  6
CONTINUOUS
 70
0
 71
3
 72
11
 73
7
 74
0
 42
0.0000001
 43
0.0000001
 44
0.0000000001
 40
0.0
 40
0.0
 40
0.0
 40
0.0
 40
0.2640329586
 40
0.5170354117
 40
0.7609789182
 40
1.0
 40
1.0
 40
1.0
 40
1.0
 10
14.9337433685
 20
13.2669590969
 30
0.0
 10
14.9344177247
 20
13.2691413143
 30
0.0
 10
14.9354020785
 20
13.2735291743
 30
0.0
 10
14.9357068904
 20
13.2801415897
 30
0.0
 10
14.9347650505
 20
13.2864793388
 30
0.0
 10
14.9333129829
 20
13.2904341673
 30
0.0
 10
14.9324020612
 20
13.2922903686
 30
0.0
  0
SPLINE
  5
5E3
100
AcDbEntity
  8
0
100
AcDbSpline
 62
7
  6
CONTINUOUS
 70
0
 71
3
 72
9
 73
5
 74
0
 42
0.0000001
 43
0.0000001
 44
0.0000000001
 40
0.0
 40
0.0
 40
0.0
 40
0.0
 40
0.2555285339
 40
1.0
 40
1.0
 40
1.0
 40
1.0
 10
17.7247881046
 20
12.7673911465
 30
0.0
 10
17.7329368196
 20
12.7546303201
 30
0.0
 10
17.7641693256
 20
12.7042766036
 30
0.0
 10
17.7927084321
 20
12.6522379872
 30
0.0
 10
17.812141533
 20
12.6126374912
 30
0.0
  0
LINE
  5
5E4
100
AcDbEntity
  8
0
100
AcDbLine
 62
7
  6
CONTINUOUS
 10
17.7033298088
 20
12.7937632777
 11
17.724788104
 21
12.7673911447
  0
LINE
  5
5E5
100
AcDbEntity
  8
0
100
AcDbLine
 62
7
  6
CONTINUOUS
 10
17.3308875382
 20
12.9097119447
 11
17.3478826218
 21
12.9424917197
  0
LINE
  5
5E6
100
AcDbEntity
  8
0
100
AcDbLine
 62
7
  6
CONTINUOUS
 10
13.6065741744
 20
13.9217342175
 11
13.6397489768
 21
13.932792591
  0
SPLINE
  5
5E7
100
AcDbEntity
  8
0
100
AcDbSpline
 62
7
  6
CONTINUOUS
 70
0
 71
3
 72
9
 73
5
 74
0
 42
0.0000001
 43
0.0000001
 44
0.0000000001
 40
0.0
 40
0.0
 40
0.0
 40
0.0
 40
0.486070413
 40
1.0
 40
1.0
 40
1.0
 40
1.0
 10
13.34271845
 20
13.7287595676
 30
0.0
 10
13.3807893679
 20
13.7657473347
 30
0.0
 10
13.4649275055
 20
13.8360030853
 30
0.0
 10
13.5575015184
 20
13.8945020874
 30
0.0
 10
13.6065741749
 20
13.9217342194
 30
0.0
  0
LINE
  5
5E8
100
AcDbEntity
  8
0
100
AcDbLine
 62
7
  6
CONTINUOUS
 10
13.2797812064
 20
13.5250945727
 11
13.2892774849
 21
13.4885209045
  0
LINE
  5
5E9
100
AcDbEntity
  8
0
100
AcDbLine
 62
7
  6
CONTINUOUS
 10
13.0077786568
 20
12.9424917197
 11
13.0256223249
 21
12.9097119447
  0
LINE
  5
5EA
100
AcDbEntity
  8
0
100
AcDbLine
 62
7
  6
CONTINUOUS
 10
13.9795710409
 20
13.8866357603
 11
13.9776404702
 21
13.8496333744
  0
SPLINE
  5
5EB
100
AcDbEntity
  8
0
100
AcDbSpline
 62
7
  6
CONTINUOUS
 70
0
 71
3
 72
9
 73
5
 74
0
 42
0.0000001
 43
0.0000001
 44
0.0000000001
 40
0.0
 40
0.0
 40
0.0
 40
0.0
 40
0.4903309195
 40
1.0
 40
1.0
 40
1.0
 40
1.0
 10
14.1038085492
 20
14.1050272191
 30
0.0
 10
14.1606198647
 20
14.1178628413
 30
0.0
 10
14.2774780385
 20
14.1397687385
 30
0.0
 10
14.395515422
 20
14.1538387344
 30
0.0
 10
14.4558203237
 20
14.159172611
 30
0.0
  0
SPLINE
  5
5EC
100
AcDbEntity
  8
0
100
AcDbSpline
 62
7
  6
CONTINUOUS
 70
0
 71
3
 72
14
 73
10
 74
0
 42
0.0000001
 43
0.0000001
 44
0.0000000001
 40
0.0
 40
0.0
 40
0.0
 40
0.0
 40
0.0997018606
 40
0.2029879576
 40
0.3127731639
 40
0.4310982239
 40
0.6966469568
 40
0.8443050627
 40
1.0
 40
1.0
 40
1.0
 40
1.0
 10
14.3696055258
 20
13.4229728141
 30
0.0
 10
14.3699857912
 20
13.4242032552
 30
0.0
 10
14.3710631721
 20
13.4266250862
 30
0.0
 10
14.3735251599
 20
13.4298667803
 30
0.0
 10
14.3767719554
 20
13.4326974675
 30
0.0
 10
14.3822714554
 20
13.4359779417
 30
0.0
 10
14.3889135314
 20
13.4380652369
 30
0.0
 10
14.3961899829
 20
13.4391154223
 30
0.0
 10
14.4001130975
 20
13.4392910171
 30
0.0
 10
14.4021242285
 20
13.4392910171
 30
0.0
  0
SPLINE
  5
5ED
100
AcDbEntity
  8
0
100
AcDbSpline
 62
7
  6
CONTINUOUS
 70
0
 71
3
 72
15
 73
11
 74
0
 42
0.0000001
 43
0.0000001
 44
0.0000000001
 40
0.0
 40
0.0
 40
0.0
 40
0.0
 40
0.1557870904
 40
0.3032534627
 40
0.4411339025
 40
0.5690827695
 40
0.6873883028
 40
0.7971124527
 40
0.9003276496
 40
1.0
 40
1.0
 40
1.0
 40
1.0
 10
13.9269258546
 20
12.9181883507
 30
0.0
 10
13.9188717901
 20
12.9181883507
 30
0.0
 10
13.9031819321
 20
12.9174933487
 30
0.0
 10
13.880569801
 20
12.9142260411
 30
0.0
 10
13.859850521
 20
12.908794482
 30
0.0
 10
13.8413952128
 20
12.9012867511
 30
0.0
 10
13.8255183277
 20
12.891817788
 30
0.0
 10
13.8125218164
 20
12.8805026381
 30
0.0
 10
13.802684382
 20
12.8675252606
 30
0.0
 10
13.7983739653
 20
12.8578383197
 30
0.0
 10
13.7968514395
 20
12.8529154035
 30
0.0
  0
SPLINE
  5
5EE
100
AcDbEntity
  8
0
100
AcDbSpline
 62
7
  6
CONTINUOUS
 70
0
 71
3
 72
19
 73
15
 74
0
 42
0.0000001
 43
0.0000001
 44
0.0000000001
 40
0.0
 40
0.0
 40
0.0
 40
0.0
 40
0.0639454674
 40
0.1296735449
 40
0.2645204566
 40
0.4011680997
 40
0.5361392532
 40
0.6660348961
 40
0.7281641039
 40
0.7879561589
 40
0.8451715742
 40
0.8996501018
 40
0.9512810798
 40
1.0
 40
1.0
 40
1.0
 40
1.0
 10
16.0456245633
 20
13.2528080266
 30
0.0
 10
16.0532685425
 20
13.2528080266
 30
0.0
 10
16.0687738414
 20
13.2522844909
 30
0.0
 10
16.100265129
 20
13.2492615069
 30
0.0
 10
16.139982187
 20
13.2418091784
 30
0.0
 10
16.1865302282
 20
13.2275386546
 30
0.0
 10
16.2306557683
 20
13.2084001937
 30
0.0
 10
16.2645404091
 20
13.188689891
 30
0.0
 10
16.2889475102
 20
13.1710362367
 30
0.0
 10
16.3053867521
 20
13.1572831208
 30
0.0
 10
16.3200738963
 20
13.1429516701
 30
0.0
 10
16.3328707892
 20
13.1281720379
 30
0.0
 10
16.3436443089
 20
13.1130890442
 30
0.0
 10
16.3495846404
 20
13.1026337553
 30
0.0
 10
16.3521502785
 20
13.0974055345
 30
0.0
  0
SPLINE
  5
5EF
100
AcDbEntity
  8
0
100
AcDbSpline
 62
7
  6
CONTINUOUS
 70
0
 71
3
 72
15
 73
11
 74
0
 42
0.0000001
 43
0.0000001
 44
0.0000000001
 40
0.0
 40
0.0
 40
0.0
 40
0.0
 40
0.100189984
 40
0.211905691
 40
0.3337857792
 40
0.4637276801
 40
0.5987315565
 40
0.7354179983
 40
0.8704280347
 40
1.0
 40
1.0
 40
1.0
 40
1.0
 10
15.5882631929
 20
13.283888525
 30
0.0
 10
15.5893180296
 20
13.2817389938
 30
0.0
 10
15.5921146511
 20
13.2774638754
 30
0.0
 10
15.5976462701
 20
13.2716717024
 30
0.0
 10
15.6045504781
 20
13.2663492946
 30
0.0
 10
15.6125626881
 20
13.2616921502
 30
0.0
 10
15.6213861635
 20
13.2578614617
 30
0.0
 10
15.6306986495
 20
13.255006424
 30
0.0
 10
15.6401437154
 20
13.253238665
 30
0.0
 10
15.6464717441
 20
13.2528080266
 30
0.0
 10
15.6495683359
 20
13.2528080266
 30
0.0
  0
SPLINE
  5
5F0
100
AcDbEntity
  8
0
100
AcDbSpline
 62
7
  6
CONTINUOUS
 70
0
 71
3
 72
15
 73
11
 74
0
 42
0.0000001
 43
0.0000001
 44
0.0000000001
 40
0.0
 40
0.0
 40
0.0
 40
0.0
 40
0.1295720522
 40
0.2645822641
 40
0.4012687856
 40
0.5362726512
 40
0.6662145378
 40
0.7880945326
 40
0.899810092
 40
1.0
 40
1.0
 40
1.0
 40
1.0
 10
15.4659496765
 20
13.4392910171
 30
0.0
 10
15.4690462704
 20
13.4392910171
 30
0.0
 10
15.4753743052
 20
13.4388603757
 30
0.0
 10
15.4848193794
 20
13.4370926166
 30
0.0
 10
15.4941318702
 20
13.4342375738
 30
0.0
 10
15.5029553457
 20
13.4304068826
 30
0.0
 10
15.5109675522
 20
13.4257497375
 30
0.0
 10
15.5178717527
 20
13.4204273304
 30
0.0
 10
15.5234033678
 20
13.4146351639
 30
0.0
 10
15.5261999836
 20
13.4103600483
 30
0.0
 10
15.5272548196
 20
13.4082105187
 30
0.0
  0
SPLINE
  5
5F1
100
AcDbEntity
  8
0
100
AcDbSpline
 62
7
  6
CONTINUOUS
 70
0
 71
3
 72
15
 73
11
 74
0
 42
0.0000001
 43
0.0000001
 44
0.0000000001
 40
0.0
 40
0.0
 40
0.0
 40
0.0
 40
0.0996723504
 40
0.2028875473
 40
0.3126116972
 40
0.4309172305
 40
0.5588660975
 40
0.6967465373
 40
0.8442129096
 40
1.0
 40
1.0
 40
1.0
 40
1.0
 10
13.8428814427
 20
13.1712168426
 30
0.0
 10
13.8447846
 20
13.1773704878
 30
0.0
 10
13.8501726208
 20
13.189479164
 30
0.0
 10
13.8624694138
 20
13.2057008858
 30
0.0
 10
13.878715053
 20
13.2198448232
 30
0.0
 10
13.8985611594
 20
13.231681027
 30
0.0
 10
13.9216302946
 20
13.2410656907
 30
0.0
 10
13.9475293946
 20
13.2478551396
 30
0.0
 10
13.9757945584
 20
13.2519392741
 30
0.0
 10
13.995406881
 20
13.2528080266
 30
0.0
 10
14.0054744616
 20
13.2528080266
 30
0.0
  0
SPLINE
  5
5F2
100
AcDbEntity
  8
0
100
AcDbSpline
 62
7
  6
CONTINUOUS
 70
0
 71
3
 72
15
 73
11
 74
0
 42
0.0000001
 43
0.0000001
 44
0.0000000001
 40
0.0
 40
0.0
 40
0.0
 40
0.0
 40
0.1296314875
 40
0.2645691707
 40
0.4012513998
 40
0.5362781566
 40
0.6662256102
 40
0.7881021015
 40
0.8997685822
 40
1.0
 40
1.0
 40
1.0
 40
1.0
 10
15.5710197289
 20
12.9181883507
 30
0.0
 10
15.564823662
 20
12.9181883507
 30
0.0
 10
15.552167796
 20
12.9190458611
 30
0.0
 10
15.5332791072
 20
12.92258674
 30
0.0
 10
15.514657203
 20
12.9282967317
 30
0.0
 10
15.4970057797
 20
12.9359516651
 30
0.0
 10
15.4809837128
 20
12.9452732604
 30
0.0
 10
15.4671776263
 20
12.9559163704
 30
0.0
 10
15.4561091994
 20
12.9674957797
 30
0.0
 10
15.4505200018
 20
12.9760484806
 30
0.0
 10
15.4484094429
 20
12.9803493475
 30
0.0
  0
SPLINE
  5
5F3
100
AcDbEntity
  8
0
100
AcDbSpline
 62
7
  6
CONTINUOUS
 70
0
 71
3
 72
17
 73
13
 74
0
 42
0.0000001
 43
0.0000001
 44
0.0000000001
 40
0.0
 40
0.0
 40
0.0
 40
0.0
 40
0.0487257051
 40
0.1003638736
 40
0.1548499883
 40
0.2120733719
 40
0.3339353823
 40
0.4638491154
 40
0.5988390659
 40
0.7355057396
 40
0.8703714311
 40
1.0
 40
1.0
 40
1.0
 40
1.0
 10
16.2122965285
 20
12.793866357
 30
0.0
 10
16.210244018
 20
12.7980489337
 30
0.0
 10
16.2054917493
 20
12.8064131878
 30
0.0
 10
16.1968729505
 20
12.8184794721
 30
0.0
 10
16.1866353684
 20
12.8303036178
 30
0.0
 10
16.1706343352
 20
12.8459150967
 30
0.0
 10
16.1471464842
 20
12.8640202254
 30
0.0
 10
16.1151043033
 20
12.8826604471
 30
0.0
 10
16.0798004034
 20
12.8979730061
 30
0.0
 10
16.0425588862
 20
12.9093903553
 30
0.0
 10
16.0047816539
 20
12.9164761921
 30
0.0
 10
15.9794707689
 20
12.9181883507
 30
0.0
 10
15.9670759563
 20
12.9181883507
 30
0.0
  0
SPLINE
  5
5F4
100
AcDbEntity
  8
0
100
AcDbSpline
 62
7
  6
CONTINUOUS
 70
0
 71
3
 72
21
 73
17
 74
0
 42
0.0000001
 43
0.0000001
 44
0.0000000001
 40
0.0
 40
0.0
 40
0.0
 40
0.0
 40
0.0507156229
 40
0.1025765947
 40
0.1565321639
 40
0.213234134
 40
0.3354639776
 40
0.4010163643
 40
0.4687842252
 40
0.5380836691
 40
0.6081223169
 40
0.6780596467
 40
0.7470544109
 40
0.8143207756
 40
0.8792626755
 40
1.0
 40
1.0
 40
1.0
 40
1.0
 10
14.9324020612
 20
13.2922903686
 30
0.0
 10
14.9314316234
 20
13.2942678469
 30
0.0
 10
14.9290113607
 20
13.2980588979
 30
0.0
 10
14.9241764014
 20
13.3029062523
 30
0.0
 10
14.9182433844
 20
13.3068151282
 30
0.0
 10
14.9088791481
 20
13.3107595223
 30
0.0
 10
14.8981801052
 20
13.3123226086
 30
0.0
 10
14.8870808781
 20
13.3117301511
 30
0.0
 10
14.8783950818
 20
13.3101644816
 30
0.0
 10
14.8697779824
 20
13.3075158584
 30
0.0
 10
14.8614332128
 20
13.3038620584
 30
0.0
 10
14.8535740544
 20
13.2992816196
 30
0.0
 10
14.8463893601
 20
13.2939019821
 30
0.0
 10
14.8400590846
 20
13.2878388782
 30
0.0
 10
14.8331462615
 20
13.2792830145
 30
0.0
 10
14.8293696495
 20
13.2719693825
 30
0.0
 10
14.8278213542
 20
13.2669590969
 30
0.0
  0
SPLINE
  5
5F5
100
AcDbEntity
  8
0
100
AcDbSpline
 62
7
  6
CONTINUOUS
 70
0
 71
3
 72
45
 73
41
 74
0
 42
0.0000001
 43
0.0000001
 44
0.0000000001
 40
0.0
 40
0.0
 40
0.0
 40
0.0
 40
0.0265259203
 40
0.0543685408
 40
0.0835252109
 40
0.1139798329
 40
0.1456808579
 40
0.1785482745
 40
0.2124809006
 40
0.2473597403
 40
0.2830495461
 40
0.3194026611
 40
0.3562621945
 40
0.393463502
 40
0.430837692
 40
0.4682132578
 40
0.5054188253
 40
0.5422851147
 40
0.5786476301
 40
0.6143491795
 40
0.6492418352
 40
0.6831908009
 40
0.7160758397
 40
0.747795786
 40
0.778271583
 40
0.8074495625
 40
0.8353076459
 40
0.8487474195
 40
0.8618654293
 40
0.8746694352
 40
0.8871700314
 40
0.8993813038
 40
0.9113199748
 40
0.934450496
 40
0.9457027255
 40
0.956779934
 40
0.9677136887
 40
0.978537789
 40
0.9892876248
 40
1.0
 40
1.0
 40
1.0
 40
1.0
 10
17.3272288304
 20
12.3698061492
 30
0.0
 10
17.3094654425
 20
12.4060041278
 30
0.0
 10
17.269284605
 20
12.4783902945
 30
0.0
 10
17.1979269438
 20
12.583578691
 30
0.0
 10
17.1145149175
 20
12.6872662266
 30
0.0
 10
17.0196431308
 20
12.7887436331
 30
0.0
 10
16.9139542212
 20
12.8873524539
 30
0.0
 10
16.7981554664
 20
12.9824187075
 30
0.0
 10
16.6730395051
 20
13.0733091817
 30
0.0
 10
16.5394525623
 20
13.1594072399
 30
0.0
 10
16.3983001883
 20
13.2401270377
 30
0.0
 10
16.2505450078
 20
13.314926814
 30
0.0
 10
16.0971878076
 20
13.3832901057
 30
0.0
 10
15.9392746083
 20
13.4447585802
 30
0.0
 10
15.7778789521
 20
13.4989120056
 30
0.0
 10
15.6140979919
 20
13.5453783618
 30
0.0
 10
15.4490484239
 20
13.5838489609
 30
0.0
 10
15.2838513549
 20
13.6140534582
 30
0.0
 10
15.1196318696
 20
13.6357921489
 30
0.0
 10
14.9575062497
 20
13.6489166918
 30
0.0
 10
14.798575305
 20
13.653332039
 30
0.0
 10
14.6439179636
 20
13.6490163665
 30
0.0
 10
14.4945817259
 20
13.6359882124
 30
0.0
 10
14.3515775364
 20
13.6143377209
 30
0.0
 10
14.215868082
 20
13.5842068696
 30
0.0
 10
14.0883787916
 20
13.5457849537
 30
0.0
 10
13.9885149752
 20
13.5066076387
 30
0.0
 10
13.9137151361
 20
13.4712347554
 30
0.0
 10
13.8608631545
 20
13.4431366136
 30
0.0
 10
13.8106842215
 20
13.4132001233
 30
0.0
 10
13.7632669773
 20
13.3814720117
 30
0.0
 10
13.7186867286
 20
13.3480069257
 30
0.0
 10
13.6637275259
 20
13.3016533321
 30
0.0
 10
13.6139664409
 20
13.2515315709
 30
0.0
 10
13.5702505077
 20
13.1979619861
 30
0.0
 10
13.540934847
 20
13.1567155515
 30
0.0
 10
13.5148532835
 20
13.1141139699
 30
0.0
 10
13.4920451852
 20
13.0702310582
 30
0.0
 10
13.4725564834
 20
13.0251448319
 30
0.0
 10
13.4617941196
 20
12.9943112189
 30
0.0
 10
13.456986652
 20
12.9787533544
 30
0.0
  0
SPLINE
  5
5F6
100
AcDbEntity
  8
0
100
AcDbSpline
 62
7
  6
CONTINUOUS
 70
0
 71
3
 72
15
 73
11
 74
0
 42
0.0000001
 43
0.0000001
 44
0.0000000001
 40
0.0
 40
0.0
 40
0.0
 40
0.0
 40
0.1349569568
 40
0.2661679737
 40
0.3940021708
 40
0.5189082655
 40
0.6413903322
 40
0.7619982998
 40
0.8813242425
 40
1.0
 40
1.0
 40
1.0
 40
1.0
 10
13.5305326811
 20
12.4704393429
 30
0.0
 10
13.5226557216
 20
12.4916616657
 30
0.0
 10
13.5085120427
 20
12.5340527615
 30
0.0
 10
13.4921481016
 20
12.5981424474
 30
0.0
 10
13.4809838111
 20
12.6616360853
 30
0.0
 10
13.4750546074
 20
12.7243643043
 30
0.0
 10
13.4743854003
 20
12.7861603583
 30
0.0
 10
13.4789721356
 20
12.8468558971
 30
0.0
 10
13.48881713
 20
12.9062738183
 30
0.0
 10
13.4988807069
 20
12.9449722434
 30
0.0
 10
13.5047575943
 20
12.9639910167
 30
0.0
  0
SPLINE
  5
5F7
100
AcDbEntity
  8
0
100
AcDbSpline
 62
7
  6
CONTINUOUS
 70
0
 71
3
 72
15
 73
11
 74
0
 42
0.0000001
 43
0.0000001
 44
0.0000000001
 40
0.0
 40
0.0
 40
0.0
 40
0.0
 40
0.1164339128
 40
0.2337746007
 40
0.3528854031
 40
0.4745737092
 40
0.5995739502
 40
0.7285270142
 40
0.8619051792
 40
1.0
 40
1.0
 40
1.0
 40
1.0
 10
14.3904227667
 20
12.4006805441
 30
0.0
 10
14.3869333669
 20
12.3893906169
 30
0.0
 10
14.3811536083
 20
12.3663231656
 30
0.0
 10
14.3762228753
 20
12.330785064
 30
0.0
 10
14.375021399
 20
12.2943918199
 30
0.0
 10
14.3775613925
 20
12.2572933871
 30
0.0
 10
14.3838181873
 20
12.2196300869
 30
0.0
 10
14.3937702059
 20
12.181547449
 30
0.0
 10
14.4073641943
 20
12.1432028688
 30
0.0
 10
14.418607844
 20
12.1180152342
 30
0.0
 10
14.4247821521
 20
12.1054333172
 30
0.0
  0
SPLINE
  5
5F8
100
AcDbEntity
  8
0
100
AcDbSpline
 62
7
  6
CONTINUOUS
 70
0
 71
3
 72
20
 73
16
 74
0
 42
0.0000001
 43
0.0000001
 44
0.0000000001
 40
0.0
 40
0.0
 40
0.0
 40
0.0
 40
0.0525687459
 40
0.1054500384
 40
0.1589463457
 40
0.213343437
 40
0.2689031772
 40
0.3258571402
 40
0.3844072835
 40
0.4447186886
 40
0.5710595125
 40
0.7056376703
 40
0.8486656881
 40
0.9233257717
 40
1.0
 40
1.0
 40
1.0
 40
1.0
 10
13.4630382495
 20
12.9983365458
 30
0.0
 10
13.4693159469
 20
13.0186524173
 30
0.0
 10
13.4838436343
 20
13.058835563
 30
0.0
 10
13.5113254613
 20
13.1170566949
 30
0.0
 10
13.5444266785
 20
13.1731400915
 30
0.0
 10
13.5830491862
 20
13.2269068254
 30
0.0
 10
13.6270709112
 20
13.2782009551
 30
0.0
 10
13.6763497533
 20
13.3268799503
 30
0.0
 10
13.7307472288
 20
13.3727970086
 30
0.0
 10
13.8111003433
 20
13.4310683891
 30
0.0
 10
13.9240955796
 20
13.4960506081
 30
0.0
 10
14.0748979654
 20
13.5598094266
 30
0.0
 10
14.211584416
 20
13.6009858117
 30
0.0
 10
14.3277618586
 20
13.627190974
 30
0.0
 10
14.3880496537
 20
13.6379440098
 30
0.0
 10
14.4186910056
 20
13.6427384479
 30
0.0
  0
SPLINE
  5
5F9
100
AcDbEntity
  8
0
100
AcDbSpline
 62
7
  6
CONTINUOUS
 70
0
 71
3
 72
25
 73
21
 74
0
 42
0.0000001
 43
0.0000001
 44
0.0000000001
 40
0.0
 40
0.0
 40
0.0
 40
0.0
 40
0.0295196011
 40
0.0597448552
 40
0.1221275914
 40
0.1867634133
 40
0.2531894477
 40
0.3208945877
 40
0.3893347167
 40
0.457947333
 40
0.526166053
 40
0.593434151
 40
0.6592187219
 40
0.7230253344
 40
0.7844138881
 40
0.8430184085
 40
0.8985606649
 40
0.9508902584
 40
0.9758499376
 40
1.0
 40
1.0
 40
1.0
 40
1.0
 10
14.4315333259
 20
13.6447088536
 30
0.0
 10
14.4639682041
 20
13.6495872041
 30
0.0
 10
14.5298419681
 20
13.6579976551
 30
0.0
 10
14.6650789935
 20
13.6695402825
 30
0.0
 10
14.8399338974
 20
13.6738386605
 30
0.0
 10
15.0547886699
 20
13.6632755741
 30
0.0
 10
15.2742648359
 20
13.6371714064
 30
0.0
 10
15.4956796573
 20
13.5958459124
 30
0.0
 10
15.7163372043
 20
13.5398015326
 30
0.0
 10
15.9335449568
 20
13.4697225982
 30
0.0
 10
16.144653603
 20
13.3864647609
 30
0.0
 10
16.3470891636
 20
13.2910434839
 30
0.0
 10
16.5383850452
 20
13.1846205803
 30
0.0
 10
16.716212908
 20
13.0684877885
 30
0.0
 10
16.8784132689
 20
12.944051853
 30
0.0
 10
17.0230190214
 20
12.8128022048
 30
0.0
 10
17.1482772463
 20
12.6763223373
 30
0.0
 10
17.2366439013
 20
12.557696258
 30
0.0
 10
17.295761432
 20
12.4616670439
 30
0.0
 10
17.3214591808
 20
12.4134786142
 30
0.0
 10
17.3332804885
 20
12.3893893219
 30
0.0
  0
SPLINE
  5
5FA
100
AcDbEntity
  8
0
100
AcDbSpline
 62
7
  6
CONTINUOUS
 70
0
 71
3
 72
9
 73
5
 74
0
 42
0.0000001
 43
0.0000001
 44
0.0000000001
 40
0.0
 40
0.0
 40
0.0
 40
0.0
 40
0.2452342357
 40
1.0
 40
1.0
 40
1.0
 40
1.0
 10
13.0803479246
 20
12.550931935
 30
0.0
 10
13.0842352732
 20
12.5393195207
 30
0.0
 10
13.10081017
 20
12.4922111287
 30
0.0
 10
13.1202107021
 20
12.4461073397
 30
0.0
 10
13.1362151399
 20
12.4119848724
 30
0.0
  0
SPLINE
  5
5FB
100
AcDbEntity
  8
0
100
AcDbSpline
 62
7
  6
CONTINUOUS
 70
0
 71
3
 72
17
 73
13
 74
0
 42
0.0000001
 43
0.0000001
 44
0.0000000001
 40
0.0
 40
0.0
 40
0.0
 40
0.0
 40
0.1296285689
 40
0.2644942604
 40
0.4011609341
 40
0.5361508846
 40
0.6660646177
 40
0.7879266281
 40
0.8451500117
 40
0.8996361264
 40
0.9512742949
 40
1.0
 40
1.0
 40
1.0
 40
1.0
 10
15.9676811222
 20
12.920146668
 30
0.0
 10
15.9800759347
 20
12.920146668
 30
0.0
 10
16.0053868197
 20
12.9184345094
 30
0.0
 10
16.043164052
 20
12.9113486726
 30
0.0
 10
16.0804055692
 20
12.8999313234
 30
0.0
 10
16.1157094691
 20
12.8846187644
 30
0.0
 10
16.14775165
 20
12.8659785427
 30
0.0
 10
16.171239501
 20
12.8478734139
 30
0.0
 10
16.1872405342
 20
12.832261935
 30
0.0
 10
16.1974781163
 20
12.8204377894
 30
0.0
 10
16.2060969151
 20
12.8083715051
 30
0.0
 10
16.2108491838
 20
12.8000072509
 30
0.0
 10
16.2129016943
 20
12.7958246743
 30
0.0
  0
SPLINE
  5
5FC
100
AcDbEntity
  8
0
100
AcDbSpline
 62
7
  6
CONTINUOUS
 70
0
 71
3
 72
13
 73
9
 74
0
 42
0.0000001
 43
0.0000001
 44
0.0000000001
 40
0.0
 40
0.0
 40
0.0
 40
0.0
 40
0.1184867431
 40
0.2379135787
 40
0.3587889358
 40
0.4815892569
 40
0.7345396522
 40
1.0
 40
1.0
 40
1.0
 40
1.0
 10
13.5060185019
 20
12.9637953547
 30
0.0
 10
13.5017158989
 20
12.9460535749
 30
0.0
 10
13.4945477864
 20
12.9100542756
 30
0.0
 10
13.4882154686
 20
12.8550796653
 30
0.0
 10
13.4862749058
 20
12.7991072743
 30
0.0
 10
13.4895755489
 20
12.7225932913
 30
0.0
 10
13.5050886448
 20
12.6246500316
 30
0.0
 10
13.5283933999
 20
12.5479824543
 30
0.0
 10
13.5426244815
 20
12.5096368093
 30
0.0
  0
SPLINE
  5
5FD
100
AcDbEntity
  8
0
100
AcDbSpline
 62
7
  6
CONTINUOUS
 70
0
 71
3
 72
15
 73
11
 74
0
 42
0.0000001
 43
0.0000001
 44
0.0000000001
 40
0.0
 40
0.0
 40
0.0
 40
0.0
 40
0.0996723504
 40
0.2028875473
 40
0.3126116972
 40
0.4309172305
 40
0.5588660975
 40
0.6967465373
 40
0.8442129096
 40
1.0
 40
1.0
 40
1.0
 40
1.0
 10
13.7974566053
 20
12.8548737208
 30
0.0
 10
13.7989791311
 20
12.8597966369
 30
0.0
 10
13.8032895478
 20
12.8694835779
 30
0.0
 10
13.8131269822
 20
12.8824609553
 30
0.0
 10
13.8261234935
 20
12.8937761052
 30
0.0
 10
13.8420003786
 20
12.9032450683
 30
0.0
 10
13.8604556868
 20
12.9107527993
 30
0.0
 10
13.8811749668
 20
12.9161843584
 30
0.0
 10
13.9037870979
 20
12.919451666
 30
0.0
 10
13.9194769559
 20
12.920146668
 30
0.0
 10
13.9275310204
 20
12.920146668
 30
0.0
  0
SPLINE
  5
5FE
100
AcDbEntity
  8
0
100
AcDbSpline
 62
7
  6
CONTINUOUS
 70
0
 71
3
 72
15
 73
11
 74
0
 42
0.0000001
 43
0.0000001
 44
0.0000000001
 40
0.0
 40
0.0
 40
0.0
 40
0.0
 40
0.1002313829
 40
0.2118978032
 40
0.3337742674
 40
0.4637217067
 40
0.5987484672
 40
0.7354307179
 40
0.8703684713
 40
1.0
 40
1.0
 40
1.0
 40
1.0
 10
15.4490146087
 20
12.9823076648
 30
0.0
 10
15.4511251669
 20
12.9780067994
 30
0.0
 10
15.4567143602
 20
12.9694541012
 30
0.0
 10
15.4677827834
 20
12.9578746963
 30
0.0
 10
15.4815888644
 20
12.9472315874
 30
0.0
 10
15.4976109286
 20
12.937909991
 30
0.0
 10
15.5152623515
 20
12.9302550552
 30
0.0
 10
15.5338842595
 20
12.9245450601
 30
0.0
 10
15.5527729546
 20
12.9210041803
 30
0.0
 10
15.5654288259
 20
12.920146668
 30
0.0
 10
15.5716248947
 20
12.920146668
 30
0.0
  0
SPLINE
  5
5FF
100
AcDbEntity
  8
0
100
AcDbSpline
 62
7
  6
CONTINUOUS
 70
0
 71
3
 72
11
 73
7
 74
0
 42
0.0000001
 43
0.0000001
 44
0.0000000001
 40
0.0
 40
0.0
 40
0.0
 40
0.0
 40
0.2488601389
 40
0.4975620653
 40
0.7474915686
 40
1.0
 40
1.0
 40
1.0
 40
1.0
 10
13.0904878989
 20
13.2008016765
 30
0.0
 10
13.0807565581
 20
13.1779173114
 30
0.0
 10
13.0633697438
 20
13.1312501174
 30
0.0
 10
13.0437913571
 20
13.0590633822
 30
0.0
 10
13.0308213869
 20
12.9850328775
 30
0.0
 10
13.0266299081
 20
12.9349238903
 30
0.0
 10
13.0256223226
 20
12.909711946
 30
0.0
  0
SPLINE
  5
600
100
AcDbEntity
  8
0
100
AcDbSpline
 62
7
  6
CONTINUOUS
 70
0
 71
3
 72
15
 73
11
 74
0
 42
0.0000001
 43
0.0000001
 44
0.0000000001
 40
0.0
 40
0.0
 40
0.0
 40
0.0
 40
0.0996612199
 40
0.202878573
 40
0.3126179129
 40
0.430904953
 40
0.5588436865
 40
0.69675694
 40
0.8442766669
 40
1.0
 40
1.0
 40
1.0
 40
1.0
 10
14.3880197168
 20
12.9508246901
 30
0.0
 10
14.387259099
 20
12.9483633525
 30
0.0
 10
14.385100426
 20
12.9435218316
 30
0.0
 10
14.380185502
 20
12.9370303348
 30
0.0
 10
14.3736841586
 20
12.9313761349
 30
0.0
 10
14.3657487453
 20
12.9266379338
 30
0.0
 10
14.3565198795
 20
12.9228862365
 30
0.0
 10
14.3461588666
 20
12.9201686686
 30
0.0
 10
14.3348518995
 20
12.9185373232
 30
0.0
 10
14.3270074382
 20
12.9181883507
 30
0.0
 10
14.3229820821
 20
12.9181883507
 30
0.0
  0
SPLINE
  5
601
100
AcDbEntity
  8
0
100
AcDbSpline
 62
7
  6
CONTINUOUS
 70
0
 71
3
 72
11
 73
7
 74
0
 42
0.0000001
 43
0.0000001
 44
0.0000000001
 40
0.0
 40
0.0
 40
0.0
 40
0.0
 40
0.2022918212
 40
0.4339230205
 40
0.7010377174
 40
1.0
 40
1.0
 40
1.0
 40
1.0
 10
13.3481770021
 20
13.202119677
 30
0.0
 10
13.3472380416
 20
13.200464407
 30
0.0
 10
13.3443945735
 20
13.1973656078
 30
0.0
 10
13.3384799404
 20
13.1942572262
 30
0.0
 10
13.3311218447
 20
13.1925088637
 30
0.0
 10
13.3257701341
 20
13.1922877565
 30
0.0
 10
13.3229595143
 20
13.1923894616
 30
0.0
  0
SPLINE
  5
602
100
AcDbEntity
  8
0
100
AcDbSpline
 62
7
  6
CONTINUOUS
 70
0
 71
3
 72
9
 73
5
 74
0
 42
0.0000001
 43
0.0000001
 44
0.0000000001
 40
0.0
 40
0.0
 40
0.0
 40
0.0
 40
0.5044576657
 40
1.0
 40
1.0
 40
1.0
 40
1.0
 10
13.4284145397
 20
13.3182519308
 30
0.0
 10
13.4132895131
 20
13.2999302855
 30
0.0
 10
13.384798874
 20
13.2623486005
 30
0.0
 10
13.3596920989
 20
13.2224193525
 30
0.0
 10
13.3481770021
 20
13.202119677
 30
0.0
  0
SPLINE
  5
603
100
AcDbEntity
  8
0
100
AcDbSpline
 62
7
  6
CONTINUOUS
 70
0
 71
3
 72
11
 73
7
 74
0
 42
0.0000001
 43
0.0000001
 44
0.0000000001
 40
0.0
 40
0.0
 40
0.0
 40
0.0
 40
0.2612274916
 40
0.5146483945
 40
0.7607121896
 40
1.0
 40
1.0
 40
1.0
 40
1.0
 10
13.5647084139
 20
13.6899612499
 30
0.0
 10
13.5385565112
 20
13.6756670138
 30
0.0
 10
13.4878729642
 20
13.6459314689
 30
0.0
 10
13.4159996491
 20
13.5971678146
 30
0.0
 10
13.3496595943
 20
13.5450638447
 30
0.0
 10
13.3087047948
 20
13.5077013667
 30
0.0
 10
13.2892774834
 20
13.4885209062
 30
0.0
  0
SPLINE
  5
604
100
AcDbEntity
  8
0
100
AcDbSpline
 62
7
  6
CONTINUOUS
 70
0
 71
3
 72
11
 73
7
 74
0
 42
0.0000001
 43
0.0000001
 44
0.0000000001
 40
0.0
 40
0.0
 40
0.0
 40
0.0
 40
0.2157238416
 40
0.4594382533
 40
0.7243127837
 40
1.0
 40
1.0
 40
1.0
 40
1.0
 10
13.834847429
 20
13.6155024275
 30
0.0
 10
13.8326253054
 20
13.6144965764
 30
0.0
 10
13.8275782674
 20
13.6130383926
 30
0.0
 10
13.8193751092
 20
13.6123870432
 30
0.0
 10
13.810505686
 20
13.6131643977
 30
0.0
 10
13.8045356672
 20
13.6145835706
 30
0.0
 10
13.8015619135
 20
13.6155182211
 30
0.0
  0
SPLINE
  5
605
100
AcDbEntity
  8
0
100
AcDbSpline
 62
7
  6
CONTINUOUS
 70
0
 71
3
 72
9
 73
5
 74
0
 42
0.0000001
 43
0.0000001
 44
0.0000000001
 40
0.0
 40
0.0
 40
0.0
 40
0.0
 40
0.255733922
 40
1.0
 40
1.0
 40
1.0
 40
1.0
 10
14.0015193973
 20
13.6799509661
 30
0.0
 10
13.9870374633
 20
13.6752130869
 30
0.0
 10
13.9306478146
 20
13.6559678574
 30
0.0
 10
13.8752465607
 20
13.6337892181
 30
0.0
 10
13.834847429
 20
13.6155024275
 30
0.0
  0
SPLINE
  5
606
100
AcDbEntity
  8
0
100
AcDbSpline
 62
7
  6
CONTINUOUS
 70
0
 71
3
 72
11
 73
7
 74
0
 42
0.0000001
 43
0.0000001
 44
0.0000000001
 40
0.0
 40
0.0
 40
0.0
 40
0.0
 40
0.2230783145
 40
0.4585777296
 40
0.7162979502
 40
1.0
 40
1.0
 40
1.0
 40
1.0
 10
13.2743923172
 20
12.6206670405
 30
0.0
 10
13.2740313756
 20
12.6194942327
 30
0.0
 10
13.2729102493
 20
12.6171857207
 30
0.0
 10
13.2702274565
 20
12.6142395907
 30
0.0
 10
13.2666450508
 20
12.611848237
 30
0.0
 10
13.2638776668
 20
12.6106999093
 30
0.0
 10
13.2623938014
 20
12.6102166763
 30
0.0
  0
SPLINE
  5
607
100
AcDbEntity
  8
0
100
AcDbSpline
 62
7
  6
CONTINUOUS
 70
0
 71
3
 72
15
 73
11
 74
0
 42
0.0000001
 43
0.0000001
 44
0.0000000001
 40
0.0
 40
0.0
 40
0.0
 40
0.0
 40
0.1549220273
 40
0.3019558739
 40
0.4397416779
 40
0.5678821956
 40
0.6866166542
 40
0.7968916504
 40
0.9004648975
 40
1.0
 40
1.0
 40
1.0
 40
1.0
 10
14.3235872479
 20
12.920146668
 30
0.0
 10
14.3275057336
 20
12.920146668
 30
0.0
 10
14.3351484989
 20
12.9204778375
 30
0.0
 10
14.3461819534
 20
12.9220233642
 30
0.0
 10
14.3563289778
 20
12.9245988649
 30
0.0
 10
14.3654161489
 20
12.9281562568
 30
0.0
 10
14.3732928402
 20
12.9326531958
 30
0.0
 10
14.3798299849
 20
12.9380229614
 30
0.0
 10
14.3848862507
 20
12.9441980071
 30
0.0
 10
14.3872234897
 20
12.9488305779
 30
0.0
 10
14.3880890766
 20
12.9511946659
 30
0.0
  0
SPLINE
  5
608
100
AcDbEntity
  8
0
100
AcDbSpline
 62
7
  6
CONTINUOUS
 70
0
 71
3
 72
9
 73
5
 74
0
 42
0.0000001
 43
0.0000001
 44
0.0000000001
 40
0.0
 40
0.0
 40
0.0
 40
0.0
 40
0.5123241172
 40
1.0
 40
1.0
 40
1.0
 40
1.0
 10
14.4090842809
 20
13.9215266024
 30
0.0
 10
14.3345863249
 20
13.915238371
 30
0.0
 10
14.1895694021
 20
13.8974803911
 30
0.0
 10
14.046515696
 20
13.8675442848
 30
0.0
 10
13.9776404698
 20
13.8496333761
 30
0.0
  0
SPLINE
  5
609
100
AcDbEntity
  8
0
100
AcDbSpline
 62
7
  6
CONTINUOUS
 70
0
 71
3
 72
11
 73
7
 74
0
 42
0.0000001
 43
0.0000001
 44
0.0000000001
 40
0.0
 40
0.0
 40
0.0
 40
0.0
 40
0.2417902421
 40
0.4962059902
 40
0.7525880811
 40
1.0
 40
1.0
 40
1.0
 40
1.0
 10
14.6381688627
 20
13.7860384401
 30
0.0
 10
14.6352211821
 20
13.7859307566
 30
0.0
 10
14.6291453472
 20
13.7862588674
 30
0.0
 10
14.6201229033
 20
13.7881128539
 30
0.0
 10
14.6113912621
 20
13.7912535313
 30
0.0
 10
14.6059419929
 20
13.7941575449
 30
0.0
 10
14.6034079242
 20
13.7957971146
 30
0.0
  0
SPLINE
  5
60A
100
AcDbEntity
  8
0
100
AcDbSpline
 62
7
  6
CONTINUOUS
 70
0
 71
3
 72
11
 73
7
 74
0
 42
0.0000001
 43
0.0000001
 44
0.0000000001
 40
0.0
 40
0.0
 40
0.0
 40
0.0
 40
0.2023030872
 40
0.4338985362
 40
0.7009961215
 40
1.0
 40
1.0
 40
1.0
 40
1.0
 10
14.8834470491
 20
13.7957971146
 30
0.0
 10
14.8825126076
 20
13.794140632
 30
0.0
 10
14.8796779205
 20
13.7910375264
 30
0.0
 10
14.8737723469
 20
13.7879216383
 30
0.0
 10
14.8664212558
 20
13.7861655298
 30
0.0
 10
14.8610730533
 20
13.7859393671
 30
0.0
 10
14.8582638343
 20
13.7860384401
 30
0.0
  0
SPLINE
  5
60B
100
AcDbEntity
  8
0
100
AcDbSpline
 62
7
  6
CONTINUOUS
 70
0
 71
3
 72
13
 73
9
 74
0
 42
0.0000001
 43
0.0000001
 44
0.0000000001
 40
0.0
 40
0.0
 40
0.0
 40
0.0
 40
0.2295859164
 40
0.354495708
 40
0.4838683384
 40
0.7464102444
 40
0.8756220495
 40
1.0
 40
1.0
 40
1.0
 40
1.0
 10
13.5448948739
 20
12.4283162211
 30
0.0
 10
13.5469932411
 20
12.4351065399
 30
0.0
 10
13.5525970133
 20
12.4449219211
 30
0.0
 10
13.5629032908
 20
12.4558260294
 30
0.0
 10
13.5755498553
 20
12.4657115305
 30
0.0
 10
13.5903033102
 20
12.4728535633
 30
0.0
 10
13.6058773753
 20
12.4765998138
 30
0.0
 10
13.6137400398
 20
12.477274153
 30
0.0
 10
13.6175903312
 20
12.477274153
 30
0.0
  0
SPLINE
  5
60C
100
AcDbEntity
  8
0
100
AcDbSpline
 62
7
  6
CONTINUOUS
 70
0
 71
3
 72
11
 73
7
 74
0
 42
0.0000001
 43
0.0000001
 44
0.0000000001
 40
0.0
 40
0.0
 40
0.0
 40
0.0
 40
0.2699749604
 40
0.533361213
 40
0.7793859794
 40
1.0
 40
1.0
 40
1.0
 40
1.0
 10
15.5990336413
 20
13.6799509661
 30
0.0
 10
15.5959945237
 20
13.6807035796
 30
0.0
 10
15.5900901045
 20
13.6826270018
 30
0.0
 10
15.581951048
 20
13.6866340951
 30
0.0
 10
15.5750099471
 20
13.6915439409
 30
0.0
 10
15.5712104577
 20
13.6954678772
 30
0.0
 10
15.5696821099
 20
13.6975196963
 30
0.0
  0
SPLINE
  5
60D
100
AcDbEntity
  8
0
100
AcDbSpline
 62
7
  6
CONTINUOUS
 70
0
 71
3
 72
13
 73
9
 74
0
 42
0.0000001
 43
0.0000001
 44
0.0000000001
 40
0.0
 40
0.0
 40
0.0
 40
0.0
 40
0.2774382871
 40
0.5342330244
 40
0.6554421749
 40
0.7726942433
 40
0.8871124567
 40
1.0
 40
1.0
 40
1.0
 40
1.0
 10
13.6406168561
 20
12.477274153
 30
0.0
 10
13.6451163696
 20
12.477274153
 30
0.0
 10
13.6538150437
 20
12.4764115751
 30
0.0
 10
13.6639723024
 20
12.4728609935
 30
0.0
 10
13.6708403395
 20
12.4686448653
 30
0.0
 10
13.6752266089
 20
12.4649315336
 30
0.0
 10
13.6788774058
 20
12.4606698939
 30
0.0
 10
13.6807889856
 20
12.4574935309
 30
0.0
 10
13.681595692
 20
12.4558500226
 30
0.0
  0
SPLINE
  5
60E
100
AcDbEntity
  8
0
100
AcDbSpline
 62
7
  6
CONTINUOUS
 70
0
 71
3
 72
11
 73
7
 74
0
 42
0.0000001
 43
0.0000001
 44
0.0000000001
 40
0.0
 40
0.0
 40
0.0
 40
0.0
 40
0.215650876
 40
0.4593289177
 40
0.7242250431
 40
1.0
 40
1.0
 40
1.0
 40
1.0
 10
15.8622291226
 20
13.6155182211
 30
0.0
 10
15.8600102482
 20
13.6145097413
 30
0.0
 10
15.8549682862
 20
13.6130459873
 30
0.0
 10
15.8467702281
 20
13.6123867109
 30
0.0
 10
15.8379030745
 20
13.6131561732
 30
0.0
 10
15.831933281
 20
13.6145702762
 30
0.0
 10
15.8289591079
 20
13.6155024275
 30
0.0
  0
SPLINE
  5
60F
100
AcDbEntity
  8
0
100
AcDbSpline
 62
7
  6
CONTINUOUS
 70
0
 71
3
 72
9
 73
5
 74
0
 42
0.0000001
 43
0.0000001
 44
0.0000000001
 40
0.0
 40
0.0
 40
0.0
 40
0.0
 40
0.2650342588
 40
1.0
 40
1.0
 40
1.0
 40
1.0
 10
16.5108165659
 20
13.3337329743
 30
0.0
 10
16.5105560926
 20
13.334263763
 30
0.0
 10
16.5096550126
 20
13.336303695
 30
0.0
 10
16.5091105853
 20
13.3385150037
 30
0.0
 10
16.5090020176
 20
13.3401510142
 30
0.0
  0
SPLINE
  5
610
100
AcDbEntity
  8
0
100
AcDbSpline
 62
7
  6
CONTINUOUS
 70
0
 71
3
 72
11
 73
7
 74
0
 42
0.0000001
 43
0.0000001
 44
0.0000000001
 40
0.0
 40
0.0
 40
0.0
 40
0.0
 40
0.2793601943
 40
0.5414561533
 40
0.7822635859
 40
1.0
 40
1.0
 40
1.0
 40
1.0
 10
16.5271307111
 20
13.3182519308
 30
0.0
 10
16.5252730423
 20
13.3192799795
 30
0.0
 10
16.5217778046
 20
13.3214724581
 30
0.0
 10
16.5171560231
 20
13.3252400174
 30
0.0
 10
16.5134387855
 20
13.3292899599
 30
0.0
 10
16.511545583
 20
13.3322473936
 30
0.0
 10
16.5108165659
 20
13.3337329743
 30
0.0
  0
SPLINE
  5
611
100
AcDbEntity
  8
0
100
AcDbSpline
 62
7
  6
CONTINUOUS
 70
0
 71
3
 72
11
 73
7
 74
0
 42
0.0000001
 43
0.0000001
 44
0.0000000001
 40
0.0
 40
0.0
 40
0.0
 40
0.0
 40
0.2417037429
 40
0.496088553
 40
0.7525005766
 40
1.0
 40
1.0
 40
1.0
 40
1.0
 10
16.7561143944
 20
13.1923894616
 30
0.0
 10
16.7531679972
 20
13.1922789173
 30
0.0
 10
16.7470935099
 20
13.192601565
 30
0.0
 10
16.7380709881
 20
13.1944480116
 30
0.0
 10
16.7293362287
 20
13.1975820026
 30
0.0
 10
16.7238834927
 20
13.2004819435
 30
0.0
 10
16.7213471141
 20
13.202119677
 30
0.0
  0
SPLINE
  5
612
100
AcDbEntity
  8
0
100
AcDbSpline
 62
7
  6
CONTINUOUS
 70
0
 71
3
 72
9
 73
5
 74
0
 42
0.0000001
 43
0.0000001
 44
0.0000000001
 40
0.0
 40
0.0
 40
0.0
 40
0.0
 40
0.48911088
 40
1.0
 40
1.0
 40
1.0
 40
1.0
 10
17.3308875392
 20
12.909711946
 30
0.0
 10
17.2777629554
 20
12.9617223598
 30
0.0
 10
17.1644548134
 20
13.0633352967
 30
0.0
 10
17.0436228532
 20
13.1558075753
 30
0.0
 10
16.9803297788
 20
13.2008016765
 30
0.0
  0
SPLINE
  5
613
100
AcDbEntity
  8
0
100
AcDbSpline
 62
7
  6
CONTINUOUS
 70
0
 71
3
 72
11
 73
7
 74
0
 42
0.0000001
 43
0.0000001
 44
0.0000000001
 40
0.0
 40
0.0
 40
0.0
 40
0.0
 40
0.2713665736
 40
0.525519015
 40
0.7662932463
 40
1.0
 40
1.0
 40
1.0
 40
1.0
 10
17.2341833925
 20
12.7789667797
 30
0.0
 10
17.2337289183
 20
12.7798929008
 30
0.0
 10
17.2329756077
 20
12.7817535839
 30
0.0
 10
17.2323487331
 20
12.784614589
 30
0.0
 10
17.2322879639
 20
12.7874022791
 30
0.0
 10
17.2326323589
 20
12.7891897759
 30
0.0
 10
17.2328950606
 20
12.7900385059
 30
0.0
  0
SPLINE
  5
614
100
AcDbEntity
  8
0
100
AcDbSpline
 62
7
  6
CONTINUOUS
 70
0
 71
3
 72
11
 73
7
 74
0
 42
0.0000001
 43
0.0000001
 44
0.0000000001
 40
0.0
 40
0.0
 40
0.0
 40
0.0
 40
0.2640329586
 40
0.5170354117
 40
0.7609789182
 40
1.0
 40
1.0
 40
1.0
 40
1.0
 10
14.8278213542
 20
13.2669590969
 30
0.0
 10
14.827146998
 20
13.2647768796
 30
0.0
 10
14.8261626442
 20
13.2603890196
 30
0.0
 10
14.8258578323
 20
13.2537766042
 30
0.0
 10
14.8267996722
 20
13.2474388551
 30
0.0
 10
14.8282517398
 20
13.2434840266
 30
0.0
 10
14.8291626615
 20
13.2416278253
 30
0.0
  0
SPLINE
  5
615
100
AcDbEntity
  8
0
100
AcDbSpline
 62
7
  6
CONTINUOUS
 70
0
 71
3
 72
9
 73
5
 74
0
 42
0.0000001
 43
0.0000001
 44
0.0000000001
 40
0.0
 40
0.0
 40
0.0
 40
0.0
 40
0.2650606214
 40
1.0
 40
1.0
 40
1.0
 40
1.0
 10
17.2386390652
 20
12.772580264
 30
0.0
 10
17.2381743711
 20
12.7730893269
 30
0.0
 10
17.2364794717
 20
12.7750606285
 30
0.0
 10
17.2350253307
 20
12.7772510901
 30
0.0
 10
17.2341833925
 20
12.7789667797
 30
0.0
  0
SPLINE
  5
616
100
AcDbEntity
  8
0
100
AcDbSpline
 62
7
  6
CONTINUOUS
 70
0
 71
3
 72
9
 73
5
 74
0
 42
0.0000001
 43
0.0000001
 44
0.0000000001
 40
0.0
 40
0.0
 40
0.0
 40
0.0
 40
0.2446705377
 40
1.0
 40
1.0
 40
1.0
 40
1.0
 10
17.3586794641
 20
12.6277657122
 30
0.0
 10
17.3494963925
 20
12.6400586456
 30
0.0
 10
17.3113063872
 20
12.6898083067
 30
0.0
 10
17.270575079
 20
12.7375950133
 30
0.0
 10
17.2386390652
 20
12.772580264
 30
0.0
  0
SPLINE
  5
617
100
AcDbEntity
  8
0
100
AcDbSpline
 62
7
  6
CONTINUOUS
 70
0
 71
3
 72
11
 73
7
 74
0
 42
0.0000001
 43
0.0000001
 44
0.0000000001
 40
0.0
 40
0.0
 40
0.0
 40
0.0
 40
0.2698860552
 40
0.5332479822
 40
0.779307904
 40
1.0
 40
1.0
 40
1.0
 40
1.0
 10
17.3880579236
 20
12.6102166763
 30
0.0
 10
17.3850181224
 20
12.6109668442
 30
0.0
 10
17.379111351
 20
12.6128858805
 30
0.0
 10
17.3709669466
 20
12.6168872272
 30
0.0
 10
17.364017961
 20
12.6217928191
 30
0.0
 10
17.3602117232
 20
12.625714551
 30
0.0
 10
17.3586794641
 20
12.6277657122
 30
0.0
  0
SPLINE
  5
618
100
AcDbEntity
  8
0
100
AcDbSpline
 62
7
  6
CONTINUOUS
 70
0
 71
3
 72
9
 73
5
 74
0
 42
0.0000001
 43
0.0000001
 44
0.0000000001
 40
0.0
 40
0.0
 40
0.0
 40
0.0
 40
0.2443202583
 40
1.0
 40
1.0
 40
1.0
 40
1.0
 10
17.720126106
 20
12.3893893219
 30
0.0
 10
17.713456993
 20
12.4029795453
 30
0.0
 10
17.6852838584
 20
12.458171758
 30
0.0
 10
17.6537159727
 20
12.5116144287
 30
0.0
 10
17.6282892512
 20
12.550931935
 30
0.0
  0
SPLINE
  5
619
100
AcDbEntity
  8
0
100
AcDbSpline
 62
7
  6
CONTINUOUS
 70
0
 71
3
 72
11
 73
7
 74
0
 42
0.0000001
 43
0.0000001
 44
0.0000000001
 40
0.0
 40
0.0
 40
0.0
 40
0.0
 40
0.2231577075
 40
0.4586965791
 40
0.7163893937
 40
1.0
 40
1.0
 40
1.0
 40
1.0
 10
14.0134792981
 20
13.6903887051
 30
0.0
 10
14.0131190936
 20
13.6892183613
 30
0.0
 10
14.0120012546
 20
13.6869147078
 30
0.0
 10
14.0093273367
 20
13.6839732079
 30
0.0
 10
14.0057569485
 20
13.6815837838
 30
0.0
 10
14.0029984944
 20
13.6804348645
 30
0.0
 10
14.0015193973
 20
13.6799509661
 30
0.0
  0
SPLINE
  5
61A
100
AcDbEntity
  8
0
100
AcDbSpline
 62
7
  6
CONTINUOUS
 70
0
 71
3
 72
14
 73
10
 74
0
 42
0.0000001
 43
0.0000001
 44
0.0000000001
 40
0.0
 40
0.0
 40
0.0
 40
0.0
 40
0.0997018606
 40
0.2029879576
 40
0.3127731639
 40
0.4310982239
 40
0.6966469568
 40
0.8443050627
 40
1.0
 40
1.0
 40
1.0
 40
1.0
 10
14.3408538571
 20
12.9675453694
 30
0.0
 10
14.3404735918
 20
12.9663149283
 30
0.0
 10
14.3393962109
 20
12.9638930972
 30
0.0
 10
14.3369342231
 20
12.9606514032
 30
0.0
 10
14.3336874276
 20
12.957820716
 30
0.0
 10
14.3281879276
 20
12.9545402418
 30
0.0
 10
14.3215458516
 20
12.9524529466
 30
0.0
 10
14.3142694001
 20
12.9514027612
 30
0.0
 10
14.3103462855
 20
12.9512271664
 30
0.0
 10
14.3083351545
 20
12.9512271664
 30
0.0
  0
SPLINE
  5
61B
100
AcDbEntity
  8
0
100
AcDbSpline
 62
7
  6
CONTINUOUS
 70
0
 71
3
 72
15
 73
11
 74
0
 42
0.0000001
 43
0.0000001
 44
0.0000000001
 40
0.0
 40
0.0
 40
0.0
 40
0.0
 40
0.1557870904
 40
0.3032534627
 40
0.4411339025
 40
0.5690827695
 40
0.6873883028
 40
0.7971124527
 40
0.9003276496
 40
1.0
 40
1.0
 40
1.0
 40
1.0
 10
13.9122789271
 20
12.9512271664
 30
0.0
 10
13.9022113465
 20
12.9512271664
 30
0.0
 10
13.8825990239
 20
12.9503584139
 30
0.0
 10
13.8543338601
 20
12.9462742794
 30
0.0
 10
13.8284347601
 20
12.9394848305
 30
0.0
 10
13.8053656249
 20
12.9301001668
 30
0.0
 10
13.7855195185
 20
12.918263963
 30
0.0
 10
13.7692738793
 20
12.9041200256
 30
0.0
 10
13.7569770863
 20
12.8878983038
 30
0.0
 10
13.7515890655
 20
12.8757896276
 30
0.0
 10
13.7496859082
 20
12.8696359824
 30
0.0
  0
SPLINE
  5
61C
100
AcDbEntity
  8
0
100
AcDbSpline
 62
7
  6
CONTINUOUS
 70
0
 71
3
 72
14
 73
10
 74
0
 42
0.0000001
 43
0.0000001
 44
0.0000000001
 40
0.0
 40
0.0
 40
0.0
 40
0.0
 40
0.1556949266
 40
0.3033531307
 40
0.5689019967
 40
0.6872270216
 40
0.7970121575
 40
0.9002982101
 40
1.0
 40
1.0
 40
1.0
 40
1.0
 10
14.3089286939
 20
13.1377101569
 30
0.0
 10
14.3069175631
 20
13.1377101569
 30
0.0
 10
14.3029944475
 20
13.1375345609
 30
0.0
 10
14.2957179933
 20
13.1364843746
 30
0.0
 10
14.2890759155
 20
13.1343970779
 30
0.0
 10
14.2835764145
 20
13.1311166045
 30
0.0
 10
14.2803296226
 20
13.128285916
 30
0.0
 10
14.2778676372
 20
13.1250442235
 30
0.0
 10
14.2767902559
 20
13.1226223942
 30
0.0
 10
14.2764099911
 20
13.121391954
 30
0.0
  0
SPLINE
  5
61D
100
AcDbEntity
  8
0
100
AcDbSpline
 62
7
  6
CONTINUOUS
 70
0
 71
3
 72
15
 73
11
 74
0
 42
0.0000001
 43
0.0000001
 44
0.0000000001
 40
0.0
 40
0.0
 40
0.0
 40
0.0
 40
0.100189984
 40
0.211905691
 40
0.3337857792
 40
0.4637276801
 40
0.5987315565
 40
0.7354179983
 40
0.8704280347
 40
1.0
 40
1.0
 40
1.0
 40
1.0
 10
15.434059285
 20
13.1066296584
 30
0.0
 10
15.4330044483
 20
13.1087791897
 30
0.0
 10
15.4302078269
 20
13.113054308
 30
0.0
 10
15.4246762079
 20
13.1188464811
 30
0.0
 10
15.4177719998
 20
13.1241688888
 30
0.0
 10
15.4097597899
 20
13.1288260332
 30
0.0
 10
15.4009363145
 20
13.1326567217
 30
0.0
 10
15.3916238284
 20
13.1355117594
 30
0.0
 10
15.3821787625
 20
13.1372795184
 30
0.0
 10
15.3758507338
 20
13.1377101569
 30
0.0
 10
15.372754142
 20
13.1377101569
 30
0.0
  0
SPLINE
  5
61E
100
AcDbEntity
  8
0
100
AcDbSpline
 62
7
  6
CONTINUOUS
 70
0
 71
3
 72
15
 73
11
 74
0
 42
0.0000001
 43
0.0000001
 44
0.0000000001
 40
0.0
 40
0.0
 40
0.0
 40
0.0
 40
0.1295720522
 40
0.2645822641
 40
0.4012687856
 40
0.5362726512
 40
0.6662145378
 40
0.7880945326
 40
0.899810092
 40
1.0
 40
1.0
 40
1.0
 40
1.0
 10
15.5563728014
 20
12.9512271664
 30
0.0
 10
15.5532762075
 20
12.9512271664
 30
0.0
 10
15.5469481728
 20
12.9516578078
 30
0.0
 10
15.5375030985
 20
12.9534255669
 30
0.0
 10
15.5281906077
 20
12.9562806096
 30
0.0
 10
15.5193671322
 20
12.9601113008
 30
0.0
 10
15.5113549257
 20
12.964768446
 30
0.0
 10
15.5044507252
 20
12.9700908531
 30
0.0
 10
15.4989191101
 20
12.9758830196
 30
0.0
 10
15.4961224943
 20
12.9801581352
 30
0.0
 10
15.4950676584
 20
12.9823076648
 30
0.0
  0
SPLINE
  5
61F
100
AcDbEntity
  8
0
100
AcDbSpline
 62
7
  6
CONTINUOUS
 70
0
 71
3
 72
19
 73
15
 74
0
 42
0.0000001
 43
0.0000001
 44
0.0000000001
 40
0.0
 40
0.0
 40
0.0
 40
0.0
 40
0.0487189202
 40
0.1003498982
 40
0.1548284258
 40
0.2120438411
 40
0.2718358961
 40
0.3339651039
 40
0.4638607468
 40
0.5988319003
 40
0.7354795434
 40
0.8703264551
 40
0.9360545326
 40
1.0
 40
1.0
 40
1.0
 40
1.0
 10
16.258954744
 20
12.7958246743
 30
0.0
 10
16.2563891059
 20
12.8010528951
 30
0.0
 10
16.2504487744
 20
12.811508184
 30
0.0
 10
16.2396752547
 20
12.8265911777
 30
0.0
 10
16.2268783618
 20
12.8413708099
 30
0.0
 10
16.2121912176
 20
12.8557022606
 30
0.0
 10
16.1957519757
 20
12.8694553765
 30
0.0
 10
16.1713448745
 20
12.8871090308
 30
0.0
 10
16.1374602338
 20
12.9068193334
 30
0.0
 10
16.0933346937
 20
12.9259577944
 30
0.0
 10
16.0467866525
 20
12.9402283182
 30
0.0
 10
16.0070695945
 20
12.9476806467
 30
0.0
 10
15.9755783069
 20
12.9507036307
 30
0.0
 10
15.960073008
 20
12.9512271664
 30
0.0
 10
15.9524290288
 20
12.9512271664
 30
0.0
  0
SPLINE
  5
620
100
AcDbEntity
  8
0
100
AcDbSpline
 62
7
  6
CONTINUOUS
 70
0
 71
3
 72
9
 73
5
 74
0
 42
0.0000001
 43
0.0000001
 44
0.0000000001
 40
0.0
 40
0.0
 40
0.0
 40
0.0
 40
0.2446089646
 40
1.0
 40
1.0
 40
1.0
 40
1.0
 10
17.7492042889
 20
12.4089724947
 30
0.0
 10
17.7428191531
 20
12.4219840335
 30
0.0
 10
17.7159211824
 20
12.4747853272
 30
0.0
 10
17.6859402633
 20
12.5260024191
 30
0.0
 10
17.6618508605
 20
12.56372615
 30
0.0
  0
LINE
  5
621
100
AcDbEntity
  8
0
100
AcDbLine
 62
7
  6
CONTINUOUS
 10
17.0120573321
 20
13.2213481708
 11
16.9803297763
 21
13.2008016764
  0
SPLINE
  5
622
100
AcDbEntity
  8
0
100
AcDbSpline
 62
7
  6
CONTINUOUS
 70
0
 71
3
 72
9
 73
5
 74
0
 42
0.0000001
 43
0.0000001
 44
0.0000000001
 40
0.0
 40
0.0
 40
0.0
 40
0.0
 40
0.4896737556
 40
1.0
 40
1.0
 40
1.0
 40
1.0
 10
17.3478826212
 20
12.9424917179
 30
0.0
 10
17.2967155787
 20
12.9921436956
 30
0.0
 10
17.1880065433
 20
13.0892578597
 30
0.0
 10
17.0724576083
 20
13.1780696756
 30
0.0
 10
17.0120573316
 20
13.2213481692
 30
0.0
  0
LINE
  5
623
100
AcDbEntity
  8
0
100
AcDbLine
 62
7
  6
CONTINUOUS
 10
16.0508280282
 20
13.7180692247
 11
16.0260199553
 21
13.689961249
  0
LINE
  5
624
100
AcDbEntity
  8
0
100
AcDbLine
 62
7
  6
CONTINUOUS
 10
16.4991560134
 20
13.4885209045
 11
16.5040801625
 21
13.5250945727
  0
LINE
  5
625
100
AcDbEntity
  8
0
100
AcDbLine
 62
7
  6
CONTINUOUS
 10
15.4563765049
 20
13.8496333744
 11
15.4494530364
 21
13.8866357603
  0
LINE
  5
626
100
AcDbEntity
  8
0
100
AcDbLine
 62
7
  6
CONTINUOUS
 10
14.9685462014
 20
13.9555076164
 11
14.9543725494
 21
13.921526601
  0
LINE
  5
627
100
AcDbEntity
  8
0
100
AcDbLine
 62
7
  6
CONTINUOUS
 10
14.4558203231
 20
14.1591726092
 11
14.4841248433
 21
14.164357943
  0
SPLINE
  5
628
100
AcDbEntity
  8
0
100
AcDbSpline
 62
7
  6
CONTINUOUS
 70
0
 71
3
 72
9
 73
5
 74
0
 42
0.0000001
 43
0.0000001
 44
0.0000000001
 40
0.0
 40
0.0
 40
0.0
 40
0.0
 40
0.5139295868
 40
1.0
 40
1.0
 40
1.0
 40
1.0
 10
13.5436369308
 20
13.7180692229
 30
0.0
 10
13.4945642745
 20
13.6908370906
 30
0.0
 10
13.4019902612
 20
13.6323380891
 30
0.0
 10
13.317852124
 20
13.5620823381
 30
0.0
 10
13.2797812059
 20
13.5250945711
 30
0.0
  0
LINE
  5
629
100
AcDbEntity
  8
0
100
AcDbLine
 62
7
  6
CONTINUOUS
 10
13.5647084165
 20
13.689961249
 11
13.5436369314
 21
13.7180692247
  0
LINE
  5
62A
100
AcDbEntity
  8
0
100
AcDbLine
 62
7
  6
CONTINUOUS
 10
13.0904879014
 20
13.2008016764
 11
13.0699182052
 21
13.2213481708
  0
SPLINE
  5
62B
100
AcDbEntity
  8
0
100
AcDbSpline
 62
7
  6
CONTINUOUS
 70
0
 71
3
 72
9
 73
5
 74
0
 42
0.0000001
 43
0.0000001
 44
0.0000000001
 40
0.0
 40
0.0
 40
0.0
 40
0.0
 40
0.5116873849
 40
1.0
 40
1.0
 40
1.0
 40
1.0
 10
14.3928830796
 20
13.9555076145
 30
0.0
 10
14.3216358335
 20
13.9492059038
 30
0.0
 10
14.1827803302
 20
13.931881813
 30
0.0
 10
14.0457145516
 20
13.9034936576
 30
0.0
 10
13.9795710404
 20
13.8866357587
 30
0.0
  0
LINE
  5
62C
100
AcDbEntity
  8
0
100
AcDbLine
 62
7
  6
CONTINUOUS
 10
14.409084283
 20
13.921526601
 11
14.3928830802
 21
13.9555076164
  0
SPLINE
  5
62D
100
AcDbEntity
  8
0
100
AcDbSpline
 62
7
  6
CONTINUOUS
 70
0
 71
3
 72
9
 73
5
 74
0
 42
0.0000001
 43
0.0000001
 44
0.0000000001
 40
0.0
 40
0.0
 40
0.0
 40
0.0
 40
0.5101046024
 40
1.0
 40
1.0
 40
1.0
 40
1.0
 10
17.0749945757
 20
13.4250131657
 30
0.0
 10
17.1342904409
 20
13.3825260144
 30
0.0
 10
17.2478251954
 20
13.2953724993
 30
0.0
 10
17.3547864575
 20
13.200220169
 30
0.0
 10
17.4052093829
 20
13.1515846531
 30
0.0
  0
SPLINE
  5
62E
100
AcDbEntity
  8
0
100
AcDbSpline
 62
7
  6
CONTINUOUS
 70
0
 71
3
 72
13
 73
9
 74
0
 42
0.0000001
 43
0.0000001
 44
0.0000000001
 40
0.0
 40
0.0
 40
0.0
 40
0.0
 40
0.2295859164
 40
0.354495708
 40
0.4838683384
 40
0.7464102444
 40
0.8756220495
 40
1.0
 40
1.0
 40
1.0
 40
1.0
 10
16.9297940268
 20
12.4283162211
 30
0.0
 10
16.931892394
 20
12.4351065399
 30
0.0
 10
16.9374961663
 20
12.4449219211
 30
0.0
 10
16.9478024438
 20
12.4558260294
 30
0.0
 10
16.9604490083
 20
12.4657115305
 30
0.0
 10
16.9752024632
 20
12.4728535633
 30
0.0
 10
16.9907765283
 20
12.4765998138
 30
0.0
 10
16.9986391927
 20
12.477274153
 30
0.0
 10
17.0024894842
 20
12.477274153
 30
0.0
  0
SPLINE
  5
62F
100
AcDbEntity
  8
0
100
AcDbSpline
 62
7
  6
CONTINUOUS
 70
0
 71
3
 72
13
 73
9
 74
0
 42
0.0000001
 43
0.0000001
 44
0.0000000001
 40
0.0
 40
0.0
 40
0.0
 40
0.0
 40
0.2774382871
 40
0.5342330244
 40
0.6554421749
 40
0.7726942433
 40
0.8871124567
 40
1.0
 40
1.0
 40
1.0
 40
1.0
 10
17.025516009
 20
12.477274153
 30
0.0
 10
17.0300155225
 20
12.477274153
 30
0.0
 10
17.0387141966
 20
12.4764115751
 30
0.0
 10
17.0488714554
 20
12.4728609935
 30
0.0
 10
17.0557394925
 20
12.4686448653
 30
0.0
 10
17.0601257618
 20
12.4649315336
 30
0.0
 10
17.0637765588
 20
12.4606698939
 30
0.0
 10
17.0656881386
 20
12.4574935309
 30
0.0
 10
17.0664948449
 20
12.4558500226
 30
0.0
  0
SPLINE
  5
630
100
AcDbEntity
  8
DRAWING
100
AcDbSpline
 62
7
  6
CONTINUOUS
 70
0
 71
3
 72
39
 73
35
 74
0
 42
0.0000001
 43
0.0000001
 44
0.0000000001
 40
0.0
 40
0.0
 40
0.0
 40
0.0
 40
0.0263178963
 40
0.0539165708
 40
0.0827900839
 40
0.1129225519
 40
0.1442712639
 40
0.1767617399
 40
0.2103001641
 40
0.2447758271
 40
0.2800631768
 40
0.3160245037
 40
0.3525123853
 40
0.3893726305
 40
0.4635496859
 40
0.5005615056
 40
0.5372999186
 40
0.5736071907
 40
0.6093313599
 40
0.644328418
 40
0.6784650941
 40
0.7116205374
 40
0.7436905956
 40
0.7745886854
 40
0.8042520863
 40
0.8326422727
 40
0.8597529657
 40
0.8856106914
 40
0.9102829862
 40
0.9338792035
 40
0.9565551942
 40
0.9785111948
 40
0.9892992611
 40
1.0
 40
1.0
 40
1.0
 40
1.0
 10
17.8053760542
 20
12.5303881656
 30
0.0
 10
17.7841155332
 20
12.5737125522
 30
0.0
 10
17.73614923
 20
12.6603564396
 30
0.0
 10
17.6512136406
 20
12.7863863039
 30
0.0
 10
17.5521299286
 20
12.9106960743
 30
0.0
 10
17.4395895086
 20
13.0324784058
 30
0.0
 10
17.3143078763
 20
13.1509675622
 30
0.0
 10
17.1770978772
 20
13.2654098945
 30
0.0
 10
17.0288461137
 20
13.3750612612
 30
0.0
 10
16.8705145349
 20
13.4792139893
 30
0.0
 10
16.703132201
 20
13.577201027
 30
0.0
 10
16.5277811619
 20
13.6683754108
 30
0.0
 10
16.3456001217
 20
13.7521628649
 30
0.0
 10
16.0946838948
 20
13.8534691558
 30
0.0
 10
15.8360332889
 20
13.9374671848
 30
0.0
 10
15.57278917
 20
14.0032161136
 30
0.0
 10
15.3748361614
 20
14.042919229
 30
0.0
 10
15.1775552585
 20
14.0727961406
 30
0.0
 10
14.9822181339
 20
14.0926436227
 30
0.0
 10
14.7900954129
 20
14.1023378546
 30
0.0
 10
14.6024323951
 20
14.1018149796
 30
0.0
 10
14.4204445496
 20
14.0910714662
 30
0.0
 10
14.2453086921
 20
14.0701854103
 30
0.0
 10
14.0781571108
 20
14.0392705624
 30
0.0
 10
13.920064465
 20
13.9985404542
 30
0.0
 10
13.7720544849
 20
13.9482208178
 30
0.0
 10
13.6350734905
 20
13.8886450402
 30
0.0
 10
13.5100188998
 20
13.8201442616
 30
0.0
 10
13.3976986569
 20
13.7431529777
 30
0.0
 10
13.2988770868
 20
13.6581044966
 30
0.0
 10
13.2142365419
 20
13.5655457535
 30
0.0
 10
13.1556785929
 20
13.4820846584
 30
0.0
 10
13.1168102507
 20
13.4124862262
 30
0.0
 10
13.1000092814
 20
13.3767993763
 30
0.0
 10
13.092280314
 20
13.3587634349
 30
0.0
  0
SPLINE
  5
631
100
AcDbEntity
  8
DRAWING
100
AcDbSpline
 62
7
  6
CONTINUOUS
 70
0
 71
3
 72
9
 73
5
 74
0
 42
0.0000001
 43
0.0000001
 44
0.0000000001
 40
0.0
 40
0.0
 40
0.0
 40
0.0
 40
0.4930799365
 40
1.0
 40
1.0
 40
1.0
 40
1.0
 10
13.1674692575
 20
13.4406151011
 30
0.0
 10
13.1857852262
 20
13.4689116547
 30
0.0
 10
13.2262330765
 20
13.5242181143
 30
0.0
 10
13.2723789956
 20
13.5748392378
 30
0.0
 10
13.2969679817
 20
13.599257023
 30
0.0
  0
SPLINE
  5
632
100
AcDbEntity
  8
DRAWING
100
AcDbSpline
 62
7
  6
CONTINUOUS
 70
0
 71
3
 72
13
 73
9
 74
0
 42
0.0000001
 43
0.0000001
 44
0.0000000001
 40
0.0
 40
0.0
 40
0.0
 40
0.0
 40
0.1114718407
 40
0.2263640936
 40
0.3449959672
 40
0.4676029935
 40
0.7252402039
 40
1.0
 40
1.0
 40
1.0
 40
1.0
 10
13.2969679817
 20
13.599257023
 30
0.0
 10
13.3181266796
 20
13.6202684034
 30
0.0
 10
13.3629364228
 20
13.6611159611
 30
0.0
 10
13.4359320863
 20
13.7177233713
 30
0.0
 10
13.5154398922
 20
13.7703588624
 30
0.0
 10
13.631670716
 20
13.8361171775
 30
0.0
 10
13.7924376801
 20
13.9069812345
 30
0.0
 10
13.9287482635
 20
13.9492709108
 30
0.0
 10
13.9999281465
 20
13.9675873921
 30
0.0
  0
SPLINE
  5
633
100
AcDbEntity
  8
DRAWING
100
AcDbSpline
 62
7
  6
CONTINUOUS
 70
0
 71
3
 72
11
 73
7
 74
0
 42
0.0000001
 43
0.0000001
 44
0.0000000001
 40
0.0
 40
0.0
 40
0.0
 40
0.0
 40
0.2367753315
 40
0.4827666781
 40
0.7374103845
 40
1.0
 40
1.0
 40
1.0
 40
1.0
 10
13.9999281465
 20
13.9675873921
 30
0.0
 10
14.0521271207
 20
13.9810195795
 30
0.0
 10
14.1595704074
 20
14.0045864859
 30
0.0
 10
14.3256344319
 20
14.0298062502
 30
0.0
 10
14.4987649495
 20
14.0454679829
 30
0.0
 10
14.6165117718
 20
14.049404265
 30
0.0
 10
14.6762861679
 20
14.0498232199
 30
0.0
  0
SPLINE
  5
634
100
AcDbEntity
  8
DRAWING
100
AcDbSpline
 62
7
  6
CONTINUOUS
 70
0
 71
3
 72
10
 73
6
 74
0
 42
0.0000001
 43
0.0000001
 44
0.0000000001
 40
0.0
 40
0.0
 40
0.0
 40
0.0
 40
0.4941489902
 40
0.7460340228
 40
1.0
 40
1.0
 40
1.0
 40
1.0
 10
14.9573609677
 20
14.0405568724
 30
0.0
 10
15.0713668277
 20
14.0323865608
 30
0.0
 10
15.243035451
 20
14.012249297
 30
0.0
 10
15.470662689
 20
13.9709699076
 30
0.0
 10
15.5848737046
 20
13.9453546754
 30
0.0
 10
15.641919366
 20
13.9313350505
 30
0.0
  0
SPLINE
  5
635
100
AcDbEntity
  8
DRAWING
100
AcDbSpline
 62
7
  6
CONTINUOUS
 70
0
 71
3
 72
11
 73
7
 74
0
 42
0.0000001
 43
0.0000001
 44
0.0000000001
 40
0.0
 40
0.0
 40
0.0
 40
0.0
 40
0.2524241187
 40
0.5038410861
 40
0.7533309806
 40
1.0
 40
1.0
 40
1.0
 40
1.0
 10
15.9040332509
 20
13.8581705332
 30
0.0
 10
15.9630625893
 20
13.8396962281
 30
0.0
 10
16.0801186381
 20
13.8003171887
 30
0.0
 10
16.2524694015
 20
13.7340628249
 30
0.0
 10
16.4205166033
 20
13.6610140727
 30
0.0
 10
16.5298259012
 20
13.6076869904
 30
0.0
 10
16.5835340721
 20
13.5799609342
 30
0.0
  0
SPLINE
  5
636
100
AcDbEntity
  8
DRAWING
100
AcDbSpline
 62
7
  6
CONTINUOUS
 70
0
 71
3
 72
11
 73
7
 74
0
 42
0.0000001
 43
0.0000001
 44
0.0000000001
 40
0.0
 40
0.0
 40
0.0
 40
0.0
 40
0.2605910614
 40
0.514611734
 40
0.7613018452
 40
1.0
 40
1.0
 40
1.0
 40
1.0
 10
16.8349564834
 20
13.4380982848
 30
0.0
 10
16.8855894373
 20
13.4069196342
 30
0.0
 10
16.9840987302
 20
13.3429004239
 30
0.0
 10
17.1247403925
 20
13.2407976286
 30
0.0
 10
17.2557396723
 20
13.1343343562
 30
0.0
 10
17.3375502009
 20
13.0595553088
 30
0.0
 10
17.3765721395
 20
13.0215560307
 30
0.0
  0
SPLINE
  5
637
100
AcDbEntity
  8
DRAWING
100
AcDbSpline
 62
7
  6
CONTINUOUS
 70
0
 71
3
 72
11
 73
7
 74
0
 42
0.0000001
 43
0.0000001
 44
0.0000000001
 40
0.0
 40
0.0
 40
0.0
 40
0.0
 40
0.2679146494
 40
0.5239975646
 40
0.7680490572
 40
1.0
 40
1.0
 40
1.0
 40
1.0
 10
17.3765721395
 20
13.0215560307
 30
0.0
 10
17.4191899225
 20
12.9800551457
 30
0.0
 10
17.4997739449
 20
12.8959668488
 30
0.0
 10
17.6080672853
 20
12.763996642
 30
0.0
 10
17.7003021127
 20
12.6299085657
 30
0.0
 10
17.7519328791
 20
12.5374558648
 30
0.0
 10
17.7746212529
 20
12.4912218202
 30
0.0
  0
SPLINE
  5
638
100
AcDbEntity
  8
DRAWING
100
AcDbSpline
 62
7
  6
CONTINUOUS
 70
0
 71
3
 72
9
 73
5
 74
0
 42
0.0000001
 43
0.0000001
 44
0.0000000001
 40
0.0
 40
0.0
 40
0.0
 40
0.0
 40
0.5083281667
 40
1.0
 40
1.0
 40
1.0
 40
1.0
 10
13.1001107475
 20
12.6939053286
 30
0.0
 10
13.0891673746
 20
12.7266221948
 30
0.0
 10
13.0703704874
 20
12.7919389438
 30
0.0
 10
13.0577378387
 20
12.858741781
 30
0.0
 10
13.0531913679
 20
12.8917987485
 30
0.0
  0
SPLINE
  5
639
100
AcDbEntity
  8
DRAWING
100
AcDbSpline
 62
7
  6
CONTINUOUS
 70
0
 71
3
 72
9
 73
5
 74
0
 42
0.0000001
 43
0.0000001
 44
0.0000000001
 40
0.0
 40
0.0
 40
0.0
 40
0.0
 40
0.4888345239
 40
1.0
 40
1.0
 40
1.0
 40
1.0
 10
13.3141604306
 20
12.2077465054
 30
0.0
 10
13.3488917978
 20
12.1621982433
 30
0.0
 10
13.4239433484
 20
12.0720267009
 30
0.0
 10
13.5056088323
 20
11.9878411584
 30
0.0
 10
13.5487565164
 20
11.9462984864
 30
0.0
  0
SPLINE
  5
63A
100
AcDbEntity
  8
DRAWING
100
AcDbSpline
 62
7
  6
CONTINUOUS
 70
0
 71
3
 72
9
 73
5
 74
0
 42
0.0000001
 43
0.0000001
 44
0.0000000001
 40
0.0
 40
0.0
 40
0.0
 40
0.0
 40
0.5065565762
 40
1.0
 40
1.0
 40
1.0
 40
1.0
 10
15.9574490901
 20
10.9308156876
 30
0.0
 10
16.0245406751
 20
10.9256632474
 30
0.0
 10
16.1572818935
 20
10.9189832965
 30
0.0
 10
16.2901998599
 20
10.9197253766
 30
0.0
 10
16.355705593
 20
10.9220575802
 30
0.0
  0
SPLINE
  5
63B
100
AcDbEntity
  8
DRAWING
100
AcDbSpline
 62
7
  6
CONTINUOUS
 70
0
 71
3
 72
9
 73
5
 74
0
 42
0.0000001
 43
0.0000001
 44
0.0000000001
 40
0.0
 40
0.0
 40
0.0
 40
0.0
 40
0.5120482009
 40
1.0
 40
1.0
 40
1.0
 40
1.0
 10
16.9255931675
 20
10.9987703074
 30
0.0
 10
16.9811775087
 20
11.0126329751
 30
0.0
 10
17.0887671488
 20
11.0437844519
 30
0.0
 10
17.1933915486
 20
11.0838875935
 30
0.0
 10
17.243380033
 20
11.1058269832
 30
0.0
  0
SPLINE
  5
63C
100
AcDbEntity
  8
DRAWING
100
AcDbSpline
 62
7
  6
CONTINUOUS
 70
0
 71
3
 72
11
 73
7
 74
0
 42
0.0000001
 43
0.0000001
 44
0.0000000001
 40
0.0
 40
0.0
 40
0.0
 40
0.0
 40
0.258013115
 40
0.5100232785
 40
0.7569943653
 40
1.0
 40
1.0
 40
1.0
 40
1.0
 10
17.6235635351
 20
11.3482582138
 30
0.0
 10
17.6432705863
 20
11.3665051209
 30
0.0
 10
17.6809152912
 20
11.4040266949
 30
0.0
 10
17.7322329021
 20
11.4639321381
 30
0.0
 10
17.7775497897
 20
11.5265823686
 30
0.0
 10
17.8038574279
 20
11.5703648428
 30
0.0
 10
17.8159166522
 20
11.592600429
 30
0.0
  0
SPLINE
  5
63D
100
AcDbEntity
  8
DRAWING
100
AcDbSpline
 62
7
  6
CONTINUOUS
 70
0
 71
3
 72
9
 73
5
 74
0
 42
0.0000001
 43
0.0000001
 44
0.0000000001
 40
0.0
 40
0.0
 40
0.0
 40
0.0
 40
0.2556595576
 40
1.0
 40
1.0
 40
1.0
 40
1.0
 10
17.7746212529
 20
12.4912218202
 30
0.0
 10
17.781265287
 20
12.477682702
 30
0.0
 10
17.8064240165
 20
12.4243246909
 30
0.0
 10
17.8281857124
 20
12.3693459433
 30
0.0
 10
17.8421141895
 20
12.3277046572
 30
0.0
  0
SPLINE
  5
63E
100
AcDbEntity
  8
DRAWING
100
AcDbSpline
 62
7
  6
CONTINUOUS
 70
0
 71
3
 72
11
 73
7
 74
0
 42
0.0000001
 43
0.0000001
 44
0.0000000001
 40
0.0
 40
0.0
 40
0.0
 40
0.0
 40
0.2628155641
 40
0.5157317561
 40
0.7606965089
 40
1.0
 40
1.0
 40
1.0
 40
1.0
 10
17.8421141895
 20
12.3277046572
 30
0.0
 10
17.8549468622
 20
12.2893394437
 30
0.0
 10
17.8763842286
 20
12.2127219413
 30
0.0
 10
17.8952934958
 20
12.0969107595
 30
0.0
 10
17.9001625377
 20
11.983269747
 30
0.0
 10
17.893935385
 20
11.9087441263
 30
0.0
 10
17.8884618718
 20
11.8723177067
 30
0.0
  0
SPLINE
  5
63F
100
AcDbEntity
  8
DRAWING
100
AcDbSpline
 62
7
  6
CONTINUOUS
 70
0
 71
3
 72
9
 73
5
 74
0
 42
0.0000001
 43
0.0000001
 44
0.0000000001
 40
0.0
 40
0.0
 40
0.0
 40
0.0
 40
0.2436269687
 40
1.0
 40
1.0
 40
1.0
 40
1.0
 10
17.1719037115
 20
11.1274255721
 30
0.0
 10
17.1536537978
 20
11.120325443
 30
0.0
 10
17.0782785605
 20
11.0923867921
 30
0.0
 10
17.0011749514
 20
11.069173514
 30
0.0
 10
16.9422967904
 20
11.0540225937
 30
0.0
  0
SPLINE
  5
640
100
AcDbEntity
  8
DRAWING
100
AcDbSpline
 62
7
  6
CONTINUOUS
 70
0
 71
3
 72
9
 73
5
 74
0
 42
0.0000001
 43
0.0000001
 44
0.0000000001
 40
0.0
 40
0.0
 40
0.0
 40
0.0
 40
0.2560125981
 40
1.0
 40
1.0
 40
1.0
 40
1.0
 10
13.5656527975
 20
12.0000539551
 30
0.0
 10
13.5500389343
 20
12.0152586206
 30
0.0
 10
13.4898071885
 20
12.0754179612
 30
0.0
 10
13.4326837266
 20
12.1387150292
 30
0.0
 10
13.3923844427
 20
12.1875741084
 30
0.0
  0
SPLINE
  5
641
100
AcDbEntity
  8
DRAWING
100
AcDbSpline
 62
7
  6
CONTINUOUS
 70
0
 71
3
 72
9
 73
5
 74
0
 42
0.0000001
 43
0.0000001
 44
0.0000000001
 40
0.0
 40
0.0
 40
0.0
 40
0.0
 40
0.488412962
 40
1.0
 40
1.0
 40
1.0
 40
1.0
 10
13.0155889541
 20
12.9095918353
 30
0.0
 10
13.01941517
 20
12.8626053603
 30
0.0
 10
13.0343705834
 20
12.7668862166
 30
0.0
 10
13.0619086327
 20
12.6740824721
 30
0.0
 10
13.0787003822
 20
12.6276464763
 30
0.0
  0
SPLINE
  5
642
100
AcDbEntity
  8
DRAWING
100
AcDbSpline
 62
7
  6
CONTINUOUS
 70
0
 71
3
 72
11
 73
7
 74
0
 42
0.0000001
 43
0.0000001
 44
0.0000000001
 40
0.0
 40
0.0
 40
0.0
 40
0.0
 40
0.2468193605
 40
0.49493607
 40
0.7456011403
 40
1.0
 40
1.0
 40
1.0
 40
1.0
 10
17.8922273681
 20
11.7840771803
 30
0.0
 10
17.8994528753
 20
11.807455838
 30
0.0
 10
17.9118687239
 20
11.8550055438
 30
0.0
 10
17.9241686169
 20
11.9279867503
 30
0.0
 10
17.9301581704
 20
12.0025057833
 30
0.0
 10
17.929935441
 20
12.0526454681
 30
0.0
 10
17.9287998583
 20
12.0778410938
 30
0.0
  0
SPLINE
  5
643
100
AcDbEntity
  8
DRAWING
100
AcDbSpline
 62
7
  6
CONTINUOUS
 70
0
 71
3
 72
11
 73
7
 74
0
 42
0.0000001
 43
0.0000001
 44
0.0000000001
 40
0.0
 40
0.0
 40
0.0
 40
0.0
 40
0.2370886593
 40
0.4820729045
 40
0.7361393029
 40
1.0
 40
1.0
 40
1.0
 40
1.0
 10
17.9266359829
 20
12.1120181505
 30
0.0
 10
17.9238265795
 20
12.1465180235
 30
0.0
 10
17.9143053908
 20
12.2164035032
 30
0.0
 10
17.889129658
 20
12.321052653
 30
0.0
 10
17.8529931997
 20
12.4265664937
 30
0.0
 10
17.8223469448
 20
12.4958051265
 30
0.0
 10
17.8053760542
 20
12.5303881656
 30
0.0
  0
SPLINE
  5
644
100
AcDbEntity
  8
DRAWING
100
AcDbSpline
 62
7
  6
CONTINUOUS
 70
0
 71
3
 72
9
 73
5
 74
0
 42
0.0000001
 43
0.0000001
 44
0.0000000001
 40
0.0
 40
0.0
 40
0.0
 40
0.0
 40
0.4888964375
 40
1.0
 40
1.0
 40
1.0
 40
1.0
 10
17.2200658034
 20
11.1129769385
 30
0.0
 10
17.1742485546
 20
11.0931834984
 30
0.0
 10
17.0787424703
 20
11.0567575487
 30
0.0
 10
16.9807242709
 20
11.0278591692
 30
0.0
 10
16.9301934742
 20
11.0148562483
 30
0.0
  0
SPLINE
  5
645
100
AcDbEntity
  8
DRAWING
100
AcDbSpline
 62
7
  6
CONTINUOUS
 70
0
 71
3
 72
9
 73
5
 74
0
 42
0.0000001
 43
0.0000001
 44
0.0000000001
 40
0.0
 40
0.0
 40
0.0
 40
0.0
 40
0.5103748163
 40
1.0
 40
1.0
 40
1.0
 40
1.0
 10
13.5535494813
 20
11.9608876096
 30
0.0
 10
13.5141061895
 20
11.9992971984
 30
0.0
 10
13.4392058611
 20
12.0770522177
 30
0.0
 10
13.3699708602
 20
12.1599213072
 30
0.0
 10
13.3377269013
 20
12.2017536693
 30
0.0
  0
SPLINE
  5
646
100
AcDbEntity
  8
DRAWING
100
AcDbSpline
 62
7
  6
CONTINUOUS
 70
0
 71
3
 72
15
 73
11
 74
0
 42
0.0000001
 43
0.0000001
 44
0.0000000001
 40
0.0
 40
0.0
 40
0.0
 40
0.0
 40
0.1073515501
 40
0.21999558
 40
0.3379065666
 40
0.4610153784
 40
0.5891359451
 40
0.7219511226
 40
0.8590619523
 40
1.0
 40
1.0
 40
1.0
 40
1.0
 10
17.793272738
 20
12.4912218202
 30
0.0
 10
17.7717211953
 20
12.5351392467
 30
0.0
 10
17.7230222618
 20
12.6229675557
 30
0.0
 10
17.6366494075
 20
12.7506534999
 30
0.0
 10
17.5357671644
 20
12.8765496357
 30
0.0
 10
17.4210957891
 20
12.9998161883
 30
0.0
 10
17.2933865031
 20
13.1196596696
 30
0.0
 10
17.1534854496
 20
13.2352938058
 30
0.0
 10
17.0023300311
 20
13.3459477734
 30
0.0
 10
16.8960390109
 20
13.4150523751
 30
0.0
 10
16.8412996222
 20
13.4486465269
 30
0.0
  0
SPLINE
  5
647
100
AcDbEntity
  8
DRAWING
100
AcDbSpline
 62
7
  6
CONTINUOUS
 70
0
 71
3
 72
11
 73
7
 74
0
 42
0.0000001
 43
0.0000001
 44
0.0000000001
 40
0.0
 40
0.0
 40
0.0
 40
0.0
 40
0.246754798
 40
0.4962161469
 40
0.747575441
 40
1.0
 40
1.0
 40
1.0
 40
1.0
 10
16.5887413215
 20
13.5907255031
 30
0.0
 10
16.5371755406
 20
13.617275821
 30
0.0
 10
16.4323146849
 20
13.6684381124
 30
0.0
 10
16.2712697806
 20
13.7388509542
 30
0.0
 10
16.1062300949
 20
13.8030793824
 30
0.0
 10
15.9941950207
 20
13.8415374684
 30
0.0
 10
15.9376995497
 20
13.8596641313
 30
0.0
  0
SPLINE
  5
648
100
AcDbEntity
  8
DRAWING
100
AcDbSpline
 62
7
  6
CONTINUOUS
 70
0
 71
3
 72
10
 73
6
 74
0
 42
0.0000001
 43
0.0000001
 44
0.0000000001
 40
0.0
 40
0.0
 40
0.0
 40
0.0
 40
0.2539216333
 40
0.5057862096
 40
1.0
 40
1.0
 40
1.0
 40
1.0
 10
15.6450528763
 20
13.9425456314
 30
0.0
 10
15.5878478875
 20
13.9566288128
 30
0.0
 10
15.473314798
 20
13.9823776097
 30
0.0
 10
15.2450201371
 20
14.0239510323
 30
0.0
 10
15.072840097
 20
14.044337497
 30
0.0
 10
14.9584809284
 20
14.0526912435
 30
0.0
  0
SPLINE
  5
649
100
AcDbEntity
  8
DRAWING
100
AcDbSpline
 62
7
  6
CONTINUOUS
 70
0
 71
3
 72
22
 73
18
 74
0
 42
0.0000001
 43
0.0000001
 44
0.0000000001
 40
0.0
 40
0.0
 40
0.0
 40
0.0
 40
0.0780469163
 40
0.1544870174
 40
0.2291224656
 40
0.3017750671
 40
0.3722928437
 40
0.4405483133
 40
0.5064502526
 40
0.5699389681
 40
0.6310013572
 40
0.689666009
 40
0.8000874251
 40
0.8522917764
 40
0.9027863758
 40
0.9518957836
 40
1.0
 40
1.0
 40
1.0
 40
1.0
 10
14.9584809284
 20
14.0526912435
 30
0.0
 10
14.904048384
 20
14.05666745
 30
0.0
 10
14.7961182756
 20
14.0622221814
 30
0.0
 10
14.6358440625
 20
14.0632440052
 30
0.0
 10
14.4794608134
 20
14.0568785273
 30
0.0
 10
14.3277059308
 20
14.0431409894
 30
0.0
 10
14.1812876504
 20
14.0221128874
 30
0.0
 10
14.0408940878
 20
13.9938677229
 30
0.0
 10
13.9071756642
 20
13.9585581493
 30
0.0
 10
13.7807688007
 20
13.9163217297
 30
0.0
 10
13.6622353865
 20
13.8673585603
 30
0.0
 10
13.5184317946
 20
13.7948914992
 30
0.0
 10
13.3887174214
 20
13.7087437556
 30
0.0
 10
13.2776752842
 20
13.6090266966
 30
0.0
 10
13.2062107286
 20
13.5302461051
 30
0.0
 10
13.1454328513
 20
13.4464785142
 30
0.0
 10
13.1119669278
 20
13.3870954949
 30
0.0
 10
13.0972297242
 20
13.3568566164
 30
0.0
  0
SPLINE
  5
64A
100
AcDbEntity
  8
DRAWING
100
AcDbSpline
 62
7
  6
CONTINUOUS
 70
0
 71
3
 72
9
 73
5
 74
0
 42
0.0000001
 43
0.0000001
 44
0.0000000001
 40
0.0
 40
0.0
 40
0.0
 40
0.0
 40
0.5101475085
 40
1.0
 40
1.0
 40
1.0
 40
1.0
 10
13.0880074313
 20
12.6547389831
 30
0.0
 10
13.0743229057
 20
12.6956509394
 30
0.0
 10
13.0517512822
 20
12.7773551693
 30
0.0
 10
13.0390506328
 20
12.8612106493
 30
0.0
 10
13.0355252192
 20
12.9024840784
 30
0.0
  0
SPLINE
  5
64B
100
AcDbEntity
  8
DRAWING
100
AcDbSpline
 62
7
  6
CONTINUOUS
 70
0
 71
3
 72
9
 73
5
 74
0
 42
0.0000001
 43
0.0000001
 44
0.0000000001
 40
0.0
 40
0.0
 40
0.0
 40
0.0
 40
0.4935973469
 40
1.0
 40
1.0
 40
1.0
 40
1.0
 10
17.9084999286
 20
11.8704691532
 30
0.0
 10
17.9142008203
 20
11.9094022934
 30
0.0
 10
17.9202568751
 20
11.989169695
 30
0.0
 10
17.9156741776
 20
12.0690008488
 30
0.0
 10
17.9108952044
 20
12.1090860957
 30
0.0
  0
SPLINE
  5
64C
100
AcDbEntity
  8
DRAWING
100
AcDbSpline
 62
7
  6
CONTINUOUS
 70
0
 71
3
 72
11
 73
7
 74
0
 42
0.0000001
 43
0.0000001
 44
0.0000000001
 40
0.0
 40
0.0
 40
0.0
 40
0.0
 40
0.2379697297
 40
0.4834234347
 40
0.7372515347
 40
1.0
 40
1.0
 40
1.0
 40
1.0
 10
17.9108952044
 20
12.1090860957
 30
0.0
 10
17.9071238957
 20
12.1407192175
 30
0.0
 10
17.8963494863
 20
12.2046441974
 30
0.0
 10
17.8712143774
 20
12.3002095874
 30
0.0
 10
17.8370061187
 20
12.3964333916
 30
0.0
 10
17.8087685104
 20
12.459644756
 30
0.0
 10
17.793272738
 20
12.4912218202
 30
0.0
  0
ENDSEC
  0
SECTION
  2
OBJECTS
  0
DICTIONARY
  5
C
100
AcDbDictionary
280
0
281
1
  3
ACAD_GROUP
350
D
  3
ACAD_MLINESTYLE
350
17
  3
ACAD_LAYOUT
350
1A
  3
ACAD_PLOTSETTINGS
350
19
  3
ACAD_PLOTSTYLENAME
350
E
  0
DICTIONARY
  5
D
102
{ACAD_REACTORS
330
C
102
}
100
AcDbDictionary
280
0
281
1
  0
ACDBDICTIONARYWDFLT
  5
E
102
{ACAD_REACTORS
330
C
102
}
100
AcDbDictionary
281
1
  3
Normal
350
F
100
AcDbDictionaryWithDefault
340
F
  0
DICTIONARY
  5
17
102
{ACAD_REACTORS
330
C
102
}
100
AcDbDictionary
280
0
281
1
  3
Standard
350
18
  0
DICTIONARY
  5
19
102
{ACAD_REACTORS
330
C
102
}
100
AcDbDictionary
281
1
  0
DICTIONARY
  5
1A
102
{ACAD_REACTORS
330
C
102
}
100
AcDbDictionary
281
1
  3
Model
350
64D
  3
Layout1
350
64E
  0
ACDBPLACEHOLDER
  5
F
102
{ACAD_REACTORS
330
E
102
}
  0
MLINESTYLE
  5
18
102
{ACAD_REACTORS
330
17
102
}
100
AcDbMlineStyle
  2
STANDARD
 70
0
  3

 62
256
 51
90.0
 52
90.0
 71
2
 49
0.5
 62
256
  6
BYLAYER
 49
-0.5
 62
256
  6
BYLAYER
  0
LAYOUT
  5
64D
102
{ACAD_REACTORS
330
1A
102
}
100
AcDbPlotSettings
  1

  2
none_device
  4
ANSI_C_(22.00_x_17.00_Inches)
  6

 40
0.0
 41
0.0
 42
0.0
 43
0.0
 44
558.8
 45
431.8
 46
0.0
 47
0.0
 48
0.0
 49
0.0
140
0.0
141
0.0
142
1.0
143
1.0
 70
1024
 72
0
 73
0
 74
0
  7

 75
0
147
1.0
148
0.0
149
0.0
100
AcDbLayout
  1
Model
 70
0
 71
0
 10
0.0
 20
0.0
 11
22.0
 21
17.0
 12
0.0
 22
0.0
 32
0.0
 14
0.0
 24
0.0
 34
0.0
 15
0.0
 25
0.0
 35
0.0
146
0.0
 13
0.0
 23
0.0
 33
0.0
 16
1.0
 26
0.0
 36
0.0
 17
0.0
 27
1.0
 37
0.0
 76
0
330
218
345
0
346
0
  0
LAYOUT
  5
64E
102
{ACAD_REACTORS
330
1A
102
}
100
AcDbPlotSettings
  1

  2
none_device
  4
ANSI_C_(22.00_x_17.00_Inches)
  6

 40
0.0
 41
0.0
 42
0.0
 43
0.0
 44
558.8
 45
431.8
 46
0.0
 47
0.0
 48
0.0
 49
0.0
140
0.0
141
0.0
142
1.0
143
1.0
 70
0
 72
0
 73
0
 74
0
  7

 75
0
147
1.0
148
0.0
149
0.0
100
AcDbLayout
  1
Layout1
 70
0
 71
1
 10
0.0
 20
0.0
 11
22.0
 21
17.0
 12
0.0
 22
0.0
 32
0.0
 14
0.0
 24
0.0
 34
0.0
 15
0.0
 25
0.0
 35
0.0
146
0.0
 13
0.0
 23
0.0
 33
0.0
 16
1.0
 26
0.0
 36
0.0
 17
0.0
 27
1.0
 37
0.0
 76
0
330
219
345
0
346
0
  0
ENDSEC
  0
EOF