999
DXF file: _cgs_temp_output.dxf
999
Pro/ENGINEER 2015110 by Parametric Technology Corporation
  0
SECTION
  2
HEADER
  9
$ACADVER
  1
AC1021
  9
$DWGCODEPAGE
  3
ANSI_1252
  9
$EXTMAX
 10
22.0
 20
17.0
 30
0.0
  9
$EXTMIN
 10
0.0
 20
0.0
 30
0.0
  9
$LIMMIN
 10
0.0
 20
0.0
  9
$LIMMAX
 10
22.0
 20
17.0
  9
$VIEWCTR
 10
11.0
 20
8.5
  9
$VIEWSIZE
 40
17.0
  9
$CLAYER
  8
0
  9
$LTSCALE
 40
1.21
  9
$CELTYPE
  6
BYLAYER
  9
$DIMSCALE
 40
1.0
  9
$DIMASZ
 40
0.1875
  9
$DIMEXO
 40
0.0625
  9
$DIMDLI
 40
0.836
  9
$DIMEXE
 40
0.125
  9
$DIMCEN
 40
0.198
  9
$DIMLFAC
 40
1.0
  9
$DIMBLK
  1
_CLOSED
  9
$DIMALT
 70
0
  9
$DIMALTF
 40
25.4
  9
$DIMTXT
 40
0.15625
  9
$DIMTOL
 70
0
  9
$DIMLIM
 70
0
  9
$DIMTFAC
 40
1.0
  9
$DIMGAP
 40
0.09
  9
$DIMDSEP
 70
46
  9
$AUNITS
 70
0
  9
$PDMODE
 70
3
  9
$PDSIZE
 40
0.3125
  9
$HANDSEED
  5
2A3
  9
$TILEMODE
 70
1
  9
$MEASUREMENT
 70
0
  9
$INSUNITS
 70
1
  0
ENDSEC
  0
SECTION
  2
CLASSES
  0
CLASS
  1
ACDBDICTIONARYWDFLT
  2
AcDbDictionaryWithDefault
  3
AutoCAD 2000
 90
0
 91
1
280
0
281
0
  0
CLASS
  1
ACDBPLACEHOLDER
  2
AcDbPlaceHolder
  3
AutoCAD 2000
 90
0
 91
1
280
0
281
0
  0
CLASS
  1
LAYOUT
  2
AcDbLayout
  3
AutoCAD 2000
 90
0
 91
0
280
0
281
0
  0
ENDSEC
  0
SECTION
  2
TABLES
  0
TABLE
  2
VPORT
  5
8
100
AcDbSymbolTable
 70
2
  0
VPORT
  5
1F4
100
AcDbSymbolTableRecord
100
AcDbViewportTableRecord
  2
*ACTIVE
 70
0
 10
0.0
 20
0.0
 11
1.0
 21
1.0
 12
11.0
 22
8.5
 13
0.0
 23
0.0
 14
1.0
 24
1.0
 15
0.0
 25
0.0
 16
0.0
 26
0.0
 36
1.0
 17
0.0
 27
0.0
 37
0.0
 40
17.0
 41
1.2941176471
 42
50.0
 43
0.0
 44
0.0
 50
0.0
 51
0.0
 71
0
 72
100
 73
1
 74
1
 75
0
 76
0
 77
0
 78
0
  0
ENDTAB
  0
TABLE
  2
LTYPE
  5
5
100
AcDbSymbolTable
 70
6
  0
LTYPE
  5
14
100
AcDbSymbolTableRecord
100
AcDbLinetypeTableRecord
  2
BYBLOCK
 70
0
  3

 72
65
 73
0
 40
0.0
  0
LTYPE
  5
15
100
AcDbSymbolTableRecord
100
AcDbLinetypeTableRecord
  2
BYLAYER
 70
0
  3

 72
65
 73
0
 40
0.0
  0
LTYPE
  5
16
100
AcDbSymbolTableRecord
100
AcDbLinetypeTableRecord
  2
CONTINUOUS
 70
64
  3
Solid line
 72
65
 73
0
 40
0.0
  0
LTYPE
  5
1F5
100
AcDbSymbolTableRecord
100
AcDbLinetypeTableRecord
  2
CENTER
 70
64
  3
____ _ ____ _ ____ _ ____ _ ____ _ ____ _ ____
 72
65
 73
4
 40
0.6
 49
0.375
 74
0
 49
-0.075
 74
0
 49
0.075
 74
0
 49
-0.075
 74
0
  0
LTYPE
  5
1F6
100
AcDbSymbolTableRecord
100
AcDbLinetypeTableRecord
  2
HIDDEN
 70
64
  3
- - - - - - - - - - - - - - - - - - - -
 72
65
 73
2
 40
0.2
 49
0.1
 74
0
 49
-0.1
 74
0
  0
LTYPE
  5
1F7
100
AcDbSymbolTableRecord
100
AcDbLinetypeTableRecord
  2
PHANTOM
 70
64
  3
_____ _ _ _____ _ _ _____ _ _ _____
 72
65
 73
6
 40
0.8
 49
0.45
 74
0
 49
-0.05
 74
0
 49
0.1
 74
0
 49
-0.05
 74
0
 49
0.1
 74
0
 49
-0.05
 74
0
  0
LTYPE
  5
1F8
100
AcDbSymbolTableRecord
100
AcDbLinetypeTableRecord
  2
DOT
 70
64
  3
. . . . . . . . . . . . . . . . . . . .
 72
65
 73
2
 40
0.2
 49
0.1
 74
0
 49
-0.1
 74
0
  0
LTYPE
  5
1F9
100
AcDbSymbolTableRecord
100
AcDbLinetypeTableRecord
  2
DASHED
 70
64
  3
- - - - - - - - - - - - - - - - - - - -
 72
65
 73
2
 40
0.2
 49
0.1
 74
0
 49
-0.1
 74
0
  0
ENDTAB
  0
TABLE
  2
LAYER
  5
2
100
AcDbSymbolTable
 70
36
  0
LAYER
  5
10
100
AcDbSymbolTableRecord
100
AcDbLayerTableRecord
  2
0
 70
0
 62
7
  6
CONTINUOUS
370
-3
390
F
  0
LAYER
  5
1FA
100
AcDbSymbolTableRecord
100
AcDbLayerTableRecord
  2
DEFAULT_1
 70
0
 62
7
  6
CENTER
370
-3
390
F
  0
LAYER
  5
1FB
100
AcDbSymbolTableRecord
100
AcDbLayerTableRecord
  2
DEFAULT_2
 70
0
 62
8
  6
HIDDEN
370
-3
390
F
  0
LAYER
  5
1FC
100
AcDbSymbolTableRecord
100
AcDbLayerTableRecord
  2
DEFAULT_3
 70
0
 62
7
  6
PHANTOM
370
-3
390
F
  0
LAYER
  5
1FD
100
AcDbSymbolTableRecord
100
AcDbLayerTableRecord
  2
01_ALL_DTM_PLN
 70
0
 62
7
  6
CONTINUOUS
370
-3
390
F
  0
LAYER
  5
1FE
100
AcDbSymbolTableRecord
100
AcDbLayerTableRecord
  2
01__ASM_ALL_DTM_PLN
 70
0
 62
7
  6
CONTINUOUS
370
-3
390
F
  0
LAYER
  5
1FF
100
AcDbSymbolTableRecord
100
AcDbLayerTableRecord
  2
01__ASM_DEF_DTM_PLN
 70
0
 62
7
  6
CONTINUOUS
370
-3
390
F
  0
LAYER
  5
200
100
AcDbSymbolTableRecord
100
AcDbLayerTableRecord
  2
01___PRT_ALL_DTM_PLN
 70
0
 62
7
  6
CONTINUOUS
370
-3
390
F
  0
LAYER
  5
201
100
AcDbSymbolTableRecord
100
AcDbLayerTableRecord
  2
01___PRT_DEF_DTM_PLN
 70
0
 62
7
  6
CONTINUOUS
370
-3
390
F
  0
LAYER
  5
202
100
AcDbSymbolTableRecord
100
AcDbLayerTableRecord
  2
02_ALL_AXES
 70
0
 62
7
  6
CONTINUOUS
370
-3
390
F
  0
LAYER
  5
203
100
AcDbSymbolTableRecord
100
AcDbLayerTableRecord
  2
02__ASM_ALL_AXES
 70
0
 62
7
  6
CONTINUOUS
370
-3
390
F
  0
LAYER
  5
204
100
AcDbSymbolTableRecord
100
AcDbLayerTableRecord
  2
02___PRT_ALL_AXES
 70
0
 62
7
  6
CONTINUOUS
370
-3
390
F
  0
LAYER
  5
205
100
AcDbSymbolTableRecord
100
AcDbLayerTableRecord
  2
03_ALL_CURVES
 70
0
 62
7
  6
CONTINUOUS
370
-3
390
F
  0
LAYER
  5
206
100
AcDbSymbolTableRecord
100
AcDbLayerTableRecord
  2
03__ASM_ALL_CURVES
 70
0
 62
7
  6
CONTINUOUS
370
-3
390
F
  0
LAYER
  5
207
100
AcDbSymbolTableRecord
100
AcDbLayerTableRecord
  2
03___PRT_ALL_CURVES
 70
0
 62
7
  6
CONTINUOUS
370
-3
390
F
  0
LAYER
  5
208
100
AcDbSymbolTableRecord
100
AcDbLayerTableRecord
  2
04_ALL_DTM_PNT
 70
0
 62
7
  6
CONTINUOUS
370
-3
390
F
  0
LAYER
  5
209
100
AcDbSymbolTableRecord
100
AcDbLayerTableRecord
  2
04__ASM_ALL_DTM_PNT
 70
0
 62
7
  6
CONTINUOUS
370
-3
390
F
  0
LAYER
  5
20A
100
AcDbSymbolTableRecord
100
AcDbLayerTableRecord
  2
04___PRT_ALL_DTM_PNT
 70
0
 62
7
  6
CONTINUOUS
370
-3
390
F
  0
LAYER
  5
20B
100
AcDbSymbolTableRecord
100
AcDbLayerTableRecord
  2
05_ALL_DTM_CSYS
 70
0
 62
7
  6
CONTINUOUS
370
-3
390
F
  0
LAYER
  5
20C
100
AcDbSymbolTableRecord
100
AcDbLayerTableRecord
  2
05__ASM_ALL_DTM_CSYS
 70
0
 62
7
  6
CONTINUOUS
370
-3
390
F
  0
LAYER
  5
20D
100
AcDbSymbolTableRecord
100
AcDbLayerTableRecord
  2
05__ASM_DEF_DTM_CSYS
 70
0
 62
7
  6
CONTINUOUS
370
-3
390
F
  0
LAYER
  5
20E
100
AcDbSymbolTableRecord
100
AcDbLayerTableRecord
  2
05___PRT_ALL_DTM_CSYS
 70
0
 62
7
  6
CONTINUOUS
370
-3
390
F
  0
LAYER
  5
20F
100
AcDbSymbolTableRecord
100
AcDbLayerTableRecord
  2
05___PRT_DEF_DTM_CSYS
 70
0
 62
7
  6
CONTINUOUS
370
-3
390
F
  0
LAYER
  5
210
100
AcDbSymbolTableRecord
100
AcDbLayerTableRecord
  2
06_ALL_SURFS
 70
0
 62
7
  6
CONTINUOUS
370
-3
390
F
  0
LAYER
  5
211
100
AcDbSymbolTableRecord
100
AcDbLayerTableRecord
  2
06__ASM_ALL_SURFS
 70
0
 62
7
  6
CONTINUOUS
370
-3
390
F
  0
LAYER
  5
212
100
AcDbSymbolTableRecord
100
AcDbLayerTableRecord
  2
06___PRT_ALL_SURFS
 70
0
 62
7
  6
CONTINUOUS
370
-3
390
F
  0
LAYER
  5
213
100
AcDbSymbolTableRecord
100
AcDbLayerTableRecord
  2
07__ASM_ALL_SKELETONS
 70
0
 62
7
  6
CONTINUOUS
370
-3
390
F
  0
ENDTAB
  0
TABLE
  2
STYLE
  5
3
100
AcDbSymbolTable
 70
1
  0
STYLE
  5
11
100
AcDbSymbolTableRecord
100
AcDbTextStyleTableRecord
  2
STANDARD
 70
0
 40
0.0
 41
0.8
 50
0.0
 71
0
 42
0.2
  3
txt
  4

  0
STYLE
  5
214
100
AcDbSymbolTableRecord
100
AcDbTextStyleTableRecord
  2
TEXTSTYLE_1
 70
0
 40
0.0
 41
0.8
 50
0.0
 71
0
 42
0.2
  3
gdt
  4

  0
ENDTAB
  0
TABLE
  2
VIEW
  5
6
100
AcDbSymbolTable
 70
0
  0
ENDTAB
  0
TABLE
  2
UCS
  5
7
100
AcDbSymbolTable
 70
0
  0
ENDTAB
  0
TABLE
  2
APPID
  5
9
100
AcDbSymbolTable
 70
1
  0
APPID
  5
215
100
AcDbSymbolTableRecord
100
AcDbRegAppTableRecord
  2
ACAD
 70
0
  0
ENDTAB
  0
TABLE
  2
BLOCK_RECORD
  5
1
100
AcDbSymbolTable
 70
0
  0
BLOCK_RECORD
  5
216
100
AcDbSymbolTableRecord
100
AcDbBlockTableRecord
  2
*Model_Space
  0
BLOCK_RECORD
  5
217
100
AcDbSymbolTableRecord
100
AcDbBlockTableRecord
  2
*Paper_Space
  0
ENDTAB
  0
TABLE
  2
DIMSTYLE
  5
A
100
AcDbSymbolTable
 70
1
100
AcDbDimStyleTable
 71
0
  0
DIMSTYLE
105
218
100
AcDbSymbolTableRecord
100
AcDbDimStyleTableRecord
  2
STANDARD
 70
0
  3

  4

 40
1.0
 41
0.1875
 42
0.0625
 43
0.38
 44
0.125
 45
0.0
 46
0.0
 47
0.0001
 48
0.0001
140
0.15625
141
0.09
142
0.0
143
25.4
144
1.0
145
0.0
146
1.0
147
0.09
 71
0.0
 72
0.0
 73
1
 74
1
 75
0
 76
0
 77
0
 78
4
170
0
171
2
172
0
173
0
174
0
175
0
176
0
177
0
178
0
270
2
271
4
272
4
273
2
274
2
275
0
280
0
281
0
282
0
283
1
284
4
285
0
286
0
287
3
288
0
340
11
278
46
  0
ENDTAB
  0
ENDSEC
  0
SECTION
  2
BLOCKS
  0
BLOCK
  5
20
100
AcDbEntity
  8
0
100
AcDbBlockBegin
  2
*Model_Space
 70
0
 10
0.0
 20
0.0
 30
0.0
  3
*Model_Space
  1

  0
ENDBLK
  5
21
100
AcDbEntity
  8
0
100
AcDbBlockEnd
  0
BLOCK
  5
1C
100
AcDbEntity
  8
0
100
AcDbBlockBegin
  2
*Paper_Space
 70
0
 10
0.0
 20
0.0
 30
0.0
  3
*Paper_Space
  1

  0
ENDBLK
  5
1D
100
AcDbEntity
  8
0
100
AcDbBlockEnd
  0
ENDSEC
  0
SECTION
  2
ENTITIES
  0
MTEXT
  5
219
100
AcDbEntity
  8
0
100
AcDbMText
 62
7
  6
CONTINUOUS
  7
STANDARD
 71
1
 72
1
 10
15.9560215477
 20
0.9479130325
 30
0.0
 11
1.0
 21
0.0
 31
0.0
 44
0.9
  1
SCALE: 1:2.000
 40
0.3
 41
3.36
  0
LINE
  5
21A
100
AcDbEntity
  8
0
100
AcDbLine
 62
7
  6
CONTINUOUS
 10
0.0
 20
0.0
 11
0.0
 21
17.0
  0
LINE
  5
21B
100
AcDbEntity
  8
0
100
AcDbLine
 62
7
  6
CONTINUOUS
 10
0.0
 20
0.0
 11
22.0
 21
0.0
  0
LINE
  5
21C
100
AcDbEntity
  8
0
100
AcDbLine
 62
7
  6
CONTINUOUS
 10
0.0
 20
17.0
 11
22.0
 21
17.0
  0
LINE
  5
21D
100
AcDbEntity
  8
0
100
AcDbLine
 62
7
  6
CONTINUOUS
 10
22.0
 20
0.0
 11
22.0
 21
17.0
  0
LINE
  5
21E
100
AcDbEntity
  8
0
100
AcDbLine
 62
7
  6
CONTINUOUS
 10
4.2406034966
 20
5.7401986369
 11
4.2406034966
 21
5.5583088731
  0
LINE
  5
21F
100
AcDbEntity
  8
0
100
AcDbLine
 62
7
  6
CONTINUOUS
 10
4.4833574086
 20
5.3000411566
 11
4.6277708445
 21
5.3000411566
  0
LINE
  5
220
100
AcDbEntity
  8
0
100
AcDbLine
 62
7
  6
CONTINUOUS
 10
5.1132786685
 20
5.3000411566
 11
5.2576921043
 21
5.3000411566
  0
LINE
  5
221
100
AcDbEntity
  8
0
100
AcDbLine
 62
7
  6
CONTINUOUS
 10
5.7431999283
 20
5.3000411566
 11
5.8876133642
 21
5.3000411566
  0
LINE
  5
222
100
AcDbEntity
  8
0
100
AcDbLine
 62
7
  6
CONTINUOUS
 10
6.3731211881
 20
5.3000411566
 11
6.517534624
 21
5.3000411566
  0
LINE
  5
223
100
AcDbEntity
  8
0
100
AcDbLine
 62
7
  6
CONTINUOUS
 10
7.003042448
 20
5.3000411566
 11
7.1474558839
 21
5.3000411566
  0
LINE
  5
224
100
AcDbEntity
  8
0
100
AcDbLine
 62
7
  6
CONTINUOUS
 10
7.6329637078
 20
5.3000411566
 11
7.7773771437
 21
5.3000411566
  0
LINE
  5
225
100
AcDbEntity
  8
0
100
AcDbLine
 62
7
  6
CONTINUOUS
 10
4.2406034966
 20
5.5583088731
 11
4.3089546253
 21
5.5583088731
  0
LINE
  5
226
100
AcDbEntity
  8
0
100
AcDbLine
 62
7
  6
CONTINUOUS
 10
4.8021736278
 20
5.5583088731
 11
4.9388758851
 21
5.5583088731
  0
LINE
  5
227
100
AcDbEntity
  8
0
100
AcDbLine
 62
7
  6
CONTINUOUS
 10
5.4320948877
 20
5.5583088731
 11
5.568797145
 21
5.5583088731
  0
LINE
  5
228
100
AcDbEntity
  8
0
100
AcDbLine
 62
7
  6
CONTINUOUS
 10
6.0620161475
 20
5.5583088731
 11
6.1987184048
 21
5.5583088731
  0
LINE
  5
229
100
AcDbEntity
  8
0
100
AcDbLine
 62
7
  6
CONTINUOUS
 10
6.6919374074
 20
5.5583088731
 11
6.8286396647
 21
5.5583088731
  0
LINE
  5
22A
100
AcDbEntity
  8
0
100
AcDbLine
 62
7
  6
CONTINUOUS
 10
7.3218586672
 20
5.5583088731
 11
7.4585609245
 21
5.5583088731
  0
LINE
  5
22B
100
AcDbEntity
  8
0
100
AcDbLine
 62
7
  6
CONTINUOUS
 10
7.951779927
 20
5.5583088731
 11
8.0201310557
 21
5.5583088731
  0
LINE
  5
22C
100
AcDbEntity
  8
0
100
AcDbLine
 62
7
  6
CONTINUOUS
 10
8.0201310557
 20
5.7401986369
 11
4.2406034966
 21
5.7401986369
  0
LINE
  5
22D
100
AcDbEntity
  8
0
100
AcDbLine
 62
7
  6
CONTINUOUS
 10
8.0201310557
 20
5.5583088731
 11
8.0201310557
 21
5.7401986369
  0
LINE
  5
22E
100
AcDbEntity
  8
0
100
AcDbLine
 62
7
  6
CONTINUOUS
 10
4.1811083043
 20
13.7811501436
 11
4.1811083043
 21
11.4189454192
  0
LINE
  5
22F
100
AcDbEntity
  8
0
100
AcDbLine
 62
7
  6
CONTINUOUS
 10
7.9606358634
 20
11.4189454192
 11
4.1811083043
 21
11.4189454192
  0
LINE
  5
230
100
AcDbEntity
  8
0
100
AcDbLine
 62
7
  6
CONTINUOUS
 10
4.1811083043
 20
13.7811501436
 11
7.9606358634
 21
13.7811501436
  0
LINE
  5
231
100
AcDbEntity
  8
0
100
AcDbLine
 62
7
  6
CONTINUOUS
 10
7.9606358634
 20
13.7811501436
 11
7.9606358634
 21
11.4189454192
  0
LINE
  5
232
100
AcDbEntity
  8
0
100
AcDbLine
 62
7
  6
CONTINUOUS
 10
14.3792528947
 20
5.2405459643
 11
14.3792528947
 21
5.6807034446
  0
LINE
  5
233
100
AcDbEntity
  8
0
100
AcDbLine
 62
7
  6
CONTINUOUS
 10
14.3792528947
 20
5.2405459643
 11
16.7414576191
 21
5.2405459643
  0
LINE
  5
234
100
AcDbEntity
  8
0
100
AcDbLine
 62
7
  6
CONTINUOUS
 10
16.7414576191
 20
5.4988136808
 11
14.3792528947
 21
5.4988136808
  0
LINE
  5
235
100
AcDbEntity
  8
0
100
AcDbLine
 62
7
  6
CONTINUOUS
 10
16.7414576191
 20
5.6807034446
 11
14.3792528947
 21
5.6807034446
  0
LINE
  5
236
100
AcDbEntity
  8
0
100
AcDbLine
 62
7
  6
CONTINUOUS
 10
16.7414576191
 20
5.2405459643
 11
16.7414576191
 21
5.6807034446
  0
LINE
  5
237
100
AcDbEntity
  8
0
100
AcDbLine
 62
7
  6
CONTINUOUS
 10
13.4168776604
 20
11.7224188683
 11
13.4723616534
 21
11.609354378
  0
LINE
  5
238
100
AcDbEntity
  8
0
100
AcDbLine
 62
7
  6
CONTINUOUS
 10
13.9886878731
 20
13.5727973949
 11
13.4168776604
 21
11.7224188683
  0
LINE
  5
239
100
AcDbEntity
  8
0
100
AcDbLine
 62
7
  6
CONTINUOUS
 10
13.9588824065
 20
11.4742643376
 11
14.0006361452
 21
11.609354378
  0
LINE
  5
23A
100
AcDbEntity
  8
0
100
AcDbLine
 62
7
  6
CONTINUOUS
 10
13.7747352792
 20
11.4488125909
 11
13.907748862
 21
11.4488125909
  0
LINE
  5
23B
100
AcDbEntity
  8
0
100
AcDbLine
 62
7
  6
CONTINUOUS
 10
14.354931181
 20
11.4488125909
 11
14.4879447638
 21
11.4488125909
  0
LINE
  5
23C
100
AcDbEntity
  8
0
100
AcDbLine
 62
7
  6
CONTINUOUS
 10
14.9351270827
 20
11.4488125909
 11
15.0681406655
 21
11.4488125909
  0
LINE
  5
23D
100
AcDbEntity
  8
0
100
AcDbLine
 62
7
  6
CONTINUOUS
 10
15.5153229844
 20
11.4488125909
 11
15.6483365672
 21
11.4488125909
  0
LINE
  5
23E
100
AcDbEntity
  8
0
100
AcDbLine
 62
7
  6
CONTINUOUS
 10
16.0955188862
 20
11.4488125909
 11
16.228532469
 21
11.4488125909
  0
LINE
  5
23F
100
AcDbEntity
  8
0
100
AcDbLine
 62
7
  6
CONTINUOUS
 10
16.6757147879
 20
11.4488125909
 11
16.8087283707
 21
11.4488125909
  0
LINE
  5
240
100
AcDbEntity
  8
0
100
AcDbLine
 62
7
  6
CONTINUOUS
 10
13.4723616534
 20
11.609354378
 11
13.5353172119
 21
11.609354378
  0
LINE
  5
241
100
AcDbEntity
  8
0
100
AcDbLine
 62
7
  6
CONTINUOUS
 10
13.9896019967
 20
11.609354378
 11
14.1155131136
 21
11.609354378
  0
LINE
  5
242
100
AcDbEntity
  8
0
100
AcDbLine
 62
7
  6
CONTINUOUS
 10
14.5697978984
 20
11.609354378
 11
14.6957090154
 21
11.609354378
  0
LINE
  5
243
100
AcDbEntity
  8
0
100
AcDbLine
 62
7
  6
CONTINUOUS
 10
15.1499938001
 20
11.609354378
 11
15.2759049171
 21
11.609354378
  0
LINE
  5
244
100
AcDbEntity
  8
0
100
AcDbLine
 62
7
  6
CONTINUOUS
 10
15.7301897019
 20
11.609354378
 11
15.8561008188
 21
11.609354378
  0
LINE
  5
245
100
AcDbEntity
  8
0
100
AcDbLine
 62
7
  6
CONTINUOUS
 10
16.3103856036
 20
11.609354378
 11
16.4362967206
 21
11.609354378
  0
LINE
  5
246
100
AcDbEntity
  8
0
100
AcDbLine
 62
7
  6
CONTINUOUS
 10
16.8905815053
 20
11.609354378
 11
16.9535370638
 21
11.609354378
  0
LINE
  5
247
100
AcDbEntity
  8
0
100
AcDbLine
 62
7
  6
CONTINUOUS
 10
16.8980530708
 20
11.7224188683
 11
13.4168776604
 21
11.7224188683
  0
LINE
  5
248
100
AcDbEntity
  8
0
100
AcDbLine
 62
7
  6
CONTINUOUS
 10
14.5390783082
 20
11.4742643376
 11
14.580832047
 21
11.609354378
  0
LINE
  5
249
100
AcDbEntity
  8
0
100
AcDbLine
 62
7
  6
CONTINUOUS
 10
15.11927421
 20
11.4742643376
 11
15.1610279487
 21
11.609354378
  0
LINE
  5
24A
100
AcDbEntity
  8
0
100
AcDbLine
 62
7
  6
CONTINUOUS
 10
15.6994701117
 20
11.4742643376
 11
15.7412238504
 21
11.609354378
  0
LINE
  5
24B
100
AcDbEntity
  8
0
100
AcDbLine
 62
7
  6
CONTINUOUS
 10
16.9535370638
 20
11.609354378
 11
16.8980530708
 21
11.7224188683
  0
LINE
  5
24C
100
AcDbEntity
  8
0
100
AcDbLine
 62
7
  6
CONTINUOUS
 10
16.2796660134
 20
11.4742643376
 11
16.3214197522
 21
11.609354378
  0
LINE
  5
24D
100
AcDbEntity
  8
0
100
AcDbLine
 62
7
  6
CONTINUOUS
 10
13.9886878731
 20
13.5727973949
 11
17.4698632835
 21
13.5727973949
  0
LINE
  5
24E
100
AcDbEntity
  8
0
100
AcDbLine
 62
7
  6
CONTINUOUS
 10
17.4698632835
 20
13.5727973949
 11
16.8980530708
 21
11.7224188683
  0
LINE
  5
24F
100
AcDbEntity
  8
0
100
AcDbLine
 62
7
  6
CONTINUOUS
 10
16.9016156539
 20
11.609354378
 11
16.8603069574
 21
11.4756793869
  0
LINE
  5
250
100
AcDbEntity
  8
0
100
AcDbLine
 62
7
  6
CONTINUOUS
 10
17.5253472766
 20
13.4597329046
 11
16.9535370638
 21
11.609354378
  0
LINE
  5
251
100
AcDbEntity
  8
0
100
AcDbLine
 62
7
  6
CONTINUOUS
 10
16.8598619152
 20
11.4742643376
 11
16.8603064166
 21
11.475679554
  0
LINE
  5
252
100
AcDbEntity
  8
0
100
AcDbLine
 62
7
  6
CONTINUOUS
 10
17.5253472766
 20
13.4597329046
 11
17.4698632835
 21
13.5727973949
  0
ARC
  5
253
100
AcDbEntity
  8
0
100
AcDbCircle
 62
7
  6
CONTINUOUS
 10
4.2996586147
 20
5.5583088731
 40
0.4527559055
100
AcDbArc
 50
331.3145979859
 51
354.0364298817
  0
ARC
  5
254
100
AcDbEntity
  8
0
100
AcDbCircle
 62
7
  6
CONTINUOUS
 10
5.4413908982
 20
5.5583088731
 40
0.4527559055
100
AcDbArc
 50
185.9635701183
 51
208.6854020141
  0
ARC
  5
255
100
AcDbEntity
  8
0
100
AcDbCircle
 62
7
  6
CONTINUOUS
 10
4.9295798746
 20
5.5583088731
 40
0.4527559055
100
AcDbArc
 50
331.3145979859
 51
354.0364298817
  0
ARC
  5
256
100
AcDbEntity
  8
0
100
AcDbCircle
 62
7
  6
CONTINUOUS
 10
6.0713121581
 20
5.5583088731
 40
0.4527559055
100
AcDbArc
 50
185.9635701183
 51
208.6854020141
  0
ARC
  5
257
100
AcDbEntity
  8
0
100
AcDbCircle
 62
7
  6
CONTINUOUS
 10
5.5595011344
 20
5.5583088731
 40
0.4527559055
100
AcDbArc
 50
331.3145979859
 51
354.0364298817
  0
ARC
  5
258
100
AcDbEntity
  8
0
100
AcDbCircle
 62
7
  6
CONTINUOUS
 10
6.7012334179
 20
5.5583088731
 40
0.4527559055
100
AcDbArc
 50
185.9635701183
 51
208.6854020141
  0
ARC
  5
259
100
AcDbEntity
  8
0
100
AcDbCircle
 62
7
  6
CONTINUOUS
 10
4.8114696384
 20
5.5583088731
 40
0.4527559055
100
AcDbArc
 50
185.9635701183
 51
208.6854020141
  0
ARC
  5
25A
100
AcDbEntity
  8
0
100
AcDbCircle
 62
7
  6
CONTINUOUS
 10
7.449264914
 20
5.5583088731
 40
0.4527559055
100
AcDbArc
 50
331.3145979859
 51
354.0364298817
  0
ARC
  5
25B
100
AcDbEntity
  8
0
100
AcDbCircle
 62
7
  6
CONTINUOUS
 10
7.9610759376
 20
5.5583088731
 40
0.4527559055
100
AcDbArc
 50
185.9635701183
 51
208.6854020141
  0
ARC
  5
25C
100
AcDbEntity
  8
0
100
AcDbCircle
 62
7
  6
CONTINUOUS
 10
6.8193436541
 20
5.5583088731
 40
0.4527559055
100
AcDbArc
 50
331.3145979859
 51
354.0364298817
  0
ARC
  5
25D
100
AcDbEntity
  8
0
100
AcDbCircle
 62
7
  6
CONTINUOUS
 10
7.3311546777
 20
5.5583088731
 40
0.4527559055
100
AcDbArc
 50
185.9635701183
 51
208.6854020141
  0
ARC
  5
25E
100
AcDbEntity
  8
0
100
AcDbCircle
 62
7
  6
CONTINUOUS
 10
6.1894223943
 20
5.5583088731
 40
0.4527559055
100
AcDbArc
 50
331.3145979859
 51
354.0364298817
  0
ARC
  5
25F
100
AcDbEntity
  8
0
100
AcDbCircle
 62
7
  6
CONTINUOUS
 10
4.4833574086
 20
5.3787813141
 40
0.0787401575
100
AcDbArc
 50
208.6854020141
 51
270.0
  0
ARC
  5
260
100
AcDbEntity
  8
0
100
AcDbCircle
 62
7
  6
CONTINUOUS
 10
4.6277708445
 20
5.3787813141
 40
0.0787401575
100
AcDbArc
 50
270.0
 51
331.3145979859
  0
ARC
  5
261
100
AcDbEntity
  8
0
100
AcDbCircle
 62
7
  6
CONTINUOUS
 10
5.1132786685
 20
5.3787813141
 40
0.0787401575
100
AcDbArc
 50
208.6854020141
 51
270.0
  0
ARC
  5
262
100
AcDbEntity
  8
0
100
AcDbCircle
 62
7
  6
CONTINUOUS
 10
5.2576921043
 20
5.3787813141
 40
0.0787401575
100
AcDbArc
 50
270.0
 51
331.3145979859
  0
ARC
  5
263
100
AcDbEntity
  8
0
100
AcDbCircle
 62
7
  6
CONTINUOUS
 10
5.7431999283
 20
5.3787813141
 40
0.0787401575
100
AcDbArc
 50
208.6854020141
 51
270.0
  0
ARC
  5
264
100
AcDbEntity
  8
0
100
AcDbCircle
 62
7
  6
CONTINUOUS
 10
5.8876133642
 20
5.3787813141
 40
0.0787401575
100
AcDbArc
 50
270.0
 51
331.3145979859
  0
ARC
  5
265
100
AcDbEntity
  8
0
100
AcDbCircle
 62
7
  6
CONTINUOUS
 10
6.3731211881
 20
5.3787813141
 40
0.0787401575
100
AcDbArc
 50
208.6854020141
 51
270.0
  0
ARC
  5
266
100
AcDbEntity
  8
0
100
AcDbCircle
 62
7
  6
CONTINUOUS
 10
7.7773771437
 20
5.3787813141
 40
0.0787401575
100
AcDbArc
 50
270.0
 51
331.3145979859
  0
ARC
  5
267
100
AcDbEntity
  8
0
100
AcDbCircle
 62
7
  6
CONTINUOUS
 10
7.6329637078
 20
5.3787813141
 40
0.0787401575
100
AcDbArc
 50
208.6854020141
 51
270.0
  0
ARC
  5
268
100
AcDbEntity
  8
0
100
AcDbCircle
 62
7
  6
CONTINUOUS
 10
7.1474558839
 20
5.3787813141
 40
0.0787401575
100
AcDbArc
 50
270.0
 51
331.3145979859
  0
ARC
  5
269
100
AcDbEntity
  8
0
100
AcDbCircle
 62
7
  6
CONTINUOUS
 10
7.003042448
 20
5.3787813141
 40
0.0787401575
100
AcDbArc
 50
208.6854020141
 51
270.0
  0
ARC
  5
26A
100
AcDbEntity
  8
0
100
AcDbCircle
 62
7
  6
CONTINUOUS
 10
6.517534624
 20
5.3787813141
 40
0.0787401575
100
AcDbArc
 50
270.0
 51
331.3145979859
  0
ARC
  5
26B
100
AcDbEntity
  8
0
100
AcDbCircle
 62
7
  6
CONTINUOUS
 10
4.3089546253
 20
5.5058154348
 40
0.0524934383
100
AcDbArc
 50
5.9635701183
 51
90.0
  0
ARC
  5
26C
100
AcDbEntity
  8
0
100
AcDbCircle
 62
7
  6
CONTINUOUS
 10
4.8021736278
 20
5.5058154348
 40
0.0524934383
100
AcDbArc
 50
90.0
 51
174.0364298817
  0
ARC
  5
26D
100
AcDbEntity
  8
0
100
AcDbCircle
 62
7
  6
CONTINUOUS
 10
4.9388758851
 20
5.5058154348
 40
0.0524934383
100
AcDbArc
 50
5.9635701183
 51
90.0
  0
ARC
  5
26E
100
AcDbEntity
  8
0
100
AcDbCircle
 62
7
  6
CONTINUOUS
 10
5.4320948877
 20
5.5058154348
 40
0.0524934383
100
AcDbArc
 50
90.0
 51
174.0364298817
  0
ARC
  5
26F
100
AcDbEntity
  8
0
100
AcDbCircle
 62
7
  6
CONTINUOUS
 10
5.568797145
 20
5.5058154348
 40
0.0524934383
100
AcDbArc
 50
5.9635701183
 51
90.0
  0
ARC
  5
270
100
AcDbEntity
  8
0
100
AcDbCircle
 62
7
  6
CONTINUOUS
 10
6.0620161475
 20
5.5058154348
 40
0.0524934383
100
AcDbArc
 50
90.0
 51
174.0364298817
  0
ARC
  5
271
100
AcDbEntity
  8
0
100
AcDbCircle
 62
7
  6
CONTINUOUS
 10
6.1987184048
 20
5.5058154348
 40
0.0524934383
100
AcDbArc
 50
5.9635701183
 51
90.0
  0
ARC
  5
272
100
AcDbEntity
  8
0
100
AcDbCircle
 62
7
  6
CONTINUOUS
 10
6.6919374074
 20
5.5058154348
 40
0.0524934383
100
AcDbArc
 50
90.0
 51
174.0364298817
  0
ARC
  5
273
100
AcDbEntity
  8
0
100
AcDbCircle
 62
7
  6
CONTINUOUS
 10
6.8286396647
 20
5.5058154348
 40
0.0524934383
100
AcDbArc
 50
5.9635701183
 51
90.0
  0
ARC
  5
274
100
AcDbEntity
  8
0
100
AcDbCircle
 62
7
  6
CONTINUOUS
 10
7.3218586672
 20
5.5058154348
 40
0.0524934383
100
AcDbArc
 50
90.0
 51
174.0364298817
  0
ARC
  5
275
100
AcDbEntity
  8
0
100
AcDbCircle
 62
7
  6
CONTINUOUS
 10
7.4585609245
 20
5.5058154348
 40
0.0524934383
100
AcDbArc
 50
5.9635701183
 51
90.0
  0
ARC
  5
276
100
AcDbEntity
  8
0
100
AcDbCircle
 62
7
  6
CONTINUOUS
 10
7.951779927
 20
5.5058154348
 40
0.0524934383
100
AcDbArc
 50
90.0
 51
174.0364298817
  0
SPLINE
  5
277
100
AcDbEntity
  8
0
100
AcDbSpline
 62
7
  6
CONTINUOUS
 70
0
 71
3
 72
11
 73
7
 74
0
 42
0.0000001
 43
0.0000001
 44
0.0000000001
 40
0.0
 40
0.0
 40
0.0
 40
0.0
 40
0.2022220618
 40
0.4300658477
 40
0.69618674
 40
1.0
 40
1.0
 40
1.0
 40
1.0
 10
13.9554614931
 20
11.5922224572
 30
0.0
 10
13.9562690335
 20
11.5948359154
 30
0.0
 10
13.9594258766
 20
11.6000046362
 30
0.0
 10
13.9673539421
 20
11.6054328695
 30
0.0
 10
13.977752868
 20
11.6087030671
 30
0.0
 10
13.9854924367
 20
11.609354378
 30
0.0
 10
13.9896019967
 20
11.609354378
 30
0.0
  0
SPLINE
  5
278
100
AcDbEntity
  8
0
100
AcDbSpline
 62
7
  6
CONTINUOUS
 70
0
 71
3
 72
11
 73
7
 74
0
 42
0.0000001
 43
0.0000001
 44
0.0000000001
 40
0.0
 40
0.0
 40
0.0
 40
0.0
 40
0.2022220618
 40
0.4300658477
 40
0.69618674
 40
1.0
 40
1.0
 40
1.0
 40
1.0
 10
14.5356573949
 20
11.5922224572
 30
0.0
 10
14.5364649353
 20
11.5948359154
 30
0.0
 10
14.5396217784
 20
11.6000046362
 30
0.0
 10
14.5475498438
 20
11.6054328695
 30
0.0
 10
14.5579487697
 20
11.6087030671
 30
0.0
 10
14.5656883384
 20
11.609354378
 30
0.0
 10
14.5697978984
 20
11.609354378
 30
0.0
  0
SPLINE
  5
279
100
AcDbEntity
  8
0
100
AcDbSpline
 62
7
  6
CONTINUOUS
 70
0
 71
3
 72
11
 73
7
 74
0
 42
0.0000001
 43
0.0000001
 44
0.0000000001
 40
0.0
 40
0.0
 40
0.0
 40
0.0
 40
0.2022220618
 40
0.4300658477
 40
0.69618674
 40
1.0
 40
1.0
 40
1.0
 40
1.0
 10
15.1158532966
 20
11.5922224572
 30
0.0
 10
15.116660837
 20
11.5948359154
 30
0.0
 10
15.1198176801
 20
11.6000046362
 30
0.0
 10
15.1277457455
 20
11.6054328695
 30
0.0
 10
15.1381446715
 20
11.6087030671
 30
0.0
 10
15.1458842402
 20
11.609354378
 30
0.0
 10
15.1499938001
 20
11.609354378
 30
0.0
  0
SPLINE
  5
27A
100
AcDbEntity
  8
0
100
AcDbSpline
 62
7
  6
CONTINUOUS
 70
0
 71
3
 72
11
 73
7
 74
0
 42
0.0000001
 43
0.0000001
 44
0.0000000001
 40
0.0
 40
0.0
 40
0.0
 40
0.0
 40
0.2022220618
 40
0.4300658477
 40
0.69618674
 40
1.0
 40
1.0
 40
1.0
 40
1.0
 10
15.6960491983
 20
11.5922224572
 30
0.0
 10
15.6968567387
 20
11.5948359154
 30
0.0
 10
15.7000135818
 20
11.6000046362
 30
0.0
 10
15.7079416473
 20
11.6054328695
 30
0.0
 10
15.7183405732
 20
11.6087030671
 30
0.0
 10
15.7260801419
 20
11.609354378
 30
0.0
 10
15.7301897019
 20
11.609354378
 30
0.0
  0
SPLINE
  5
27B
100
AcDbEntity
  8
0
100
AcDbSpline
 62
7
  6
CONTINUOUS
 70
0
 71
3
 72
11
 73
7
 74
0
 42
0.0000001
 43
0.0000001
 44
0.0000000001
 40
0.0
 40
0.0
 40
0.0
 40
0.0
 40
0.2022220618
 40
0.4300658477
 40
0.69618674
 40
1.0
 40
1.0
 40
1.0
 40
1.0
 10
16.2762451001
 20
11.5922224572
 30
0.0
 10
16.2770526405
 20
11.5948359154
 30
0.0
 10
16.2802094836
 20
11.6000046362
 30
0.0
 10
16.288137549
 20
11.6054328695
 30
0.0
 10
16.2985364749
 20
11.6087030671
 30
0.0
 10
16.3062760436
 20
11.609354378
 30
0.0
 10
16.3103856036
 20
11.609354378
 30
0.0
  0
SPLINE
  5
27C
100
AcDbEntity
  8
0
100
AcDbSpline
 62
7
  6
CONTINUOUS
 70
0
 71
3
 72
11
 73
7
 74
0
 42
0.0000001
 43
0.0000001
 44
0.0000000001
 40
0.0
 40
0.0
 40
0.0
 40
0.0
 40
0.2022220618
 40
0.4300658477
 40
0.69618674
 40
1.0
 40
1.0
 40
1.0
 40
1.0
 10
16.8564410018
 20
11.5922224572
 30
0.0
 10
16.8572485422
 20
11.5948359154
 30
0.0
 10
16.8604053853
 20
11.6000046362
 30
0.0
 10
16.8683334507
 20
11.6054328695
 30
0.0
 10
16.8787323767
 20
11.6087030671
 30
0.0
 10
16.8864719454
 20
11.609354378
 30
0.0
 10
16.8905815053
 20
11.609354378
 30
0.0
  0
SPLINE
  5
27D
100
AcDbEntity
  8
0
100
AcDbSpline
 62
7
  6
CONTINUOUS
 70
0
 71
3
 72
11
 73
7
 74
0
 42
0.0000001
 43
0.0000001
 44
0.0000000001
 40
0.0
 40
0.0
 40
0.0
 40
0.0
 40
0.2600306895
 40
0.5283883071
 40
0.7814357643
 40
1.0
 40
1.0
 40
1.0
 40
1.0
 10
13.5353172119
 20
11.609354378
 30
0.0
 10
13.5414928534
 20
11.609354378
 30
0.0
 10
13.5540654187
 20
11.6077680647
 30
0.0
 10
13.5717393645
 20
11.6017085505
 30
0.0
 10
13.586930633
 20
11.5926289745
 30
0.0
 10
13.5949390799
 20
11.5844752456
 30
0.0
 10
13.5977542492
 20
11.5801141095
 30
0.0
  0
SPLINE
  5
27E
100
AcDbEntity
  8
0
100
AcDbSpline
 62
7
  6
CONTINUOUS
 70
0
 71
3
 72
11
 73
7
 74
0
 42
0.0000001
 43
0.0000001
 44
0.0000000001
 40
0.0
 40
0.0
 40
0.0
 40
0.0
 40
0.2600306895
 40
0.5283883071
 40
0.7814357643
 40
1.0
 40
1.0
 40
1.0
 40
1.0
 10
14.1155131136
 20
11.609354378
 30
0.0
 10
14.1216887551
 20
11.609354378
 30
0.0
 10
14.1342613204
 20
11.6077680647
 30
0.0
 10
14.1519352662
 20
11.6017085505
 30
0.0
 10
14.1671265347
 20
11.5926289745
 30
0.0
 10
14.1751349816
 20
11.5844752456
 30
0.0
 10
14.1779501509
 20
11.5801141095
 30
0.0
  0
SPLINE
  5
27F
100
AcDbEntity
  8
0
100
AcDbSpline
 62
7
  6
CONTINUOUS
 70
0
 71
3
 72
9
 73
5
 74
0
 42
0.0000001
 43
0.0000001
 44
0.0000000001
 40
0.0
 40
0.0
 40
0.0
 40
0.0
 40
0.4753060626
 40
1.0
 40
1.0
 40
1.0
 40
1.0
 10
13.5977542492
 20
11.5801141095
 30
0.0
 10
13.6103628436
 20
11.5605814317
 30
0.0
 10
13.641416308
 20
11.5223549056
 30
0.0
 10
13.6782711879
 20
11.4899011426
 30
0.0
 10
13.6986219283
 20
11.4742643376
 30
0.0
  0
SPLINE
  5
280
100
AcDbEntity
  8
0
100
AcDbSpline
 62
7
  6
CONTINUOUS
 70
0
 71
3
 72
12
 73
8
 74
0
 42
0.0000001
 43
0.0000001
 44
0.0000000001
 40
0.0
 40
0.0
 40
0.0
 40
0.0
 40
0.3031770266
 40
0.5689627801
 40
0.7967049726
 40
0.9002206549
 40
1.0
 40
1.0
 40
1.0
 40
1.0
 10
16.8087283707
 20
11.4488125909
 30
0.0
 10
16.8148620746
 20
11.4488125909
 30
0.0
 10
16.8264193917
 20
11.4497868731
 30
0.0
 10
16.8419517885
 20
11.4546180927
 30
0.0
 10
16.8521637311
 20
11.4615972636
 30
0.0
 10
16.8575188689
 20
11.4685609118
 30
0.0
 10
16.8592466593
 20
11.4723417031
 30
0.0
 10
16.8598619152
 20
11.4742643376
 30
0.0
  0
SPLINE
  5
281
100
AcDbEntity
  8
0
100
AcDbSpline
 62
7
  6
CONTINUOUS
 70
0
 71
3
 72
11
 73
7
 74
0
 42
0.0000001
 43
0.0000001
 44
0.0000000001
 40
0.0
 40
0.0
 40
0.0
 40
0.0
 40
0.2413697437
 40
0.4964392309
 40
0.753355384
 40
1.0
 40
1.0
 40
1.0
 40
1.0
 10
16.599601437
 20
11.4742643376
 30
0.0
 10
16.6048014176
 20
11.4702688524
 30
0.0
 10
16.6163179159
 20
11.4630928571
 30
0.0
 10
16.6352595708
 20
11.455141886
 30
0.0
 10
16.6553151979
 20
11.4500761095
 30
0.0
 10
16.6690137554
 20
11.4488125909
 30
0.0
 10
16.6757147879
 20
11.4488125909
 30
0.0
  0
SPLINE
  5
282
100
AcDbEntity
  8
0
100
AcDbSpline
 62
7
  6
CONTINUOUS
 70
0
 71
3
 72
9
 73
5
 74
0
 42
0.0000001
 43
0.0000001
 44
0.0000000001
 40
0.0
 40
0.0
 40
0.0
 40
0.0
 40
0.475306739
 40
1.0
 40
1.0
 40
1.0
 40
1.0
 10
16.4987337579
 20
11.5801141095
 30
0.0
 10
16.5113423666
 20
11.5605814095
 30
0.0
 10
16.5423962007
 20
11.5223552185
 30
0.0
 10
16.5792507286
 20
11.489901118
 30
0.0
 10
16.599601437
 20
11.4742643376
 30
0.0
  0
SPLINE
  5
283
100
AcDbEntity
  8
0
100
AcDbSpline
 62
7
  6
CONTINUOUS
 70
0
 71
3
 72
12
 73
8
 74
0
 42
0.0000001
 43
0.0000001
 44
0.0000000001
 40
0.0
 40
0.0
 40
0.0
 40
0.0
 40
0.3031770266
 40
0.5689627801
 40
0.7967049726
 40
0.9002206549
 40
1.0
 40
1.0
 40
1.0
 40
1.0
 10
16.228532469
 20
11.4488125909
 30
0.0
 10
16.2346661729
 20
11.4488125909
 30
0.0
 10
16.24622349
 20
11.4497868731
 30
0.0
 10
16.2617558867
 20
11.4546180927
 30
0.0
 10
16.2719678294
 20
11.4615972636
 30
0.0
 10
16.2773229672
 20
11.4685609118
 30
0.0
 10
16.2790507576
 20
11.4723417031
 30
0.0
 10
16.2796660134
 20
11.4742643376
 30
0.0
  0
SPLINE
  5
284
100
AcDbEntity
  8
0
100
AcDbSpline
 62
7
  6
CONTINUOUS
 70
0
 71
3
 72
11
 73
7
 74
0
 42
0.0000001
 43
0.0000001
 44
0.0000000001
 40
0.0
 40
0.0
 40
0.0
 40
0.0
 40
0.2413697437
 40
0.4964392309
 40
0.753355384
 40
1.0
 40
1.0
 40
1.0
 40
1.0
 10
16.0194055353
 20
11.4742643376
 30
0.0
 10
16.0246055159
 20
11.4702688524
 30
0.0
 10
16.0361220141
 20
11.4630928571
 30
0.0
 10
16.055063669
 20
11.455141886
 30
0.0
 10
16.0751192961
 20
11.4500761095
 30
0.0
 10
16.0888178536
 20
11.4488125909
 30
0.0
 10
16.0955188862
 20
11.4488125909
 30
0.0
  0
SPLINE
  5
285
100
AcDbEntity
  8
0
100
AcDbSpline
 62
7
  6
CONTINUOUS
 70
0
 71
3
 72
9
 73
5
 74
0
 42
0.0000001
 43
0.0000001
 44
0.0000000001
 40
0.0
 40
0.0
 40
0.0
 40
0.0
 40
0.4753060626
 40
1.0
 40
1.0
 40
1.0
 40
1.0
 10
15.9185378561
 20
11.5801141095
 30
0.0
 10
15.9311464505
 20
11.5605814317
 30
0.0
 10
15.9621999149
 20
11.5223549056
 30
0.0
 10
15.9990547948
 20
11.4899011426
 30
0.0
 10
16.0194055353
 20
11.4742643376
 30
0.0
  0
SPLINE
  5
286
100
AcDbEntity
  8
0
100
AcDbSpline
 62
7
  6
CONTINUOUS
 70
0
 71
3
 72
12
 73
8
 74
0
 42
0.0000001
 43
0.0000001
 44
0.0000000001
 40
0.0
 40
0.0
 40
0.0
 40
0.0
 40
0.3031770266
 40
0.5689627801
 40
0.7967049726
 40
0.9002206549
 40
1.0
 40
1.0
 40
1.0
 40
1.0
 10
15.6483365672
 20
11.4488125909
 30
0.0
 10
15.6544702712
 20
11.4488125909
 30
0.0
 10
15.6660275883
 20
11.4497868731
 30
0.0
 10
15.681559985
 20
11.4546180927
 30
0.0
 10
15.6917719277
 20
11.4615972636
 30
0.0
 10
15.6971270655
 20
11.4685609118
 30
0.0
 10
15.6988548559
 20
11.4723417031
 30
0.0
 10
15.6994701117
 20
11.4742643376
 30
0.0
  0
SPLINE
  5
287
100
AcDbEntity
  8
0
100
AcDbSpline
 62
7
  6
CONTINUOUS
 70
0
 71
3
 72
11
 73
7
 74
0
 42
0.0000001
 43
0.0000001
 44
0.0000000001
 40
0.0
 40
0.0
 40
0.0
 40
0.0
 40
0.2413697437
 40
0.4964392309
 40
0.753355384
 40
1.0
 40
1.0
 40
1.0
 40
1.0
 10
15.4392096335
 20
11.4742643376
 30
0.0
 10
15.4444096142
 20
11.4702688524
 30
0.0
 10
15.4559261124
 20
11.4630928571
 30
0.0
 10
15.4748677673
 20
11.455141886
 30
0.0
 10
15.4949233944
 20
11.4500761095
 30
0.0
 10
15.5086219519
 20
11.4488125909
 30
0.0
 10
15.5153229844
 20
11.4488125909
 30
0.0
  0
SPLINE
  5
288
100
AcDbEntity
  8
0
100
AcDbSpline
 62
7
  6
CONTINUOUS
 70
0
 71
3
 72
9
 73
5
 74
0
 42
0.0000001
 43
0.0000001
 44
0.0000000001
 40
0.0
 40
0.0
 40
0.0
 40
0.0
 40
0.4753060626
 40
1.0
 40
1.0
 40
1.0
 40
1.0
 10
15.3383419544
 20
11.5801141095
 30
0.0
 10
15.3509505488
 20
11.5605814317
 30
0.0
 10
15.3820040132
 20
11.5223549056
 30
0.0
 10
15.4188588931
 20
11.4899011426
 30
0.0
 10
15.4392096335
 20
11.4742643376
 30
0.0
  0
SPLINE
  5
289
100
AcDbEntity
  8
0
100
AcDbSpline
 62
7
  6
CONTINUOUS
 70
0
 71
3
 72
12
 73
8
 74
0
 42
0.0000001
 43
0.0000001
 44
0.0000000001
 40
0.0
 40
0.0
 40
0.0
 40
0.0
 40
0.3031770266
 40
0.5689627801
 40
0.7967049726
 40
0.9002206549
 40
1.0
 40
1.0
 40
1.0
 40
1.0
 10
15.0681406655
 20
11.4488125909
 30
0.0
 10
15.0742743694
 20
11.4488125909
 30
0.0
 10
15.0858316865
 20
11.4497868731
 30
0.0
 10
15.1013640832
 20
11.4546180927
 30
0.0
 10
15.1115760259
 20
11.4615972636
 30
0.0
 10
15.1169311637
 20
11.4685609118
 30
0.0
 10
15.1186589541
 20
11.4723417031
 30
0.0
 10
15.11927421
 20
11.4742643376
 30
0.0
  0
SPLINE
  5
28A
100
AcDbEntity
  8
0
100
AcDbSpline
 62
7
  6
CONTINUOUS
 70
0
 71
3
 72
11
 73
7
 74
0
 42
0.0000001
 43
0.0000001
 44
0.0000000001
 40
0.0
 40
0.0
 40
0.0
 40
0.0
 40
0.2413697437
 40
0.4964392309
 40
0.753355384
 40
1.0
 40
1.0
 40
1.0
 40
1.0
 10
14.8590137318
 20
11.4742643376
 30
0.0
 10
14.8642137124
 20
11.4702688524
 30
0.0
 10
14.8757302107
 20
11.4630928571
 30
0.0
 10
14.8946718655
 20
11.455141886
 30
0.0
 10
14.9147274927
 20
11.4500761095
 30
0.0
 10
14.9284260502
 20
11.4488125909
 30
0.0
 10
14.9351270827
 20
11.4488125909
 30
0.0
  0
SPLINE
  5
28B
100
AcDbEntity
  8
0
100
AcDbSpline
 62
7
  6
CONTINUOUS
 70
0
 71
3
 72
9
 73
5
 74
0
 42
0.0000001
 43
0.0000001
 44
0.0000000001
 40
0.0
 40
0.0
 40
0.0
 40
0.0
 40
0.4753060626
 40
1.0
 40
1.0
 40
1.0
 40
1.0
 10
14.7581460527
 20
11.5801141095
 30
0.0
 10
14.770754647
 20
11.5605814317
 30
0.0
 10
14.8018081114
 20
11.5223549056
 30
0.0
 10
14.8386629913
 20
11.4899011426
 30
0.0
 10
14.8590137318
 20
11.4742643376
 30
0.0
  0
SPLINE
  5
28C
100
AcDbEntity
  8
0
100
AcDbSpline
 62
7
  6
CONTINUOUS
 70
0
 71
3
 72
12
 73
8
 74
0
 42
0.0000001
 43
0.0000001
 44
0.0000000001
 40
0.0
 40
0.0
 40
0.0
 40
0.0
 40
0.3031770266
 40
0.5689627801
 40
0.7967049726
 40
0.9002206549
 40
1.0
 40
1.0
 40
1.0
 40
1.0
 10
14.4879447638
 20
11.4488125909
 30
0.0
 10
14.4940784677
 20
11.4488125909
 30
0.0
 10
14.5056357848
 20
11.4497868731
 30
0.0
 10
14.5211681815
 20
11.4546180927
 30
0.0
 10
14.5313801242
 20
11.4615972636
 30
0.0
 10
14.536735262
 20
11.4685609118
 30
0.0
 10
14.5384630524
 20
11.4723417031
 30
0.0
 10
14.5390783082
 20
11.4742643376
 30
0.0
  0
SPLINE
  5
28D
100
AcDbEntity
  8
0
100
AcDbSpline
 62
7
  6
CONTINUOUS
 70
0
 71
3
 72
11
 73
7
 74
0
 42
0.0000001
 43
0.0000001
 44
0.0000000001
 40
0.0
 40
0.0
 40
0.0
 40
0.0
 40
0.2413697437
 40
0.4964392309
 40
0.753355384
 40
1.0
 40
1.0
 40
1.0
 40
1.0
 10
14.2788178301
 20
11.4742643376
 30
0.0
 10
14.2840178107
 20
11.4702688524
 30
0.0
 10
14.2955343089
 20
11.4630928571
 30
0.0
 10
14.3144759638
 20
11.455141886
 30
0.0
 10
14.3345315909
 20
11.4500761095
 30
0.0
 10
14.3482301484
 20
11.4488125909
 30
0.0
 10
14.354931181
 20
11.4488125909
 30
0.0
  0
SPLINE
  5
28E
100
AcDbEntity
  8
0
100
AcDbSpline
 62
7
  6
CONTINUOUS
 70
0
 71
3
 72
9
 73
5
 74
0
 42
0.0000001
 43
0.0000001
 44
0.0000000001
 40
0.0
 40
0.0
 40
0.0
 40
0.0
 40
0.4753060626
 40
1.0
 40
1.0
 40
1.0
 40
1.0
 10
14.1779501509
 20
11.5801141095
 30
0.0
 10
14.1905587453
 20
11.5605814317
 30
0.0
 10
14.2216122097
 20
11.5223549056
 30
0.0
 10
14.2584670896
 20
11.4899011426
 30
0.0
 10
14.2788178301
 20
11.4742643376
 30
0.0
  0
SPLINE
  5
28F
100
AcDbEntity
  8
0
100
AcDbSpline
 62
7
  6
CONTINUOUS
 70
0
 71
3
 72
12
 73
8
 74
0
 42
0.0000001
 43
0.0000001
 44
0.0000000001
 40
0.0
 40
0.0
 40
0.0
 40
0.0
 40
0.3031770266
 40
0.5689627801
 40
0.7967049726
 40
0.9002206549
 40
1.0
 40
1.0
 40
1.0
 40
1.0
 10
13.907748862
 20
11.4488125909
 30
0.0
 10
13.913882566
 20
11.4488125909
 30
0.0
 10
13.9254398831
 20
11.4497868731
 30
0.0
 10
13.9409722798
 20
11.4546180927
 30
0.0
 10
13.9511842225
 20
11.4615972636
 30
0.0
 10
13.9565393603
 20
11.4685609118
 30
0.0
 10
13.9582671507
 20
11.4723417031
 30
0.0
 10
13.9588824065
 20
11.4742643376
 30
0.0
  0
SPLINE
  5
290
100
AcDbEntity
  8
0
100
AcDbSpline
 62
7
  6
CONTINUOUS
 70
0
 71
3
 72
11
 73
7
 74
0
 42
0.0000001
 43
0.0000001
 44
0.0000000001
 40
0.0
 40
0.0
 40
0.0
 40
0.0
 40
0.2413697437
 40
0.4964392309
 40
0.753355384
 40
1.0
 40
1.0
 40
1.0
 40
1.0
 10
13.6986219283
 20
11.4742643376
 30
0.0
 10
13.703821909
 20
11.4702688524
 30
0.0
 10
13.7153384072
 20
11.4630928571
 30
0.0
 10
13.7342800621
 20
11.455141886
 30
0.0
 10
13.7543356892
 20
11.4500761095
 30
0.0
 10
13.7680342467
 20
11.4488125909
 30
0.0
 10
13.7747352792
 20
11.4488125909
 30
0.0
  0
SPLINE
  5
291
100
AcDbEntity
  8
0
100
AcDbSpline
 62
7
  6
CONTINUOUS
 70
0
 71
3
 72
11
 73
7
 74
0
 42
0.0000001
 43
0.0000001
 44
0.0000000001
 40
0.0
 40
0.0
 40
0.0
 40
0.0
 40
0.2600306895
 40
0.5283883071
 40
0.7814357643
 40
1.0
 40
1.0
 40
1.0
 40
1.0
 10
14.6957090154
 20
11.609354378
 30
0.0
 10
14.7018846569
 20
11.609354378
 30
0.0
 10
14.7144572222
 20
11.6077680647
 30
0.0
 10
14.7321311679
 20
11.6017085505
 30
0.0
 10
14.7473224365
 20
11.5926289745
 30
0.0
 10
14.7553308833
 20
11.5844752456
 30
0.0
 10
14.7581460527
 20
11.5801141095
 30
0.0
  0
SPLINE
  5
292
100
AcDbEntity
  8
0
100
AcDbSpline
 62
7
  6
CONTINUOUS
 70
0
 71
3
 72
11
 73
7
 74
0
 42
0.0000001
 43
0.0000001
 44
0.0000000001
 40
0.0
 40
0.0
 40
0.0
 40
0.0
 40
0.2600306895
 40
0.5283883071
 40
0.7814357643
 40
1.0
 40
1.0
 40
1.0
 40
1.0
 10
15.2759049171
 20
11.609354378
 30
0.0
 10
15.2820805586
 20
11.609354378
 30
0.0
 10
15.2946531239
 20
11.6077680647
 30
0.0
 10
15.3123270697
 20
11.6017085505
 30
0.0
 10
15.3275183382
 20
11.5926289745
 30
0.0
 10
15.3355267851
 20
11.5844752456
 30
0.0
 10
15.3383419544
 20
11.5801141095
 30
0.0
  0
SPLINE
  5
293
100
AcDbEntity
  8
0
100
AcDbSpline
 62
7
  6
CONTINUOUS
 70
0
 71
3
 72
11
 73
7
 74
0
 42
0.0000001
 43
0.0000001
 44
0.0000000001
 40
0.0
 40
0.0
 40
0.0
 40
0.0
 40
0.2600306895
 40
0.5283883071
 40
0.7814357643
 40
1.0
 40
1.0
 40
1.0
 40
1.0
 10
15.8561008188
 20
11.609354378
 30
0.0
 10
15.8622764603
 20
11.609354378
 30
0.0
 10
15.8748490256
 20
11.6077680647
 30
0.0
 10
15.8925229714
 20
11.6017085505
 30
0.0
 10
15.9077142399
 20
11.5926289745
 30
0.0
 10
15.9157226868
 20
11.5844752456
 30
0.0
 10
15.9185378561
 20
11.5801141095
 30
0.0
  0
SPLINE
  5
294
100
AcDbEntity
  8
0
100
AcDbSpline
 62
7
  6
CONTINUOUS
 70
0
 71
3
 72
11
 73
7
 74
0
 42
0.0000001
 43
0.0000001
 44
0.0000000001
 40
0.0
 40
0.0
 40
0.0
 40
0.0
 40
0.2600306895
 40
0.5283883071
 40
0.7814357643
 40
1.0
 40
1.0
 40
1.0
 40
1.0
 10
16.4362967206
 20
11.609354378
 30
0.0
 10
16.4424723621
 20
11.609354378
 30
0.0
 10
16.4550449274
 20
11.6077680647
 30
0.0
 10
16.4727188731
 20
11.6017085505
 30
0.0
 10
16.4879101417
 20
11.5926289745
 30
0.0
 10
16.4959185885
 20
11.5844752456
 30
0.0
 10
16.4987337579
 20
11.5801141095
 30
0.0
  0
SPLINE
  5
295
100
AcDbEntity
  8
0
100
AcDbSpline
 62
7
  6
CONTINUOUS
 70
0
 71
3
 72
10
 73
6
 74
0
 42
0.0000001
 43
0.0000001
 44
0.0000000001
 40
0.0
 40
0.0
 40
0.0
 40
0.0
 40
0.2394701103
 40
0.483543386
 40
1.0
 40
1.0
 40
1.0
 40
1.0
 10
16.2801110346
 20
11.4756793931
 30
0.0
 10
16.2826085969
 20
11.483762318
 30
0.0
 10
16.2862503259
 20
11.500556413
 30
0.0
 10
16.2878603497
 20
11.5359723563
 30
0.0
 10
16.2824569677
 20
11.5628186328
 30
0.0
 10
16.2766466456
 20
11.5801141095
 30
0.0
  0
SPLINE
  5
296
100
AcDbEntity
  8
0
100
AcDbSpline
 62
7
  6
CONTINUOUS
 70
0
 71
3
 72
9
 73
5
 74
0
 42
0.0000001
 43
0.0000001
 44
0.0000000001
 40
0.0
 40
0.0
 40
0.0
 40
0.0
 40
0.5171844444
 40
1.0
 40
1.0
 40
1.0
 40
1.0
 10
15.6964507438
 20
11.5801141095
 30
0.0
 10
15.6957772818
 20
11.5821187915
 30
0.0
 10
15.6949504698
 20
11.586189479
 30
0.0
 10
15.6954663596
 20
11.590336205
 30
0.0
 10
15.6960491983
 20
11.5922224572
 30
0.0
  0
SPLINE
  5
297
100
AcDbEntity
  8
0
100
AcDbSpline
 62
7
  6
CONTINUOUS
 70
0
 71
3
 72
9
 73
5
 74
0
 42
0.0000001
 43
0.0000001
 44
0.0000000001
 40
0.0
 40
0.0
 40
0.0
 40
0.0
 40
0.5171844444
 40
1.0
 40
1.0
 40
1.0
 40
1.0
 10
13.9558630386
 20
11.5801141095
 30
0.0
 10
13.9551895766
 20
11.5821187915
 30
0.0
 10
13.9543627646
 20
11.586189479
 30
0.0
 10
13.9548786544
 20
11.590336205
 30
0.0
 10
13.9554614931
 20
11.5922224572
 30
0.0
  0
SPLINE
  5
298
100
AcDbEntity
  8
0
100
AcDbSpline
 62
7
  6
CONTINUOUS
 70
0
 71
3
 72
9
 73
5
 74
0
 42
0.0000001
 43
0.0000001
 44
0.0000000001
 40
0.0
 40
0.0
 40
0.0
 40
0.0
 40
0.5171844444
 40
1.0
 40
1.0
 40
1.0
 40
1.0
 10
16.2766466456
 20
11.5801141095
 30
0.0
 10
16.2759731835
 20
11.5821187915
 30
0.0
 10
16.2751463715
 20
11.586189479
 30
0.0
 10
16.2756622613
 20
11.590336205
 30
0.0
 10
16.2762451001
 20
11.5922224572
 30
0.0
  0
SPLINE
  5
299
100
AcDbEntity
  8
0
100
AcDbSpline
 62
7
  6
CONTINUOUS
 70
0
 71
3
 72
10
 73
6
 74
0
 42
0.0000001
 43
0.0000001
 44
0.0000000001
 40
0.0
 40
0.0
 40
0.0
 40
0.0
 40
0.2394701103
 40
0.483543386
 40
1.0
 40
1.0
 40
1.0
 40
1.0
 10
14.5395233294
 20
11.4756793931
 30
0.0
 10
14.5420208917
 20
11.483762318
 30
0.0
 10
14.5456626207
 20
11.500556413
 30
0.0
 10
14.5472726445
 20
11.5359723563
 30
0.0
 10
14.5418692625
 20
11.5628186328
 30
0.0
 10
14.5360589404
 20
11.5801141095
 30
0.0
  0
SPLINE
  5
29A
100
AcDbEntity
  8
0
100
AcDbSpline
 62
7
  6
CONTINUOUS
 70
0
 71
3
 72
9
 73
5
 74
0
 42
0.0000001
 43
0.0000001
 44
0.0000000001
 40
0.0
 40
0.0
 40
0.0
 40
0.0
 40
0.5171844444
 40
1.0
 40
1.0
 40
1.0
 40
1.0
 10
16.8568425473
 20
11.5801141095
 30
0.0
 10
16.8561690852
 20
11.5821187915
 30
0.0
 10
16.8553422733
 20
11.586189479
 30
0.0
 10
16.855858163
 20
11.590336205
 30
0.0
 10
16.8564410018
 20
11.5922224572
 30
0.0
  0
SPLINE
  5
29B
100
AcDbEntity
  8
0
100
AcDbSpline
 62
7
  6
CONTINUOUS
 70
0
 71
3
 72
10
 73
6
 74
0
 42
0.0000001
 43
0.0000001
 44
0.0000000001
 40
0.0
 40
0.0
 40
0.0
 40
0.0
 40
0.2394701103
 40
0.483543386
 40
1.0
 40
1.0
 40
1.0
 40
1.0
 10
15.6999151329
 20
11.4756793931
 30
0.0
 10
15.7024126952
 20
11.483762318
 30
0.0
 10
15.7060544242
 20
11.500556413
 30
0.0
 10
15.707664448
 20
11.5359723563
 30
0.0
 10
15.7022610659
 20
11.5628186328
 30
0.0
 10
15.6964507438
 20
11.5801141095
 30
0.0
  0
SPLINE
  5
29C
100
AcDbEntity
  8
0
100
AcDbSpline
 62
7
  6
CONTINUOUS
 70
0
 71
3
 72
10
 73
6
 74
0
 42
0.0000001
 43
0.0000001
 44
0.0000000001
 40
0.0
 40
0.0
 40
0.0
 40
0.0
 40
0.2394829092
 40
0.4835429073
 40
1.0
 40
1.0
 40
1.0
 40
1.0
 10
16.8603069473
 20
11.47567939
 30
0.0
 10
16.8628047645
 20
11.4837627112
 30
0.0
 10
16.8664474413
 20
11.5005566769
 30
0.0
 10
16.8680547979
 20
11.5359727641
 30
0.0
 10
16.862652876
 20
11.5628186131
 30
0.0
 10
16.8568425473
 20
11.5801141095
 30
0.0
  0
SPLINE
  5
29D
100
AcDbEntity
  8
0
100
AcDbSpline
 62
7
  6
CONTINUOUS
 70
0
 71
3
 72
10
 73
6
 74
0
 42
0.0000001
 43
0.0000001
 44
0.0000000001
 40
0.0
 40
0.0
 40
0.0
 40
0.0
 40
0.2394701103
 40
0.483543386
 40
1.0
 40
1.0
 40
1.0
 40
1.0
 10
15.1197192312
 20
11.4756793931
 30
0.0
 10
15.1222167934
 20
11.483762318
 30
0.0
 10
15.1258585225
 20
11.500556413
 30
0.0
 10
15.1274685462
 20
11.5359723563
 30
0.0
 10
15.1220651642
 20
11.5628186328
 30
0.0
 10
15.1162548421
 20
11.5801141095
 30
0.0
  0
SPLINE
  5
29E
100
AcDbEntity
  8
0
100
AcDbSpline
 62
7
  6
CONTINUOUS
 70
0
 71
3
 72
9
 73
5
 74
0
 42
0.0000001
 43
0.0000001
 44
0.0000000001
 40
0.0
 40
0.0
 40
0.0
 40
0.0
 40
0.5171844444
 40
1.0
 40
1.0
 40
1.0
 40
1.0
 10
14.5360589404
 20
11.5801141095
 30
0.0
 10
14.5353854783
 20
11.5821187915
 30
0.0
 10
14.5345586663
 20
11.586189479
 30
0.0
 10
14.5350745561
 20
11.590336205
 30
0.0
 10
14.5356573949
 20
11.5922224572
 30
0.0
  0
SPLINE
  5
29F
100
AcDbEntity
  8
0
100
AcDbSpline
 62
7
  6
CONTINUOUS
 70
0
 71
3
 72
10
 73
6
 74
0
 42
0.0000001
 43
0.0000001
 44
0.0000000001
 40
0.0
 40
0.0
 40
0.0
 40
0.0
 40
0.2394701103
 40
0.483543386
 40
1.0
 40
1.0
 40
1.0
 40
1.0
 10
13.9593274277
 20
11.4756793931
 30
0.0
 10
13.96182499
 20
11.483762318
 30
0.0
 10
13.965466719
 20
11.500556413
 30
0.0
 10
13.9670767428
 20
11.5359723563
 30
0.0
 10
13.9616733607
 20
11.5628186328
 30
0.0
 10
13.9558630386
 20
11.5801141095
 30
0.0
  0
SPLINE
  5
2A0
100
AcDbEntity
  8
0
100
AcDbSpline
 62
7
  6
CONTINUOUS
 70
0
 71
3
 72
9
 73
5
 74
0
 42
0.0000001
 43
0.0000001
 44
0.0000000001
 40
0.0
 40
0.0
 40
0.0
 40
0.0
 40
0.5171844444
 40
1.0
 40
1.0
 40
1.0
 40
1.0
 10
15.1162548421
 20
11.5801141095
 30
0.0
 10
15.11558138
 20
11.5821187915
 30
0.0
 10
15.1147545681
 20
11.586189479
 30
0.0
 10
15.1152704578
 20
11.590336205
 30
0.0
 10
15.1158532966
 20
11.5922224572
 30
0.0
  0
ENDSEC
  0
SECTION
  2
OBJECTS
  0
DICTIONARY
  5
C
100
AcDbDictionary
280
0
281
1
  3
ACAD_GROUP
350
D
  3
ACAD_MLINESTYLE
350
17
  3
ACAD_LAYOUT
350
1A
  3
ACAD_PLOTSETTINGS
350
19
  3
ACAD_PLOTSTYLENAME
350
E
  0
DICTIONARY
  5
D
102
{ACAD_REACTORS
330
C
102
}
100
AcDbDictionary
280
0
281
1
  0
ACDBDICTIONARYWDFLT
  5
E
102
{ACAD_REACTORS
330
C
102
}
100
AcDbDictionary
281
1
  3
Normal
350
F
100
AcDbDictionaryWithDefault
340
F
  0
DICTIONARY
  5
17
102
{ACAD_REACTORS
330
C
102
}
100
AcDbDictionary
280
0
281
1
  3
Standard
350
18
  0
DICTIONARY
  5
19
102
{ACAD_REACTORS
330
C
102
}
100
AcDbDictionary
281
1
  0
DICTIONARY
  5
1A
102
{ACAD_REACTORS
330
C
102
}
100
AcDbDictionary
281
1
  3
Model
350
2A1
  3
Layout1
350
2A2
  0
ACDBPLACEHOLDER
  5
F
102
{ACAD_REACTORS
330
E
102
}
  0
MLINESTYLE
  5
18
102
{ACAD_REACTORS
330
17
102
}
100
AcDbMlineStyle
  2
STANDARD
 70
0
  3

 62
256
 51
90.0
 52
90.0
 71
2
 49
0.5
 62
256
  6
BYLAYER
 49
-0.5
 62
256
  6
BYLAYER
  0
LAYOUT
  5
2A1
102
{ACAD_REACTORS
330
1A
102
}
100
AcDbPlotSettings
  1

  2
none_device
  4
ANSI_C_(22.00_x_17.00_Inches)
  6

 40
0.0
 41
0.0
 42
0.0
 43
0.0
 44
558.8
 45
431.8
 46
0.0
 47
0.0
 48
0.0
 49
0.0
140
0.0
141
0.0
142
1.0
143
1.0
 70
1024
 72
0
 73
0
 74
0
  7

 75
0
147
1.0
148
0.0
149
0.0
100
AcDbLayout
  1
Model
 70
0
 71
0
 10
0.0
 20
0.0
 11
22.0
 21
17.0
 12
0.0
 22
0.0
 32
0.0
 14
0.0
 24
0.0
 34
0.0
 15
0.0
 25
0.0
 35
0.0
146
0.0
 13
0.0
 23
0.0
 33
0.0
 16
1.0
 26
0.0
 36
0.0
 17
0.0
 27
1.0
 37
0.0
 76
0
330
216
345
0
346
0
  0
LAYOUT
  5
2A2
102
{ACAD_REACTORS
330
1A
102
}
100
AcDbPlotSettings
  1

  2
none_device
  4
ANSI_C_(22.00_x_17.00_Inches)
  6

 40
0.0
 41
0.0
 42
0.0
 43
0.0
 44
558.8
 45
431.8
 46
0.0
 47
0.0
 48
0.0
 49
0.0
140
0.0
141
0.0
142
1.0
143
1.0
 70
0
 72
0
 73
0
 74
0
  7

 75
0
147
1.0
148
0.0
149
0.0
100
AcDbLayout
  1
Layout1
 70
0
 71
1
 10
0.0
 20
0.0
 11
22.0
 21
17.0
 12
0.0
 22
0.0
 32
0.0
 14
0.0
 24
0.0
 34
0.0
 15
0.0
 25
0.0
 35
0.0
146
0.0
 13
0.0
 23
0.0
 33
0.0
 16
1.0
 26
0.0
 36
0.0
 17
0.0
 27
1.0
 37
0.0
 76
0
330
217
345
0
346
0
  0
ENDSEC
  0
EOF