999
DXF file: _cgs_temp_output.dxf
999
Pro/ENGINEER 2015110 by Parametric Technology Corporation
  0
SECTION
  2
HEADER
  9
$ACADVER
  1
AC1021
  9
$DWGCODEPAGE
  3
ANSI_1252
  9
$EXTMAX
 10
22.0
 20
17.0
 30
0.0
  9
$EXTMIN
 10
0.0
 20
0.0
 30
0.0
  9
$LIMMIN
 10
0.0
 20
0.0
  9
$LIMMAX
 10
22.0
 20
17.0
  9
$VIEWCTR
 10
11.0
 20
8.5
  9
$VIEWSIZE
 40
17.0
  9
$CLAYER
  8
0
  9
$LTSCALE
 40
1.21
  9
$CELTYPE
  6
BYLAYER
  9
$DIMSCALE
 40
1.0
  9
$DIMASZ
 40
0.1875
  9
$DIMEXO
 40
0.0625
  9
$DIMDLI
 40
0.836
  9
$DIMEXE
 40
0.125
  9
$DIMCEN
 40
0.198
  9
$DIMLFAC
 40
1.0
  9
$DIMBLK
  1
_CLOSED
  9
$DIMALT
 70
0
  9
$DIMALTF
 40
25.4
  9
$DIMTXT
 40
0.15625
  9
$DIMTOL
 70
0
  9
$DIMLIM
 70
0
  9
$DIMTFAC
 40
1.0
  9
$DIMGAP
 40
0.09
  9
$DIMDSEP
 70
46
  9
$AUNITS
 70
0
  9
$PDMODE
 70
3
  9
$PDSIZE
 40
0.3125
  9
$HANDSEED
  5
2AF
  9
$TILEMODE
 70
1
  9
$MEASUREMENT
 70
0
  9
$INSUNITS
 70
1
  0
ENDSEC
  0
SECTION
  2
CLASSES
  0
CLASS
  1
ACDBDICTIONARYWDFLT
  2
AcDbDictionaryWithDefault
  3
AutoCAD 2000
 90
0
 91
1
280
0
281
0
  0
CLASS
  1
ACDBPLACEHOLDER
  2
AcDbPlaceHolder
  3
AutoCAD 2000
 90
0
 91
1
280
0
281
0
  0
CLASS
  1
LAYOUT
  2
AcDbLayout
  3
AutoCAD 2000
 90
0
 91
0
280
0
281
0
  0
ENDSEC
  0
SECTION
  2
TABLES
  0
TABLE
  2
VPORT
  5
8
100
AcDbSymbolTable
 70
2
  0
VPORT
  5
1F4
100
AcDbSymbolTableRecord
100
AcDbViewportTableRecord
  2
*ACTIVE
 70
0
 10
0.0
 20
0.0
 11
1.0
 21
1.0
 12
11.0
 22
8.5
 13
0.0
 23
0.0
 14
1.0
 24
1.0
 15
0.0
 25
0.0
 16
0.0
 26
0.0
 36
1.0
 17
0.0
 27
0.0
 37
0.0
 40
17.0
 41
1.2941176471
 42
50.0
 43
0.0
 44
0.0
 50
0.0
 51
0.0
 71
0
 72
100
 73
1
 74
1
 75
0
 76
0
 77
0
 78
0
  0
ENDTAB
  0
TABLE
  2
LTYPE
  5
5
100
AcDbSymbolTable
 70
6
  0
LTYPE
  5
14
100
AcDbSymbolTableRecord
100
AcDbLinetypeTableRecord
  2
BYBLOCK
 70
0
  3

 72
65
 73
0
 40
0.0
  0
LTYPE
  5
15
100
AcDbSymbolTableRecord
100
AcDbLinetypeTableRecord
  2
BYLAYER
 70
0
  3

 72
65
 73
0
 40
0.0
  0
LTYPE
  5
16
100
AcDbSymbolTableRecord
100
AcDbLinetypeTableRecord
  2
CONTINUOUS
 70
64
  3
Solid line
 72
65
 73
0
 40
0.0
  0
LTYPE
  5
1F5
100
AcDbSymbolTableRecord
100
AcDbLinetypeTableRecord
  2
CENTER
 70
64
  3
____ _ ____ _ ____ _ ____ _ ____ _ ____ _ ____
 72
65
 73
4
 40
0.6
 49
0.375
 74
0
 49
-0.075
 74
0
 49
0.075
 74
0
 49
-0.075
 74
0
  0
LTYPE
  5
1F6
100
AcDbSymbolTableRecord
100
AcDbLinetypeTableRecord
  2
HIDDEN
 70
64
  3
- - - - - - - - - - - - - - - - - - - -
 72
65
 73
2
 40
0.2
 49
0.1
 74
0
 49
-0.1
 74
0
  0
LTYPE
  5
1F7
100
AcDbSymbolTableRecord
100
AcDbLinetypeTableRecord
  2
PHANTOM
 70
64
  3
_____ _ _ _____ _ _ _____ _ _ _____
 72
65
 73
6
 40
0.8
 49
0.45
 74
0
 49
-0.05
 74
0
 49
0.1
 74
0
 49
-0.05
 74
0
 49
0.1
 74
0
 49
-0.05
 74
0
  0
LTYPE
  5
1F8
100
AcDbSymbolTableRecord
100
AcDbLinetypeTableRecord
  2
DOT
 70
64
  3
. . . . . . . . . . . . . . . . . . . .
 72
65
 73
2
 40
0.2
 49
0.1
 74
0
 49
-0.1
 74
0
  0
LTYPE
  5
1F9
100
AcDbSymbolTableRecord
100
AcDbLinetypeTableRecord
  2
DASHED
 70
64
  3
- - - - - - - - - - - - - - - - - - - -
 72
65
 73
2
 40
0.2
 49
0.1
 74
0
 49
-0.1
 74
0
  0
ENDTAB
  0
TABLE
  2
LAYER
  5
2
100
AcDbSymbolTable
 70
36
  0
LAYER
  5
10
100
AcDbSymbolTableRecord
100
AcDbLayerTableRecord
  2
0
 70
0
 62
7
  6
CONTINUOUS
370
-3
390
F
  0
LAYER
  5
1FA
100
AcDbSymbolTableRecord
100
AcDbLayerTableRecord
  2
DEFAULT_1
 70
0
 62
7
  6
CENTER
370
-3
390
F
  0
LAYER
  5
1FB
100
AcDbSymbolTableRecord
100
AcDbLayerTableRecord
  2
DEFAULT_2
 70
0
 62
8
  6
HIDDEN
370
-3
390
F
  0
LAYER
  5
1FC
100
AcDbSymbolTableRecord
100
AcDbLayerTableRecord
  2
DEFAULT_3
 70
0
 62
7
  6
PHANTOM
370
-3
390
F
  0
LAYER
  5
1FD
100
AcDbSymbolTableRecord
100
AcDbLayerTableRecord
  2
01_ALL_DTM_PLN
 70
0
 62
7
  6
CONTINUOUS
370
-3
390
F
  0
LAYER
  5
1FE
100
AcDbSymbolTableRecord
100
AcDbLayerTableRecord
  2
01__ASM_ALL_DTM_PLN
 70
0
 62
7
  6
CONTINUOUS
370
-3
390
F
  0
LAYER
  5
1FF
100
AcDbSymbolTableRecord
100
AcDbLayerTableRecord
  2
01__ASM_DEF_DTM_PLN
 70
0
 62
7
  6
CONTINUOUS
370
-3
390
F
  0
LAYER
  5
200
100
AcDbSymbolTableRecord
100
AcDbLayerTableRecord
  2
01___PRT_ALL_DTM_PLN
 70
0
 62
7
  6
CONTINUOUS
370
-3
390
F
  0
LAYER
  5
201
100
AcDbSymbolTableRecord
100
AcDbLayerTableRecord
  2
01___PRT_DEF_DTM_PLN
 70
0
 62
7
  6
CONTINUOUS
370
-3
390
F
  0
LAYER
  5
202
100
AcDbSymbolTableRecord
100
AcDbLayerTableRecord
  2
02_ALL_AXES
 70
0
 62
7
  6
CONTINUOUS
370
-3
390
F
  0
LAYER
  5
203
100
AcDbSymbolTableRecord
100
AcDbLayerTableRecord
  2
02__ASM_ALL_AXES
 70
0
 62
7
  6
CONTINUOUS
370
-3
390
F
  0
LAYER
  5
204
100
AcDbSymbolTableRecord
100
AcDbLayerTableRecord
  2
02___PRT_ALL_AXES
 70
0
 62
7
  6
CONTINUOUS
370
-3
390
F
  0
LAYER
  5
205
100
AcDbSymbolTableRecord
100
AcDbLayerTableRecord
  2
03_ALL_CURVES
 70
0
 62
7
  6
CONTINUOUS
370
-3
390
F
  0
LAYER
  5
206
100
AcDbSymbolTableRecord
100
AcDbLayerTableRecord
  2
03__ASM_ALL_CURVES
 70
0
 62
7
  6
CONTINUOUS
370
-3
390
F
  0
LAYER
  5
207
100
AcDbSymbolTableRecord
100
AcDbLayerTableRecord
  2
03___PRT_ALL_CURVES
 70
0
 62
7
  6
CONTINUOUS
370
-3
390
F
  0
LAYER
  5
208
100
AcDbSymbolTableRecord
100
AcDbLayerTableRecord
  2
04_ALL_DTM_PNT
 70
0
 62
7
  6
CONTINUOUS
370
-3
390
F
  0
LAYER
  5
209
100
AcDbSymbolTableRecord
100
AcDbLayerTableRecord
  2
04__ASM_ALL_DTM_PNT
 70
0
 62
7
  6
CONTINUOUS
370
-3
390
F
  0
LAYER
  5
20A
100
AcDbSymbolTableRecord
100
AcDbLayerTableRecord
  2
04___PRT_ALL_DTM_PNT
 70
0
 62
7
  6
CONTINUOUS
370
-3
390
F
  0
LAYER
  5
20B
100
AcDbSymbolTableRecord
100
AcDbLayerTableRecord
  2
05_ALL_DTM_CSYS
 70
0
 62
7
  6
CONTINUOUS
370
-3
390
F
  0
LAYER
  5
20C
100
AcDbSymbolTableRecord
100
AcDbLayerTableRecord
  2
05__ASM_ALL_DTM_CSYS
 70
0
 62
7
  6
CONTINUOUS
370
-3
390
F
  0
LAYER
  5
20D
100
AcDbSymbolTableRecord
100
AcDbLayerTableRecord
  2
05__ASM_DEF_DTM_CSYS
 70
0
 62
7
  6
CONTINUOUS
370
-3
390
F
  0
LAYER
  5
20E
100
AcDbSymbolTableRecord
100
AcDbLayerTableRecord
  2
05___PRT_ALL_DTM_CSYS
 70
0
 62
7
  6
CONTINUOUS
370
-3
390
F
  0
LAYER
  5
20F
100
AcDbSymbolTableRecord
100
AcDbLayerTableRecord
  2
05___PRT_DEF_DTM_CSYS
 70
0
 62
7
  6
CONTINUOUS
370
-3
390
F
  0
LAYER
  5
210
100
AcDbSymbolTableRecord
100
AcDbLayerTableRecord
  2
06_ALL_SURFS
 70
0
 62
7
  6
CONTINUOUS
370
-3
390
F
  0
LAYER
  5
211
100
AcDbSymbolTableRecord
100
AcDbLayerTableRecord
  2
06__ASM_ALL_SURFS
 70
0
 62
7
  6
CONTINUOUS
370
-3
390
F
  0
LAYER
  5
212
100
AcDbSymbolTableRecord
100
AcDbLayerTableRecord
  2
06___PRT_ALL_SURFS
 70
0
 62
7
  6
CONTINUOUS
370
-3
390
F
  0
LAYER
  5
213
100
AcDbSymbolTableRecord
100
AcDbLayerTableRecord
  2
07__ASM_ALL_SKELETONS
 70
0
 62
7
  6
CONTINUOUS
370
-3
390
F
  0
LAYER
  5
214
100
AcDbSymbolTableRecord
100
AcDbLayerTableRecord
  2
LAYER_DIM
 70
0
 62
7
  6
CONTINUOUS
370
-3
390
F
  0
LAYER
  5
215
100
AcDbSymbolTableRecord
100
AcDbLayerTableRecord
  2
LAYER_FEATURE
 70
0
 62
7
  6
CONTINUOUS
370
-3
390
F
  0
LAYER
  5
216
100
AcDbSymbolTableRecord
100
AcDbLayerTableRecord
  2
LAYER_GEOM_FEAT
 70
0
 62
7
  6
CONTINUOUS
370
-3
390
F
  0
LAYER
  5
217
100
AcDbSymbolTableRecord
100
AcDbLayerTableRecord
  2
LAYER_PARAMETER_DIM
 70
0
 62
7
  6
CONTINUOUS
370
-3
390
F
  0
LAYER
  5
218
100
AcDbSymbolTableRecord
100
AcDbLayerTableRecord
  2
LAYER_PROTRUSION_FEAT
 70
0
 62
7
  6
CONTINUOUS
370
-3
390
F
  0
LAYER
  5
219
100
AcDbSymbolTableRecord
100
AcDbLayerTableRecord
  2
LAYER_ROUND_FEAT
 70
0
 62
7
  6
CONTINUOUS
370
-3
390
F
  0
ENDTAB
  0
TABLE
  2
STYLE
  5
3
100
AcDbSymbolTable
 70
1
  0
STYLE
  5
11
100
AcDbSymbolTableRecord
100
AcDbTextStyleTableRecord
  2
STANDARD
 70
0
 40
0.0
 41
0.8
 50
0.0
 71
0
 42
0.2
  3
txt
  4

  0
STYLE
  5
21A
100
AcDbSymbolTableRecord
100
AcDbTextStyleTableRecord
  2
TEXTSTYLE_1
 70
0
 40
0.0
 41
0.8
 50
0.0
 71
0
 42
0.2
  3
gdt
  4

  0
ENDTAB
  0
TABLE
  2
VIEW
  5
6
100
AcDbSymbolTable
 70
0
  0
ENDTAB
  0
TABLE
  2
UCS
  5
7
100
AcDbSymbolTable
 70
0
  0
ENDTAB
  0
TABLE
  2
APPID
  5
9
100
AcDbSymbolTable
 70
1
  0
APPID
  5
21B
100
AcDbSymbolTableRecord
100
AcDbRegAppTableRecord
  2
ACAD
 70
0
  0
ENDTAB
  0
TABLE
  2
BLOCK_RECORD
  5
1
100
AcDbSymbolTable
 70
0
  0
BLOCK_RECORD
  5
21C
100
AcDbSymbolTableRecord
100
AcDbBlockTableRecord
  2
*Model_Space
  0
BLOCK_RECORD
  5
21D
100
AcDbSymbolTableRecord
100
AcDbBlockTableRecord
  2
*Paper_Space
  0
ENDTAB
  0
TABLE
  2
DIMSTYLE
  5
A
100
AcDbSymbolTable
 70
1
100
AcDbDimStyleTable
 71
0
  0
DIMSTYLE
105
21E
100
AcDbSymbolTableRecord
100
AcDbDimStyleTableRecord
  2
STANDARD
 70
0
  3

  4

 40
1.0
 41
0.1875
 42
0.0625
 43
0.38
 44
0.125
 45
0.0
 46
0.0
 47
0.0001
 48
0.0001
140
0.15625
141
0.09
142
0.0
143
25.4
144
1.0
145
0.0
146
1.0
147
0.09
 71
0.0
 72
0.0
 73
1
 74
1
 75
0
 76
0
 77
0
 78
4
170
0
171
2
172
0
173
0
174
0
175
0
176
0
177
0
178
0
270
2
271
4
272
4
273
2
274
2
275
0
280
0
281
0
282
0
283
1
284
4
285
0
286
0
287
3
288
0
340
11
278
46
  0
ENDTAB
  0
ENDSEC
  0
SECTION
  2
BLOCKS
  0
BLOCK
  5
20
100
AcDbEntity
  8
0
100
AcDbBlockBegin
  2
*Model_Space
 70
0
 10
0.0
 20
0.0
 30
0.0
  3
*Model_Space
  1

  0
ENDBLK
  5
21
100
AcDbEntity
  8
0
100
AcDbBlockEnd
  0
BLOCK
  5
1C
100
AcDbEntity
  8
0
100
AcDbBlockBegin
  2
*Paper_Space
 70
0
 10
0.0
 20
0.0
 30
0.0
  3
*Paper_Space
  1

  0
ENDBLK
  5
1D
100
AcDbEntity
  8
0
100
AcDbBlockEnd
  0
ENDSEC
  0
SECTION
  2
ENTITIES
  0
MTEXT
  5
21F
100
AcDbEntity
  8
0
100
AcDbMText
 62
7
  6
CONTINUOUS
  7
STANDARD
 71
1
 72
1
 10
15.9560215477
 20
0.9479130325
 30
0.0
 11
1.0
 21
0.0
 31
0.0
 44
0.9
  1
SCALE: 1:1.000
 40
0.3
 41
3.36
  0
LINE
  5
220
100
AcDbEntity
  8
0
100
AcDbLine
 62
7
  6
CONTINUOUS
 10
0.0
 20
0.0
 11
0.0
 21
17.0
  0
LINE
  5
221
100
AcDbEntity
  8
0
100
AcDbLine
 62
7
  6
CONTINUOUS
 10
0.0
 20
0.0
 11
22.0
 21
0.0
  0
LINE
  5
222
100
AcDbEntity
  8
0
100
AcDbLine
 62
7
  6
CONTINUOUS
 10
0.0
 20
17.0
 11
22.0
 21
17.0
  0
LINE
  5
223
100
AcDbEntity
  8
0
100
AcDbLine
 62
7
  6
CONTINUOUS
 10
22.0
 20
0.0
 11
22.0
 21
17.0
  0
LINE
  5
224
100
AcDbEntity
  8
0
100
AcDbLine
 62
7
  6
CONTINUOUS
 10
3.1903672762
 20
5.8351198968
 11
3.1903672762
 21
5.7201198968
  0
LINE
  5
225
100
AcDbEntity
  8
0
100
AcDbLine
 62
7
  6
CONTINUOUS
 10
3.1903672762
 20
5.7201198968
 11
3.3473453078
 21
5.2158874316
  0
LINE
  5
226
100
AcDbEntity
  8
0
100
AcDbLine
 62
7
  6
CONTINUOUS
 10
4.0703672762
 20
5.7201198968
 11
4.0703672762
 21
5.7851198968
  0
LINE
  5
227
100
AcDbEntity
  8
0
100
AcDbLine
 62
7
  6
CONTINUOUS
 10
3.9133892446
 20
5.2158874316
 11
4.0703672762
 21
5.7201198968
  0
LINE
  5
228
100
AcDbEntity
  8
LAYER_FEATURE
100
AcDbLine
 62
7
  6
CONTINUOUS
 10
4.1903672762
 20
5.7851198968
 11
4.1903672762
 21
5.7201198968
  0
LINE
  5
229
100
AcDbEntity
  8
LAYER_FEATURE
100
AcDbLine
 62
7
  6
CONTINUOUS
 10
4.1903672762
 20
5.7201198968
 11
4.3473453078
 21
5.2158874316
  0
LINE
  5
22A
100
AcDbEntity
  8
LAYER_FEATURE
100
AcDbLine
 62
7
  6
CONTINUOUS
 10
5.0703672762
 20
5.7201198968
 11
5.0703672762
 21
5.7851198968
  0
LINE
  5
22B
100
AcDbEntity
  8
LAYER_FEATURE
100
AcDbLine
 62
7
  6
CONTINUOUS
 10
4.9133892446
 20
5.2158874316
 11
5.0703672762
 21
5.7201198968
  0
LINE
  5
22C
100
AcDbEntity
  8
LAYER_FEATURE
100
AcDbLine
 62
7
  6
CONTINUOUS
 10
5.1903672762
 20
5.7851198968
 11
5.1903672762
 21
5.7201198968
  0
LINE
  5
22D
100
AcDbEntity
  8
LAYER_FEATURE
100
AcDbLine
 62
7
  6
CONTINUOUS
 10
5.1903672762
 20
5.7201198968
 11
5.3473453078
 21
5.2158874316
  0
LINE
  5
22E
100
AcDbEntity
  8
0
100
AcDbLine
 62
7
  6
CONTINUOUS
 10
3.3823546404
 20
5.1901198968
 11
3.8783799119
 21
5.1901198968
  0
LINE
  5
22F
100
AcDbEntity
  8
LAYER_FEATURE
100
AcDbLine
 62
7
  6
CONTINUOUS
 10
4.3823546404
 20
5.1901198968
 11
4.8783799119
 21
5.1901198968
  0
LINE
  5
230
100
AcDbEntity
  8
LAYER_FEATURE
100
AcDbLine
 62
7
  6
CONTINUOUS
 10
5.3823546404
 20
5.1901198968
 11
5.8783799119
 21
5.1901198968
  0
LINE
  5
231
100
AcDbEntity
  8
LAYER_FEATURE
100
AcDbLine
 62
7
  6
CONTINUOUS
 10
6.3823546404
 20
5.1901198968
 11
6.8783799119
 21
5.1901198968
  0
LINE
  5
232
100
AcDbEntity
  8
LAYER_FEATURE
100
AcDbLine
 62
7
  6
CONTINUOUS
 10
7.3823546404
 20
5.1901198968
 11
7.8783799119
 21
5.1901198968
  0
LINE
  5
233
100
AcDbEntity
  8
LAYER_FEATURE
100
AcDbLine
 62
7
  6
CONTINUOUS
 10
8.3823546404
 20
5.1901198968
 11
8.8783799119
 21
5.1901198968
  0
LINE
  5
234
100
AcDbEntity
  8
LAYER_FEATURE
100
AcDbLine
 62
7
  6
CONTINUOUS
 10
6.0703672762
 20
5.7201198968
 11
6.0703672762
 21
5.7851198968
  0
LINE
  5
235
100
AcDbEntity
  8
LAYER_FEATURE
100
AcDbLine
 62
7
  6
CONTINUOUS
 10
5.9133892446
 20
5.2158874316
 11
6.0703672762
 21
5.7201198968
  0
LINE
  5
236
100
AcDbEntity
  8
LAYER_FEATURE
100
AcDbLine
 62
7
  6
CONTINUOUS
 10
6.1903672762
 20
5.7851198968
 11
6.1903672762
 21
5.7201198968
  0
LINE
  5
237
100
AcDbEntity
  8
LAYER_FEATURE
100
AcDbLine
 62
7
  6
CONTINUOUS
 10
6.1903672762
 20
5.7201198968
 11
6.3473453078
 21
5.2158874316
  0
LINE
  5
238
100
AcDbEntity
  8
LAYER_FEATURE
100
AcDbLine
 62
7
  6
CONTINUOUS
 10
4.0703672762
 20
5.7851198968
 11
4.1903672762
 21
5.7851198968
  0
LINE
  5
239
100
AcDbEntity
  8
LAYER_FEATURE
100
AcDbLine
 62
7
  6
CONTINUOUS
 10
5.0703672762
 20
5.7851198968
 11
5.1903672762
 21
5.7851198968
  0
LINE
  5
23A
100
AcDbEntity
  8
LAYER_FEATURE
100
AcDbLine
 62
7
  6
CONTINUOUS
 10
6.0703672762
 20
5.7851198968
 11
6.1903672762
 21
5.7851198968
  0
LINE
  5
23B
100
AcDbEntity
  8
LAYER_FEATURE
100
AcDbLine
 62
7
  6
CONTINUOUS
 10
7.0703672762
 20
5.7851198968
 11
7.1903672762
 21
5.7851198968
  0
LINE
  5
23C
100
AcDbEntity
  8
LAYER_FEATURE
100
AcDbLine
 62
7
  6
CONTINUOUS
 10
8.0703672762
 20
5.7851198968
 11
8.1903672762
 21
5.7851198968
  0
LINE
  5
23D
100
AcDbEntity
  8
0
100
AcDbLine
 62
7
  6
CONTINUOUS
 10
9.0553672762
 20
5.8501198968
 11
3.2053672762
 21
5.8501198968
  0
LINE
  5
23E
100
AcDbEntity
  8
LAYER_FEATURE
100
AcDbLine
 62
7
  6
CONTINUOUS
 10
7.0703672762
 20
5.7201198968
 11
7.0703672762
 21
5.7851198968
  0
LINE
  5
23F
100
AcDbEntity
  8
LAYER_FEATURE
100
AcDbLine
 62
7
  6
CONTINUOUS
 10
6.9133892446
 20
5.2158874316
 11
7.0703672762
 21
5.7201198968
  0
LINE
  5
240
100
AcDbEntity
  8
LAYER_FEATURE
100
AcDbLine
 62
7
  6
CONTINUOUS
 10
7.1903672762
 20
5.7851198968
 11
7.1903672762
 21
5.7201198968
  0
LINE
  5
241
100
AcDbEntity
  8
LAYER_FEATURE
100
AcDbLine
 62
7
  6
CONTINUOUS
 10
7.1903672762
 20
5.7201198968
 11
7.3473453078
 21
5.2158874316
  0
LINE
  5
242
100
AcDbEntity
  8
LAYER_FEATURE
100
AcDbLine
 62
7
  6
CONTINUOUS
 10
7.9133892446
 20
5.2158874316
 11
8.0703672762
 21
5.7201198968
  0
LINE
  5
243
100
AcDbEntity
  8
LAYER_FEATURE
100
AcDbLine
 62
7
  6
CONTINUOUS
 10
8.0703672762
 20
5.7201198968
 11
8.0703672762
 21
5.7851198968
  0
LINE
  5
244
100
AcDbEntity
  8
LAYER_FEATURE
100
AcDbLine
 62
7
  6
CONTINUOUS
 10
8.1903672762
 20
5.7851198968
 11
8.1903672762
 21
5.7201198968
  0
LINE
  5
245
100
AcDbEntity
  8
LAYER_FEATURE
100
AcDbLine
 62
7
  6
CONTINUOUS
 10
8.1903672762
 20
5.7201198968
 11
8.3473453078
 21
5.2158874316
  0
LINE
  5
246
100
AcDbEntity
  8
0
100
AcDbLine
 62
7
  6
CONTINUOUS
 10
9.0703672762
 20
5.7201198968
 11
9.0703672762
 21
5.8351198968
  0
LINE
  5
247
100
AcDbEntity
  8
LAYER_FEATURE
100
AcDbLine
 62
7
  6
CONTINUOUS
 10
8.9133892446
 20
5.2158874316
 11
9.0703672762
 21
5.7201198968
  0
LINE
  5
248
100
AcDbEntity
  8
0
100
AcDbLine
 62
7
  6
CONTINUOUS
 10
3.1308720839
 20
14.6000477814
 11
3.1308720839
 21
10.6000477814
  0
LINE
  5
249
100
AcDbEntity
  8
0
100
AcDbLine
 62
7
  6
CONTINUOUS
 10
9.0108720839
 20
10.6000477814
 11
3.1308720839
 21
10.6000477814
  0
LINE
  5
24A
100
AcDbEntity
  8
0
100
AcDbLine
 62
7
  6
CONTINUOUS
 10
3.1308720839
 20
14.6000477814
 11
9.0108720839
 21
14.6000477814
  0
LINE
  5
24B
100
AcDbEntity
  8
0
100
AcDbLine
 62
7
  6
CONTINUOUS
 10
9.0108720839
 20
10.6000477814
 11
9.0108720839
 21
14.6000477814
  0
LINE
  5
24C
100
AcDbEntity
  8
LAYER_FEATURE
100
AcDbLine
 62
7
  6
CONTINUOUS
 10
13.5603552569
 20
5.1306247044
 11
13.5603552569
 21
5.6606247044
  0
LINE
  5
24D
100
AcDbEntity
  8
0
100
AcDbLine
 62
7
  6
CONTINUOUS
 10
13.5603552569
 20
5.6606247044
 11
13.5603552569
 21
5.7906247044
  0
LINE
  5
24E
100
AcDbEntity
  8
LAYER_FEATURE
100
AcDbLine
 62
7
  6
CONTINUOUS
 10
13.5603552569
 20
5.1306247044
 11
17.5603552569
 21
5.1306247044
  0
LINE
  5
24F
100
AcDbEntity
  8
LAYER_FEATURE
100
AcDbLine
 62
7
  6
CONTINUOUS
 10
17.5603552569
 20
5.6606247044
 11
13.5603552569
 21
5.6606247044
  0
LINE
  5
250
100
AcDbEntity
  8
0
100
AcDbLine
 62
7
  6
CONTINUOUS
 10
13.5603552569
 20
5.7906247044
 11
17.5603552569
 21
5.7906247044
  0
LINE
  5
251
100
AcDbEntity
  8
0
100
AcDbLine
 62
7
  6
CONTINUOUS
 10
17.5603552569
 20
5.7906247044
 11
17.5603552569
 21
5.6606247044
  0
LINE
  5
252
100
AcDbEntity
  8
LAYER_FEATURE
100
AcDbLine
 62
7
  6
CONTINUOUS
 10
17.5603552569
 20
5.1306247044
 11
17.5603552569
 21
5.6606247044
  0
LINE
  5
253
100
AcDbEntity
  8
0
100
AcDbLine
 62
7
  6
CONTINUOUS
 10
12.257258159
 20
11.1399583137
 11
12.2923379736
 21
11.0684731673
  0
LINE
  5
254
100
AcDbEntity
  8
0
100
AcDbLine
 62
7
  6
CONTINUOUS
 10
12.2923379736
 20
11.0684731673
 11
12.5907363279
 21
10.7550372406
  0
LINE
  5
255
100
AcDbEntity
  8
0
100
AcDbLine
 62
7
  6
CONTINUOUS
 10
13.2250080548
 20
14.2776946627
 11
12.2567427612
 21
11.1443870242
  0
LINE
  5
256
100
AcDbEntity
  8
0
100
AcDbLine
 62
7
  6
CONTINUOUS
 10
13.1028716484
 20
11.0684731673
 11
13.083043927
 21
11.1088778152
  0
LINE
  5
257
100
AcDbEntity
  8
LAYER_FEATURE
100
AcDbLine
 62
7
  6
CONTINUOUS
 10
13.1935712463
 20
11.1088778152
 11
13.2133989676
 21
11.0684731673
  0
LINE
  5
258
100
AcDbEntity
  8
LAYER_FEATURE
100
AcDbLine
 62
7
  6
CONTINUOUS
 10
13.2133989676
 20
11.0684731673
 11
13.5117973219
 21
10.7550372406
  0
LINE
  5
259
100
AcDbEntity
  8
0
100
AcDbLine
 62
7
  6
CONTINUOUS
 10
13.1120973189
 20
10.7550372406
 11
13.1028716484
 21
11.0684731673
  0
LINE
  5
25A
100
AcDbEntity
  8
0
100
AcDbLine
 62
7
  6
CONTINUOUS
 10
13.1115505936
 20
10.7509890955
 11
13.1120973189
 21
10.7550372406
  0
LINE
  5
25B
100
AcDbEntity
  8
LAYER_FEATURE
100
AcDbLine
 62
7
  6
CONTINUOUS
 10
14.1344599616
 20
11.0684731673
 11
14.4328583159
 21
10.7550372406
  0
LINE
  5
25C
100
AcDbEntity
  8
LAYER_FEATURE
100
AcDbLine
 62
7
  6
CONTINUOUS
 10
14.0239326424
 20
11.0684731673
 11
14.004104921
 21
11.1088778152
  0
LINE
  5
25D
100
AcDbEntity
  8
0
100
AcDbLine
 62
7
  6
CONTINUOUS
 10
13.1153576289
 20
11.1088778152
 11
13.1028716484
 21
11.0684731673
  0
LINE
  5
25E
100
AcDbEntity
  8
0
100
AcDbLine
 62
7
  6
CONTINUOUS
 10
13.1127485722
 20
10.7548359881
 11
13.211110741
 21
11.0731360829
  0
LINE
  5
25F
100
AcDbEntity
  8
0
100
AcDbLine
 62
7
  6
CONTINUOUS
 10
12.6308422355
 20
10.7390198841
 11
13.0877117652
 21
10.7390198841
  0
LINE
  5
260
100
AcDbEntity
  8
LAYER_FEATURE
100
AcDbLine
 62
7
  6
CONTINUOUS
 10
13.5519032295
 20
10.7390198841
 11
14.0087727592
 21
10.7390198841
  0
LINE
  5
261
100
AcDbEntity
  8
LAYER_FEATURE
100
AcDbLine
 62
7
  6
CONTINUOUS
 10
14.4729642235
 20
10.7390198841
 11
14.9298337532
 21
10.7390198841
  0
LINE
  5
262
100
AcDbEntity
  8
LAYER_FEATURE
100
AcDbLine
 62
7
  6
CONTINUOUS
 10
15.3940252175
 20
10.7390198841
 11
15.8508947472
 21
10.7390198841
  0
LINE
  5
263
100
AcDbEntity
  8
LAYER_FEATURE
100
AcDbLine
 62
7
  6
CONTINUOUS
 10
16.3150862115
 20
10.7390198841
 11
16.7719557412
 21
10.7390198841
  0
LINE
  5
264
100
AcDbEntity
  8
LAYER_FEATURE
100
AcDbLine
 62
7
  6
CONTINUOUS
 10
17.2361472055
 20
10.7390198841
 11
17.6930167352
 21
10.7390198841
  0
LINE
  5
265
100
AcDbEntity
  8
LAYER_FEATURE
100
AcDbLine
 62
7
  6
CONTINUOUS
 10
14.1146322403
 20
11.1088778152
 11
14.1344599616
 21
11.0684731673
  0
LINE
  5
266
100
AcDbEntity
  8
LAYER_FEATURE
100
AcDbLine
 62
7
  6
CONTINUOUS
 10
14.0331583129
 20
10.7550372406
 11
14.0239326424
 21
11.0684731673
  0
LINE
  5
267
100
AcDbEntity
  8
LAYER_FEATURE
100
AcDbLine
 62
7
  6
CONTINUOUS
 10
13.083043927
 20
11.1088778152
 11
13.1935712463
 21
11.1088778152
  0
LINE
  5
268
100
AcDbEntity
  8
LAYER_FEATURE
100
AcDbLine
 62
7
  6
CONTINUOUS
 10
14.004104921
 20
11.1088778152
 11
14.1146322403
 21
11.1088778152
  0
LINE
  5
269
100
AcDbEntity
  8
LAYER_FEATURE
100
AcDbLine
 62
7
  6
CONTINUOUS
 10
14.925165915
 20
11.1088778152
 11
15.0356932343
 21
11.1088778152
  0
LINE
  5
26A
100
AcDbEntity
  8
LAYER_FEATURE
100
AcDbLine
 62
7
  6
CONTINUOUS
 10
15.846226909
 20
11.1088778152
 11
15.9567542283
 21
11.1088778152
  0
LINE
  5
26B
100
AcDbEntity
  8
LAYER_FEATURE
100
AcDbLine
 62
7
  6
CONTINUOUS
 10
16.767287903
 20
11.1088778152
 11
16.8778152223
 21
11.1088778152
  0
LINE
  5
26C
100
AcDbEntity
  8
0
100
AcDbLine
 62
7
  6
CONTINUOUS
 10
17.6547052608
 20
11.1492824632
 11
12.2664984459
 21
11.1492824632
  0
LINE
  5
26D
100
AcDbEntity
  8
LAYER_FEATURE
100
AcDbLine
 62
7
  6
CONTINUOUS
 10
15.0555209556
 20
11.0684731673
 11
15.3539193099
 21
10.7550372406
  0
LINE
  5
26E
100
AcDbEntity
  8
LAYER_FEATURE
100
AcDbLine
 62
7
  6
CONTINUOUS
 10
14.0326115876
 20
10.7509890955
 11
14.0331583129
 21
10.7550372406
  0
LINE
  5
26F
100
AcDbEntity
  8
LAYER_FEATURE
100
AcDbLine
 62
7
  6
CONTINUOUS
 10
14.0364186229
 20
11.1088778152
 11
14.0239326424
 21
11.0684731673
  0
LINE
  5
270
100
AcDbEntity
  8
LAYER_FEATURE
100
AcDbLine
 62
7
  6
CONTINUOUS
 10
14.9449936364
 20
11.0684731673
 11
14.925165915
 21
11.1088778152
  0
LINE
  5
271
100
AcDbEntity
  8
LAYER_FEATURE
100
AcDbLine
 62
7
  6
CONTINUOUS
 10
15.0356932343
 20
11.1088778152
 11
15.0555209556
 21
11.0684731673
  0
LINE
  5
272
100
AcDbEntity
  8
LAYER_FEATURE
100
AcDbLine
 62
7
  6
CONTINUOUS
 10
14.0338095662
 20
10.7548359881
 11
14.132171735
 21
11.0731360829
  0
LINE
  5
273
100
AcDbEntity
  8
LAYER_FEATURE
100
AcDbLine
 62
7
  6
CONTINUOUS
 10
14.9542193069
 20
10.7550372406
 11
14.9449936364
 21
11.0684731673
  0
LINE
  5
274
100
AcDbEntity
  8
LAYER_FEATURE
100
AcDbLine
 62
7
  6
CONTINUOUS
 10
15.9765819496
 20
11.0684731673
 11
16.2749803039
 21
10.7550372406
  0
LINE
  5
275
100
AcDbEntity
  8
LAYER_FEATURE
100
AcDbLine
 62
7
  6
CONTINUOUS
 10
14.9536725816
 20
10.7509890955
 11
14.9542193069
 21
10.7550372406
  0
LINE
  5
276
100
AcDbEntity
  8
LAYER_FEATURE
100
AcDbLine
 62
7
  6
CONTINUOUS
 10
15.8660546304
 20
11.0684731673
 11
15.846226909
 21
11.1088778152
  0
LINE
  5
277
100
AcDbEntity
  8
LAYER_FEATURE
100
AcDbLine
 62
7
  6
CONTINUOUS
 10
14.9574796169
 20
11.1088778152
 11
14.9449936364
 21
11.0684731673
  0
LINE
  5
278
100
AcDbEntity
  8
LAYER_FEATURE
100
AcDbLine
 62
7
  6
CONTINUOUS
 10
14.9548705602
 20
10.7548359881
 11
15.053232729
 21
11.0731360829
  0
LINE
  5
279
100
AcDbEntity
  8
LAYER_FEATURE
100
AcDbLine
 62
7
  6
CONTINUOUS
 10
15.9567542283
 20
11.1088778152
 11
15.9765819496
 21
11.0684731673
  0
LINE
  5
27A
100
AcDbEntity
  8
LAYER_FEATURE
100
AcDbLine
 62
7
  6
CONTINUOUS
 10
16.8976429437
 20
11.0684731673
 11
17.1960412979
 21
10.7550372406
  0
LINE
  5
27B
100
AcDbEntity
  8
LAYER_FEATURE
100
AcDbLine
 62
7
  6
CONTINUOUS
 10
15.8752803009
 20
10.7550372406
 11
15.8660546304
 21
11.0684731673
  0
LINE
  5
27C
100
AcDbEntity
  8
LAYER_FEATURE
100
AcDbLine
 62
7
  6
CONTINUOUS
 10
15.8747335756
 20
10.7509890955
 11
15.8752803009
 21
10.7550372406
  0
LINE
  5
27D
100
AcDbEntity
  8
LAYER_FEATURE
100
AcDbLine
 62
7
  6
CONTINUOUS
 10
16.7871156244
 20
11.0684731673
 11
16.767287903
 21
11.1088778152
  0
LINE
  5
27E
100
AcDbEntity
  8
LAYER_FEATURE
100
AcDbLine
 62
7
  6
CONTINUOUS
 10
16.8778152223
 20
11.1088778152
 11
16.8976429437
 21
11.0684731673
  0
LINE
  5
27F
100
AcDbEntity
  8
LAYER_FEATURE
100
AcDbLine
 62
7
  6
CONTINUOUS
 10
15.8785406109
 20
11.1088778152
 11
15.8660546304
 21
11.0684731673
  0
LINE
  5
280
100
AcDbEntity
  8
LAYER_FEATURE
100
AcDbLine
 62
7
  6
CONTINUOUS
 10
15.8759315542
 20
10.7548359881
 11
15.974293723
 21
11.0731360829
  0
LINE
  5
281
100
AcDbEntity
  8
LAYER_FEATURE
100
AcDbLine
 62
7
  6
CONTINUOUS
 10
16.7963412949
 20
10.7550372406
 11
16.7871156244
 21
11.0684731673
  0
LINE
  5
282
100
AcDbEntity
  8
0
100
AcDbLine
 62
7
  6
CONTINUOUS
 10
17.7081766184
 20
11.0684731673
 11
17.6730968037
 21
11.1399583137
  0
LINE
  5
283
100
AcDbEntity
  8
LAYER_FEATURE
100
AcDbLine
 62
7
  6
CONTINUOUS
 10
16.7957945696
 20
10.7509890955
 11
16.7963412949
 21
10.7550372406
  0
LINE
  5
284
100
AcDbEntity
  8
LAYER_FEATURE
100
AcDbLine
 62
7
  6
CONTINUOUS
 10
16.7996016049
 20
11.1088778152
 11
16.7871156244
 21
11.0684731673
  0
LINE
  5
285
100
AcDbEntity
  8
LAYER_FEATURE
100
AcDbLine
 62
7
  6
CONTINUOUS
 10
16.7969925482
 20
10.7548359881
 11
16.895354717
 21
11.0731360829
  0
LINE
  5
286
100
AcDbEntity
  8
0
100
AcDbLine
 62
7
  6
CONTINUOUS
 10
13.2347637395
 20
14.2825901017
 11
18.6229705544
 21
14.2825901017
  0
LINE
  5
287
100
AcDbEntity
  8
LAYER_FEATURE
100
AcDbLine
 62
7
  6
CONTINUOUS
 10
17.7174022889
 20
10.7550372406
 11
17.7081766184
 21
11.0684731673
  0
LINE
  5
288
100
AcDbEntity
  8
LAYER_FEATURE
100
AcDbLine
 62
7
  6
CONTINUOUS
 10
17.7168555636
 20
10.7509890955
 11
17.7174022889
 21
10.7550372406
  0
LINE
  5
289
100
AcDbEntity
  8
LAYER_FEATURE
100
AcDbLine
 62
7
  6
CONTINUOUS
 10
18.676441912
 20
14.2017808058
 11
17.7081766184
 21
11.0684731673
  0
LINE
  5
28A
100
AcDbEntity
  8
LAYER_FEATURE
100
AcDbLine
 62
7
  6
CONTINUOUS
 10
17.7180535422
 20
10.7548359881
 11
18.685129258
 21
13.8842941512
  0
LINE
  5
28B
100
AcDbEntity
  8
LAYER_FEATURE
100
AcDbLine
 62
7
  6
CONTINUOUS
 10
18.6856675826
 20
13.8883448791
 11
18.6851208572
 21
13.884296734
  0
LINE
  5
28C
100
AcDbEntity
  8
LAYER_FEATURE
100
AcDbLine
 62
7
  6
CONTINUOUS
 10
18.6856675826
 20
13.8883448791
 11
18.676441912
 21
14.2017808058
  0
LINE
  5
28D
100
AcDbEntity
  8
0
100
AcDbLine
 62
7
  6
CONTINUOUS
 10
18.6413620973
 20
14.2732659522
 11
18.676441912
 21
14.2017808058
  0
ARC
  5
28E
100
AcDbEntity
  8
0
100
AcDbCircle
 62
7
  6
CONTINUOUS
 10
3.3823546404
 20
5.2267865634
 40
0.0366666667
100
AcDbArc
 50
197.2924493999
 51
270.0
  0
ARC
  5
28F
100
AcDbEntity
  8
0
100
AcDbCircle
 62
7
  6
CONTINUOUS
 10
3.8783799119
 20
5.2267865634
 40
0.0366666667
100
AcDbArc
 50
270.0
 51
342.7075506001
  0
ARC
  5
290
100
AcDbEntity
  8
LAYER_FEATURE
100
AcDbCircle
 62
7
  6
CONTINUOUS
 10
4.3823546404
 20
5.2267865634
 40
0.0366666667
100
AcDbArc
 50
197.2924493999
 51
270.0
  0
ARC
  5
291
100
AcDbEntity
  8
LAYER_FEATURE
100
AcDbCircle
 62
7
  6
CONTINUOUS
 10
4.8783799119
 20
5.2267865634
 40
0.0366666667
100
AcDbArc
 50
270.0
 51
342.7075506001
  0
ARC
  5
292
100
AcDbEntity
  8
LAYER_FEATURE
100
AcDbCircle
 62
7
  6
CONTINUOUS
 10
5.3823546404
 20
5.2267865634
 40
0.0366666667
100
AcDbArc
 50
197.2924493999
 51
270.0
  0
ARC
  5
293
100
AcDbEntity
  8
LAYER_FEATURE
100
AcDbCircle
 62
7
  6
CONTINUOUS
 10
5.8783799119
 20
5.2267865634
 40
0.0366666667
100
AcDbArc
 50
270.0
 51
342.7075506001
  0
ARC
  5
294
100
AcDbEntity
  8
LAYER_FEATURE
100
AcDbCircle
 62
7
  6
CONTINUOUS
 10
6.3823546404
 20
5.2267865634
 40
0.0366666667
100
AcDbArc
 50
197.2924493999
 51
270.0
  0
ARC
  5
295
100
AcDbEntity
  8
LAYER_FEATURE
100
AcDbCircle
 62
7
  6
CONTINUOUS
 10
6.8783799119
 20
5.2267865634
 40
0.0366666667
100
AcDbArc
 50
270.0
 51
342.7075506001
  0
ARC
  5
296
100
AcDbEntity
  8
LAYER_FEATURE
100
AcDbCircle
 62
7
  6
CONTINUOUS
 10
7.3823546404
 20
5.2267865634
 40
0.0366666667
100
AcDbArc
 50
197.2924493999
 51
270.0
  0
ARC
  5
297
100
AcDbEntity
  8
LAYER_FEATURE
100
AcDbCircle
 62
7
  6
CONTINUOUS
 10
7.8783799119
 20
5.2267865634
 40
0.0366666667
100
AcDbArc
 50
270.0
 51
342.7075506001
  0
ARC
  5
298
100
AcDbEntity
  8
LAYER_FEATURE
100
AcDbCircle
 62
7
  6
CONTINUOUS
 10
8.8783799119
 20
5.2267865634
 40
0.0366666667
100
AcDbArc
 50
270.0
 51
342.7075506001
  0
ARC
  5
299
100
AcDbEntity
  8
LAYER_FEATURE
100
AcDbCircle
 62
7
  6
CONTINUOUS
 10
8.3823546404
 20
5.2267865634
 40
0.0366666667
100
AcDbArc
 50
197.2924493999
 51
270.0
  0
ARC
  5
29A
100
AcDbEntity
  8
0
100
AcDbCircle
 62
7
  6
CONTINUOUS
 10
3.2053672762
 20
5.8351198968
 40
0.015
100
AcDbArc
 50
90.0
 51
180.0
  0
ARC
  5
29B
100
AcDbEntity
  8
0
100
AcDbCircle
 62
7
  6
CONTINUOUS
 10
9.0553672762
 20
5.8351198968
 40
0.015
100
AcDbArc
 50
0.0
 51
90.0
  0
SPLINE
  5
29C
100
AcDbEntity
  8
0
100
AcDbSpline
 62
7
  6
CONTINUOUS
 70
0
 71
3
 72
15
 73
11
 74
0
 42
0.0000001
 43
0.0000001
 44
0.0000000001
 40
0.0
 40
0.0
 40
0.0
 40
0.0
 40
0.1294165569
 40
0.2645180781
 40
0.4012970774
 40
0.5362628266
 40
0.6661560434
 40
0.78813941
 40
0.8999194788
 40
1.0
 40
1.0
 40
1.0
 40
1.0
 10
18.6229705544
 20
14.2825901017
 30
0.0
 10
18.6238984079
 20
14.2825901017
 30
0.0
 10
18.6257962122
 20
14.2824598935
 30
0.0
 10
18.6286302752
 20
14.2819314601
 30
0.0
 10
18.6314246275
 20
14.2810734835
 30
0.0
 10
18.6340724706
 20
14.2799260031
 30
0.0
 10
18.6364752177
 20
14.2785271797
 30
0.0
 10
18.6385481089
 20
14.2769310955
 30
0.0
 10
18.6402061287
 20
14.2751915605
 30
0.0
 10
18.6410459954
 20
14.2739101001
 30
0.0
 10
18.6413620973
 20
14.2732659522
 30
0.0
  0
SPLINE
  5
29D
100
AcDbEntity
  8
0
100
AcDbSpline
 62
7
  6
CONTINUOUS
 70
0
 71
3
 72
10
 73
6
 74
0
 42
0.0000001
 43
0.0000001
 44
0.0000000001
 40
0.0
 40
0.0
 40
0.0
 40
0.0
 40
0.2343758129
 40
0.4761728829
 40
1.0
 40
1.0
 40
1.0
 40
1.0
 10
12.2567428475
 20
11.1443869723
 30
0.0
 10
12.2566376194
 20
11.1440472072
 30
0.0
 10
12.2564996683
 20
11.1433307279
 30
0.0
 10
12.2565365452
 20
11.1418050261
 30
0.0
 10
12.2569079468
 20
11.1406719711
 30
0.0
 10
12.257258159
 20
11.1399583137
 30
0.0
  0
SPLINE
  5
29E
100
AcDbEntity
  8
0
100
AcDbSpline
 62
7
  6
CONTINUOUS
 70
0
 71
3
 72
13
 73
9
 74
0
 42
0.0000001
 43
0.0000001
 44
0.0000000001
 40
0.0
 40
0.0
 40
0.0
 40
0.0
 40
0.0997942201
 40
0.2030647278
 40
0.3128498857
 40
0.4312452013
 40
0.6971835619
 40
1.0
 40
1.0
 40
1.0
 40
1.0
 10
13.2250081411
 20
14.2776946108
 30
0.0
 10
13.2251225043
 20
14.2780638713
 30
0.0
 10
13.2254463088
 20
14.2787899798
 30
0.0
 10
13.2261830014
 20
14.279763762
 30
0.0
 10
13.2271579958
 20
14.2806115265
 30
0.0
 10
13.2288086831
 20
14.2815967581
 30
0.0
 10
13.2313813874
 20
14.2824026458
 30
0.0
 10
13.2335907445
 20
14.2825901017
 30
0.0
 10
13.2347637395
 20
14.2825901017
 30
0.0
  0
SPLINE
  5
29F
100
AcDbEntity
  8
LAYER_FEATURE
100
AcDbSpline
 62
7
  6
CONTINUOUS
 70
0
 71
3
 72
14
 73
10
 74
0
 42
0.0000001
 43
0.0000001
 44
0.0000000001
 40
0.0
 40
0.0
 40
0.0
 40
0.0
 40
0.1556543678
 40
0.3032840599
 40
0.5688055676
 40
0.6871059037
 40
0.7968501968
 40
0.9001580975
 40
1.0
 40
1.0
 40
1.0
 40
1.0
 10
17.6930167352
 20
10.7390198841
 30
0.0
 10
17.6944911953
 20
10.7390198841
 30
0.0
 10
17.6973675057
 20
10.7391485491
 30
0.0
 10
17.7027028439
 20
10.7399181227
 30
0.0
 10
17.7075726604
 20
10.741449242
 30
0.0
 10
17.7116058518
 20
10.7438526674
 30
0.0
 10
17.7139879355
 20
10.7459266936
 30
0.0
 10
17.7157941887
 20
10.7483051427
 30
0.0
 10
17.7165831051
 20
10.7500833958
 30
0.0
 10
17.7168620099
 20
10.7509871043
 30
0.0
  0
SPLINE
  5
2A0
100
AcDbEntity
  8
LAYER_FEATURE
100
AcDbSpline
 62
7
  6
CONTINUOUS
 70
0
 71
3
 72
15
 73
11
 74
0
 42
0.0000001
 43
0.0000001
 44
0.0000000001
 40
0.0
 40
0.0
 40
0.0
 40
0.0
 40
0.1116612282
 40
0.2310633845
 40
0.3563152558
 40
0.4855089366
 40
0.6166385585
 40
0.7476023511
 40
0.876216379
 40
1.0
 40
1.0
 40
1.0
 40
1.0
 10
17.1960412979
 20
10.7550372406
 30
0.0
 10
17.1971765825
 20
10.7538447442
 30
0.0
 10
17.1997010607
 20
10.7515408554
 30
0.0
 10
17.2039689909
 20
10.7484603659
 30
0.0
 10
17.2087591773
 20
10.7457134607
 30
0.0
 10
17.2139451651
 20
10.7433635059
 30
0.0
 10
17.2194037701
 20
10.7414705676
 30
0.0
 10
17.2250021599
 20
10.7400768055
 30
0.0
 10
17.2305982947
 20
10.7392249496
 30
0.0
 10
17.2343219694
 20
10.7390198841
 30
0.0
 10
17.2361472055
 20
10.7390198841
 30
0.0
  0
SPLINE
  5
2A1
100
AcDbEntity
  8
LAYER_FEATURE
100
AcDbSpline
 62
7
  6
CONTINUOUS
 70
0
 71
3
 72
14
 73
10
 74
0
 42
0.0000001
 43
0.0000001
 44
0.0000000001
 40
0.0
 40
0.0
 40
0.0
 40
0.0
 40
0.1556543678
 40
0.3032840599
 40
0.5688055676
 40
0.6871059037
 40
0.7968501968
 40
0.9001580975
 40
1.0
 40
1.0
 40
1.0
 40
1.0
 10
16.7719557412
 20
10.7390198841
 30
0.0
 10
16.7734302013
 20
10.7390198841
 30
0.0
 10
16.7763065117
 20
10.7391485491
 30
0.0
 10
16.7816418499
 20
10.7399181227
 30
0.0
 10
16.7865116664
 20
10.741449242
 30
0.0
 10
16.7905448578
 20
10.7438526674
 30
0.0
 10
16.7929269415
 20
10.7459266936
 30
0.0
 10
16.7947331947
 20
10.7483051427
 30
0.0
 10
16.7955221111
 20
10.7500833958
 30
0.0
 10
16.7958010159
 20
10.7509871043
 30
0.0
  0
SPLINE
  5
2A2
100
AcDbEntity
  8
LAYER_FEATURE
100
AcDbSpline
 62
7
  6
CONTINUOUS
 70
0
 71
3
 72
15
 73
11
 74
0
 42
0.0000001
 43
0.0000001
 44
0.0000000001
 40
0.0
 40
0.0
 40
0.0
 40
0.0
 40
0.1116612282
 40
0.2310633845
 40
0.3563152558
 40
0.4855089366
 40
0.6166385585
 40
0.7476023511
 40
0.876216379
 40
1.0
 40
1.0
 40
1.0
 40
1.0
 10
16.2749803039
 20
10.7550372406
 30
0.0
 10
16.2761155885
 20
10.7538447442
 30
0.0
 10
16.2786400667
 20
10.7515408554
 30
0.0
 10
16.2829079969
 20
10.7484603659
 30
0.0
 10
16.2876981833
 20
10.7457134607
 30
0.0
 10
16.2928841711
 20
10.7433635059
 30
0.0
 10
16.2983427761
 20
10.7414705676
 30
0.0
 10
16.3039411659
 20
10.7400768055
 30
0.0
 10
16.3095373007
 20
10.7392249496
 30
0.0
 10
16.3132609754
 20
10.7390198841
 30
0.0
 10
16.3150862115
 20
10.7390198841
 30
0.0
  0
SPLINE
  5
2A3
100
AcDbEntity
  8
LAYER_FEATURE
100
AcDbSpline
 62
7
  6
CONTINUOUS
 70
0
 71
3
 72
14
 73
10
 74
0
 42
0.0000001
 43
0.0000001
 44
0.0000000001
 40
0.0
 40
0.0
 40
0.0
 40
0.0
 40
0.1556543678
 40
0.3032840599
 40
0.5688055676
 40
0.6871059037
 40
0.7968501968
 40
0.9001580975
 40
1.0
 40
1.0
 40
1.0
 40
1.0
 10
15.8508947472
 20
10.7390198841
 30
0.0
 10
15.8523692073
 20
10.7390198841
 30
0.0
 10
15.8552455177
 20
10.7391485491
 30
0.0
 10
15.8605808559
 20
10.7399181227
 30
0.0
 10
15.8654506724
 20
10.741449242
 30
0.0
 10
15.8694838638
 20
10.7438526674
 30
0.0
 10
15.8718659475
 20
10.7459266936
 30
0.0
 10
15.8736722007
 20
10.7483051427
 30
0.0
 10
15.8744611171
 20
10.7500833958
 30
0.0
 10
15.8747400219
 20
10.7509871043
 30
0.0
  0
SPLINE
  5
2A4
100
AcDbEntity
  8
LAYER_FEATURE
100
AcDbSpline
 62
7
  6
CONTINUOUS
 70
0
 71
3
 72
15
 73
11
 74
0
 42
0.0000001
 43
0.0000001
 44
0.0000000001
 40
0.0
 40
0.0
 40
0.0
 40
0.0
 40
0.1116612282
 40
0.2310633845
 40
0.3563152558
 40
0.4855089366
 40
0.6166385585
 40
0.7476023511
 40
0.876216379
 40
1.0
 40
1.0
 40
1.0
 40
1.0
 10
15.3539193099
 20
10.7550372406
 30
0.0
 10
15.3550545945
 20
10.7538447442
 30
0.0
 10
15.3575790727
 20
10.7515408554
 30
0.0
 10
15.3618470029
 20
10.7484603659
 30
0.0
 10
15.3666371893
 20
10.7457134607
 30
0.0
 10
15.3718231771
 20
10.7433635059
 30
0.0
 10
15.3772817821
 20
10.7414705676
 30
0.0
 10
15.3828801719
 20
10.7400768055
 30
0.0
 10
15.3884763067
 20
10.7392249496
 30
0.0
 10
15.3921999814
 20
10.7390198841
 30
0.0
 10
15.3940252175
 20
10.7390198841
 30
0.0
  0
SPLINE
  5
2A5
100
AcDbEntity
  8
LAYER_FEATURE
100
AcDbSpline
 62
7
  6
CONTINUOUS
 70
0
 71
3
 72
14
 73
10
 74
0
 42
0.0000001
 43
0.0000001
 44
0.0000000001
 40
0.0
 40
0.0
 40
0.0
 40
0.0
 40
0.1556543678
 40
0.3032840599
 40
0.5688055676
 40
0.6871059037
 40
0.7968501968
 40
0.9001580975
 40
1.0
 40
1.0
 40
1.0
 40
1.0
 10
14.9298337532
 20
10.7390198841
 30
0.0
 10
14.9313082132
 20
10.7390198841
 30
0.0
 10
14.9341845237
 20
10.7391485491
 30
0.0
 10
14.9395198619
 20
10.7399181227
 30
0.0
 10
14.9443896784
 20
10.741449242
 30
0.0
 10
14.9484228698
 20
10.7438526674
 30
0.0
 10
14.9508049535
 20
10.7459266936
 30
0.0
 10
14.9526112067
 20
10.7483051427
 30
0.0
 10
14.9534001231
 20
10.7500833958
 30
0.0
 10
14.9536790279
 20
10.7509871043
 30
0.0
  0
SPLINE
  5
2A6
100
AcDbEntity
  8
LAYER_FEATURE
100
AcDbSpline
 62
7
  6
CONTINUOUS
 70
0
 71
3
 72
15
 73
11
 74
0
 42
0.0000001
 43
0.0000001
 44
0.0000000001
 40
0.0
 40
0.0
 40
0.0
 40
0.0
 40
0.1116612282
 40
0.2310633845
 40
0.3563152558
 40
0.4855089366
 40
0.6166385585
 40
0.7476023511
 40
0.876216379
 40
1.0
 40
1.0
 40
1.0
 40
1.0
 10
14.4328583159
 20
10.7550372406
 30
0.0
 10
14.4339936005
 20
10.7538447442
 30
0.0
 10
14.4365180787
 20
10.7515408554
 30
0.0
 10
14.4407860089
 20
10.7484603659
 30
0.0
 10
14.4455761953
 20
10.7457134607
 30
0.0
 10
14.4507621831
 20
10.7433635059
 30
0.0
 10
14.4562207881
 20
10.7414705676
 30
0.0
 10
14.4618191779
 20
10.7400768055
 30
0.0
 10
14.4674153127
 20
10.7392249496
 30
0.0
 10
14.4711389874
 20
10.7390198841
 30
0.0
 10
14.4729642235
 20
10.7390198841
 30
0.0
  0
SPLINE
  5
2A7
100
AcDbEntity
  8
LAYER_FEATURE
100
AcDbSpline
 62
7
  6
CONTINUOUS
 70
0
 71
3
 72
14
 73
10
 74
0
 42
0.0000001
 43
0.0000001
 44
0.0000000001
 40
0.0
 40
0.0
 40
0.0
 40
0.0
 40
0.1556543678
 40
0.3032840599
 40
0.5688055676
 40
0.6871059037
 40
0.7968501968
 40
0.9001580975
 40
1.0
 40
1.0
 40
1.0
 40
1.0
 10
14.0087727592
 20
10.7390198841
 30
0.0
 10
14.0102472192
 20
10.7390198841
 30
0.0
 10
14.0131235297
 20
10.7391485491
 30
0.0
 10
14.0184588679
 20
10.7399181227
 30
0.0
 10
14.0233286844
 20
10.741449242
 30
0.0
 10
14.0273618758
 20
10.7438526674
 30
0.0
 10
14.0297439595
 20
10.7459266936
 30
0.0
 10
14.0315502127
 20
10.7483051427
 30
0.0
 10
14.0323391291
 20
10.7500833958
 30
0.0
 10
14.0326180339
 20
10.7509871043
 30
0.0
  0
SPLINE
  5
2A8
100
AcDbEntity
  8
LAYER_FEATURE
100
AcDbSpline
 62
7
  6
CONTINUOUS
 70
0
 71
3
 72
15
 73
11
 74
0
 42
0.0000001
 43
0.0000001
 44
0.0000000001
 40
0.0
 40
0.0
 40
0.0
 40
0.0
 40
0.1116612282
 40
0.2310633845
 40
0.3563152558
 40
0.4855089366
 40
0.6166385585
 40
0.7476023511
 40
0.876216379
 40
1.0
 40
1.0
 40
1.0
 40
1.0
 10
13.5117973219
 20
10.7550372406
 30
0.0
 10
13.5129326065
 20
10.7538447442
 30
0.0
 10
13.5154570847
 20
10.7515408554
 30
0.0
 10
13.5197250149
 20
10.7484603659
 30
0.0
 10
13.5245152013
 20
10.7457134607
 30
0.0
 10
13.5297011891
 20
10.7433635059
 30
0.0
 10
13.5351597941
 20
10.7414705676
 30
0.0
 10
13.5407581839
 20
10.7400768055
 30
0.0
 10
13.5463543187
 20
10.7392249496
 30
0.0
 10
13.5500779934
 20
10.7390198841
 30
0.0
 10
13.5519032295
 20
10.7390198841
 30
0.0
  0
SPLINE
  5
2A9
100
AcDbEntity
  8
0
100
AcDbSpline
 62
7
  6
CONTINUOUS
 70
0
 71
3
 72
14
 73
10
 74
0
 42
0.0000001
 43
0.0000001
 44
0.0000000001
 40
0.0
 40
0.0
 40
0.0
 40
0.0
 40
0.1556543678
 40
0.3032840599
 40
0.5688055676
 40
0.6871059037
 40
0.7968501968
 40
0.9001580975
 40
1.0
 40
1.0
 40
1.0
 40
1.0
 10
13.0877117652
 20
10.7390198841
 30
0.0
 10
13.0891862252
 20
10.7390198841
 30
0.0
 10
13.0920625357
 20
10.7391485491
 30
0.0
 10
13.0973978739
 20
10.7399181227
 30
0.0
 10
13.1022676904
 20
10.741449242
 30
0.0
 10
13.1063008818
 20
10.7438526674
 30
0.0
 10
13.1086829655
 20
10.7459266936
 30
0.0
 10
13.1104892187
 20
10.7483051427
 30
0.0
 10
13.1112781351
 20
10.7500833958
 30
0.0
 10
13.1115570399
 20
10.7509871043
 30
0.0
  0
SPLINE
  5
2AA
100
AcDbEntity
  8
0
100
AcDbSpline
 62
7
  6
CONTINUOUS
 70
0
 71
3
 72
15
 73
11
 74
0
 42
0.0000001
 43
0.0000001
 44
0.0000000001
 40
0.0
 40
0.0
 40
0.0
 40
0.0
 40
0.1116612282
 40
0.2310633845
 40
0.3563152558
 40
0.4855089366
 40
0.6166385585
 40
0.7476023511
 40
0.876216379
 40
1.0
 40
1.0
 40
1.0
 40
1.0
 10
12.5907363279
 20
10.7550372406
 30
0.0
 10
12.5918716125
 20
10.7538447442
 30
0.0
 10
12.5943960907
 20
10.7515408554
 30
0.0
 10
12.5986640209
 20
10.7484603659
 30
0.0
 10
12.6034542073
 20
10.7457134607
 30
0.0
 10
12.6086401951
 20
10.7433635059
 30
0.0
 10
12.6140988001
 20
10.7414705676
 30
0.0
 10
12.6196971899
 20
10.7400768055
 30
0.0
 10
12.6252933247
 20
10.7392249496
 30
0.0
 10
12.6290169994
 20
10.7390198841
 30
0.0
 10
12.6308422355
 20
10.7390198841
 30
0.0
  0
SPLINE
  5
2AB
100
AcDbEntity
  8
0
100
AcDbSpline
 62
7
  6
CONTINUOUS
 70
0
 71
3
 72
13
 73
9
 74
0
 42
0.0000001
 43
0.0000001
 44
0.0000000001
 40
0.0
 40
0.0
 40
0.0
 40
0.0
 40
0.3028164381
 40
0.5687547987
 40
0.6871501143
 40
0.7969352722
 40
0.9002057799
 40
1.0
 40
1.0
 40
1.0
 40
1.0
 10
12.2664984459
 20
11.1492824632
 30
0.0
 10
12.2653254509
 20
11.1492824632
 30
0.0
 10
12.2631160937
 20
11.1490950073
 30
0.0
 10
12.2605433895
 20
11.1482891196
 30
0.0
 10
12.2588927022
 20
11.147303888
 30
0.0
 10
12.2579177078
 20
11.1464561235
 30
0.0
 10
12.2571810152
 20
11.1454823413
 30
0.0
 10
12.2568572106
 20
11.1447562328
 30
0.0
 10
12.2567428475
 20
11.1443869723
 30
0.0
  0
SPLINE
  5
2AC
100
AcDbEntity
  8
0
100
AcDbSpline
 62
7
  6
CONTINUOUS
 70
0
 71
3
 72
15
 73
11
 74
0
 42
0.0000001
 43
0.0000001
 44
0.0000000001
 40
0.0
 40
0.0
 40
0.0
 40
0.0
 40
0.1000805212
 40
0.21186059
 40
0.3338439566
 40
0.4637371734
 40
0.5987029226
 40
0.7354819219
 40
0.8705834431
 40
1.0
 40
1.0
 40
1.0
 40
1.0
 10
17.6730968037
 20
11.1399583137
 30
0.0
 10
17.6727807018
 20
11.1406024616
 30
0.0
 10
17.6719408351
 20
11.141883922
 30
0.0
 10
17.6702828153
 20
11.143623457
 30
0.0
 10
17.6682099241
 20
11.1452195412
 30
0.0
 10
17.6658071769
 20
11.1466183646
 30
0.0
 10
17.6631593339
 20
11.147765845
 30
0.0
 10
17.6603649815
 20
11.1486238215
 30
0.0
 10
17.6575309185
 20
11.149152255
 30
0.0
 10
17.6556331142
 20
11.1492824632
 30
0.0
 10
17.6547052608
 20
11.1492824632
 30
0.0
  0
ENDSEC
  0
SECTION
  2
OBJECTS
  0
DICTIONARY
  5
C
100
AcDbDictionary
280
0
281
1
  3
ACAD_GROUP
350
D
  3
ACAD_MLINESTYLE
350
17
  3
ACAD_LAYOUT
350
1A
  3
ACAD_PLOTSETTINGS
350
19
  3
ACAD_PLOTSTYLENAME
350
E
  0
DICTIONARY
  5
D
102
{ACAD_REACTORS
330
C
102
}
100
AcDbDictionary
280
0
281
1
  0
ACDBDICTIONARYWDFLT
  5
E
102
{ACAD_REACTORS
330
C
102
}
100
AcDbDictionary
281
1
  3
Normal
350
F
100
AcDbDictionaryWithDefault
340
F
  0
DICTIONARY
  5
17
102
{ACAD_REACTORS
330
C
102
}
100
AcDbDictionary
280
0
281
1
  3
Standard
350
18
  0
DICTIONARY
  5
19
102
{ACAD_REACTORS
330
C
102
}
100
AcDbDictionary
281
1
  0
DICTIONARY
  5
1A
102
{ACAD_REACTORS
330
C
102
}
100
AcDbDictionary
281
1
  3
Model
350
2AD
  3
Layout1
350
2AE
  0
ACDBPLACEHOLDER
  5
F
102
{ACAD_REACTORS
330
E
102
}
  0
MLINESTYLE
  5
18
102
{ACAD_REACTORS
330
17
102
}
100
AcDbMlineStyle
  2
STANDARD
 70
0
  3

 62
256
 51
90.0
 52
90.0
 71
2
 49
0.5
 62
256
  6
BYLAYER
 49
-0.5
 62
256
  6
BYLAYER
  0
LAYOUT
  5
2AD
102
{ACAD_REACTORS
330
1A
102
}
100
AcDbPlotSettings
  1

  2
none_device
  4
ANSI_C_(22.00_x_17.00_Inches)
  6

 40
0.0
 41
0.0
 42
0.0
 43
0.0
 44
558.8
 45
431.8
 46
0.0
 47
0.0
 48
0.0
 49
0.0
140
0.0
141
0.0
142
1.0
143
1.0
 70
1024
 72
0
 73
0
 74
0
  7

 75
0
147
1.0
148
0.0
149
0.0
100
AcDbLayout
  1
Model
 70
0
 71
0
 10
0.0
 20
0.0
 11
22.0
 21
17.0
 12
0.0
 22
0.0
 32
0.0
 14
0.0
 24
0.0
 34
0.0
 15
0.0
 25
0.0
 35
0.0
146
0.0
 13
0.0
 23
0.0
 33
0.0
 16
1.0
 26
0.0
 36
0.0
 17
0.0
 27
1.0
 37
0.0
 76
0
330
21C
345
0
346
0
  0
LAYOUT
  5
2AE
102
{ACAD_REACTORS
330
1A
102
}
100
AcDbPlotSettings
  1

  2
none_device
  4
ANSI_C_(22.00_x_17.00_Inches)
  6

 40
0.0
 41
0.0
 42
0.0
 43
0.0
 44
558.8
 45
431.8
 46
0.0
 47
0.0
 48
0.0
 49
0.0
140
0.0
141
0.0
142
1.0
143
1.0
 70
0
 72
0
 73
0
 74
0
  7

 75
0
147
1.0
148
0.0
149
0.0
100
AcDbLayout
  1
Layout1
 70
0
 71
1
 10
0.0
 20
0.0
 11
22.0
 21
17.0
 12
0.0
 22
0.0
 32
0.0
 14
0.0
 24
0.0
 34
0.0
 15
0.0
 25
0.0
 35
0.0
146
0.0
 13
0.0
 23
0.0
 33
0.0
 16
1.0
 26
0.0
 36
0.0
 17
0.0
 27
1.0
 37
0.0
 76
0
330
21D
345
0
346
0
  0
ENDSEC
  0
EOF