999
DXF file: _cgs_temp_output.dxf
999
Pro/ENGINEER 2016360 by Parametric Technology Corporation
  0
SECTION
  2
HEADER
  9
$ACADVER
  1
AC1021
  9
$DWGCODEPAGE
  3
ANSI_1252
  9
$EXTMAX
 10
22.0
 20
17.0
 30
0.0
  9
$EXTMIN
 10
0.0
 20
0.0
 30
0.0
  9
$LIMMIN
 10
0.0
 20
0.0
  9
$LIMMAX
 10
22.0
 20
17.0
  9
$VIEWCTR
 10
11.0
 20
8.5
  9
$VIEWSIZE
 40
17.0
  9
$CLAYER
  8
0
  9
$LTSCALE
 40
1.21
  9
$CELTYPE
  6
BYLAYER
  9
$DIMSCALE
 40
1.0
  9
$DIMASZ
 40
0.1875
  9
$DIMEXO
 40
0.0625
  9
$DIMDLI
 40
0.836
  9
$DIMEXE
 40
0.125
  9
$DIMCEN
 40
0.198
  9
$DIMLFAC
 40
1.0
  9
$DIMBLK
  1
_CLOSED
  9
$DIMALT
 70
0
  9
$DIMALTF
 40
25.4
  9
$DIMTXT
 40
0.15625
  9
$DIMTOL
 70
0
  9
$DIMLIM
 70
0
  9
$DIMTFAC
 40
1.0
  9
$DIMGAP
 40
0.09
  9
$DIMDSEP
 70
46
  9
$AUNITS
 70
0
  9
$PDMODE
 70
3
  9
$PDSIZE
 40
0.3125
  9
$HANDSEED
  5
290
  9
$TILEMODE
 70
1
  9
$MEASUREMENT
 70
0
  9
$INSUNITS
 70
1
  0
ENDSEC
  0
SECTION
  2
CLASSES
  0
CLASS
  1
ACDBDICTIONARYWDFLT
  2
AcDbDictionaryWithDefault
  3
AutoCAD 2000
 90
0
 91
1
280
0
281
0
  0
CLASS
  1
ACDBPLACEHOLDER
  2
AcDbPlaceHolder
  3
AutoCAD 2000
 90
0
 91
1
280
0
281
0
  0
CLASS
  1
LAYOUT
  2
AcDbLayout
  3
AutoCAD 2000
 90
0
 91
0
280
0
281
0
  0
ENDSEC
  0
SECTION
  2
TABLES
  0
TABLE
  2
VPORT
  5
8
100
AcDbSymbolTable
 70
2
  0
VPORT
  5
1F4
100
AcDbSymbolTableRecord
100
AcDbViewportTableRecord
  2
*ACTIVE
 70
0
 10
0.0
 20
0.0
 11
1.0
 21
1.0
 12
11.0
 22
8.5
 13
0.0
 23
0.0
 14
1.0
 24
1.0
 15
0.0
 25
0.0
 16
0.0
 26
0.0
 36
1.0
 17
0.0
 27
0.0
 37
0.0
 40
17.0
 41
1.2941176471
 42
50.0
 43
0.0
 44
0.0
 50
0.0
 51
0.0
 71
0
 72
100
 73
1
 74
1
 75
0
 76
0
 77
0
 78
0
  0
ENDTAB
  0
TABLE
  2
LTYPE
  5
5
100
AcDbSymbolTable
 70
6
  0
LTYPE
  5
14
100
AcDbSymbolTableRecord
100
AcDbLinetypeTableRecord
  2
BYBLOCK
 70
0
  3

 72
65
 73
0
 40
0.0
  0
LTYPE
  5
15
100
AcDbSymbolTableRecord
100
AcDbLinetypeTableRecord
  2
BYLAYER
 70
0
  3

 72
65
 73
0
 40
0.0
  0
LTYPE
  5
16
100
AcDbSymbolTableRecord
100
AcDbLinetypeTableRecord
  2
CONTINUOUS
 70
64
  3
Solid line
 72
65
 73
0
 40
0.0
  0
LTYPE
  5
1F5
100
AcDbSymbolTableRecord
100
AcDbLinetypeTableRecord
  2
CENTER
 70
64
  3
____ _ ____ _ ____ _ ____ _ ____ _ ____ _ ____
 72
65
 73
4
 40
0.6
 49
0.375
 74
0
 49
-0.075
 74
0
 49
0.075
 74
0
 49
-0.075
 74
0
  0
LTYPE
  5
1F6
100
AcDbSymbolTableRecord
100
AcDbLinetypeTableRecord
  2
HIDDEN
 70
64
  3
- - - - - - - - - - - - - - - - - - - -
 72
65
 73
2
 40
0.2
 49
0.1
 74
0
 49
-0.1
 74
0
  0
LTYPE
  5
1F7
100
AcDbSymbolTableRecord
100
AcDbLinetypeTableRecord
  2
PHANTOM
 70
64
  3
_____ _ _ _____ _ _ _____ _ _ _____
 72
65
 73
6
 40
0.8
 49
0.45
 74
0
 49
-0.05
 74
0
 49
0.1
 74
0
 49
-0.05
 74
0
 49
0.1
 74
0
 49
-0.05
 74
0
  0
LTYPE
  5
1F8
100
AcDbSymbolTableRecord
100
AcDbLinetypeTableRecord
  2
DOT
 70
64
  3
. . . . . . . . . . . . . . . . . . . .
 72
65
 73
2
 40
0.2
 49
0.1
 74
0
 49
-0.1
 74
0
  0
LTYPE
  5
1F9
100
AcDbSymbolTableRecord
100
AcDbLinetypeTableRecord
  2
DASHED
 70
64
  3
- - - - - - - - - - - - - - - - - - - -
 72
65
 73
2
 40
0.2
 49
0.1
 74
0
 49
-0.1
 74
0
  0
ENDTAB
  0
TABLE
  2
LAYER
  5
2
100
AcDbSymbolTable
 70
36
  0
LAYER
  5
10
100
AcDbSymbolTableRecord
100
AcDbLayerTableRecord
  2
0
 70
0
 62
7
  6
CONTINUOUS
370
-3
390
F
  0
LAYER
  5
1FA
100
AcDbSymbolTableRecord
100
AcDbLayerTableRecord
  2
DEFAULT_1
 70
0
 62
7
  6
CENTER
370
-3
390
F
  0
LAYER
  5
1FB
100
AcDbSymbolTableRecord
100
AcDbLayerTableRecord
  2
DEFAULT_2
 70
0
 62
8
  6
HIDDEN
370
-3
390
F
  0
LAYER
  5
1FC
100
AcDbSymbolTableRecord
100
AcDbLayerTableRecord
  2
DEFAULT_3
 70
0
 62
7
  6
PHANTOM
370
-3
390
F
  0
LAYER
  5
1FD
100
AcDbSymbolTableRecord
100
AcDbLayerTableRecord
  2
01_ALL_DTM_PLN
 70
0
 62
7
  6
CONTINUOUS
370
-3
390
F
  0
LAYER
  5
1FE
100
AcDbSymbolTableRecord
100
AcDbLayerTableRecord
  2
01__ASM_ALL_DTM_PLN
 70
0
 62
7
  6
CONTINUOUS
370
-3
390
F
  0
LAYER
  5
1FF
100
AcDbSymbolTableRecord
100
AcDbLayerTableRecord
  2
01__ASM_DEF_DTM_PLN
 70
0
 62
7
  6
CONTINUOUS
370
-3
390
F
  0
LAYER
  5
200
100
AcDbSymbolTableRecord
100
AcDbLayerTableRecord
  2
01___PRT_ALL_DTM_PLN
 70
0
 62
7
  6
CONTINUOUS
370
-3
390
F
  0
LAYER
  5
201
100
AcDbSymbolTableRecord
100
AcDbLayerTableRecord
  2
01___PRT_DEF_DTM_PLN
 70
0
 62
7
  6
CONTINUOUS
370
-3
390
F
  0
LAYER
  5
202
100
AcDbSymbolTableRecord
100
AcDbLayerTableRecord
  2
02_ALL_AXES
 70
0
 62
7
  6
CONTINUOUS
370
-3
390
F
  0
LAYER
  5
203
100
AcDbSymbolTableRecord
100
AcDbLayerTableRecord
  2
02__ASM_ALL_AXES
 70
0
 62
7
  6
CONTINUOUS
370
-3
390
F
  0
LAYER
  5
204
100
AcDbSymbolTableRecord
100
AcDbLayerTableRecord
  2
02___PRT_ALL_AXES
 70
0
 62
7
  6
CONTINUOUS
370
-3
390
F
  0
LAYER
  5
205
100
AcDbSymbolTableRecord
100
AcDbLayerTableRecord
  2
03_ALL_CURVES
 70
0
 62
7
  6
CONTINUOUS
370
-3
390
F
  0
LAYER
  5
206
100
AcDbSymbolTableRecord
100
AcDbLayerTableRecord
  2
03__ASM_ALL_CURVES
 70
0
 62
7
  6
CONTINUOUS
370
-3
390
F
  0
LAYER
  5
207
100
AcDbSymbolTableRecord
100
AcDbLayerTableRecord
  2
03___PRT_ALL_CURVES
 70
0
 62
7
  6
CONTINUOUS
370
-3
390
F
  0
LAYER
  5
208
100
AcDbSymbolTableRecord
100
AcDbLayerTableRecord
  2
04_ALL_DTM_PNT
 70
0
 62
7
  6
CONTINUOUS
370
-3
390
F
  0
LAYER
  5
209
100
AcDbSymbolTableRecord
100
AcDbLayerTableRecord
  2
04__ASM_ALL_DTM_PNT
 70
0
 62
7
  6
CONTINUOUS
370
-3
390
F
  0
LAYER
  5
20A
100
AcDbSymbolTableRecord
100
AcDbLayerTableRecord
  2
04___PRT_ALL_DTM_PNT
 70
0
 62
7
  6
CONTINUOUS
370
-3
390
F
  0
LAYER
  5
20B
100
AcDbSymbolTableRecord
100
AcDbLayerTableRecord
  2
05_ALL_DTM_CSYS
 70
0
 62
7
  6
CONTINUOUS
370
-3
390
F
  0
LAYER
  5
20C
100
AcDbSymbolTableRecord
100
AcDbLayerTableRecord
  2
05__ASM_ALL_DTM_CSYS
 70
0
 62
7
  6
CONTINUOUS
370
-3
390
F
  0
LAYER
  5
20D
100
AcDbSymbolTableRecord
100
AcDbLayerTableRecord
  2
05__ASM_DEF_DTM_CSYS
 70
0
 62
7
  6
CONTINUOUS
370
-3
390
F
  0
LAYER
  5
20E
100
AcDbSymbolTableRecord
100
AcDbLayerTableRecord
  2
05___PRT_ALL_DTM_CSYS
 70
0
 62
7
  6
CONTINUOUS
370
-3
390
F
  0
LAYER
  5
20F
100
AcDbSymbolTableRecord
100
AcDbLayerTableRecord
  2
05___PRT_DEF_DTM_CSYS
 70
0
 62
7
  6
CONTINUOUS
370
-3
390
F
  0
LAYER
  5
210
100
AcDbSymbolTableRecord
100
AcDbLayerTableRecord
  2
06_ALL_SURFS
 70
0
 62
7
  6
CONTINUOUS
370
-3
390
F
  0
LAYER
  5
211
100
AcDbSymbolTableRecord
100
AcDbLayerTableRecord
  2
06__ASM_ALL_SURFS
 70
0
 62
7
  6
CONTINUOUS
370
-3
390
F
  0
LAYER
  5
212
100
AcDbSymbolTableRecord
100
AcDbLayerTableRecord
  2
06___PRT_ALL_SURFS
 70
0
 62
7
  6
CONTINUOUS
370
-3
390
F
  0
LAYER
  5
213
100
AcDbSymbolTableRecord
100
AcDbLayerTableRecord
  2
07__ASM_ALL_SKELETONS
 70
0
 62
7
  6
CONTINUOUS
370
-3
390
F
  0
ENDTAB
  0
TABLE
  2
STYLE
  5
3
100
AcDbSymbolTable
 70
1
  0
STYLE
  5
11
100
AcDbSymbolTableRecord
100
AcDbTextStyleTableRecord
  2
STANDARD
 70
0
 40
0.0
 41
0.8
 50
0.0
 71
0
 42
0.2
  3
txt
  4

  0
STYLE
  5
214
100
AcDbSymbolTableRecord
100
AcDbTextStyleTableRecord
  2
TEXTSTYLE_1
 70
0
 40
0.0
 41
0.8
 50
0.0
 71
0
 42
0.2
  3
gdt
  4

  0
ENDTAB
  0
TABLE
  2
VIEW
  5
6
100
AcDbSymbolTable
 70
0
  0
ENDTAB
  0
TABLE
  2
UCS
  5
7
100
AcDbSymbolTable
 70
0
  0
ENDTAB
  0
TABLE
  2
APPID
  5
9
100
AcDbSymbolTable
 70
1
  0
APPID
  5
215
100
AcDbSymbolTableRecord
100
AcDbRegAppTableRecord
  2
ACAD
 70
0
  0
ENDTAB
  0
TABLE
  2
BLOCK_RECORD
  5
1
100
AcDbSymbolTable
 70
0
  0
BLOCK_RECORD
  5
216
100
AcDbSymbolTableRecord
100
AcDbBlockTableRecord
  2
*Model_Space
  0
BLOCK_RECORD
  5
217
100
AcDbSymbolTableRecord
100
AcDbBlockTableRecord
  2
*Paper_Space
  0
ENDTAB
  0
TABLE
  2
DIMSTYLE
  5
A
100
AcDbSymbolTable
 70
1
100
AcDbDimStyleTable
 71
0
  0
DIMSTYLE
105
218
100
AcDbSymbolTableRecord
100
AcDbDimStyleTableRecord
  2
STANDARD
 70
0
  3

  4

 40
1.0
 41
0.1875
 42
0.0625
 43
0.38
 44
0.125
 45
0.0
 46
0.0
 47
0.0001
 48
0.0001
140
0.15625
141
0.09
142
0.0
143
25.4
144
1.0
145
0.0
146
1.0
147
0.09
 71
0.0
 72
0.0
 73
1
 74
1
 75
0
 76
0
 77
0
 78
4
 79
1
170
0
171
3
172
0
173
0
174
0
175
0
176
0
177
0
178
0
270
2
179
4
271
4
272
4
273
2
274
2
275
0
280
0
281
0
282
0
283
1
284
4
285
0
286
0
287
3
288
0
340
11
278
46
  0
ENDTAB
  0
ENDSEC
  0
SECTION
  2
BLOCKS
  0
BLOCK
  5
20
100
AcDbEntity
  8
0
100
AcDbBlockBegin
  2
*Model_Space
 70
0
 10
0.0
 20
0.0
 30
0.0
  3
*Model_Space
  1

  0
ENDBLK
  5
21
100
AcDbEntity
  8
0
100
AcDbBlockEnd
  0
BLOCK
  5
1C
100
AcDbEntity
  8
0
100
AcDbBlockBegin
  2
*Paper_Space
 70
0
 10
0.0
 20
0.0
 30
0.0
  3
*Paper_Space
  1

  0
ENDBLK
  5
1D
100
AcDbEntity
  8
0
100
AcDbBlockEnd
  0
ENDSEC
  0
SECTION
  2
ENTITIES
  0
MTEXT
  5
219
100
AcDbEntity
  8
0
100
AcDbMText
 62
7
  6
CONTINUOUS
  7
STANDARD
 71
1
 72
1
 10
15.9560215477
 20
0.9479130325
 30
0.0
 11
1.0
 21
0.0
 31
0.0
 44
0.9
  1
SCALE: 1:2.000
 40
0.3
 41
3.36
  0
LINE
  5
21A
100
AcDbEntity
  8
0
100
AcDbLine
 62
7
  6
CONTINUOUS
 10
0.0
 20
0.0
 11
0.0
 21
17.0
  0
LINE
  5
21B
100
AcDbEntity
  8
0
100
AcDbLine
 62
7
  6
CONTINUOUS
 10
0.0
 20
0.0
 11
22.0
 21
0.0
  0
LINE
  5
21C
100
AcDbEntity
  8
0
100
AcDbLine
 62
7
  6
CONTINUOUS
 10
0.0
 20
17.0
 11
22.0
 21
17.0
  0
LINE
  5
21D
100
AcDbEntity
  8
0
100
AcDbLine
 62
7
  6
CONTINUOUS
 10
22.0
 20
0.0
 11
22.0
 21
17.0
  0
LINE
  5
21E
100
AcDbEntity
  8
0
100
AcDbLine
 62
7
  6
CONTINUOUS
 10
4.949264914
 20
5.6701198968
 11
4.949264914
 21
5.5338994243
  0
LINE
  5
21F
100
AcDbEntity
  8
0
100
AcDbLine
 62
7
  6
CONTINUOUS
 10
5.0230838116
 20
5.5010910254
 11
5.0230838116
 21
5.4931513928
  0
LINE
  5
220
100
AcDbEntity
  8
0
100
AcDbLine
 62
7
  6
CONTINUOUS
 10
5.2691468037
 20
5.4931513928
 11
5.2691468037
 21
5.5010910254
  0
LINE
  5
221
100
AcDbEntity
  8
0
100
AcDbLine
 62
7
  6
CONTINUOUS
 10
5.416784599
 20
5.5010910254
 11
5.416784599
 21
5.4931513928
  0
LINE
  5
222
100
AcDbEntity
  8
0
100
AcDbLine
 62
7
  6
CONTINUOUS
 10
5.6628475911
 20
5.4931513928
 11
5.6628475911
 21
5.5010910254
  0
LINE
  5
223
100
AcDbEntity
  8
0
100
AcDbLine
 62
7
  6
CONTINUOUS
 10
5.8104853864
 20
5.5010910254
 11
5.8104853864
 21
5.4931513928
  0
LINE
  5
224
100
AcDbEntity
  8
0
100
AcDbLine
 62
7
  6
CONTINUOUS
 10
6.0565483785
 20
5.4931513928
 11
6.0565483785
 21
5.5010910254
  0
LINE
  5
225
100
AcDbEntity
  8
0
100
AcDbLine
 62
7
  6
CONTINUOUS
 10
6.2041861738
 20
5.5010910254
 11
6.2041861738
 21
5.4931513928
  0
LINE
  5
226
100
AcDbEntity
  8
0
100
AcDbLine
 62
7
  6
CONTINUOUS
 10
4.949264914
 20
5.5338994243
 11
4.9902754126
 21
5.5338994243
  0
LINE
  5
227
100
AcDbEntity
  8
0
100
AcDbLine
 62
7
  6
CONTINUOUS
 10
5.3019552027
 20
5.5338994243
 11
5.3839762001
 21
5.5338994243
  0
LINE
  5
228
100
AcDbEntity
  8
0
100
AcDbLine
 62
7
  6
CONTINUOUS
 10
5.6956559901
 20
5.5338994243
 11
5.7776769875
 21
5.5338994243
  0
LINE
  5
229
100
AcDbEntity
  8
0
100
AcDbLine
 62
7
  6
CONTINUOUS
 10
6.0893567775
 20
5.5338994243
 11
6.1713777749
 21
5.5338994243
  0
LINE
  5
22A
100
AcDbEntity
  8
0
100
AcDbLine
 62
7
  6
CONTINUOUS
 10
6.4830575649
 20
5.5338994243
 11
6.5650785623
 21
5.5338994243
  0
LINE
  5
22B
100
AcDbEntity
  8
0
100
AcDbLine
 62
7
  6
CONTINUOUS
 10
6.8767583523
 20
5.5338994243
 11
6.9587793497
 21
5.5338994243
  0
LINE
  5
22C
100
AcDbEntity
  8
0
100
AcDbLine
 62
7
  6
CONTINUOUS
 10
7.2704591397
 20
5.5338994243
 11
7.3114696384
 21
5.5338994243
  0
LINE
  5
22D
100
AcDbEntity
  8
0
100
AcDbLine
 62
7
  6
CONTINUOUS
 10
7.3114696384
 20
5.6701198968
 11
4.949264914
 21
5.6701198968
  0
LINE
  5
22E
100
AcDbEntity
  8
0
100
AcDbLine
 62
7
  6
CONTINUOUS
 10
6.4502491659
 20
5.4931513928
 11
6.4502491659
 21
5.5010910254
  0
LINE
  5
22F
100
AcDbEntity
  8
0
100
AcDbLine
 62
7
  6
CONTINUOUS
 10
6.5978869612
 20
5.5010910254
 11
6.5978869612
 21
5.4931513928
  0
LINE
  5
230
100
AcDbEntity
  8
0
100
AcDbLine
 62
7
  6
CONTINUOUS
 10
6.8439499533
 20
5.4931513928
 11
6.8439499533
 21
5.5010910254
  0
LINE
  5
231
100
AcDbEntity
  8
0
100
AcDbLine
 62
7
  6
CONTINUOUS
 10
6.9915877486
 20
5.5010910254
 11
6.9915877486
 21
5.4931513928
  0
LINE
  5
232
100
AcDbEntity
  8
0
100
AcDbLine
 62
7
  6
CONTINUOUS
 10
7.2376507407
 20
5.4931513928
 11
7.2376507407
 21
5.5010910254
  0
LINE
  5
233
100
AcDbEntity
  8
0
100
AcDbLine
 62
7
  6
CONTINUOUS
 10
7.3114696384
 20
5.5338994243
 11
7.3114696384
 21
5.6701198968
  0
LINE
  5
234
100
AcDbEntity
  8
0
100
AcDbLine
 62
7
  6
CONTINUOUS
 10
7.2519744461
 20
10.6315438444
 11
4.8897697217
 21
10.6315438444
  0
LINE
  5
235
100
AcDbEntity
  8
0
100
AcDbLine
 62
7
  6
CONTINUOUS
 10
4.8897697217
 20
14.5685517184
 11
4.8897697217
 21
10.6315438444
  0
LINE
  5
236
100
AcDbEntity
  8
0
100
AcDbLine
 62
7
  6
CONTINUOUS
 10
7.2519744461
 20
14.5685517184
 11
7.2519744461
 21
10.6315438444
  0
LINE
  5
237
100
AcDbEntity
  8
0
100
AcDbLine
 62
7
  6
CONTINUOUS
 10
4.8897697217
 20
14.5685517184
 11
7.2519744461
 21
14.5685517184
  0
LINE
  5
238
100
AcDbEntity
  8
0
100
AcDbLine
 62
7
  6
CONTINUOUS
 10
13.5918513199
 20
5.3106247044
 11
13.5918513199
 21
5.6106247044
  0
LINE
  5
239
100
AcDbEntity
  8
0
100
AcDbLine
 62
7
  6
CONTINUOUS
 10
17.5288591939
 20
5.3106247044
 11
13.5918513199
 21
5.3106247044
  0
LINE
  5
23A
100
AcDbEntity
  8
0
100
AcDbLine
 62
7
  6
CONTINUOUS
 10
17.5288591939
 20
5.474404232
 11
13.5918513199
 21
5.474404232
  0
LINE
  5
23B
100
AcDbEntity
  8
0
100
AcDbLine
 62
7
  6
CONTINUOUS
 10
17.5288591939
 20
5.6106247044
 11
13.5918513199
 21
5.6106247044
  0
LINE
  5
23C
100
AcDbEntity
  8
0
100
AcDbLine
 62
7
  6
CONTINUOUS
 10
17.5288591939
 20
5.3106247044
 11
17.5288591939
 21
5.6106247044
  0
LINE
  5
23D
100
AcDbEntity
  8
0
100
AcDbLine
 62
7
  6
CONTINUOUS
 10
13.8859601685
 20
11.0620643826
 11
13.9275131157
 21
10.977388379
  0
LINE
  5
23E
100
AcDbEntity
  8
0
100
AcDbLine
 62
7
  6
CONTINUOUS
 10
14.0055127582
 20
10.9569943512
 11
14.0079346785
 21
10.9520589965
  0
LINE
  5
23F
100
AcDbEntity
  8
0
100
AcDbLine
 62
7
  6
CONTINUOUS
 10
14.2345737026
 20
10.9520589965
 11
14.2321517823
 21
10.9569943512
  0
LINE
  5
240
100
AcDbEntity
  8
0
100
AcDbLine
 62
7
  6
CONTINUOUS
 10
14.3681351967
 20
10.9569943512
 11
14.3705571171
 21
10.9520589965
  0
LINE
  5
241
100
AcDbEntity
  8
0
100
AcDbLine
 62
7
  6
CONTINUOUS
 10
13.9275131157
 20
10.977388379
 11
13.9652862864
 21
10.977388379
  0
LINE
  5
242
100
AcDbEntity
  8
0
100
AcDbLine
 62
7
  6
CONTINUOUS
 10
14.2523623836
 20
10.977388379
 11
14.3279087249
 21
10.977388379
  0
LINE
  5
243
100
AcDbEntity
  8
0
100
AcDbLine
 62
7
  6
CONTINUOUS
 10
14.6149848222
 20
10.977388379
 11
14.6905311635
 21
10.977388379
  0
LINE
  5
244
100
AcDbEntity
  8
0
100
AcDbLine
 62
7
  6
CONTINUOUS
 10
14.9776072607
 20
10.977388379
 11
15.0531536021
 21
10.977388379
  0
LINE
  5
245
100
AcDbEntity
  8
0
100
AcDbLine
 62
7
  6
CONTINUOUS
 10
15.3402296993
 20
10.977388379
 11
15.4157760407
 21
10.977388379
  0
LINE
  5
246
100
AcDbEntity
  8
0
100
AcDbLine
 62
7
  6
CONTINUOUS
 10
15.7028521379
 20
10.977388379
 11
15.7783984793
 21
10.977388379
  0
LINE
  5
247
100
AcDbEntity
  8
0
100
AcDbLine
 62
7
  6
CONTINUOUS
 10
16.0654745765
 20
10.977388379
 11
16.1032477472
 21
10.977388379
  0
LINE
  5
248
100
AcDbEntity
  8
0
100
AcDbLine
 62
7
  6
CONTINUOUS
 10
16.0616948
 20
11.0620643826
 11
13.8859601685
 21
11.0620643826
  0
LINE
  5
249
100
AcDbEntity
  8
0
100
AcDbLine
 62
7
  6
CONTINUOUS
 10
14.5971961412
 20
10.9520589965
 11
14.5947742209
 21
10.9569943512
  0
LINE
  5
24A
100
AcDbEntity
  8
0
100
AcDbLine
 62
7
  6
CONTINUOUS
 10
14.7307576353
 20
10.9569943512
 11
14.7331795557
 21
10.9520589965
  0
LINE
  5
24B
100
AcDbEntity
  8
0
100
AcDbLine
 62
7
  6
CONTINUOUS
 10
14.8389771898
 20
14.1460285937
 11
13.8859601685
 21
11.0620643826
  0
LINE
  5
24C
100
AcDbEntity
  8
0
100
AcDbLine
 62
7
  6
CONTINUOUS
 10
14.9598185798
 20
10.9520589965
 11
14.9573966594
 21
10.9569943512
  0
LINE
  5
24D
100
AcDbEntity
  8
0
100
AcDbLine
 62
7
  6
CONTINUOUS
 10
15.0933800739
 20
10.9569943512
 11
15.0958019942
 21
10.9520589965
  0
LINE
  5
24E
100
AcDbEntity
  8
0
100
AcDbLine
 62
7
  6
CONTINUOUS
 10
15.3224410184
 20
10.9520589965
 11
15.320019098
 21
10.9569943512
  0
LINE
  5
24F
100
AcDbEntity
  8
0
100
AcDbLine
 62
7
  6
CONTINUOUS
 10
14.2578536069
 20
10.977388379
 11
14.2388010464
 21
10.9157342706
  0
LINE
  5
250
100
AcDbEntity
  8
0
100
AcDbLine
 62
7
  6
CONTINUOUS
 10
15.4560025125
 20
10.9569943512
 11
15.4584244328
 21
10.9520589965
  0
LINE
  5
251
100
AcDbEntity
  8
0
100
AcDbLine
 62
7
  6
CONTINUOUS
 10
15.6850634569
 20
10.9520589965
 11
15.6826415366
 21
10.9569943512
  0
LINE
  5
252
100
AcDbEntity
  8
0
100
AcDbLine
 62
7
  6
CONTINUOUS
 10
14.6204760455
 20
10.977388379
 11
14.601423485
 21
10.9157342706
  0
LINE
  5
253
100
AcDbEntity
  8
0
100
AcDbLine
 62
7
  6
CONTINUOUS
 10
15.8186249511
 20
10.9569943512
 11
15.8210468714
 21
10.9520589965
  0
LINE
  5
254
100
AcDbEntity
  8
0
100
AcDbLine
 62
7
  6
CONTINUOUS
 10
16.0476858955
 20
10.9520589965
 11
16.0452639752
 21
10.9569943512
  0
LINE
  5
255
100
AcDbEntity
  8
0
100
AcDbLine
 62
7
  6
CONTINUOUS
 10
14.9830984841
 20
10.977388379
 11
14.9640459236
 21
10.9157342706
  0
LINE
  5
256
100
AcDbEntity
  8
0
100
AcDbLine
 62
7
  6
CONTINUOUS
 10
16.1032477472
 20
10.977388379
 11
16.0616948
 21
11.0620643826
  0
LINE
  5
257
100
AcDbEntity
  8
0
100
AcDbLine
 62
7
  6
CONTINUOUS
 10
15.3457209226
 20
10.977388379
 11
15.3266683621
 21
10.9157342706
  0
LINE
  5
258
100
AcDbEntity
  8
0
100
AcDbLine
 62
7
  6
CONTINUOUS
 10
15.7083433612
 20
10.977388379
 11
15.6892908007
 21
10.9157342706
  0
LINE
  5
259
100
AcDbEntity
  8
0
100
AcDbLine
 62
7
  6
CONTINUOUS
 10
17.0147118213
 20
14.1460285937
 11
16.0616948
 21
11.0620643826
  0
LINE
  5
25A
100
AcDbEntity
  8
0
100
AcDbLine
 62
7
  6
CONTINUOUS
 10
16.0709657998
 20
10.977388379
 11
16.0519132393
 21
10.9157342706
  0
LINE
  5
25B
100
AcDbEntity
  8
0
100
AcDbLine
 62
7
  6
CONTINUOUS
 10
17.0562647685
 20
14.0613525902
 11
16.1032477472
 21
10.977388379
  0
LINE
  5
25C
100
AcDbEntity
  8
0
100
AcDbLine
 62
7
  6
CONTINUOUS
 10
14.8389771898
 20
14.1460285937
 11
17.0147118213
 21
14.1460285937
  0
LINE
  5
25D
100
AcDbEntity
  8
0
100
AcDbLine
 62
7
  6
CONTINUOUS
 10
17.0562647685
 20
14.0613525902
 11
17.0147118213
 21
14.1460285937
  0
ARC
  5
25E
100
AcDbEntity
  8
0
100
AcDbCircle
 62
7
  6
CONTINUOUS
 10
5.1461153077
 20
5.4931513928
 40
0.1230314961
100
AcDbArc
 50
180.0
 51
360.0
  0
ARC
  5
25F
100
AcDbEntity
  8
0
100
AcDbCircle
 62
7
  6
CONTINUOUS
 10
5.5398160951
 20
5.4931513928
 40
0.1230314961
100
AcDbArc
 50
180.0
 51
360.0
  0
ARC
  5
260
100
AcDbEntity
  8
0
100
AcDbCircle
 62
7
  6
CONTINUOUS
 10
7.1146192447
 20
5.4931513928
 40
0.1230314961
100
AcDbArc
 50
180.0
 51
360.0
  0
ARC
  5
261
100
AcDbEntity
  8
0
100
AcDbCircle
 62
7
  6
CONTINUOUS
 10
6.7209184573
 20
5.4931513928
 40
0.1230314961
100
AcDbArc
 50
180.0
 51
360.0
  0
ARC
  5
262
100
AcDbEntity
  8
0
100
AcDbCircle
 62
7
  6
CONTINUOUS
 10
6.3272176699
 20
5.4931513928
 40
0.1230314961
100
AcDbArc
 50
180.0
 51
360.0
  0
ARC
  5
263
100
AcDbEntity
  8
0
100
AcDbCircle
 62
7
  6
CONTINUOUS
 10
5.9335168825
 20
5.4931513928
 40
0.1230314961
100
AcDbArc
 50
180.0
 51
360.0
  0
ARC
  5
264
100
AcDbEntity
  8
0
100
AcDbCircle
 62
7
  6
CONTINUOUS
 10
4.9902754126
 20
5.5010910254
 40
0.032808399
100
AcDbArc
 50
0.0
 51
90.0
  0
ARC
  5
265
100
AcDbEntity
  8
0
100
AcDbCircle
 62
7
  6
CONTINUOUS
 10
5.3019552027
 20
5.5010910254
 40
0.032808399
100
AcDbArc
 50
90.0
 51
180.0
  0
ARC
  5
266
100
AcDbEntity
  8
0
100
AcDbCircle
 62
7
  6
CONTINUOUS
 10
5.3839762001
 20
5.5010910254
 40
0.032808399
100
AcDbArc
 50
0.0
 51
90.0
  0
ARC
  5
267
100
AcDbEntity
  8
0
100
AcDbCircle
 62
7
  6
CONTINUOUS
 10
5.6956559901
 20
5.5010910254
 40
0.032808399
100
AcDbArc
 50
90.0
 51
180.0
  0
ARC
  5
268
100
AcDbEntity
  8
0
100
AcDbCircle
 62
7
  6
CONTINUOUS
 10
5.7776769875
 20
5.5010910254
 40
0.032808399
100
AcDbArc
 50
0.0
 51
90.0
  0
ARC
  5
269
100
AcDbEntity
  8
0
100
AcDbCircle
 62
7
  6
CONTINUOUS
 10
6.0893567775
 20
5.5010910254
 40
0.032808399
100
AcDbArc
 50
90.0
 51
180.0
  0
ARC
  5
26A
100
AcDbEntity
  8
0
100
AcDbCircle
 62
7
  6
CONTINUOUS
 10
6.1713777749
 20
5.5010910254
 40
0.032808399
100
AcDbArc
 50
0.0
 51
90.0
  0
ARC
  5
26B
100
AcDbEntity
  8
0
100
AcDbCircle
 62
7
  6
CONTINUOUS
 10
6.4830575649
 20
5.5010910254
 40
0.032808399
100
AcDbArc
 50
90.0
 51
180.0
  0
ARC
  5
26C
100
AcDbEntity
  8
0
100
AcDbCircle
 62
7
  6
CONTINUOUS
 10
6.5650785623
 20
5.5010910254
 40
0.032808399
100
AcDbArc
 50
0.0
 51
90.0
  0
ARC
  5
26D
100
AcDbEntity
  8
0
100
AcDbCircle
 62
7
  6
CONTINUOUS
 10
6.8767583523
 20
5.5010910254
 40
0.032808399
100
AcDbArc
 50
90.0
 51
180.0
  0
ARC
  5
26E
100
AcDbEntity
  8
0
100
AcDbCircle
 62
7
  6
CONTINUOUS
 10
6.9587793497
 20
5.5010910254
 40
0.032808399
100
AcDbArc
 50
0.0
 51
90.0
  0
ARC
  5
26F
100
AcDbEntity
  8
0
100
AcDbCircle
 62
7
  6
CONTINUOUS
 10
7.2704591397
 20
5.5010910254
 40
0.032808399
100
AcDbArc
 50
90.0
 51
180.0
  0
SPLINE
  5
270
100
AcDbEntity
  8
0
100
AcDbSpline
 62
7
  6
CONTINUOUS
 70
0
 71
3
 72
11
 73
7
 74
0
 42
0.0000001
 43
0.0000001
 44
0.0000000001
 40
0.0
 40
0.0
 40
0.0
 40
0.0
 40
0.2022163444
 40
0.430012781
 40
0.6962536092
 40
1.0
 40
1.0
 40
1.0
 40
1.0
 10
14.2310245227
 20
10.9666809442
 30
0.0
 10
14.2315292213
 20
10.9683142752
 30
0.0
 10
14.2335036488
 20
10.9715430291
 30
0.0
 10
14.2384568355
 20
10.9749386077
 30
0.0
 10
14.244957316
 20
10.9769801313
 30
0.0
 10
14.2497945229
 20
10.977388379
 30
0.0
 10
14.2523623836
 20
10.977388379
 30
0.0
  0
SPLINE
  5
271
100
AcDbEntity
  8
0
100
AcDbSpline
 62
7
  6
CONTINUOUS
 70
0
 71
3
 72
11
 73
7
 74
0
 42
0.0000001
 43
0.0000001
 44
0.0000000001
 40
0.0
 40
0.0
 40
0.0
 40
0.0
 40
0.2022163444
 40
0.430012781
 40
0.6962536092
 40
1.0
 40
1.0
 40
1.0
 40
1.0
 10
14.5936469613
 20
10.9666809442
 30
0.0
 10
14.5941516599
 20
10.9683142752
 30
0.0
 10
14.5961260874
 20
10.9715430291
 30
0.0
 10
14.6010792741
 20
10.9749386077
 30
0.0
 10
14.6075797545
 20
10.9769801313
 30
0.0
 10
14.6124169615
 20
10.977388379
 30
0.0
 10
14.6149848222
 20
10.977388379
 30
0.0
  0
SPLINE
  5
272
100
AcDbEntity
  8
0
100
AcDbSpline
 62
7
  6
CONTINUOUS
 70
0
 71
3
 72
11
 73
7
 74
0
 42
0.0000001
 43
0.0000001
 44
0.0000000001
 40
0.0
 40
0.0
 40
0.0
 40
0.0
 40
0.2022163444
 40
0.430012781
 40
0.6962536092
 40
1.0
 40
1.0
 40
1.0
 40
1.0
 10
14.9562693999
 20
10.9666809442
 30
0.0
 10
14.9567740985
 20
10.9683142752
 30
0.0
 10
14.9587485259
 20
10.9715430291
 30
0.0
 10
14.9637017127
 20
10.9749386077
 30
0.0
 10
14.9702021931
 20
10.9769801313
 30
0.0
 10
14.9750394001
 20
10.977388379
 30
0.0
 10
14.9776072607
 20
10.977388379
 30
0.0
  0
SPLINE
  5
273
100
AcDbEntity
  8
0
100
AcDbSpline
 62
7
  6
CONTINUOUS
 70
0
 71
3
 72
11
 73
7
 74
0
 42
0.0000001
 43
0.0000001
 44
0.0000000001
 40
0.0
 40
0.0
 40
0.0
 40
0.0
 40
0.2022163444
 40
0.430012781
 40
0.6962536092
 40
1.0
 40
1.0
 40
1.0
 40
1.0
 10
15.3188918385
 20
10.9666809442
 30
0.0
 10
15.3193965371
 20
10.9683142752
 30
0.0
 10
15.3213709645
 20
10.9715430291
 30
0.0
 10
15.3263241513
 20
10.9749386077
 30
0.0
 10
15.3328246317
 20
10.9769801313
 30
0.0
 10
15.3376618386
 20
10.977388379
 30
0.0
 10
15.3402296993
 20
10.977388379
 30
0.0
  0
SPLINE
  5
274
100
AcDbEntity
  8
0
100
AcDbSpline
 62
7
  6
CONTINUOUS
 70
0
 71
3
 72
11
 73
7
 74
0
 42
0.0000001
 43
0.0000001
 44
0.0000000001
 40
0.0
 40
0.0
 40
0.0
 40
0.0
 40
0.2022163444
 40
0.430012781
 40
0.6962536092
 40
1.0
 40
1.0
 40
1.0
 40
1.0
 10
15.681514277
 20
10.9666809442
 30
0.0
 10
15.6820189757
 20
10.9683142752
 30
0.0
 10
15.6839934031
 20
10.9715430291
 30
0.0
 10
15.6889465899
 20
10.9749386077
 30
0.0
 10
15.6954470703
 20
10.9769801313
 30
0.0
 10
15.7002842772
 20
10.977388379
 30
0.0
 10
15.7028521379
 20
10.977388379
 30
0.0
  0
SPLINE
  5
275
100
AcDbEntity
  8
0
100
AcDbSpline
 62
7
  6
CONTINUOUS
 70
0
 71
3
 72
11
 73
7
 74
0
 42
0.0000001
 43
0.0000001
 44
0.0000000001
 40
0.0
 40
0.0
 40
0.0
 40
0.0
 40
0.2022163444
 40
0.430012781
 40
0.6962536092
 40
1.0
 40
1.0
 40
1.0
 40
1.0
 10
16.0441367156
 20
10.9666809442
 30
0.0
 10
16.0446414142
 20
10.9683142752
 30
0.0
 10
16.0466158417
 20
10.9715430291
 30
0.0
 10
16.0515690284
 20
10.9749386077
 30
0.0
 10
16.0580695089
 20
10.9769801313
 30
0.0
 10
16.0629067158
 20
10.977388379
 30
0.0
 10
16.0654745765
 20
10.977388379
 30
0.0
  0
SPLINE
  5
276
100
AcDbEntity
  8
0
100
AcDbSpline
 62
7
  6
CONTINUOUS
 70
0
 71
3
 72
18
 73
14
 74
0
 42
0.0000001
 43
0.0000001
 44
0.0000000001
 40
0.0
 40
0.0
 40
0.0
 40
0.0
 40
0.1137294936
 40
0.1783935225
 40
0.2473145931
 40
0.3934841755
 40
0.5423889862
 40
0.6833239898
 40
0.8074633451
 40
0.8619253574
 40
0.911386971
 40
0.9568309593
 40
1.0
 40
1.0
 40
1.0
 40
1.0
 10
15.8210468714
 20
10.9520589965
 30
0.0
 10
15.8255809609
 20
10.9428194936
 30
0.0
 10
15.8357657388
 20
10.9298104261
 30
0.0
 10
15.8526679049
 20
10.9151332455
 30
0.0
 10
15.8736478234
 20
10.90085284
 30
0.0
 10
15.9036733196
 20
10.8867672197
 30
0.0
 10
15.9420806843
 20
10.8767844127
 30
0.0
 10
15.9796985246
 20
10.8743916584
 30
0.0
 10
16.0086368788
 20
10.8791652934
 30
0.0
 10
16.0276565398
 20
10.8874418364
 30
0.0
 10
16.0388479409
 20
10.8952122589
 30
0.0
 10
16.0472342315
 20
10.9046537997
 30
0.0
 10
16.0507596349
 20
10.91200186
 30
0.0
 10
16.0519132099
 20
10.9157342798
 30
0.0
  0
SPLINE
  5
277
100
AcDbEntity
  8
0
100
AcDbSpline
 62
7
  6
CONTINUOUS
 70
0
 71
3
 72
18
 73
14
 74
0
 42
0.0000001
 43
0.0000001
 44
0.0000000001
 40
0.0
 40
0.0
 40
0.0
 40
0.0
 40
0.1137408099
 40
0.1783971068
 40
0.2473156382
 40
0.3934871377
 40
0.5423919959
 40
0.6833260852
 40
0.8074648614
 40
0.8619273589
 40
0.9113898529
 40
0.9568335077
 40
1.0
 40
1.0
 40
1.0
 40
1.0
 10
15.4584244328
 20
10.9520589965
 30
0.0
 10
15.4629589537
 20
10.9428186144
 30
0.0
 10
15.4731439605
 20
10.9298093901
 30
0.0
 10
15.490046172
 20
10.9151321508
 30
0.0
 10
15.5110270376
 20
10.9008547337
 30
0.0
 10
15.5410509333
 20
10.8867667983
 30
0.0
 10
15.5794585606
 20
10.8767842047
 30
0.0
 10
15.617076132
 20
10.8743921744
 30
0.0
 10
15.6460141294
 20
10.8791666558
 30
0.0
 10
15.6650338295
 20
10.8874423065
 30
0.0
 10
15.6762265029
 20
10.8952118661
 30
0.0
 10
15.6846087349
 20
10.904656089
 30
0.0
 10
15.6881375946
 20
10.9120019947
 30
0.0
 10
15.6892909544
 20
10.9157342219
 30
0.0
  0
SPLINE
  5
278
100
AcDbEntity
  8
0
100
AcDbSpline
 62
7
  6
CONTINUOUS
 70
0
 71
3
 72
18
 73
14
 74
0
 42
0.0000001
 43
0.0000001
 44
0.0000000001
 40
0.0
 40
0.0
 40
0.0
 40
0.0
 40
0.1137408099
 40
0.1783971068
 40
0.2473156382
 40
0.3934871377
 40
0.5423919959
 40
0.6833260852
 40
0.8074648614
 40
0.8619273589
 40
0.9113898529
 40
0.9568335077
 40
1.0
 40
1.0
 40
1.0
 40
1.0
 10
15.0958019942
 20
10.9520589965
 30
0.0
 10
15.1003365151
 20
10.9428186144
 30
0.0
 10
15.1105215219
 20
10.9298093901
 30
0.0
 10
15.1274237334
 20
10.9151321508
 30
0.0
 10
15.148404599
 20
10.9008547337
 30
0.0
 10
15.1784284947
 20
10.8867667983
 30
0.0
 10
15.216836122
 20
10.8767842047
 30
0.0
 10
15.2544536934
 20
10.8743921744
 30
0.0
 10
15.2833916908
 20
10.8791666558
 30
0.0
 10
15.3024113909
 20
10.8874423065
 30
0.0
 10
15.3136040644
 20
10.8952118661
 30
0.0
 10
15.3219862963
 20
10.904656089
 30
0.0
 10
15.325515156
 20
10.9120019947
 30
0.0
 10
15.3266685158
 20
10.9157342219
 30
0.0
  0
SPLINE
  5
279
100
AcDbEntity
  8
0
100
AcDbSpline
 62
7
  6
CONTINUOUS
 70
0
 71
3
 72
18
 73
14
 74
0
 42
0.0000001
 43
0.0000001
 44
0.0000000001
 40
0.0
 40
0.0
 40
0.0
 40
0.0
 40
0.1137408099
 40
0.1783971068
 40
0.2473156382
 40
0.3934871377
 40
0.5423919959
 40
0.6833260852
 40
0.8074648614
 40
0.8619273589
 40
0.9113898529
 40
0.9568335077
 40
1.0
 40
1.0
 40
1.0
 40
1.0
 10
14.7331795557
 20
10.9520589965
 30
0.0
 10
14.7377140765
 20
10.9428186144
 30
0.0
 10
14.7478990833
 20
10.9298093901
 30
0.0
 10
14.7648012948
 20
10.9151321508
 30
0.0
 10
14.7857821604
 20
10.9008547337
 30
0.0
 10
14.8158060561
 20
10.8867667983
 30
0.0
 10
14.8542136834
 20
10.8767842047
 30
0.0
 10
14.8918312548
 20
10.8743921744
 30
0.0
 10
14.9207692522
 20
10.8791666558
 30
0.0
 10
14.9397889523
 20
10.8874423065
 30
0.0
 10
14.9509816258
 20
10.8952118661
 30
0.0
 10
14.9593638577
 20
10.904656089
 30
0.0
 10
14.9628927174
 20
10.9120019947
 30
0.0
 10
14.9640460773
 20
10.9157342219
 30
0.0
  0
SPLINE
  5
27A
100
AcDbEntity
  8
0
100
AcDbSpline
 62
7
  6
CONTINUOUS
 70
0
 71
3
 72
18
 73
14
 74
0
 42
0.0000001
 43
0.0000001
 44
0.0000000001
 40
0.0
 40
0.0
 40
0.0
 40
0.0
 40
0.1137408099
 40
0.1783971068
 40
0.2473156382
 40
0.3934871377
 40
0.5423919959
 40
0.6833260852
 40
0.8074648614
 40
0.8619273589
 40
0.9113898529
 40
0.9568335077
 40
1.0
 40
1.0
 40
1.0
 40
1.0
 10
14.3705571171
 20
10.9520589965
 30
0.0
 10
14.375091638
 20
10.9428186144
 30
0.0
 10
14.3852766448
 20
10.9298093901
 30
0.0
 10
14.4021788562
 20
10.9151321508
 30
0.0
 10
14.4231597218
 20
10.9008547337
 30
0.0
 10
14.4531836175
 20
10.8867667983
 30
0.0
 10
14.4915912448
 20
10.8767842047
 30
0.0
 10
14.5292088162
 20
10.8743921744
 30
0.0
 10
14.5581468136
 20
10.8791666558
 30
0.0
 10
14.5771665137
 20
10.8874423065
 30
0.0
 10
14.5883591872
 20
10.8952118661
 30
0.0
 10
14.5967414191
 20
10.904656089
 30
0.0
 10
14.6002702789
 20
10.9120019947
 30
0.0
 10
14.6014236387
 20
10.9157342219
 30
0.0
  0
SPLINE
  5
27B
100
AcDbEntity
  8
0
100
AcDbSpline
 62
7
  6
CONTINUOUS
 70
0
 71
3
 72
18
 73
14
 74
0
 42
0.0000001
 43
0.0000001
 44
0.0000000001
 40
0.0
 40
0.0
 40
0.0
 40
0.0
 40
0.1137408099
 40
0.1783971068
 40
0.2473156382
 40
0.3934871377
 40
0.5423919959
 40
0.6833260852
 40
0.8074648614
 40
0.8619273589
 40
0.9113898529
 40
0.9568335077
 40
1.0
 40
1.0
 40
1.0
 40
1.0
 10
14.0079346785
 20
10.9520589965
 30
0.0
 10
14.0124691994
 20
10.9428186144
 30
0.0
 10
14.0226542062
 20
10.9298093901
 30
0.0
 10
14.0395564176
 20
10.9151321508
 30
0.0
 10
14.0605372832
 20
10.9008547337
 30
0.0
 10
14.090561179
 20
10.8867667983
 30
0.0
 10
14.1289688062
 20
10.8767842047
 30
0.0
 10
14.1665863777
 20
10.8743921744
 30
0.0
 10
14.195524375
 20
10.8791666558
 30
0.0
 10
14.2145440751
 20
10.8874423065
 30
0.0
 10
14.2257367486
 20
10.8952118661
 30
0.0
 10
14.2341189806
 20
10.904656089
 30
0.0
 10
14.2376478403
 20
10.9120019947
 30
0.0
 10
14.2388012001
 20
10.9157342219
 30
0.0
  0
SPLINE
  5
27C
100
AcDbEntity
  8
0
100
AcDbSpline
 62
7
  6
CONTINUOUS
 70
0
 71
3
 72
11
 73
7
 74
0
 42
0.0000001
 43
0.0000001
 44
0.0000000001
 40
0.0
 40
0.0
 40
0.0
 40
0.0
 40
0.2647318053
 40
0.5366462093
 40
0.7885234546
 40
1.0
 40
1.0
 40
1.0
 40
1.0
 10
13.9652862864
 20
10.977388379
 30
0.0
 10
13.9694278035
 20
10.977388379
 30
0.0
 10
13.9778404713
 20
10.9762542547
 30
0.0
 10
13.9895107608
 20
10.9719694447
 30
0.0
 10
13.9992334122
 20
10.9656502061
 30
0.0
 10
14.0040552749
 20
10.9599643897
 30
0.0
 10
14.0055127582
 20
10.9569943512
 30
0.0
  0
SPLINE
  5
27D
100
AcDbEntity
  8
0
100
AcDbSpline
 62
7
  6
CONTINUOUS
 70
0
 71
3
 72
11
 73
7
 74
0
 42
0.0000001
 43
0.0000001
 44
0.0000000001
 40
0.0
 40
0.0
 40
0.0
 40
0.0
 40
0.2647318053
 40
0.5366462093
 40
0.7885234546
 40
1.0
 40
1.0
 40
1.0
 40
1.0
 10
14.3279087249
 20
10.977388379
 30
0.0
 10
14.332050242
 20
10.977388379
 30
0.0
 10
14.3404629099
 20
10.9762542547
 30
0.0
 10
14.3521331993
 20
10.9719694447
 30
0.0
 10
14.3618558507
 20
10.9656502061
 30
0.0
 10
14.3666777135
 20
10.9599643897
 30
0.0
 10
14.3681351967
 20
10.9569943512
 30
0.0
  0
SPLINE
  5
27E
100
AcDbEntity
  8
0
100
AcDbSpline
 62
7
  6
CONTINUOUS
 70
0
 71
3
 72
11
 73
7
 74
0
 42
0.0000001
 43
0.0000001
 44
0.0000000001
 40
0.0
 40
0.0
 40
0.0
 40
0.0
 40
0.2647318053
 40
0.5366462093
 40
0.7885234546
 40
1.0
 40
1.0
 40
1.0
 40
1.0
 10
14.6905311635
 20
10.977388379
 30
0.0
 10
14.6946726806
 20
10.977388379
 30
0.0
 10
14.7030853485
 20
10.9762542547
 30
0.0
 10
14.7147556379
 20
10.9719694447
 30
0.0
 10
14.7244782893
 20
10.9656502061
 30
0.0
 10
14.7293001521
 20
10.9599643897
 30
0.0
 10
14.7307576353
 20
10.9569943512
 30
0.0
  0
SPLINE
  5
27F
100
AcDbEntity
  8
0
100
AcDbSpline
 62
7
  6
CONTINUOUS
 70
0
 71
3
 72
11
 73
7
 74
0
 42
0.0000001
 43
0.0000001
 44
0.0000000001
 40
0.0
 40
0.0
 40
0.0
 40
0.0
 40
0.2647318053
 40
0.5366462093
 40
0.7885234546
 40
1.0
 40
1.0
 40
1.0
 40
1.0
 10
15.0531536021
 20
10.977388379
 30
0.0
 10
15.0572951192
 20
10.977388379
 30
0.0
 10
15.0657077871
 20
10.9762542547
 30
0.0
 10
15.0773780765
 20
10.9719694447
 30
0.0
 10
15.0871007279
 20
10.9656502061
 30
0.0
 10
15.0919225907
 20
10.9599643897
 30
0.0
 10
15.0933800739
 20
10.9569943512
 30
0.0
  0
SPLINE
  5
280
100
AcDbEntity
  8
0
100
AcDbSpline
 62
7
  6
CONTINUOUS
 70
0
 71
3
 72
11
 73
7
 74
0
 42
0.0000001
 43
0.0000001
 44
0.0000000001
 40
0.0
 40
0.0
 40
0.0
 40
0.0
 40
0.2647318053
 40
0.5366462093
 40
0.7885234546
 40
1.0
 40
1.0
 40
1.0
 40
1.0
 10
15.4157760407
 20
10.977388379
 30
0.0
 10
15.4199175578
 20
10.977388379
 30
0.0
 10
15.4283302257
 20
10.9762542547
 30
0.0
 10
15.4400005151
 20
10.9719694447
 30
0.0
 10
15.4497231665
 20
10.9656502061
 30
0.0
 10
15.4545450293
 20
10.9599643897
 30
0.0
 10
15.4560025125
 20
10.9569943512
 30
0.0
  0
SPLINE
  5
281
100
AcDbEntity
  8
0
100
AcDbSpline
 62
7
  6
CONTINUOUS
 70
0
 71
3
 72
11
 73
7
 74
0
 42
0.0000001
 43
0.0000001
 44
0.0000000001
 40
0.0
 40
0.0
 40
0.0
 40
0.0
 40
0.2647318053
 40
0.5366462093
 40
0.7885234546
 40
1.0
 40
1.0
 40
1.0
 40
1.0
 10
15.7783984793
 20
10.977388379
 30
0.0
 10
15.7825399964
 20
10.977388379
 30
0.0
 10
15.7909526643
 20
10.9762542547
 30
0.0
 10
15.8026229537
 20
10.9719694447
 30
0.0
 10
15.8123456051
 20
10.9656502061
 30
0.0
 10
15.8171674679
 20
10.9599643897
 30
0.0
 10
15.8186249511
 20
10.9569943512
 30
0.0
  0
SPLINE
  5
282
100
AcDbEntity
  8
0
100
AcDbSpline
 62
7
  6
CONTINUOUS
 70
0
 71
3
 72
10
 73
6
 74
0
 42
0.0000001
 43
0.0000001
 44
0.0000000001
 40
0.0
 40
0.0
 40
0.0
 40
0.0
 40
0.2340924323
 40
0.4754069589
 40
1.0
 40
1.0
 40
1.0
 40
1.0
 10
15.6892909544
 20
10.9157342219
 30
0.0
 10
15.6901513662
 20
10.9185184807
 30
0.0
 10
15.691280763
 20
10.9243848432
 30
0.0
 10
15.6910119363
 20
10.9369019611
 30
0.0
 10
15.6879404482
 20
10.9461963047
 30
0.0
 10
15.6850634569
 20
10.9520589965
 30
0.0
  0
SPLINE
  5
283
100
AcDbEntity
  8
0
100
AcDbSpline
 62
7
  6
CONTINUOUS
 70
0
 71
3
 72
10
 73
6
 74
0
 42
0.0000001
 43
0.0000001
 44
0.0000000001
 40
0.0
 40
0.0
 40
0.0
 40
0.0
 40
0.2341451507
 40
0.4753625673
 40
1.0
 40
1.0
 40
1.0
 40
1.0
 10
16.0519132099
 20
10.9157342798
 30
0.0
 10
16.0527739216
 20
10.9185191334
 30
0.0
 10
16.0539025057
 20
10.9243850771
 30
0.0
 10
16.0536354416
 20
10.9369021293
 30
0.0
 10
16.0505631307
 20
10.9461958076
 30
0.0
 10
16.0476858955
 20
10.9520589965
 30
0.0
  0
SPLINE
  5
284
100
AcDbEntity
  8
0
100
AcDbSpline
 62
7
  6
CONTINUOUS
 70
0
 71
3
 72
10
 73
6
 74
0
 42
0.0000001
 43
0.0000001
 44
0.0000000001
 40
0.0
 40
0.0
 40
0.0
 40
0.0
 40
0.2340924323
 40
0.4754069589
 40
1.0
 40
1.0
 40
1.0
 40
1.0
 10
14.9640460773
 20
10.9157342219
 30
0.0
 10
14.9649064891
 20
10.9185184807
 30
0.0
 10
14.9660358858
 20
10.9243848432
 30
0.0
 10
14.9657670591
 20
10.9369019611
 30
0.0
 10
14.962695571
 20
10.9461963047
 30
0.0
 10
14.9598185798
 20
10.9520589965
 30
0.0
  0
SPLINE
  5
285
100
AcDbEntity
  8
0
100
AcDbSpline
 62
7
  6
CONTINUOUS
 70
0
 71
3
 72
9
 73
5
 74
0
 42
0.0000001
 43
0.0000001
 44
0.0000000001
 40
0.0
 40
0.0
 40
0.0
 40
0.0
 40
0.5257440241
 40
1.0
 40
1.0
 40
1.0
 40
1.0
 10
14.2321517823
 20
10.9569943512
 30
0.0
 10
14.2313849258
 20
10.9585570404
 30
0.0
 10
14.2303121792
 20
10.9617647157
 30
0.0
 10
14.2305609477
 20
10.9651806992
 30
0.0
 10
14.2310245227
 20
10.9666809442
 30
0.0
  0
SPLINE
  5
286
100
AcDbEntity
  8
0
100
AcDbSpline
 62
7
  6
CONTINUOUS
 70
0
 71
3
 72
10
 73
6
 74
0
 42
0.0000001
 43
0.0000001
 44
0.0000000001
 40
0.0
 40
0.0
 40
0.0
 40
0.0
 40
0.2340924323
 40
0.4754069589
 40
1.0
 40
1.0
 40
1.0
 40
1.0
 10
14.2388012001
 20
10.9157342219
 30
0.0
 10
14.2396616119
 20
10.9185184807
 30
0.0
 10
14.2407910087
 20
10.9243848432
 30
0.0
 10
14.240522182
 20
10.9369019611
 30
0.0
 10
14.2374506938
 20
10.9461963047
 30
0.0
 10
14.2345737026
 20
10.9520589965
 30
0.0
  0
SPLINE
  5
287
100
AcDbEntity
  8
0
100
AcDbSpline
 62
7
  6
CONTINUOUS
 70
0
 71
3
 72
9
 73
5
 74
0
 42
0.0000001
 43
0.0000001
 44
0.0000000001
 40
0.0
 40
0.0
 40
0.0
 40
0.0
 40
0.5257440241
 40
1.0
 40
1.0
 40
1.0
 40
1.0
 10
14.5947742209
 20
10.9569943512
 30
0.0
 10
14.5940073644
 20
10.9585570404
 30
0.0
 10
14.5929346178
 20
10.9617647157
 30
0.0
 10
14.5931833862
 20
10.9651806992
 30
0.0
 10
14.5936469613
 20
10.9666809442
 30
0.0
  0
SPLINE
  5
288
100
AcDbEntity
  8
0
100
AcDbSpline
 62
7
  6
CONTINUOUS
 70
0
 71
3
 72
9
 73
5
 74
0
 42
0.0000001
 43
0.0000001
 44
0.0000000001
 40
0.0
 40
0.0
 40
0.0
 40
0.0
 40
0.5257440241
 40
1.0
 40
1.0
 40
1.0
 40
1.0
 10
14.9573966594
 20
10.9569943512
 30
0.0
 10
14.956629803
 20
10.9585570404
 30
0.0
 10
14.9555570564
 20
10.9617647157
 30
0.0
 10
14.9558058248
 20
10.9651806992
 30
0.0
 10
14.9562693999
 20
10.9666809442
 30
0.0
  0
SPLINE
  5
289
100
AcDbEntity
  8
0
100
AcDbSpline
 62
7
  6
CONTINUOUS
 70
0
 71
3
 72
9
 73
5
 74
0
 42
0.0000001
 43
0.0000001
 44
0.0000000001
 40
0.0
 40
0.0
 40
0.0
 40
0.0
 40
0.5257440241
 40
1.0
 40
1.0
 40
1.0
 40
1.0
 10
15.320019098
 20
10.9569943512
 30
0.0
 10
15.3192522416
 20
10.9585570404
 30
0.0
 10
15.318179495
 20
10.9617647157
 30
0.0
 10
15.3184282634
 20
10.9651806992
 30
0.0
 10
15.3188918385
 20
10.9666809442
 30
0.0
  0
SPLINE
  5
28A
100
AcDbEntity
  8
0
100
AcDbSpline
 62
7
  6
CONTINUOUS
 70
0
 71
3
 72
10
 73
6
 74
0
 42
0.0000001
 43
0.0000001
 44
0.0000000001
 40
0.0
 40
0.0
 40
0.0
 40
0.0
 40
0.2340924323
 40
0.4754069589
 40
1.0
 40
1.0
 40
1.0
 40
1.0
 10
15.3266685158
 20
10.9157342219
 30
0.0
 10
15.3275289277
 20
10.9185184807
 30
0.0
 10
15.3286583244
 20
10.9243848432
 30
0.0
 10
15.3283894977
 20
10.9369019611
 30
0.0
 10
15.3253180096
 20
10.9461963047
 30
0.0
 10
15.3224410184
 20
10.9520589965
 30
0.0
  0
SPLINE
  5
28B
100
AcDbEntity
  8
0
100
AcDbSpline
 62
7
  6
CONTINUOUS
 70
0
 71
3
 72
9
 73
5
 74
0
 42
0.0000001
 43
0.0000001
 44
0.0000000001
 40
0.0
 40
0.0
 40
0.0
 40
0.0
 40
0.5257440241
 40
1.0
 40
1.0
 40
1.0
 40
1.0
 10
15.6826415366
 20
10.9569943512
 30
0.0
 10
15.6818746801
 20
10.9585570404
 30
0.0
 10
15.6808019335
 20
10.9617647157
 30
0.0
 10
15.681050702
 20
10.9651806992
 30
0.0
 10
15.681514277
 20
10.9666809442
 30
0.0
  0
SPLINE
  5
28C
100
AcDbEntity
  8
0
100
AcDbSpline
 62
7
  6
CONTINUOUS
 70
0
 71
3
 72
10
 73
6
 74
0
 42
0.0000001
 43
0.0000001
 44
0.0000000001
 40
0.0
 40
0.0
 40
0.0
 40
0.0
 40
0.2340924323
 40
0.4754069589
 40
1.0
 40
1.0
 40
1.0
 40
1.0
 10
14.6014236387
 20
10.9157342219
 30
0.0
 10
14.6022840505
 20
10.9185184807
 30
0.0
 10
14.6034134473
 20
10.9243848432
 30
0.0
 10
14.6031446206
 20
10.9369019611
 30
0.0
 10
14.6000731324
 20
10.9461963047
 30
0.0
 10
14.5971961412
 20
10.9520589965
 30
0.0
  0
SPLINE
  5
28D
100
AcDbEntity
  8
0
100
AcDbSpline
 62
7
  6
CONTINUOUS
 70
0
 71
3
 72
9
 73
5
 74
0
 42
0.0000001
 43
0.0000001
 44
0.0000000001
 40
0.0
 40
0.0
 40
0.0
 40
0.0
 40
0.5257440241
 40
1.0
 40
1.0
 40
1.0
 40
1.0
 10
16.0452639752
 20
10.9569943512
 30
0.0
 10
16.0444971187
 20
10.9585570404
 30
0.0
 10
16.0434243721
 20
10.9617647157
 30
0.0
 10
16.0436731406
 20
10.9651806992
 30
0.0
 10
16.0441367156
 20
10.9666809442
 30
0.0
  0
ENDSEC
  0
SECTION
  2
OBJECTS
  0
DICTIONARY
  5
C
100
AcDbDictionary
280
0
281
1
  3
ACAD_GROUP
350
D
  3
ACAD_MLINESTYLE
350
17
  3
ACAD_LAYOUT
350
1A
  3
ACAD_PLOTSETTINGS
350
19
  3
ACAD_PLOTSTYLENAME
350
E
  0
DICTIONARY
  5
D
102
{ACAD_REACTORS
330
C
102
}
100
AcDbDictionary
280
0
281
1
  0
ACDBDICTIONARYWDFLT
  5
E
102
{ACAD_REACTORS
330
C
102
}
100
AcDbDictionary
281
1
  3
Normal
350
F
100
AcDbDictionaryWithDefault
340
F
  0
DICTIONARY
  5
17
102
{ACAD_REACTORS
330
C
102
}
100
AcDbDictionary
280
0
281
1
  3
Standard
350
18
  0
DICTIONARY
  5
19
102
{ACAD_REACTORS
330
C
102
}
100
AcDbDictionary
281
1
  0
DICTIONARY
  5
1A
102
{ACAD_REACTORS
330
C
102
}
100
AcDbDictionary
281
1
  3
Model
350
28E
  3
Layout1
350
28F
  0
ACDBPLACEHOLDER
  5
F
102
{ACAD_REACTORS
330
E
102
}
  0
MLINESTYLE
  5
18
102
{ACAD_REACTORS
330
17
102
}
100
AcDbMlineStyle
  2
STANDARD
 70
0
  3

 62
256
 51
90.0
 52
90.0
 71
2
 49
0.5
 62
256
  6
BYLAYER
 49
-0.5
 62
256
  6
BYLAYER
  0
LAYOUT
  5
28E
102
{ACAD_REACTORS
330
1A
102
}
100
AcDbPlotSettings
  1

  2
none_device
  4
ANSI_C_(22.00_x_17.00_Inches)
  6

 40
0.0
 41
0.0
 42
0.0
 43
0.0
 44
558.8
 45
431.8
 46
0.0
 47
0.0
 48
0.0
 49
0.0
140
0.0
141
0.0
142
1.0
143
1.0
 70
1024
 72
0
 73
0
 74
0
  7

 75
0
147
1.0
148
0.0
149
0.0
100
AcDbLayout
  1
Model
 70
0
 71
0
 10
0.0
 20
0.0
 11
22.0
 21
17.0
 12
0.0
 22
0.0
 32
0.0
 14
0.0
 24
0.0
 34
0.0
 15
0.0
 25
0.0
 35
0.0
146
0.0
 13
0.0
 23
0.0
 33
0.0
 16
1.0
 26
0.0
 36
0.0
 17
0.0
 27
1.0
 37
0.0
 76
0
330
216
345
0
346
0
  0
LAYOUT
  5
28F
102
{ACAD_REACTORS
330
1A
102
}
100
AcDbPlotSettings
  1

  2
none_device
  4
ANSI_C_(22.00_x_17.00_Inches)
  6

 40
0.0
 41
0.0
 42
0.0
 43
0.0
 44
558.8
 45
431.8
 46
0.0
 47
0.0
 48
0.0
 49
0.0
140
0.0
141
0.0
142
1.0
143
1.0
 70
0
 72
0
 73
0
 74
0
  7

 75
0
147
1.0
148
0.0
149
0.0
100
AcDbLayout
  1
Layout1
 70
0
 71
1
 10
0.0
 20
0.0
 11
22.0
 21
17.0
 12
0.0
 22
0.0
 32
0.0
 14
0.0
 24
0.0
 34
0.0
 15
0.0
 25
0.0
 35
0.0
146
0.0
 13
0.0
 23
0.0
 33
0.0
 16
1.0
 26
0.0
 36
0.0
 17
0.0
 27
1.0
 37
0.0
 76
0
330
217
345
0
346
0
  0
ENDSEC
  0
EOF