999
DXF file: _cgs_temp_output.dxf
999
Pro/ENGINEER 2015110 by Parametric Technology Corporation
  0
SECTION
  2
HEADER
  9
$ACADVER
  1
AC1021
  9
$DWGCODEPAGE
  3
ANSI_1252
  9
$EXTMAX
 10
22.0
 20
17.0
 30
0.0
  9
$EXTMIN
 10
0.0
 20
0.0
 30
0.0
  9
$LIMMIN
 10
0.0
 20
0.0
  9
$LIMMAX
 10
22.0
 20
17.0
  9
$VIEWCTR
 10
11.0
 20
8.5
  9
$VIEWSIZE
 40
17.0
  9
$CLAYER
  8
0
  9
$LTSCALE
 40
1.21
  9
$CELTYPE
  6
BYLAYER
  9
$DIMSCALE
 40
1.0
  9
$DIMASZ
 40
0.1875
  9
$DIMEXO
 40
0.0625
  9
$DIMDLI
 40
0.836
  9
$DIMEXE
 40
0.125
  9
$DIMCEN
 40
0.198
  9
$DIMLFAC
 40
1.0
  9
$DIMBLK
  1
_CLOSED
  9
$DIMALT
 70
0
  9
$DIMALTF
 40
25.4
  9
$DIMTXT
 40
0.15625
  9
$DIMTOL
 70
0
  9
$DIMLIM
 70
0
  9
$DIMTFAC
 40
1.0
  9
$DIMGAP
 40
0.09
  9
$DIMDSEP
 70
46
  9
$AUNITS
 70
0
  9
$PDMODE
 70
3
  9
$PDSIZE
 40
0.3125
  9
$HANDSEED
  5
290
  9
$TILEMODE
 70
1
  9
$MEASUREMENT
 70
0
  9
$INSUNITS
 70
1
  0
ENDSEC
  0
SECTION
  2
CLASSES
  0
CLASS
  1
ACDBDICTIONARYWDFLT
  2
AcDbDictionaryWithDefault
  3
AutoCAD 2000
 90
0
 91
1
280
0
281
0
  0
CLASS
  1
ACDBPLACEHOLDER
  2
AcDbPlaceHolder
  3
AutoCAD 2000
 90
0
 91
1
280
0
281
0
  0
CLASS
  1
LAYOUT
  2
AcDbLayout
  3
AutoCAD 2000
 90
0
 91
0
280
0
281
0
  0
ENDSEC
  0
SECTION
  2
TABLES
  0
TABLE
  2
VPORT
  5
8
100
AcDbSymbolTable
 70
2
  0
VPORT
  5
1F4
100
AcDbSymbolTableRecord
100
AcDbViewportTableRecord
  2
*ACTIVE
 70
0
 10
0.0
 20
0.0
 11
1.0
 21
1.0
 12
11.0
 22
8.5
 13
0.0
 23
0.0
 14
1.0
 24
1.0
 15
0.0
 25
0.0
 16
0.0
 26
0.0
 36
1.0
 17
0.0
 27
0.0
 37
0.0
 40
17.0
 41
1.2941176471
 42
50.0
 43
0.0
 44
0.0
 50
0.0
 51
0.0
 71
0
 72
100
 73
1
 74
1
 75
0
 76
0
 77
0
 78
0
  0
ENDTAB
  0
TABLE
  2
LTYPE
  5
5
100
AcDbSymbolTable
 70
6
  0
LTYPE
  5
14
100
AcDbSymbolTableRecord
100
AcDbLinetypeTableRecord
  2
BYBLOCK
 70
0
  3

 72
65
 73
0
 40
0.0
  0
LTYPE
  5
15
100
AcDbSymbolTableRecord
100
AcDbLinetypeTableRecord
  2
BYLAYER
 70
0
  3

 72
65
 73
0
 40
0.0
  0
LTYPE
  5
16
100
AcDbSymbolTableRecord
100
AcDbLinetypeTableRecord
  2
CONTINUOUS
 70
64
  3
Solid line
 72
65
 73
0
 40
0.0
  0
LTYPE
  5
1F5
100
AcDbSymbolTableRecord
100
AcDbLinetypeTableRecord
  2
CENTER
 70
64
  3
____ _ ____ _ ____ _ ____ _ ____ _ ____ _ ____
 72
65
 73
4
 40
0.6
 49
0.375
 74
0
 49
-0.075
 74
0
 49
0.075
 74
0
 49
-0.075
 74
0
  0
LTYPE
  5
1F6
100
AcDbSymbolTableRecord
100
AcDbLinetypeTableRecord
  2
HIDDEN
 70
64
  3
- - - - - - - - - - - - - - - - - - - -
 72
65
 73
2
 40
0.2
 49
0.1
 74
0
 49
-0.1
 74
0
  0
LTYPE
  5
1F7
100
AcDbSymbolTableRecord
100
AcDbLinetypeTableRecord
  2
PHANTOM
 70
64
  3
_____ _ _ _____ _ _ _____ _ _ _____
 72
65
 73
6
 40
0.8
 49
0.45
 74
0
 49
-0.05
 74
0
 49
0.1
 74
0
 49
-0.05
 74
0
 49
0.1
 74
0
 49
-0.05
 74
0
  0
LTYPE
  5
1F8
100
AcDbSymbolTableRecord
100
AcDbLinetypeTableRecord
  2
DOT
 70
64
  3
. . . . . . . . . . . . . . . . . . . .
 72
65
 73
2
 40
0.2
 49
0.1
 74
0
 49
-0.1
 74
0
  0
LTYPE
  5
1F9
100
AcDbSymbolTableRecord
100
AcDbLinetypeTableRecord
  2
DASHED
 70
64
  3
- - - - - - - - - - - - - - - - - - - -
 72
65
 73
2
 40
0.2
 49
0.1
 74
0
 49
-0.1
 74
0
  0
ENDTAB
  0
TABLE
  2
LAYER
  5
2
100
AcDbSymbolTable
 70
36
  0
LAYER
  5
10
100
AcDbSymbolTableRecord
100
AcDbLayerTableRecord
  2
0
 70
0
 62
7
  6
CONTINUOUS
370
-3
390
F
  0
LAYER
  5
1FA
100
AcDbSymbolTableRecord
100
AcDbLayerTableRecord
  2
DEFAULT_1
 70
0
 62
7
  6
CENTER
370
-3
390
F
  0
LAYER
  5
1FB
100
AcDbSymbolTableRecord
100
AcDbLayerTableRecord
  2
DEFAULT_2
 70
0
 62
8
  6
HIDDEN
370
-3
390
F
  0
LAYER
  5
1FC
100
AcDbSymbolTableRecord
100
AcDbLayerTableRecord
  2
DEFAULT_3
 70
0
 62
7
  6
PHANTOM
370
-3
390
F
  0
LAYER
  5
1FD
100
AcDbSymbolTableRecord
100
AcDbLayerTableRecord
  2
01_ALL_DTM_PLN
 70
0
 62
7
  6
CONTINUOUS
370
-3
390
F
  0
LAYER
  5
1FE
100
AcDbSymbolTableRecord
100
AcDbLayerTableRecord
  2
01__ASM_ALL_DTM_PLN
 70
0
 62
7
  6
CONTINUOUS
370
-3
390
F
  0
LAYER
  5
1FF
100
AcDbSymbolTableRecord
100
AcDbLayerTableRecord
  2
01__ASM_DEF_DTM_PLN
 70
0
 62
7
  6
CONTINUOUS
370
-3
390
F
  0
LAYER
  5
200
100
AcDbSymbolTableRecord
100
AcDbLayerTableRecord
  2
01___PRT_ALL_DTM_PLN
 70
0
 62
7
  6
CONTINUOUS
370
-3
390
F
  0
LAYER
  5
201
100
AcDbSymbolTableRecord
100
AcDbLayerTableRecord
  2
01___PRT_DEF_DTM_PLN
 70
0
 62
7
  6
CONTINUOUS
370
-3
390
F
  0
LAYER
  5
202
100
AcDbSymbolTableRecord
100
AcDbLayerTableRecord
  2
02_ALL_AXES
 70
0
 62
7
  6
CONTINUOUS
370
-3
390
F
  0
LAYER
  5
203
100
AcDbSymbolTableRecord
100
AcDbLayerTableRecord
  2
02__ASM_ALL_AXES
 70
0
 62
7
  6
CONTINUOUS
370
-3
390
F
  0
LAYER
  5
204
100
AcDbSymbolTableRecord
100
AcDbLayerTableRecord
  2
02___PRT_ALL_AXES
 70
0
 62
7
  6
CONTINUOUS
370
-3
390
F
  0
LAYER
  5
205
100
AcDbSymbolTableRecord
100
AcDbLayerTableRecord
  2
03_ALL_CURVES
 70
0
 62
7
  6
CONTINUOUS
370
-3
390
F
  0
LAYER
  5
206
100
AcDbSymbolTableRecord
100
AcDbLayerTableRecord
  2
03__ASM_ALL_CURVES
 70
0
 62
7
  6
CONTINUOUS
370
-3
390
F
  0
LAYER
  5
207
100
AcDbSymbolTableRecord
100
AcDbLayerTableRecord
  2
03___PRT_ALL_CURVES
 70
0
 62
7
  6
CONTINUOUS
370
-3
390
F
  0
LAYER
  5
208
100
AcDbSymbolTableRecord
100
AcDbLayerTableRecord
  2
04_ALL_DTM_PNT
 70
0
 62
7
  6
CONTINUOUS
370
-3
390
F
  0
LAYER
  5
209
100
AcDbSymbolTableRecord
100
AcDbLayerTableRecord
  2
04__ASM_ALL_DTM_PNT
 70
0
 62
7
  6
CONTINUOUS
370
-3
390
F
  0
LAYER
  5
20A
100
AcDbSymbolTableRecord
100
AcDbLayerTableRecord
  2
04___PRT_ALL_DTM_PNT
 70
0
 62
7
  6
CONTINUOUS
370
-3
390
F
  0
LAYER
  5
20B
100
AcDbSymbolTableRecord
100
AcDbLayerTableRecord
  2
05_ALL_DTM_CSYS
 70
0
 62
7
  6
CONTINUOUS
370
-3
390
F
  0
LAYER
  5
20C
100
AcDbSymbolTableRecord
100
AcDbLayerTableRecord
  2
05__ASM_ALL_DTM_CSYS
 70
0
 62
7
  6
CONTINUOUS
370
-3
390
F
  0
LAYER
  5
20D
100
AcDbSymbolTableRecord
100
AcDbLayerTableRecord
  2
05__ASM_DEF_DTM_CSYS
 70
0
 62
7
  6
CONTINUOUS
370
-3
390
F
  0
LAYER
  5
20E
100
AcDbSymbolTableRecord
100
AcDbLayerTableRecord
  2
05___PRT_ALL_DTM_CSYS
 70
0
 62
7
  6
CONTINUOUS
370
-3
390
F
  0
LAYER
  5
20F
100
AcDbSymbolTableRecord
100
AcDbLayerTableRecord
  2
05___PRT_DEF_DTM_CSYS
 70
0
 62
7
  6
CONTINUOUS
370
-3
390
F
  0
LAYER
  5
210
100
AcDbSymbolTableRecord
100
AcDbLayerTableRecord
  2
06_ALL_SURFS
 70
0
 62
7
  6
CONTINUOUS
370
-3
390
F
  0
LAYER
  5
211
100
AcDbSymbolTableRecord
100
AcDbLayerTableRecord
  2
06__ASM_ALL_SURFS
 70
0
 62
7
  6
CONTINUOUS
370
-3
390
F
  0
LAYER
  5
212
100
AcDbSymbolTableRecord
100
AcDbLayerTableRecord
  2
06___PRT_ALL_SURFS
 70
0
 62
7
  6
CONTINUOUS
370
-3
390
F
  0
LAYER
  5
213
100
AcDbSymbolTableRecord
100
AcDbLayerTableRecord
  2
07__ASM_ALL_SKELETONS
 70
0
 62
7
  6
CONTINUOUS
370
-3
390
F
  0
ENDTAB
  0
TABLE
  2
STYLE
  5
3
100
AcDbSymbolTable
 70
1
  0
STYLE
  5
11
100
AcDbSymbolTableRecord
100
AcDbTextStyleTableRecord
  2
STANDARD
 70
0
 40
0.0
 41
0.8
 50
0.0
 71
0
 42
0.2
  3
txt
  4

  0
STYLE
  5
214
100
AcDbSymbolTableRecord
100
AcDbTextStyleTableRecord
  2
TEXTSTYLE_1
 70
0
 40
0.0
 41
0.8
 50
0.0
 71
0
 42
0.2
  3
gdt
  4

  0
ENDTAB
  0
TABLE
  2
VIEW
  5
6
100
AcDbSymbolTable
 70
0
  0
ENDTAB
  0
TABLE
  2
UCS
  5
7
100
AcDbSymbolTable
 70
0
  0
ENDTAB
  0
TABLE
  2
APPID
  5
9
100
AcDbSymbolTable
 70
1
  0
APPID
  5
215
100
AcDbSymbolTableRecord
100
AcDbRegAppTableRecord
  2
ACAD
 70
0
  0
ENDTAB
  0
TABLE
  2
BLOCK_RECORD
  5
1
100
AcDbSymbolTable
 70
0
  0
BLOCK_RECORD
  5
216
100
AcDbSymbolTableRecord
100
AcDbBlockTableRecord
  2
*Model_Space
  0
BLOCK_RECORD
  5
217
100
AcDbSymbolTableRecord
100
AcDbBlockTableRecord
  2
*Paper_Space
  0
ENDTAB
  0
TABLE
  2
DIMSTYLE
  5
A
100
AcDbSymbolTable
 70
1
100
AcDbDimStyleTable
 71
0
  0
DIMSTYLE
105
218
100
AcDbSymbolTableRecord
100
AcDbDimStyleTableRecord
  2
STANDARD
 70
0
  3

  4

 40
1.0
 41
0.1875
 42
0.0625
 43
0.38
 44
0.125
 45
0.0
 46
0.0
 47
0.0001
 48
0.0001
140
0.15625
141
0.09
142
0.0
143
25.4
144
1.0
145
0.0
146
1.0
147
0.09
 71
0.0
 72
0.0
 73
1
 74
1
 75
0
 76
0
 77
0
 78
4
170
0
171
2
172
0
173
0
174
0
175
0
176
0
177
0
178
0
270
2
271
4
272
4
273
2
274
2
275
0
280
0
281
0
282
0
283
1
284
4
285
0
286
0
287
3
288
0
340
11
278
46
  0
ENDTAB
  0
ENDSEC
  0
SECTION
  2
BLOCKS
  0
BLOCK
  5
20
100
AcDbEntity
  8
0
100
AcDbBlockBegin
  2
*Model_Space
 70
0
 10
0.0
 20
0.0
 30
0.0
  3
*Model_Space
  1

  0
ENDBLK
  5
21
100
AcDbEntity
  8
0
100
AcDbBlockEnd
  0
BLOCK
  5
1C
100
AcDbEntity
  8
0
100
AcDbBlockBegin
  2
*Paper_Space
 70
0
 10
0.0
 20
0.0
 30
0.0
  3
*Paper_Space
  1

  0
ENDBLK
  5
1D
100
AcDbEntity
  8
0
100
AcDbBlockEnd
  0
ENDSEC
  0
SECTION
  2
ENTITIES
  0
MTEXT
  5
219
100
AcDbEntity
  8
0
100
AcDbMText
 62
7
  6
CONTINUOUS
  7
STANDARD
 71
1
 72
1
 10
15.9560215477
 20
0.9479130325
 30
0.0
 11
1.0
 21
0.0
 31
0.0
 44
0.9
  1
SCALE: 1:1.000
 40
0.3
 41
3.36
  0
LINE
  5
21A
100
AcDbEntity
  8
0
100
AcDbLine
 62
7
  6
CONTINUOUS
 10
0.0
 20
0.0
 11
0.0
 21
17.0
  0
LINE
  5
21B
100
AcDbEntity
  8
0
100
AcDbLine
 62
7
  6
CONTINUOUS
 10
0.0
 20
0.0
 11
22.0
 21
0.0
  0
LINE
  5
21C
100
AcDbEntity
  8
0
100
AcDbLine
 62
7
  6
CONTINUOUS
 10
0.0
 20
17.0
 11
22.0
 21
17.0
  0
LINE
  5
21D
100
AcDbEntity
  8
0
100
AcDbLine
 62
7
  6
CONTINUOUS
 10
22.0
 20
0.0
 11
22.0
 21
17.0
  0
LINE
  5
21E
100
AcDbEntity
  8
0
100
AcDbLine
 62
7
  6
CONTINUOUS
 10
3.7681625518
 20
5.7799624164
 11
3.7681625518
 21
5.5909860385
  0
LINE
  5
21F
100
AcDbEntity
  8
0
100
AcDbLine
 62
7
  6
CONTINUOUS
 10
3.915800347
 20
5.5253692406
 11
3.915800347
 21
5.5063403692
  0
LINE
  5
220
100
AcDbEntity
  8
0
100
AcDbLine
 62
7
  6
CONTINUOUS
 10
4.4079263313
 20
5.5063403692
 11
4.4079263313
 21
5.5253692406
  0
LINE
  5
221
100
AcDbEntity
  8
0
100
AcDbLine
 62
7
  6
CONTINUOUS
 10
4.7032019218
 20
5.5253692406
 11
4.7032019218
 21
5.5063403692
  0
LINE
  5
222
100
AcDbEntity
  8
0
100
AcDbLine
 62
7
  6
CONTINUOUS
 10
5.1953279061
 20
5.5063403692
 11
5.1953279061
 21
5.5253692406
  0
LINE
  5
223
100
AcDbEntity
  8
0
100
AcDbLine
 62
7
  6
CONTINUOUS
 10
5.4906034966
 20
5.5253692406
 11
5.4906034966
 21
5.5063403692
  0
LINE
  5
224
100
AcDbEntity
  8
0
100
AcDbLine
 62
7
  6
CONTINUOUS
 10
5.9827294809
 20
5.5063403692
 11
5.9827294809
 21
5.5253692406
  0
LINE
  5
225
100
AcDbEntity
  8
0
100
AcDbLine
 62
7
  6
CONTINUOUS
 10
6.2780050714
 20
5.5253692406
 11
6.2780050714
 21
5.5063403692
  0
LINE
  5
226
100
AcDbEntity
  8
0
100
AcDbLine
 62
7
  6
CONTINUOUS
 10
3.7681625518
 20
5.5909860385
 11
3.8501835491
 21
5.5909860385
  0
LINE
  5
227
100
AcDbEntity
  8
0
100
AcDbLine
 62
7
  6
CONTINUOUS
 10
4.4735431292
 20
5.5909860385
 11
4.6375851239
 21
5.5909860385
  0
LINE
  5
228
100
AcDbEntity
  8
0
100
AcDbLine
 62
7
  6
CONTINUOUS
 10
5.260944704
 20
5.5909860385
 11
5.4249866987
 21
5.5909860385
  0
LINE
  5
229
100
AcDbEntity
  8
0
100
AcDbLine
 62
7
  6
CONTINUOUS
 10
6.0483462788
 20
5.5909860385
 11
6.2123882735
 21
5.5909860385
  0
LINE
  5
22A
100
AcDbEntity
  8
0
100
AcDbLine
 62
7
  6
CONTINUOUS
 10
6.8357478536
 20
5.5909860385
 11
6.9997898483
 21
5.5909860385
  0
LINE
  5
22B
100
AcDbEntity
  8
0
100
AcDbLine
 62
7
  6
CONTINUOUS
 10
7.6231494284
 20
5.5909860385
 11
7.7871914231
 21
5.5909860385
  0
LINE
  5
22C
100
AcDbEntity
  8
0
100
AcDbLine
 62
7
  6
CONTINUOUS
 10
8.4105510032
 20
5.5909860385
 11
8.4925720006
 21
5.5909860385
  0
LINE
  5
22D
100
AcDbEntity
  8
0
100
AcDbLine
 62
7
  6
CONTINUOUS
 10
8.4925720006
 20
5.7799624164
 11
3.7681625518
 21
5.7799624164
  0
LINE
  5
22E
100
AcDbEntity
  8
0
100
AcDbLine
 62
7
  6
CONTINUOUS
 10
6.7701310557
 20
5.5063403692
 11
6.7701310557
 21
5.5253692406
  0
LINE
  5
22F
100
AcDbEntity
  8
0
100
AcDbLine
 62
7
  6
CONTINUOUS
 10
7.0654066462
 20
5.5253692406
 11
7.0654066462
 21
5.5063403692
  0
LINE
  5
230
100
AcDbEntity
  8
0
100
AcDbLine
 62
7
  6
CONTINUOUS
 10
7.5575326305
 20
5.5063403692
 11
7.5575326305
 21
5.5253692406
  0
LINE
  5
231
100
AcDbEntity
  8
0
100
AcDbLine
 62
7
  6
CONTINUOUS
 10
7.852808221
 20
5.5253692406
 11
7.852808221
 21
5.5063403692
  0
LINE
  5
232
100
AcDbEntity
  8
0
100
AcDbLine
 62
7
  6
CONTINUOUS
 10
8.3449342053
 20
5.5063403692
 11
8.3449342053
 21
5.5253692406
  0
LINE
  5
233
100
AcDbEntity
  8
0
100
AcDbLine
 62
7
  6
CONTINUOUS
 10
8.4925720006
 20
5.5909860385
 11
8.4925720006
 21
5.7799624164
  0
LINE
  5
234
100
AcDbEntity
  8
0
100
AcDbLine
 62
7
  6
CONTINUOUS
 10
3.7086673594
 20
14.8638273089
 11
3.7086673594
 21
10.3362682538
  0
LINE
  5
235
100
AcDbEntity
  8
0
100
AcDbLine
 62
7
  6
CONTINUOUS
 10
8.4330768083
 20
10.3362682538
 11
3.7086673594
 21
10.3362682538
  0
LINE
  5
236
100
AcDbEntity
  8
0
100
AcDbLine
 62
7
  6
CONTINUOUS
 10
8.4330768083
 20
14.8638273089
 11
8.4330768083
 21
10.3362682538
  0
LINE
  5
237
100
AcDbEntity
  8
0
100
AcDbLine
 62
7
  6
CONTINUOUS
 10
3.7086673594
 20
14.8638273089
 11
8.4330768083
 21
14.8638273089
  0
LINE
  5
238
100
AcDbEntity
  8
0
100
AcDbLine
 62
7
  6
CONTINUOUS
 10
13.2965757294
 20
5.2007821848
 11
13.2965757294
 21
5.7204672241
  0
LINE
  5
239
100
AcDbEntity
  8
0
100
AcDbLine
 62
7
  6
CONTINUOUS
 10
17.8241347845
 20
5.2007821848
 11
13.2965757294
 21
5.2007821848
  0
LINE
  5
23A
100
AcDbEntity
  8
0
100
AcDbLine
 62
7
  6
CONTINUOUS
 10
17.8241347845
 20
5.5314908462
 11
13.2965757294
 21
5.5314908462
  0
LINE
  5
23B
100
AcDbEntity
  8
0
100
AcDbLine
 62
7
  6
CONTINUOUS
 10
17.8241347845
 20
5.7204672241
 11
13.2965757294
 21
5.7204672241
  0
LINE
  5
23C
100
AcDbEntity
  8
0
100
AcDbLine
 62
7
  6
CONTINUOUS
 10
17.8241347845
 20
5.2007821848
 11
17.8241347845
 21
5.7204672241
  0
LINE
  5
23D
100
AcDbEntity
  8
0
100
AcDbLine
 62
7
  6
CONTINUOUS
 10
12.7185701962
 20
10.8990462719
 11
12.7762159033
 21
10.7815766716
  0
LINE
  5
23E
100
AcDbEntity
  8
0
100
AcDbLine
 62
7
  6
CONTINUOUS
 10
12.9322151883
 20
10.740788616
 11
12.9380197907
 21
10.7289600798
  0
LINE
  5
23F
100
AcDbEntity
  8
0
100
AcDbLine
 62
7
  6
CONTINUOUS
 10
13.3912978389
 20
10.7289600798
 11
13.3854932365
 21
10.740788616
  0
LINE
  5
240
100
AcDbEntity
  8
0
100
AcDbLine
 62
7
  6
CONTINUOUS
 10
13.6574600654
 20
10.740788616
 11
13.6632646679
 21
10.7289600798
  0
LINE
  5
241
100
AcDbEntity
  8
0
100
AcDbLine
 62
7
  6
CONTINUOUS
 10
13.8145397707
 20
14.4456051147
 11
12.7185701962
 21
10.8990462719
  0
LINE
  5
242
100
AcDbEntity
  8
0
100
AcDbLine
 62
7
  6
CONTINUOUS
 10
14.1165427161
 20
10.7289600798
 11
14.1107381137
 21
10.740788616
  0
LINE
  5
243
100
AcDbEntity
  8
0
100
AcDbLine
 62
7
  6
CONTINUOUS
 10
12.7762159033
 20
10.7815766716
 11
12.8517622446
 21
10.7815766716
  0
LINE
  5
244
100
AcDbEntity
  8
0
100
AcDbLine
 62
7
  6
CONTINUOUS
 10
13.4259144391
 20
10.7815766716
 11
13.5770071218
 21
10.7815766716
  0
LINE
  5
245
100
AcDbEntity
  8
0
100
AcDbLine
 62
7
  6
CONTINUOUS
 10
14.1511593162
 20
10.7815766716
 11
14.302251999
 21
10.7815766716
  0
LINE
  5
246
100
AcDbEntity
  8
0
100
AcDbLine
 62
7
  6
CONTINUOUS
 10
14.8764041934
 20
10.7815766716
 11
15.0274968761
 21
10.7815766716
  0
LINE
  5
247
100
AcDbEntity
  8
0
100
AcDbLine
 62
7
  6
CONTINUOUS
 10
15.6016490706
 20
10.7815766716
 11
15.7527417533
 21
10.7815766716
  0
LINE
  5
248
100
AcDbEntity
  8
0
100
AcDbLine
 62
7
  6
CONTINUOUS
 10
16.3268939477
 20
10.7815766716
 11
16.4779866305
 21
10.7815766716
  0
LINE
  5
249
100
AcDbEntity
  8
0
100
AcDbLine
 62
7
  6
CONTINUOUS
 10
17.0521388249
 20
10.7815766716
 11
17.1276851663
 21
10.7815766716
  0
LINE
  5
24A
100
AcDbEntity
  8
0
100
AcDbLine
 62
7
  6
CONTINUOUS
 10
17.0700394592
 20
10.8990462719
 11
12.7185701962
 21
10.8990462719
  0
LINE
  5
24B
100
AcDbEntity
  8
0
100
AcDbLine
 62
7
  6
CONTINUOUS
 10
14.3827049426
 20
10.740788616
 11
14.388509545
 21
10.7289600798
  0
LINE
  5
24C
100
AcDbEntity
  8
0
100
AcDbLine
 62
7
  6
CONTINUOUS
 10
13.4384626617
 20
10.7815766716
 11
13.3997525265
 21
10.6563106282
  0
LINE
  5
24D
100
AcDbEntity
  8
0
100
AcDbLine
 62
7
  6
CONTINUOUS
 10
14.8417875933
 20
10.7289600798
 11
14.8359829908
 21
10.740788616
  0
LINE
  5
24E
100
AcDbEntity
  8
0
100
AcDbLine
 62
7
  6
CONTINUOUS
 10
15.1079498198
 20
10.740788616
 11
15.1137544222
 21
10.7289600798
  0
LINE
  5
24F
100
AcDbEntity
  8
0
100
AcDbLine
 62
7
  6
CONTINUOUS
 10
14.1637075389
 20
10.7815766716
 11
14.1249974037
 21
10.6563106282
  0
LINE
  5
250
100
AcDbEntity
  8
0
100
AcDbLine
 62
7
  6
CONTINUOUS
 10
15.5670324704
 20
10.7289600798
 11
15.561227868
 21
10.740788616
  0
LINE
  5
251
100
AcDbEntity
  8
0
100
AcDbLine
 62
7
  6
CONTINUOUS
 10
15.8331946969
 20
10.740788616
 11
15.8389992994
 21
10.7289600798
  0
LINE
  5
252
100
AcDbEntity
  8
0
100
AcDbLine
 62
7
  6
CONTINUOUS
 10
14.888952416
 20
10.7815766716
 11
14.8502422808
 21
10.6563106282
  0
LINE
  5
253
100
AcDbEntity
  8
0
100
AcDbLine
 62
7
  6
CONTINUOUS
 10
16.2922773476
 20
10.7289600798
 11
16.2864727452
 21
10.740788616
  0
LINE
  5
254
100
AcDbEntity
  8
0
100
AcDbLine
 62
7
  6
CONTINUOUS
 10
16.5584395741
 20
10.740788616
 11
16.5642441765
 21
10.7289600798
  0
LINE
  5
255
100
AcDbEntity
  8
0
100
AcDbLine
 62
7
  6
CONTINUOUS
 10
15.6141972932
 20
10.7815766716
 11
15.575487158
 21
10.6563106282
  0
LINE
  5
256
100
AcDbEntity
  8
0
100
AcDbLine
 62
7
  6
CONTINUOUS
 10
17.0175222248
 20
10.7289600798
 11
17.0117176223
 21
10.740788616
  0
LINE
  5
257
100
AcDbEntity
  8
0
100
AcDbLine
 62
7
  6
CONTINUOUS
 10
17.1276851663
 20
10.7815766716
 11
17.0700394592
 21
10.8990462719
  0
LINE
  5
258
100
AcDbEntity
  8
0
100
AcDbLine
 62
7
  6
CONTINUOUS
 10
16.3394421704
 20
10.7815766716
 11
16.3007320352
 21
10.6563106282
  0
LINE
  5
259
100
AcDbEntity
  8
0
100
AcDbLine
 62
7
  6
CONTINUOUS
 10
18.1660090337
 20
14.4456051147
 11
17.0700394592
 21
10.8990462719
  0
LINE
  5
25A
100
AcDbEntity
  8
0
100
AcDbLine
 62
7
  6
CONTINUOUS
 10
17.0646870475
 20
10.7815766716
 11
17.0259769123
 21
10.6563106282
  0
LINE
  5
25B
100
AcDbEntity
  8
0
100
AcDbLine
 62
7
  6
CONTINUOUS
 10
13.8145397707
 20
14.4456051147
 11
18.1660090337
 21
14.4456051147
  0
LINE
  5
25C
100
AcDbEntity
  8
0
100
AcDbLine
 62
7
  6
CONTINUOUS
 10
18.2236547408
 20
14.3281355144
 11
17.1276851663
 21
10.7815766716
  0
LINE
  5
25D
100
AcDbEntity
  8
0
100
AcDbLine
 62
7
  6
CONTINUOUS
 10
18.2236547408
 20
14.3281355144
 11
18.1660090337
 21
14.4456051147
  0
ARC
  5
25E
100
AcDbEntity
  8
0
100
AcDbCircle
 62
7
  6
CONTINUOUS
 10
4.1618633392
 20
5.5063403692
 40
0.2460629921
100
AcDbArc
 50
180.0
 51
360.0
  0
ARC
  5
25F
100
AcDbEntity
  8
0
100
AcDbCircle
 62
7
  6
CONTINUOUS
 10
4.949264914
 20
5.5063403692
 40
0.2460629921
100
AcDbArc
 50
180.0
 51
360.0
  0
ARC
  5
260
100
AcDbEntity
  8
0
100
AcDbCircle
 62
7
  6
CONTINUOUS
 10
8.0988712132
 20
5.5063403692
 40
0.2460629921
100
AcDbArc
 50
180.0
 51
360.0
  0
ARC
  5
261
100
AcDbEntity
  8
0
100
AcDbCircle
 62
7
  6
CONTINUOUS
 10
7.3114696384
 20
5.5063403692
 40
0.2460629921
100
AcDbArc
 50
180.0
 51
360.0
  0
ARC
  5
262
100
AcDbEntity
  8
0
100
AcDbCircle
 62
7
  6
CONTINUOUS
 10
6.5240680636
 20
5.5063403692
 40
0.2460629921
100
AcDbArc
 50
180.0
 51
360.0
  0
ARC
  5
263
100
AcDbEntity
  8
0
100
AcDbCircle
 62
7
  6
CONTINUOUS
 10
5.7366664888
 20
5.5063403692
 40
0.2460629921
100
AcDbArc
 50
180.0
 51
360.0
  0
ARC
  5
264
100
AcDbEntity
  8
0
100
AcDbCircle
 62
7
  6
CONTINUOUS
 10
3.8501835491
 20
5.5253692406
 40
0.0656167979
100
AcDbArc
 50
0.0
 51
90.0
  0
ARC
  5
265
100
AcDbEntity
  8
0
100
AcDbCircle
 62
7
  6
CONTINUOUS
 10
4.4735431292
 20
5.5253692406
 40
0.0656167979
100
AcDbArc
 50
90.0
 51
180.0
  0
ARC
  5
266
100
AcDbEntity
  8
0
100
AcDbCircle
 62
7
  6
CONTINUOUS
 10
4.6375851239
 20
5.5253692406
 40
0.0656167979
100
AcDbArc
 50
0.0
 51
90.0
  0
ARC
  5
267
100
AcDbEntity
  8
0
100
AcDbCircle
 62
7
  6
CONTINUOUS
 10
5.260944704
 20
5.5253692406
 40
0.0656167979
100
AcDbArc
 50
90.0
 51
180.0
  0
ARC
  5
268
100
AcDbEntity
  8
0
100
AcDbCircle
 62
7
  6
CONTINUOUS
 10
5.4249866987
 20
5.5253692406
 40
0.0656167979
100
AcDbArc
 50
0.0
 51
90.0
  0
ARC
  5
269
100
AcDbEntity
  8
0
100
AcDbCircle
 62
7
  6
CONTINUOUS
 10
6.0483462788
 20
5.5253692406
 40
0.0656167979
100
AcDbArc
 50
90.0
 51
180.0
  0
ARC
  5
26A
100
AcDbEntity
  8
0
100
AcDbCircle
 62
7
  6
CONTINUOUS
 10
6.2123882735
 20
5.5253692406
 40
0.0656167979
100
AcDbArc
 50
0.0
 51
90.0
  0
ARC
  5
26B
100
AcDbEntity
  8
0
100
AcDbCircle
 62
7
  6
CONTINUOUS
 10
6.8357478536
 20
5.5253692406
 40
0.0656167979
100
AcDbArc
 50
90.0
 51
180.0
  0
ARC
  5
26C
100
AcDbEntity
  8
0
100
AcDbCircle
 62
7
  6
CONTINUOUS
 10
6.9997898483
 20
5.5253692406
 40
0.0656167979
100
AcDbArc
 50
0.0
 51
90.0
  0
ARC
  5
26D
100
AcDbEntity
  8
0
100
AcDbCircle
 62
7
  6
CONTINUOUS
 10
7.6231494284
 20
5.5253692406
 40
0.0656167979
100
AcDbArc
 50
90.0
 51
180.0
  0
ARC
  5
26E
100
AcDbEntity
  8
0
100
AcDbCircle
 62
7
  6
CONTINUOUS
 10
7.7871914231
 20
5.5253692406
 40
0.0656167979
100
AcDbArc
 50
0.0
 51
90.0
  0
ARC
  5
26F
100
AcDbEntity
  8
0
100
AcDbCircle
 62
7
  6
CONTINUOUS
 10
8.4105510032
 20
5.5253692406
 40
0.0656167979
100
AcDbArc
 50
90.0
 51
180.0
  0
SPLINE
  5
270
100
AcDbEntity
  8
0
100
AcDbSpline
 62
7
  6
CONTINUOUS
 70
0
 71
3
 72
11
 73
7
 74
0
 42
0.0000001
 43
0.0000001
 44
0.0000000001
 40
0.0
 40
0.0
 40
0.0
 40
0.0
 40
0.2022287166
 40
0.4300681919
 40
0.6962032513
 40
1.0
 40
1.0
 40
1.0
 40
1.0
 10
13.3832386332
 20
10.760161819
 30
0.0
 10
13.3842480124
 20
10.763428793
 30
0.0
 10
13.3881939846
 20
10.7698898996
 30
0.0
 10
13.3981045635
 20
10.7766751532
 30
0.0
 10
13.4111032982
 20
10.7807624544
 30
0.0
 10
13.4207777408
 20
10.7815766716
 30
0.0
 10
13.4259144391
 20
10.7815766716
 30
0.0
  0
SPLINE
  5
271
100
AcDbEntity
  8
0
100
AcDbSpline
 62
7
  6
CONTINUOUS
 70
0
 71
3
 72
11
 73
7
 74
0
 42
0.0000001
 43
0.0000001
 44
0.0000000001
 40
0.0
 40
0.0
 40
0.0
 40
0.0
 40
0.2022287166
 40
0.4300681919
 40
0.6962032513
 40
1.0
 40
1.0
 40
1.0
 40
1.0
 10
14.1084835103
 20
10.760161819
 30
0.0
 10
14.1094928895
 20
10.763428793
 30
0.0
 10
14.1134388617
 20
10.7698898996
 30
0.0
 10
14.1233494406
 20
10.7766751532
 30
0.0
 10
14.1363481753
 20
10.7807624544
 30
0.0
 10
14.146022618
 20
10.7815766716
 30
0.0
 10
14.1511593162
 20
10.7815766716
 30
0.0
  0
SPLINE
  5
272
100
AcDbEntity
  8
0
100
AcDbSpline
 62
7
  6
CONTINUOUS
 70
0
 71
3
 72
11
 73
7
 74
0
 42
0.0000001
 43
0.0000001
 44
0.0000000001
 40
0.0
 40
0.0
 40
0.0
 40
0.0
 40
0.2022287166
 40
0.4300681919
 40
0.6962032513
 40
1.0
 40
1.0
 40
1.0
 40
1.0
 10
14.8337283875
 20
10.760161819
 30
0.0
 10
14.8347377667
 20
10.763428793
 30
0.0
 10
14.8386837389
 20
10.7698898996
 30
0.0
 10
14.8485943178
 20
10.7766751532
 30
0.0
 10
14.8615930525
 20
10.7807624544
 30
0.0
 10
14.8712674952
 20
10.7815766716
 30
0.0
 10
14.8764041934
 20
10.7815766716
 30
0.0
  0
SPLINE
  5
273
100
AcDbEntity
  8
0
100
AcDbSpline
 62
7
  6
CONTINUOUS
 70
0
 71
3
 72
11
 73
7
 74
0
 42
0.0000001
 43
0.0000001
 44
0.0000000001
 40
0.0
 40
0.0
 40
0.0
 40
0.0
 40
0.2022287166
 40
0.4300681919
 40
0.6962032513
 40
1.0
 40
1.0
 40
1.0
 40
1.0
 10
15.5589732647
 20
10.760161819
 30
0.0
 10
15.5599826439
 20
10.763428793
 30
0.0
 10
15.5639286161
 20
10.7698898996
 30
0.0
 10
15.573839195
 20
10.7766751532
 30
0.0
 10
15.5868379297
 20
10.7807624544
 30
0.0
 10
15.5965123723
 20
10.7815766716
 30
0.0
 10
15.6016490706
 20
10.7815766716
 30
0.0
  0
SPLINE
  5
274
100
AcDbEntity
  8
0
100
AcDbSpline
 62
7
  6
CONTINUOUS
 70
0
 71
3
 72
11
 73
7
 74
0
 42
0.0000001
 43
0.0000001
 44
0.0000000001
 40
0.0
 40
0.0
 40
0.0
 40
0.0
 40
0.2022287166
 40
0.4300681919
 40
0.6962032513
 40
1.0
 40
1.0
 40
1.0
 40
1.0
 10
16.2842181418
 20
10.760161819
 30
0.0
 10
16.285227521
 20
10.763428793
 30
0.0
 10
16.2891734932
 20
10.7698898996
 30
0.0
 10
16.2990840721
 20
10.7766751532
 30
0.0
 10
16.3120828069
 20
10.7807624544
 30
0.0
 10
16.3217572495
 20
10.7815766716
 30
0.0
 10
16.3268939477
 20
10.7815766716
 30
0.0
  0
SPLINE
  5
275
100
AcDbEntity
  8
0
100
AcDbSpline
 62
7
  6
CONTINUOUS
 70
0
 71
3
 72
11
 73
7
 74
0
 42
0.0000001
 43
0.0000001
 44
0.0000000001
 40
0.0
 40
0.0
 40
0.0
 40
0.0
 40
0.2022287166
 40
0.4300681919
 40
0.6962032513
 40
1.0
 40
1.0
 40
1.0
 40
1.0
 10
17.009463019
 20
10.760161819
 30
0.0
 10
17.0104723982
 20
10.763428793
 30
0.0
 10
17.0144183704
 20
10.7698898996
 30
0.0
 10
17.0243289493
 20
10.7766751532
 30
0.0
 10
17.037327684
 20
10.7807624544
 30
0.0
 10
17.0470021267
 20
10.7815766716
 30
0.0
 10
17.0521388249
 20
10.7815766716
 30
0.0
  0
SPLINE
  5
276
100
AcDbEntity
  8
0
100
AcDbSpline
 62
7
  6
CONTINUOUS
 70
0
 71
3
 72
17
 73
13
 74
0
 42
0.0000001
 43
0.0000001
 44
0.0000000001
 40
0.0
 40
0.0
 40
0.0
 40
0.0
 40
0.1137563052
 40
0.2471371484
 40
0.3933411901
 40
0.542281105
 40
0.6832493338
 40
0.8074179548
 40
0.8618928065
 40
0.9113660806
 40
0.9568207822
 40
1.0
 40
1.0
 40
1.0
 40
1.0
 10
16.5642441765
 20
10.7289600798
 30
0.0
 10
16.5733123555
 20
10.710481074
 30
0.0
 10
16.6014853057
 20
10.6745204974
 30
0.0
 10
16.658853117
 20
10.631556477
 30
0.0
 10
16.729486753
 20
10.5983701742
 30
0.0
 10
16.8063144404
 20
10.578412536
 30
0.0
 10
16.8815468666
 20
10.5736250244
 30
0.0
 10
16.9394242541
 20
10.5831727123
 30
0.0
 10
16.9774635035
 20
10.5997257536
 30
0.0
 10
16.9998463177
 20
10.6152666062
 30
0.0
 10
17.0166188961
 20
10.6341496858
 30
0.0
 10
17.0236697035
 20
10.6488458068
 30
0.0
 10
17.0259768534
 20
10.6563106465
 30
0.0
  0
SPLINE
  5
277
100
AcDbEntity
  8
0
100
AcDbSpline
 62
7
  6
CONTINUOUS
 70
0
 71
3
 72
17
 73
13
 74
0
 42
0.0000001
 43
0.0000001
 44
0.0000000001
 40
0.0
 40
0.0
 40
0.0
 40
0.0
 40
0.1137637215
 40
0.2471370032
 40
0.3933408777
 40
0.5422808734
 40
0.6832480628
 40
0.8074175057
 40
0.8618913349
 40
0.9113643993
 40
0.9568198677
 40
1.0
 40
1.0
 40
1.0
 40
1.0
 10
15.8389992994
 20
10.7289600798
 30
0.0
 10
15.8480680553
 20
10.7104798983
 30
0.0
 10
15.8762413554
 20
10.6745196406
 30
0.0
 10
15.933609049
 20
10.631555732
 30
0.0
 10
16.0042419557
 20
10.5983717513
 30
0.0
 10
16.0810688186
 20
10.5784117305
 30
0.0
 10
16.1563010524
 20
10.5736266307
 30
0.0
 10
16.2141787341
 20
10.583171557
 30
0.0
 10
16.2522171535
 20
10.5997265729
 30
0.0
 10
16.2745997383
 20
10.615266735
 30
0.0
 10
16.2913750769
 20
10.6341485516
 30
0.0
 10
16.29842236
 20
10.6488464113
 30
0.0
 10
16.300730846
 20
10.6563109983
 30
0.0
  0
SPLINE
  5
278
100
AcDbEntity
  8
0
100
AcDbSpline
 62
7
  6
CONTINUOUS
 70
0
 71
3
 72
17
 73
13
 74
0
 42
0.0000001
 43
0.0000001
 44
0.0000000001
 40
0.0
 40
0.0
 40
0.0
 40
0.0
 40
0.1137637215
 40
0.2471370032
 40
0.3933408777
 40
0.5422808734
 40
0.6832480628
 40
0.8074175057
 40
0.8618913349
 40
0.9113643993
 40
0.9568198677
 40
1.0
 40
1.0
 40
1.0
 40
1.0
 10
15.1137544222
 20
10.7289600798
 30
0.0
 10
15.1228231781
 20
10.7104798983
 30
0.0
 10
15.1509964783
 20
10.6745196406
 30
0.0
 10
15.2083641718
 20
10.631555732
 30
0.0
 10
15.2789970786
 20
10.5983717513
 30
0.0
 10
15.3558239414
 20
10.5784117305
 30
0.0
 10
15.4310561752
 20
10.5736266307
 30
0.0
 10
15.4889338569
 20
10.583171557
 30
0.0
 10
15.5269722764
 20
10.5997265729
 30
0.0
 10
15.5493548611
 20
10.615266735
 30
0.0
 10
15.5661301997
 20
10.6341485516
 30
0.0
 10
15.5731774829
 20
10.6488464113
 30
0.0
 10
15.5754859689
 20
10.6563109983
 30
0.0
  0
SPLINE
  5
279
100
AcDbEntity
  8
0
100
AcDbSpline
 62
7
  6
CONTINUOUS
 70
0
 71
3
 72
17
 73
13
 74
0
 42
0.0000001
 43
0.0000001
 44
0.0000000001
 40
0.0
 40
0.0
 40
0.0
 40
0.0
 40
0.1137658663
 40
0.2471373552
 40
0.3933412907
 40
0.5422809546
 40
0.6832498864
 40
0.8074177704
 40
0.8618935677
 40
0.9113653627
 40
0.9568206339
 40
1.0
 40
1.0
 40
1.0
 40
1.0
 10
14.388509545
 20
10.7289600798
 30
0.0
 10
14.3975784631
 20
10.7104795679
 30
0.0
 10
14.4257514294
 20
10.6745187468
 30
0.0
 10
14.4831208878
 20
10.6315575989
 30
0.0
 10
14.5537514863
 20
10.5983693994
 30
0.0
 10
14.6305797142
 20
10.5784145877
 30
0.0
 10
14.7058118663
 20
10.5736243117
 30
0.0
 10
14.7636886886
 20
10.5831739046
 30
0.0
 10
14.8017285964
 20
10.5997249381
 30
0.0
 10
14.824110148
 20
10.6152675469
 30
0.0
 10
14.8408826068
 20
10.6341503884
 30
0.0
 10
14.8479336003
 20
10.6488462544
 30
0.0
 10
14.8502420039
 20
10.6563107139
 30
0.0
  0
SPLINE
  5
27A
100
AcDbEntity
  8
0
100
AcDbSpline
 62
7
  6
CONTINUOUS
 70
0
 71
3
 72
17
 73
13
 74
0
 42
0.0000001
 43
0.0000001
 44
0.0000000001
 40
0.0
 40
0.0
 40
0.0
 40
0.0
 40
0.1137658663
 40
0.2471373552
 40
0.3933412907
 40
0.5422809546
 40
0.6832498864
 40
0.8074177704
 40
0.8618935677
 40
0.9113653627
 40
0.9568206339
 40
1.0
 40
1.0
 40
1.0
 40
1.0
 10
13.6632646679
 20
10.7289600798
 30
0.0
 10
13.6723335859
 20
10.7104795679
 30
0.0
 10
13.7005065523
 20
10.6745187468
 30
0.0
 10
13.7578760107
 20
10.6315575989
 30
0.0
 10
13.8285066091
 20
10.5983693994
 30
0.0
 10
13.905334837
 20
10.5784145877
 30
0.0
 10
13.9805669891
 20
10.5736243117
 30
0.0
 10
14.0384438115
 20
10.5831739046
 30
0.0
 10
14.0764837192
 20
10.5997249381
 30
0.0
 10
14.0988652709
 20
10.6152675469
 30
0.0
 10
14.1156377296
 20
10.6341503884
 30
0.0
 10
14.1226887232
 20
10.6488462544
 30
0.0
 10
14.1249971268
 20
10.6563107139
 30
0.0
  0
SPLINE
  5
27B
100
AcDbEntity
  8
0
100
AcDbSpline
 62
7
  6
CONTINUOUS
 70
0
 71
3
 72
17
 73
13
 74
0
 42
0.0000001
 43
0.0000001
 44
0.0000000001
 40
0.0
 40
0.0
 40
0.0
 40
0.0
 40
0.1137658663
 40
0.2471373552
 40
0.3933412907
 40
0.5422809546
 40
0.6832498864
 40
0.8074177704
 40
0.8618935677
 40
0.9113653627
 40
0.9568206339
 40
1.0
 40
1.0
 40
1.0
 40
1.0
 10
12.9380197907
 20
10.7289600798
 30
0.0
 10
12.9470887087
 20
10.7104795679
 30
0.0
 10
12.9752616751
 20
10.6745187468
 30
0.0
 10
13.0326311335
 20
10.6315575989
 30
0.0
 10
13.1032617319
 20
10.5983693994
 30
0.0
 10
13.1800899598
 20
10.5784145877
 30
0.0
 10
13.255322112
 20
10.5736243117
 30
0.0
 10
13.3131989343
 20
10.5831739046
 30
0.0
 10
13.351238842
 20
10.5997249381
 30
0.0
 10
13.3736203937
 20
10.6152675469
 30
0.0
 10
13.3903928524
 20
10.6341503884
 30
0.0
 10
13.397443846
 20
10.6488462544
 30
0.0
 10
13.3997522496
 20
10.6563107139
 30
0.0
  0
SPLINE
  5
27C
100
AcDbEntity
  8
0
100
AcDbSpline
 62
7
  6
CONTINUOUS
 70
0
 71
3
 72
11
 73
7
 74
0
 42
0.0000001
 43
0.0000001
 44
0.0000000001
 40
0.0
 40
0.0
 40
0.0
 40
0.0
 40
0.2647182438
 40
0.5366518214
 40
0.7885344729
 40
1.0
 40
1.0
 40
1.0
 40
1.0
 10
12.8517622446
 20
10.7815766716
 30
0.0
 10
12.8600448734
 20
10.7815766716
 30
0.0
 10
12.8768699286
 20
10.7793070524
 30
0.0
 10
12.9002128744
 20
10.7707418194
 30
0.0
 10
12.919655956
 20
10.7580988928
 30
0.0
 10
12.9293003671
 20
10.7467283971
 30
0.0
 10
12.9322151883
 20
10.740788616
 30
0.0
  0
SPLINE
  5
27D
100
AcDbEntity
  8
0
100
AcDbSpline
 62
7
  6
CONTINUOUS
 70
0
 71
3
 72
11
 73
7
 74
0
 42
0.0000001
 43
0.0000001
 44
0.0000000001
 40
0.0
 40
0.0
 40
0.0
 40
0.0
 40
0.2647182438
 40
0.5366518214
 40
0.7885344729
 40
1.0
 40
1.0
 40
1.0
 40
1.0
 10
13.5770071218
 20
10.7815766716
 30
0.0
 10
13.5852897506
 20
10.7815766716
 30
0.0
 10
13.6021148058
 20
10.7793070524
 30
0.0
 10
13.6254577516
 20
10.7707418194
 30
0.0
 10
13.6449008332
 20
10.7580988928
 30
0.0
 10
13.6545452442
 20
10.7467283971
 30
0.0
 10
13.6574600654
 20
10.740788616
 30
0.0
  0
SPLINE
  5
27E
100
AcDbEntity
  8
0
100
AcDbSpline
 62
7
  6
CONTINUOUS
 70
0
 71
3
 72
11
 73
7
 74
0
 42
0.0000001
 43
0.0000001
 44
0.0000000001
 40
0.0
 40
0.0
 40
0.0
 40
0.0
 40
0.2647182438
 40
0.5366518214
 40
0.7885344729
 40
1.0
 40
1.0
 40
1.0
 40
1.0
 10
14.302251999
 20
10.7815766716
 30
0.0
 10
14.3105346277
 20
10.7815766716
 30
0.0
 10
14.327359683
 20
10.7793070524
 30
0.0
 10
14.3507026287
 20
10.7707418194
 30
0.0
 10
14.3701457103
 20
10.7580988928
 30
0.0
 10
14.3797901214
 20
10.7467283971
 30
0.0
 10
14.3827049426
 20
10.740788616
 30
0.0
  0
SPLINE
  5
27F
100
AcDbEntity
  8
0
100
AcDbSpline
 62
7
  6
CONTINUOUS
 70
0
 71
3
 72
11
 73
7
 74
0
 42
0.0000001
 43
0.0000001
 44
0.0000000001
 40
0.0
 40
0.0
 40
0.0
 40
0.0
 40
0.2647182438
 40
0.5366518214
 40
0.7885344729
 40
1.0
 40
1.0
 40
1.0
 40
1.0
 10
15.0274968761
 20
10.7815766716
 30
0.0
 10
15.0357795049
 20
10.7815766716
 30
0.0
 10
15.0526045601
 20
10.7793070524
 30
0.0
 10
15.0759475059
 20
10.7707418194
 30
0.0
 10
15.0953905875
 20
10.7580988928
 30
0.0
 10
15.1050349986
 20
10.7467283971
 30
0.0
 10
15.1079498198
 20
10.740788616
 30
0.0
  0
SPLINE
  5
280
100
AcDbEntity
  8
0
100
AcDbSpline
 62
7
  6
CONTINUOUS
 70
0
 71
3
 72
11
 73
7
 74
0
 42
0.0000001
 43
0.0000001
 44
0.0000000001
 40
0.0
 40
0.0
 40
0.0
 40
0.0
 40
0.2647182438
 40
0.5366518214
 40
0.7885344729
 40
1.0
 40
1.0
 40
1.0
 40
1.0
 10
15.7527417533
 20
10.7815766716
 30
0.0
 10
15.7610243821
 20
10.7815766716
 30
0.0
 10
15.7778494373
 20
10.7793070524
 30
0.0
 10
15.8011923831
 20
10.7707418194
 30
0.0
 10
15.8206354647
 20
10.7580988928
 30
0.0
 10
15.8302798757
 20
10.7467283971
 30
0.0
 10
15.8331946969
 20
10.740788616
 30
0.0
  0
SPLINE
  5
281
100
AcDbEntity
  8
0
100
AcDbSpline
 62
7
  6
CONTINUOUS
 70
0
 71
3
 72
11
 73
7
 74
0
 42
0.0000001
 43
0.0000001
 44
0.0000000001
 40
0.0
 40
0.0
 40
0.0
 40
0.0
 40
0.2647182438
 40
0.5366518214
 40
0.7885344729
 40
1.0
 40
1.0
 40
1.0
 40
1.0
 10
16.4779866305
 20
10.7815766716
 30
0.0
 10
16.4862692592
 20
10.7815766716
 30
0.0
 10
16.5030943145
 20
10.7793070524
 30
0.0
 10
16.5264372602
 20
10.7707418194
 30
0.0
 10
16.5458803418
 20
10.7580988928
 30
0.0
 10
16.5555247529
 20
10.7467283971
 30
0.0
 10
16.5584395741
 20
10.740788616
 30
0.0
  0
SPLINE
  5
282
100
AcDbEntity
  8
0
100
AcDbSpline
 62
7
  6
CONTINUOUS
 70
0
 71
3
 72
9
 73
5
 74
0
 42
0.0000001
 43
0.0000001
 44
0.0000000001
 40
0.0
 40
0.0
 40
0.0
 40
0.0
 40
0.4739821291
 40
1.0
 40
1.0
 40
1.0
 40
1.0
 10
16.300730846
 20
10.6563109983
 30
0.0
 10
16.3042084395
 20
10.6675559435
 30
0.0
 10
16.306090579
 20
10.6931766719
 30
0.0
 10
16.2980319852
 20
10.7172333613
 30
0.0
 10
16.2922773476
 20
10.7289600798
 30
0.0
  0
SPLINE
  5
283
100
AcDbEntity
  8
0
100
AcDbSpline
 62
7
  6
CONTINUOUS
 70
0
 71
3
 72
9
 73
5
 74
0
 42
0.0000001
 43
0.0000001
 44
0.0000000001
 40
0.0
 40
0.0
 40
0.0
 40
0.0
 40
0.4739980869
 40
1.0
 40
1.0
 40
1.0
 40
1.0
 10
17.0259768534
 20
10.6563106465
 30
0.0
 10
17.0294526238
 20
10.6675565859
 30
0.0
 10
17.0313350417
 20
10.6931766341
 30
0.0
 10
17.0232766952
 20
10.717233702
 30
0.0
 10
17.0175222248
 20
10.7289600798
 30
0.0
  0
SPLINE
  5
284
100
AcDbEntity
  8
0
100
AcDbSpline
 62
7
  6
CONTINUOUS
 70
0
 71
3
 72
9
 73
5
 74
0
 42
0.0000001
 43
0.0000001
 44
0.0000000001
 40
0.0
 40
0.0
 40
0.0
 40
0.0
 40
0.4740000811
 40
1.0
 40
1.0
 40
1.0
 40
1.0
 10
14.8502420039
 20
10.6563107139
 30
0.0
 10
14.8537196756
 20
10.6675561214
 30
0.0
 10
14.8555998527
 20
10.6931770648
 30
0.0
 10
14.8475420438
 20
10.7172337426
 30
0.0
 10
14.8417875933
 20
10.7289600798
 30
0.0
  0
SPLINE
  5
285
100
AcDbEntity
  8
0
100
AcDbSpline
 62
7
  6
CONTINUOUS
 70
0
 71
3
 72
9
 73
5
 74
0
 42
0.0000001
 43
0.0000001
 44
0.0000000001
 40
0.0
 40
0.0
 40
0.0
 40
0.0
 40
0.5259304358
 40
1.0
 40
1.0
 40
1.0
 40
1.0
 10
13.3854932365
 20
10.740788616
 30
0.0
 10
13.3839589226
 20
10.7439152189
 30
0.0
 10
13.381810049
 20
10.7503304126
 30
0.0
 10
13.3823119089
 20
10.7571623673
 30
0.0
 10
13.3832386332
 20
10.760161819
 30
0.0
  0
SPLINE
  5
286
100
AcDbEntity
  8
0
100
AcDbSpline
 62
7
  6
CONTINUOUS
 70
0
 71
3
 72
9
 73
5
 74
0
 42
0.0000001
 43
0.0000001
 44
0.0000000001
 40
0.0
 40
0.0
 40
0.0
 40
0.0
 40
0.4740000811
 40
1.0
 40
1.0
 40
1.0
 40
1.0
 10
13.3997522496
 20
10.6563107139
 30
0.0
 10
13.4032299213
 20
10.6675561214
 30
0.0
 10
13.4051100984
 20
10.6931770648
 30
0.0
 10
13.3970522894
 20
10.7172337426
 30
0.0
 10
13.3912978389
 20
10.7289600798
 30
0.0
  0
SPLINE
  5
287
100
AcDbEntity
  8
0
100
AcDbSpline
 62
7
  6
CONTINUOUS
 70
0
 71
3
 72
9
 73
5
 74
0
 42
0.0000001
 43
0.0000001
 44
0.0000000001
 40
0.0
 40
0.0
 40
0.0
 40
0.0
 40
0.5259304358
 40
1.0
 40
1.0
 40
1.0
 40
1.0
 10
14.1107381137
 20
10.740788616
 30
0.0
 10
14.1092037998
 20
10.7439152189
 30
0.0
 10
14.1070549262
 20
10.7503304126
 30
0.0
 10
14.107556786
 20
10.7571623673
 30
0.0
 10
14.1084835103
 20
10.760161819
 30
0.0
  0
SPLINE
  5
288
100
AcDbEntity
  8
0
100
AcDbSpline
 62
7
  6
CONTINUOUS
 70
0
 71
3
 72
9
 73
5
 74
0
 42
0.0000001
 43
0.0000001
 44
0.0000000001
 40
0.0
 40
0.0
 40
0.0
 40
0.0
 40
0.5259304358
 40
1.0
 40
1.0
 40
1.0
 40
1.0
 10
14.8359829908
 20
10.740788616
 30
0.0
 10
14.834448677
 20
10.7439152189
 30
0.0
 10
14.8322998033
 20
10.7503304126
 30
0.0
 10
14.8328016632
 20
10.7571623673
 30
0.0
 10
14.8337283875
 20
10.760161819
 30
0.0
  0
SPLINE
  5
289
100
AcDbEntity
  8
0
100
AcDbSpline
 62
7
  6
CONTINUOUS
 70
0
 71
3
 72
9
 73
5
 74
0
 42
0.0000001
 43
0.0000001
 44
0.0000000001
 40
0.0
 40
0.0
 40
0.0
 40
0.0
 40
0.5259304358
 40
1.0
 40
1.0
 40
1.0
 40
1.0
 10
15.561227868
 20
10.740788616
 30
0.0
 10
15.5596935541
 20
10.7439152189
 30
0.0
 10
15.5575446805
 20
10.7503304126
 30
0.0
 10
15.5580465404
 20
10.7571623673
 30
0.0
 10
15.5589732647
 20
10.760161819
 30
0.0
  0
SPLINE
  5
28A
100
AcDbEntity
  8
0
100
AcDbSpline
 62
7
  6
CONTINUOUS
 70
0
 71
3
 72
9
 73
5
 74
0
 42
0.0000001
 43
0.0000001
 44
0.0000000001
 40
0.0
 40
0.0
 40
0.0
 40
0.0
 40
0.4739821291
 40
1.0
 40
1.0
 40
1.0
 40
1.0
 10
15.5754859689
 20
10.6563109983
 30
0.0
 10
15.5789635623
 20
10.6675559435
 30
0.0
 10
15.5808457018
 20
10.6931766719
 30
0.0
 10
15.572787108
 20
10.7172333613
 30
0.0
 10
15.5670324704
 20
10.7289600798
 30
0.0
  0
SPLINE
  5
28B
100
AcDbEntity
  8
0
100
AcDbSpline
 62
7
  6
CONTINUOUS
 70
0
 71
3
 72
9
 73
5
 74
0
 42
0.0000001
 43
0.0000001
 44
0.0000000001
 40
0.0
 40
0.0
 40
0.0
 40
0.0
 40
0.5259304358
 40
1.0
 40
1.0
 40
1.0
 40
1.0
 10
16.2864727452
 20
10.740788616
 30
0.0
 10
16.2849384313
 20
10.7439152189
 30
0.0
 10
16.2827895577
 20
10.7503304126
 30
0.0
 10
16.2832914175
 20
10.7571623673
 30
0.0
 10
16.2842181418
 20
10.760161819
 30
0.0
  0
SPLINE
  5
28C
100
AcDbEntity
  8
0
100
AcDbSpline
 62
7
  6
CONTINUOUS
 70
0
 71
3
 72
9
 73
5
 74
0
 42
0.0000001
 43
0.0000001
 44
0.0000000001
 40
0.0
 40
0.0
 40
0.0
 40
0.0
 40
0.4740000811
 40
1.0
 40
1.0
 40
1.0
 40
1.0
 10
14.1249971268
 20
10.6563107139
 30
0.0
 10
14.1284747985
 20
10.6675561214
 30
0.0
 10
14.1303549755
 20
10.6931770648
 30
0.0
 10
14.1222971666
 20
10.7172337426
 30
0.0
 10
14.1165427161
 20
10.7289600798
 30
0.0
  0
SPLINE
  5
28D
100
AcDbEntity
  8
0
100
AcDbSpline
 62
7
  6
CONTINUOUS
 70
0
 71
3
 72
9
 73
5
 74
0
 42
0.0000001
 43
0.0000001
 44
0.0000000001
 40
0.0
 40
0.0
 40
0.0
 40
0.0
 40
0.5259304358
 40
1.0
 40
1.0
 40
1.0
 40
1.0
 10
17.0117176223
 20
10.740788616
 30
0.0
 10
17.0101833085
 20
10.7439152189
 30
0.0
 10
17.0080344348
 20
10.7503304126
 30
0.0
 10
17.0085362947
 20
10.7571623673
 30
0.0
 10
17.009463019
 20
10.760161819
 30
0.0
  0
ENDSEC
  0
SECTION
  2
OBJECTS
  0
DICTIONARY
  5
C
100
AcDbDictionary
280
0
281
1
  3
ACAD_GROUP
350
D
  3
ACAD_MLINESTYLE
350
17
  3
ACAD_LAYOUT
350
1A
  3
ACAD_PLOTSETTINGS
350
19
  3
ACAD_PLOTSTYLENAME
350
E
  0
DICTIONARY
  5
D
102
{ACAD_REACTORS
330
C
102
}
100
AcDbDictionary
280
0
281
1
  0
ACDBDICTIONARYWDFLT
  5
E
102
{ACAD_REACTORS
330
C
102
}
100
AcDbDictionary
281
1
  3
Normal
350
F
100
AcDbDictionaryWithDefault
340
F
  0
DICTIONARY
  5
17
102
{ACAD_REACTORS
330
C
102
}
100
AcDbDictionary
280
0
281
1
  3
Standard
350
18
  0
DICTIONARY
  5
19
102
{ACAD_REACTORS
330
C
102
}
100
AcDbDictionary
281
1
  0
DICTIONARY
  5
1A
102
{ACAD_REACTORS
330
C
102
}
100
AcDbDictionary
281
1
  3
Model
350
28E
  3
Layout1
350
28F
  0
ACDBPLACEHOLDER
  5
F
102
{ACAD_REACTORS
330
E
102
}
  0
MLINESTYLE
  5
18
102
{ACAD_REACTORS
330
17
102
}
100
AcDbMlineStyle
  2
STANDARD
 70
0
  3

 62
256
 51
90.0
 52
90.0
 71
2
 49
0.5
 62
256
  6
BYLAYER
 49
-0.5
 62
256
  6
BYLAYER
  0
LAYOUT
  5
28E
102
{ACAD_REACTORS
330
1A
102
}
100
AcDbPlotSettings
  1

  2
none_device
  4
ANSI_C_(22.00_x_17.00_Inches)
  6

 40
0.0
 41
0.0
 42
0.0
 43
0.0
 44
558.8
 45
431.8
 46
0.0
 47
0.0
 48
0.0
 49
0.0
140
0.0
141
0.0
142
1.0
143
1.0
 70
1024
 72
0
 73
0
 74
0
  7

 75
0
147
1.0
148
0.0
149
0.0
100
AcDbLayout
  1
Model
 70
0
 71
0
 10
0.0
 20
0.0
 11
22.0
 21
17.0
 12
0.0
 22
0.0
 32
0.0
 14
0.0
 24
0.0
 34
0.0
 15
0.0
 25
0.0
 35
0.0
146
0.0
 13
0.0
 23
0.0
 33
0.0
 16
1.0
 26
0.0
 36
0.0
 17
0.0
 27
1.0
 37
0.0
 76
0
330
216
345
0
346
0
  0
LAYOUT
  5
28F
102
{ACAD_REACTORS
330
1A
102
}
100
AcDbPlotSettings
  1

  2
none_device
  4
ANSI_C_(22.00_x_17.00_Inches)
  6

 40
0.0
 41
0.0
 42
0.0
 43
0.0
 44
558.8
 45
431.8
 46
0.0
 47
0.0
 48
0.0
 49
0.0
140
0.0
141
0.0
142
1.0
143
1.0
 70
0
 72
0
 73
0
 74
0
  7

 75
0
147
1.0
148
0.0
149
0.0
100
AcDbLayout
  1
Layout1
 70
0
 71
1
 10
0.0
 20
0.0
 11
22.0
 21
17.0
 12
0.0
 22
0.0
 32
0.0
 14
0.0
 24
0.0
 34
0.0
 15
0.0
 25
0.0
 35
0.0
146
0.0
 13
0.0
 23
0.0
 33
0.0
 16
1.0
 26
0.0
 36
0.0
 17
0.0
 27
1.0
 37
0.0
 76
0
330
217
345
0
346
0
  0
ENDSEC
  0
EOF