999
DXF file: _cgs_temp_output.dxf
999
Pro/ENGINEER 2015110 by Parametric Technology Corporation
  0
SECTION
  2
HEADER
  9
$ACADVER
  1
AC1021
  9
$DWGCODEPAGE
  3
ANSI_1252
  9
$EXTMAX
 10
22.0
 20
17.0
 30
0.0
  9
$EXTMIN
 10
0.0
 20
0.0
 30
0.0
  9
$LIMMIN
 10
0.0
 20
0.0
  9
$LIMMAX
 10
22.0
 20
17.0
  9
$VIEWCTR
 10
11.0
 20
8.5
  9
$VIEWSIZE
 40
17.0
  9
$CLAYER
  8
0
  9
$LTSCALE
 40
1.21
  9
$CELTYPE
  6
BYLAYER
  9
$DIMSCALE
 40
1.0
  9
$DIMASZ
 40
0.1875
  9
$DIMEXO
 40
0.0625
  9
$DIMDLI
 40
0.836
  9
$DIMEXE
 40
0.125
  9
$DIMCEN
 40
0.198
  9
$DIMLFAC
 40
1.0
  9
$DIMBLK
  1
_CLOSED
  9
$DIMALT
 70
0
  9
$DIMALTF
 40
25.4
  9
$DIMTXT
 40
0.15625
  9
$DIMTOL
 70
0
  9
$DIMLIM
 70
0
  9
$DIMTFAC
 40
1.0
  9
$DIMGAP
 40
0.09
  9
$DIMDSEP
 70
46
  9
$AUNITS
 70
0
  9
$PDMODE
 70
3
  9
$PDSIZE
 40
0.3125
  9
$HANDSEED
  5
290
  9
$TILEMODE
 70
1
  9
$MEASUREMENT
 70
0
  9
$INSUNITS
 70
1
  0
ENDSEC
  0
SECTION
  2
CLASSES
  0
CLASS
  1
ACDBDICTIONARYWDFLT
  2
AcDbDictionaryWithDefault
  3
AutoCAD 2000
 90
0
 91
1
280
0
281
0
  0
CLASS
  1
ACDBPLACEHOLDER
  2
AcDbPlaceHolder
  3
AutoCAD 2000
 90
0
 91
1
280
0
281
0
  0
CLASS
  1
LAYOUT
  2
AcDbLayout
  3
AutoCAD 2000
 90
0
 91
0
280
0
281
0
  0
ENDSEC
  0
SECTION
  2
TABLES
  0
TABLE
  2
VPORT
  5
8
100
AcDbSymbolTable
 70
2
  0
VPORT
  5
1F4
100
AcDbSymbolTableRecord
100
AcDbViewportTableRecord
  2
*ACTIVE
 70
0
 10
0.0
 20
0.0
 11
1.0
 21
1.0
 12
11.0
 22
8.5
 13
0.0
 23
0.0
 14
1.0
 24
1.0
 15
0.0
 25
0.0
 16
0.0
 26
0.0
 36
1.0
 17
0.0
 27
0.0
 37
0.0
 40
17.0
 41
1.2941176471
 42
50.0
 43
0.0
 44
0.0
 50
0.0
 51
0.0
 71
0
 72
100
 73
1
 74
1
 75
0
 76
0
 77
0
 78
0
  0
ENDTAB
  0
TABLE
  2
LTYPE
  5
5
100
AcDbSymbolTable
 70
6
  0
LTYPE
  5
14
100
AcDbSymbolTableRecord
100
AcDbLinetypeTableRecord
  2
BYBLOCK
 70
0
  3

 72
65
 73
0
 40
0.0
  0
LTYPE
  5
15
100
AcDbSymbolTableRecord
100
AcDbLinetypeTableRecord
  2
BYLAYER
 70
0
  3

 72
65
 73
0
 40
0.0
  0
LTYPE
  5
16
100
AcDbSymbolTableRecord
100
AcDbLinetypeTableRecord
  2
CONTINUOUS
 70
64
  3
Solid line
 72
65
 73
0
 40
0.0
  0
LTYPE
  5
1F5
100
AcDbSymbolTableRecord
100
AcDbLinetypeTableRecord
  2
CENTER
 70
64
  3
____ _ ____ _ ____ _ ____ _ ____ _ ____ _ ____
 72
65
 73
4
 40
0.6
 49
0.375
 74
0
 49
-0.075
 74
0
 49
0.075
 74
0
 49
-0.075
 74
0
  0
LTYPE
  5
1F6
100
AcDbSymbolTableRecord
100
AcDbLinetypeTableRecord
  2
HIDDEN
 70
64
  3
- - - - - - - - - - - - - - - - - - - -
 72
65
 73
2
 40
0.2
 49
0.1
 74
0
 49
-0.1
 74
0
  0
LTYPE
  5
1F7
100
AcDbSymbolTableRecord
100
AcDbLinetypeTableRecord
  2
PHANTOM
 70
64
  3
_____ _ _ _____ _ _ _____ _ _ _____
 72
65
 73
6
 40
0.8
 49
0.45
 74
0
 49
-0.05
 74
0
 49
0.1
 74
0
 49
-0.05
 74
0
 49
0.1
 74
0
 49
-0.05
 74
0
  0
LTYPE
  5
1F8
100
AcDbSymbolTableRecord
100
AcDbLinetypeTableRecord
  2
DOT
 70
64
  3
. . . . . . . . . . . . . . . . . . . .
 72
65
 73
2
 40
0.2
 49
0.1
 74
0
 49
-0.1
 74
0
  0
LTYPE
  5
1F9
100
AcDbSymbolTableRecord
100
AcDbLinetypeTableRecord
  2
DASHED
 70
64
  3
- - - - - - - - - - - - - - - - - - - -
 72
65
 73
2
 40
0.2
 49
0.1
 74
0
 49
-0.1
 74
0
  0
ENDTAB
  0
TABLE
  2
LAYER
  5
2
100
AcDbSymbolTable
 70
36
  0
LAYER
  5
10
100
AcDbSymbolTableRecord
100
AcDbLayerTableRecord
  2
0
 70
0
 62
7
  6
CONTINUOUS
370
-3
390
F
  0
LAYER
  5
1FA
100
AcDbSymbolTableRecord
100
AcDbLayerTableRecord
  2
DEFAULT_1
 70
0
 62
7
  6
CENTER
370
-3
390
F
  0
LAYER
  5
1FB
100
AcDbSymbolTableRecord
100
AcDbLayerTableRecord
  2
DEFAULT_2
 70
0
 62
8
  6
HIDDEN
370
-3
390
F
  0
LAYER
  5
1FC
100
AcDbSymbolTableRecord
100
AcDbLayerTableRecord
  2
DEFAULT_3
 70
0
 62
7
  6
PHANTOM
370
-3
390
F
  0
LAYER
  5
1FD
100
AcDbSymbolTableRecord
100
AcDbLayerTableRecord
  2
01_ALL_DTM_PLN
 70
0
 62
7
  6
CONTINUOUS
370
-3
390
F
  0
LAYER
  5
1FE
100
AcDbSymbolTableRecord
100
AcDbLayerTableRecord
  2
01__ASM_ALL_DTM_PLN
 70
0
 62
7
  6
CONTINUOUS
370
-3
390
F
  0
LAYER
  5
1FF
100
AcDbSymbolTableRecord
100
AcDbLayerTableRecord
  2
01__ASM_DEF_DTM_PLN
 70
0
 62
7
  6
CONTINUOUS
370
-3
390
F
  0
LAYER
  5
200
100
AcDbSymbolTableRecord
100
AcDbLayerTableRecord
  2
01___PRT_ALL_DTM_PLN
 70
0
 62
7
  6
CONTINUOUS
370
-3
390
F
  0
LAYER
  5
201
100
AcDbSymbolTableRecord
100
AcDbLayerTableRecord
  2
01___PRT_DEF_DTM_PLN
 70
0
 62
7
  6
CONTINUOUS
370
-3
390
F
  0
LAYER
  5
202
100
AcDbSymbolTableRecord
100
AcDbLayerTableRecord
  2
02_ALL_AXES
 70
0
 62
7
  6
CONTINUOUS
370
-3
390
F
  0
LAYER
  5
203
100
AcDbSymbolTableRecord
100
AcDbLayerTableRecord
  2
02__ASM_ALL_AXES
 70
0
 62
7
  6
CONTINUOUS
370
-3
390
F
  0
LAYER
  5
204
100
AcDbSymbolTableRecord
100
AcDbLayerTableRecord
  2
02___PRT_ALL_AXES
 70
0
 62
7
  6
CONTINUOUS
370
-3
390
F
  0
LAYER
  5
205
100
AcDbSymbolTableRecord
100
AcDbLayerTableRecord
  2
03_ALL_CURVES
 70
0
 62
7
  6
CONTINUOUS
370
-3
390
F
  0
LAYER
  5
206
100
AcDbSymbolTableRecord
100
AcDbLayerTableRecord
  2
03__ASM_ALL_CURVES
 70
0
 62
7
  6
CONTINUOUS
370
-3
390
F
  0
LAYER
  5
207
100
AcDbSymbolTableRecord
100
AcDbLayerTableRecord
  2
03___PRT_ALL_CURVES
 70
0
 62
7
  6
CONTINUOUS
370
-3
390
F
  0
LAYER
  5
208
100
AcDbSymbolTableRecord
100
AcDbLayerTableRecord
  2
04_ALL_DTM_PNT
 70
0
 62
7
  6
CONTINUOUS
370
-3
390
F
  0
LAYER
  5
209
100
AcDbSymbolTableRecord
100
AcDbLayerTableRecord
  2
04__ASM_ALL_DTM_PNT
 70
0
 62
7
  6
CONTINUOUS
370
-3
390
F
  0
LAYER
  5
20A
100
AcDbSymbolTableRecord
100
AcDbLayerTableRecord
  2
04___PRT_ALL_DTM_PNT
 70
0
 62
7
  6
CONTINUOUS
370
-3
390
F
  0
LAYER
  5
20B
100
AcDbSymbolTableRecord
100
AcDbLayerTableRecord
  2
05_ALL_DTM_CSYS
 70
0
 62
7
  6
CONTINUOUS
370
-3
390
F
  0
LAYER
  5
20C
100
AcDbSymbolTableRecord
100
AcDbLayerTableRecord
  2
05__ASM_ALL_DTM_CSYS
 70
0
 62
7
  6
CONTINUOUS
370
-3
390
F
  0
LAYER
  5
20D
100
AcDbSymbolTableRecord
100
AcDbLayerTableRecord
  2
05__ASM_DEF_DTM_CSYS
 70
0
 62
7
  6
CONTINUOUS
370
-3
390
F
  0
LAYER
  5
20E
100
AcDbSymbolTableRecord
100
AcDbLayerTableRecord
  2
05___PRT_ALL_DTM_CSYS
 70
0
 62
7
  6
CONTINUOUS
370
-3
390
F
  0
LAYER
  5
20F
100
AcDbSymbolTableRecord
100
AcDbLayerTableRecord
  2
05___PRT_DEF_DTM_CSYS
 70
0
 62
7
  6
CONTINUOUS
370
-3
390
F
  0
LAYER
  5
210
100
AcDbSymbolTableRecord
100
AcDbLayerTableRecord
  2
06_ALL_SURFS
 70
0
 62
7
  6
CONTINUOUS
370
-3
390
F
  0
LAYER
  5
211
100
AcDbSymbolTableRecord
100
AcDbLayerTableRecord
  2
06__ASM_ALL_SURFS
 70
0
 62
7
  6
CONTINUOUS
370
-3
390
F
  0
LAYER
  5
212
100
AcDbSymbolTableRecord
100
AcDbLayerTableRecord
  2
06___PRT_ALL_SURFS
 70
0
 62
7
  6
CONTINUOUS
370
-3
390
F
  0
LAYER
  5
213
100
AcDbSymbolTableRecord
100
AcDbLayerTableRecord
  2
07__ASM_ALL_SKELETONS
 70
0
 62
7
  6
CONTINUOUS
370
-3
390
F
  0
ENDTAB
  0
TABLE
  2
STYLE
  5
3
100
AcDbSymbolTable
 70
1
  0
STYLE
  5
11
100
AcDbSymbolTableRecord
100
AcDbTextStyleTableRecord
  2
STANDARD
 70
0
 40
0.0
 41
0.8
 50
0.0
 71
0
 42
0.2
  3
txt
  4

  0
STYLE
  5
214
100
AcDbSymbolTableRecord
100
AcDbTextStyleTableRecord
  2
TEXTSTYLE_1
 70
0
 40
0.0
 41
0.8
 50
0.0
 71
0
 42
0.2
  3
gdt
  4

  0
ENDTAB
  0
TABLE
  2
VIEW
  5
6
100
AcDbSymbolTable
 70
0
  0
ENDTAB
  0
TABLE
  2
UCS
  5
7
100
AcDbSymbolTable
 70
0
  0
ENDTAB
  0
TABLE
  2
APPID
  5
9
100
AcDbSymbolTable
 70
1
  0
APPID
  5
215
100
AcDbSymbolTableRecord
100
AcDbRegAppTableRecord
  2
ACAD
 70
0
  0
ENDTAB
  0
TABLE
  2
BLOCK_RECORD
  5
1
100
AcDbSymbolTable
 70
0
  0
BLOCK_RECORD
  5
216
100
AcDbSymbolTableRecord
100
AcDbBlockTableRecord
  2
*Model_Space
  0
BLOCK_RECORD
  5
217
100
AcDbSymbolTableRecord
100
AcDbBlockTableRecord
  2
*Paper_Space
  0
ENDTAB
  0
TABLE
  2
DIMSTYLE
  5
A
100
AcDbSymbolTable
 70
1
100
AcDbDimStyleTable
 71
0
  0
DIMSTYLE
105
218
100
AcDbSymbolTableRecord
100
AcDbDimStyleTableRecord
  2
STANDARD
 70
0
  3

  4

 40
1.0
 41
0.1875
 42
0.0625
 43
0.38
 44
0.125
 45
0.0
 46
0.0
 47
0.0001
 48
0.0001
140
0.15625
141
0.09
142
0.0
143
25.4
144
1.0
145
0.0
146
1.0
147
0.09
 71
0.0
 72
0.0
 73
1
 74
1
 75
0
 76
0
 77
0
 78
4
170
0
171
2
172
0
173
0
174
0
175
0
176
0
177
0
178
0
270
2
271
4
272
4
273
2
274
2
275
0
280
0
281
0
282
0
283
1
284
4
285
0
286
0
287
3
288
0
340
11
278
46
  0
ENDTAB
  0
ENDSEC
  0
SECTION
  2
BLOCKS
  0
BLOCK
  5
20
100
AcDbEntity
  8
0
100
AcDbBlockBegin
  2
*Model_Space
 70
0
 10
0.0
 20
0.0
 30
0.0
  3
*Model_Space
  1

  0
ENDBLK
  5
21
100
AcDbEntity
  8
0
100
AcDbBlockEnd
  0
BLOCK
  5
1C
100
AcDbEntity
  8
0
100
AcDbBlockBegin
  2
*Paper_Space
 70
0
 10
0.0
 20
0.0
 30
0.0
  3
*Paper_Space
  1

  0
ENDBLK
  5
1D
100
AcDbEntity
  8
0
100
AcDbBlockEnd
  0
ENDSEC
  0
SECTION
  2
ENTITIES
  0
MTEXT
  5
219
100
AcDbEntity
  8
0
100
AcDbMText
 62
7
  6
CONTINUOUS
  7
STANDARD
 71
1
 72
1
 10
15.9560215477
 20
0.9479130325
 30
0.0
 11
1.0
 21
0.0
 31
0.0
 44
0.9
  1
SCALE: 1:3.000
 40
0.3
 41
3.36
  0
LINE
  5
21A
100
AcDbEntity
  8
0
100
AcDbLine
 62
7
  6
CONTINUOUS
 10
0.0
 20
0.0
 11
0.0
 21
17.0
  0
LINE
  5
21B
100
AcDbEntity
  8
0
100
AcDbLine
 62
7
  6
CONTINUOUS
 10
0.0
 20
0.0
 11
22.0
 21
0.0
  0
LINE
  5
21C
100
AcDbEntity
  8
0
100
AcDbLine
 62
7
  6
CONTINUOUS
 10
0.0
 20
17.0
 11
22.0
 21
17.0
  0
LINE
  5
21D
100
AcDbEntity
  8
0
100
AcDbLine
 62
7
  6
CONTINUOUS
 10
22.0
 20
0.0
 11
22.0
 21
17.0
  0
LINE
  5
21E
100
AcDbEntity
  8
0
100
AcDbLine
 62
7
  6
CONTINUOUS
 10
4.3587137329
 20
5.7451198968
 11
4.3587137329
 21
5.5407891881
  0
LINE
  5
21F
100
AcDbEntity
  8
0
100
AcDbLine
 62
7
  6
CONTINUOUS
 10
4.4694420793
 20
5.4915765897
 11
4.4694420793
 21
5.4796671408
  0
LINE
  5
220
100
AcDbEntity
  8
0
100
AcDbLine
 62
7
  6
CONTINUOUS
 10
4.8385365675
 20
5.4796671408
 11
4.8385365675
 21
5.4915765897
  0
LINE
  5
221
100
AcDbEntity
  8
0
100
AcDbLine
 62
7
  6
CONTINUOUS
 10
5.0599932604
 20
5.4915765897
 11
5.0599932604
 21
5.4796671408
  0
LINE
  5
222
100
AcDbEntity
  8
0
100
AcDbLine
 62
7
  6
CONTINUOUS
 10
5.4290877486
 20
5.4796671408
 11
5.4290877486
 21
5.4915765897
  0
LINE
  5
223
100
AcDbEntity
  8
0
100
AcDbLine
 62
7
  6
CONTINUOUS
 10
5.6505444415
 20
5.4915765897
 11
5.6505444415
 21
5.4796671408
  0
LINE
  5
224
100
AcDbEntity
  8
0
100
AcDbLine
 62
7
  6
CONTINUOUS
 10
6.0196389297
 20
5.4796671408
 11
6.0196389297
 21
5.4915765897
  0
LINE
  5
225
100
AcDbEntity
  8
0
100
AcDbLine
 62
7
  6
CONTINUOUS
 10
6.2410956226
 20
5.4915765897
 11
6.2410956226
 21
5.4796671408
  0
LINE
  5
226
100
AcDbEntity
  8
0
100
AcDbLine
 62
7
  6
CONTINUOUS
 10
4.3587137329
 20
5.5407891881
 11
4.4202294809
 21
5.5407891881
  0
LINE
  5
227
100
AcDbEntity
  8
0
100
AcDbLine
 62
7
  6
CONTINUOUS
 10
4.8877491659
 20
5.5407891881
 11
5.010780662
 21
5.5407891881
  0
LINE
  5
228
100
AcDbEntity
  8
0
100
AcDbLine
 62
7
  6
CONTINUOUS
 10
5.478300347
 20
5.5407891881
 11
5.6013318431
 21
5.5407891881
  0
LINE
  5
229
100
AcDbEntity
  8
0
100
AcDbLine
 62
7
  6
CONTINUOUS
 10
6.0688515281
 20
5.5407891881
 11
6.1918830242
 21
5.5407891881
  0
LINE
  5
22A
100
AcDbEntity
  8
0
100
AcDbLine
 62
7
  6
CONTINUOUS
 10
6.6594027092
 20
5.5407891881
 11
6.7824342053
 21
5.5407891881
  0
LINE
  5
22B
100
AcDbEntity
  8
0
100
AcDbLine
 62
7
  6
CONTINUOUS
 10
7.2499538903
 20
5.5407891881
 11
7.3729853864
 21
5.5407891881
  0
LINE
  5
22C
100
AcDbEntity
  8
0
100
AcDbLine
 62
7
  6
CONTINUOUS
 10
7.8405050714
 20
5.5407891881
 11
7.9020208195
 21
5.5407891881
  0
LINE
  5
22D
100
AcDbEntity
  8
0
100
AcDbLine
 62
7
  6
CONTINUOUS
 10
7.9020208195
 20
5.7451198968
 11
4.3587137329
 21
5.7451198968
  0
LINE
  5
22E
100
AcDbEntity
  8
0
100
AcDbLine
 62
7
  6
CONTINUOUS
 10
6.6101901108
 20
5.4796671408
 11
6.6101901108
 21
5.4915765897
  0
LINE
  5
22F
100
AcDbEntity
  8
0
100
AcDbLine
 62
7
  6
CONTINUOUS
 10
6.8316468037
 20
5.4915765897
 11
6.8316468037
 21
5.4796671408
  0
LINE
  5
230
100
AcDbEntity
  8
0
100
AcDbLine
 62
7
  6
CONTINUOUS
 10
7.2007412919
 20
5.4796671408
 11
7.2007412919
 21
5.4915765897
  0
LINE
  5
231
100
AcDbEntity
  8
0
100
AcDbLine
 62
7
  6
CONTINUOUS
 10
7.4221979848
 20
5.4915765897
 11
7.4221979848
 21
5.4796671408
  0
LINE
  5
232
100
AcDbEntity
  8
0
100
AcDbLine
 62
7
  6
CONTINUOUS
 10
7.791292473
 20
5.4796671408
 11
7.791292473
 21
5.4915765897
  0
LINE
  5
233
100
AcDbEntity
  8
0
100
AcDbLine
 62
7
  6
CONTINUOUS
 10
7.9020208195
 20
5.5407891881
 11
7.9020208195
 21
5.7451198968
  0
LINE
  5
234
100
AcDbEntity
  8
0
100
AcDbLine
 62
7
  6
CONTINUOUS
 10
4.2992185406
 20
13.1315438444
 11
4.2992185406
 21
12.0685517184
  0
LINE
  5
235
100
AcDbEntity
  8
0
100
AcDbLine
 62
7
  6
CONTINUOUS
 10
7.8425256272
 20
12.0685517184
 11
4.2992185406
 21
12.0685517184
  0
LINE
  5
236
100
AcDbEntity
  8
0
100
AcDbLine
 62
7
  6
CONTINUOUS
 10
4.2992185406
 20
13.1315438444
 11
7.8425256272
 21
13.1315438444
  0
LINE
  5
237
100
AcDbEntity
  8
0
100
AcDbLine
 62
7
  6
CONTINUOUS
 10
7.8425256272
 20
13.1315438444
 11
7.8425256272
 21
12.0685517184
  0
LINE
  5
238
100
AcDbEntity
  8
0
100
AcDbLine
 62
7
  6
CONTINUOUS
 10
15.0288591939
 20
5.2356247044
 11
15.0288591939
 21
5.6856247044
  0
LINE
  5
239
100
AcDbEntity
  8
0
100
AcDbLine
 62
7
  6
CONTINUOUS
 10
16.0918513199
 20
5.2356247044
 11
15.0288591939
 21
5.2356247044
  0
LINE
  5
23A
100
AcDbEntity
  8
0
100
AcDbLine
 62
7
  6
CONTINUOUS
 10
16.0918513199
 20
5.4812939958
 11
15.0288591939
 21
5.4812939958
  0
LINE
  5
23B
100
AcDbEntity
  8
0
100
AcDbLine
 62
7
  6
CONTINUOUS
 10
16.0918513199
 20
5.6856247044
 11
15.0288591939
 21
5.6856247044
  0
LINE
  5
23C
100
AcDbEntity
  8
0
100
AcDbLine
 62
7
  6
CONTINUOUS
 10
16.0918513199
 20
5.2356247044
 11
16.0918513199
 21
5.6856247044
  0
LINE
  5
23D
100
AcDbEntity
  8
0
100
AcDbLine
 62
7
  6
CONTINUOUS
 10
13.9368040823
 20
13.0670024043
 11
13.6794894866
 21
12.2343320673
  0
LINE
  5
23E
100
AcDbEntity
  8
0
100
AcDbLine
 62
7
  6
CONTINUOUS
 10
13.6794894866
 20
12.2343320673
 11
13.7418189074
 21
12.1073180619
  0
LINE
  5
23F
100
AcDbEntity
  8
0
100
AcDbLine
 62
7
  6
CONTINUOUS
 10
13.8588183711
 20
12.0767270202
 11
13.8624512516
 21
12.0693239881
  0
LINE
  5
240
100
AcDbEntity
  8
0
100
AcDbLine
 62
7
  6
CONTINUOUS
 10
14.2024097878
 20
12.0693239881
 11
14.1987769073
 21
12.0767270202
  0
LINE
  5
241
100
AcDbEntity
  8
0
100
AcDbLine
 62
7
  6
CONTINUOUS
 10
14.402752029
 20
12.0767270202
 11
14.4063849095
 21
12.0693239881
  0
LINE
  5
242
100
AcDbEntity
  8
0
100
AcDbLine
 62
7
  6
CONTINUOUS
 10
14.2373296442
 20
12.1073180619
 11
14.2087508034
 21
12.0148368994
  0
LINE
  5
243
100
AcDbEntity
  8
0
100
AcDbLine
 62
7
  6
CONTINUOUS
 10
14.7463434456
 20
12.0693239881
 11
14.7427105651
 21
12.0767270202
  0
LINE
  5
244
100
AcDbEntity
  8
0
100
AcDbLine
 62
7
  6
CONTINUOUS
 10
14.9466856869
 20
12.0767270202
 11
14.9503185674
 21
12.0693239881
  0
LINE
  5
245
100
AcDbEntity
  8
0
100
AcDbLine
 62
7
  6
CONTINUOUS
 10
14.7812633021
 20
12.1073180619
 11
14.7526844613
 21
12.0148368994
  0
LINE
  5
246
100
AcDbEntity
  8
0
100
AcDbLine
 62
7
  6
CONTINUOUS
 10
13.7418189074
 20
12.1073180619
 11
13.7984786634
 21
12.1073180619
  0
LINE
  5
247
100
AcDbEntity
  8
0
100
AcDbLine
 62
7
  6
CONTINUOUS
 10
14.2290928092
 20
12.1073180619
 11
14.3424123213
 21
12.1073180619
  0
LINE
  5
248
100
AcDbEntity
  8
0
100
AcDbLine
 62
7
  6
CONTINUOUS
 10
14.7730264671
 20
12.1073180619
 11
14.8863459791
 21
12.1073180619
  0
LINE
  5
249
100
AcDbEntity
  8
0
100
AcDbLine
 62
7
  6
CONTINUOUS
 10
15.316960125
 20
12.1073180619
 11
15.430279637
 21
12.1073180619
  0
LINE
  5
24A
100
AcDbEntity
  8
0
100
AcDbLine
 62
7
  6
CONTINUOUS
 10
15.8608937828
 20
12.1073180619
 11
15.9742132949
 21
12.1073180619
  0
LINE
  5
24B
100
AcDbEntity
  8
0
100
AcDbLine
 62
7
  6
CONTINUOUS
 10
16.4048274407
 20
12.1073180619
 11
16.5181469528
 21
12.1073180619
  0
LINE
  5
24C
100
AcDbEntity
  8
0
100
AcDbLine
 62
7
  6
CONTINUOUS
 10
16.9487610986
 20
12.1073180619
 11
17.0054208546
 21
12.1073180619
  0
LINE
  5
24D
100
AcDbEntity
  8
0
100
AcDbLine
 62
7
  6
CONTINUOUS
 10
16.9430914338
 20
12.2343320673
 11
13.6794894866
 21
12.2343320673
  0
LINE
  5
24E
100
AcDbEntity
  8
0
100
AcDbLine
 62
7
  6
CONTINUOUS
 10
15.2902771035
 20
12.0693239881
 11
15.286644223
 21
12.0767270202
  0
LINE
  5
24F
100
AcDbEntity
  8
0
100
AcDbLine
 62
7
  6
CONTINUOUS
 10
15.4906193447
 20
12.0767270202
 11
15.4942522252
 21
12.0693239881
  0
LINE
  5
250
100
AcDbEntity
  8
0
100
AcDbLine
 62
7
  6
CONTINUOUS
 10
15.32519696
 20
12.1073180619
 11
15.2966181192
 21
12.0148368994
  0
LINE
  5
251
100
AcDbEntity
  8
0
100
AcDbLine
 62
7
  6
CONTINUOUS
 10
15.8342107614
 20
12.0693239881
 11
15.8305778809
 21
12.0767270202
  0
LINE
  5
252
100
AcDbEntity
  8
0
100
AcDbLine
 62
7
  6
CONTINUOUS
 10
16.0345530026
 20
12.0767270202
 11
16.0381858831
 21
12.0693239881
  0
LINE
  5
253
100
AcDbEntity
  8
0
100
AcDbLine
 62
7
  6
CONTINUOUS
 10
15.8691306178
 20
12.1073180619
 11
15.8405517771
 21
12.0148368994
  0
LINE
  5
254
100
AcDbEntity
  8
0
100
AcDbLine
 62
7
  6
CONTINUOUS
 10
13.9368040823
 20
13.0670024043
 11
17.2004060296
 21
13.0670024043
  0
LINE
  5
255
100
AcDbEntity
  8
0
100
AcDbLine
 62
7
  6
CONTINUOUS
 10
16.3781444193
 20
12.0693239881
 11
16.3745115388
 21
12.0767270202
  0
LINE
  5
256
100
AcDbEntity
  8
0
100
AcDbLine
 62
7
  6
CONTINUOUS
 10
16.5784866605
 20
12.0767270202
 11
16.582119541
 21
12.0693239881
  0
LINE
  5
257
100
AcDbEntity
  8
0
100
AcDbLine
 62
7
  6
CONTINUOUS
 10
16.4130642757
 20
12.1073180619
 11
16.3844854349
 21
12.0148368994
  0
LINE
  5
258
100
AcDbEntity
  8
0
100
AcDbLine
 62
7
  6
CONTINUOUS
 10
16.9220780772
 20
12.0693239881
 11
16.9184451967
 21
12.0767270202
  0
LINE
  5
259
100
AcDbEntity
  8
0
100
AcDbLine
 62
7
  6
CONTINUOUS
 10
17.0054208546
 20
12.1073180619
 11
16.9430914338
 21
12.2343320673
  0
LINE
  5
25A
100
AcDbEntity
  8
0
100
AcDbLine
 62
7
  6
CONTINUOUS
 10
17.2004060296
 20
13.0670024043
 11
16.9430914338
 21
12.2343320673
  0
LINE
  5
25B
100
AcDbEntity
  8
0
100
AcDbLine
 62
7
  6
CONTINUOUS
 10
16.9569979336
 20
12.1073180619
 11
16.9284190928
 21
12.0148368994
  0
LINE
  5
25C
100
AcDbEntity
  8
0
100
AcDbLine
 62
7
  6
CONTINUOUS
 10
17.2627354504
 20
12.9399883989
 11
17.0054208546
 21
12.1073180619
  0
LINE
  5
25D
100
AcDbEntity
  8
0
100
AcDbLine
 62
7
  6
CONTINUOUS
 10
17.2627354504
 20
12.9399883989
 11
17.2004060296
 21
13.0670024043
  0
ARC
  5
25E
100
AcDbEntity
  8
0
100
AcDbCircle
 62
7
  6
CONTINUOUS
 10
4.6539893234
 20
5.4796671408
 40
0.1845472441
100
AcDbArc
 50
180.0
 51
360.0
  0
ARC
  5
25F
100
AcDbEntity
  8
0
100
AcDbCircle
 62
7
  6
CONTINUOUS
 10
5.2445405045
 20
5.4796671408
 40
0.1845472441
100
AcDbArc
 50
180.0
 51
360.0
  0
ARC
  5
260
100
AcDbEntity
  8
0
100
AcDbCircle
 62
7
  6
CONTINUOUS
 10
7.6067452289
 20
5.4796671408
 40
0.1845472441
100
AcDbArc
 50
180.0
 51
360.0
  0
ARC
  5
261
100
AcDbEntity
  8
0
100
AcDbCircle
 62
7
  6
CONTINUOUS
 10
7.0161940478
 20
5.4796671408
 40
0.1845472441
100
AcDbArc
 50
180.0
 51
360.0
  0
ARC
  5
262
100
AcDbEntity
  8
0
100
AcDbCircle
 62
7
  6
CONTINUOUS
 10
6.4256428667
 20
5.4796671408
 40
0.1845472441
100
AcDbArc
 50
180.0
 51
360.0
  0
ARC
  5
263
100
AcDbEntity
  8
0
100
AcDbCircle
 62
7
  6
CONTINUOUS
 10
5.8350916856
 20
5.4796671408
 40
0.1845472441
100
AcDbArc
 50
180.0
 51
360.0
  0
ARC
  5
264
100
AcDbEntity
  8
0
100
AcDbCircle
 62
7
  6
CONTINUOUS
 10
4.4202294809
 20
5.4915765897
 40
0.0492125984
100
AcDbArc
 50
0.0
 51
90.0
  0
ARC
  5
265
100
AcDbEntity
  8
0
100
AcDbCircle
 62
7
  6
CONTINUOUS
 10
4.8877491659
 20
5.4915765897
 40
0.0492125984
100
AcDbArc
 50
90.0
 51
180.0
  0
ARC
  5
266
100
AcDbEntity
  8
0
100
AcDbCircle
 62
7
  6
CONTINUOUS
 10
5.010780662
 20
5.4915765897
 40
0.0492125984
100
AcDbArc
 50
0.0
 51
90.0
  0
ARC
  5
267
100
AcDbEntity
  8
0
100
AcDbCircle
 62
7
  6
CONTINUOUS
 10
5.478300347
 20
5.4915765897
 40
0.0492125984
100
AcDbArc
 50
90.0
 51
180.0
  0
ARC
  5
268
100
AcDbEntity
  8
0
100
AcDbCircle
 62
7
  6
CONTINUOUS
 10
5.6013318431
 20
5.4915765897
 40
0.0492125984
100
AcDbArc
 50
0.0
 51
90.0
  0
ARC
  5
269
100
AcDbEntity
  8
0
100
AcDbCircle
 62
7
  6
CONTINUOUS
 10
6.0688515281
 20
5.4915765897
 40
0.0492125984
100
AcDbArc
 50
90.0
 51
180.0
  0
ARC
  5
26A
100
AcDbEntity
  8
0
100
AcDbCircle
 62
7
  6
CONTINUOUS
 10
6.1918830242
 20
5.4915765897
 40
0.0492125984
100
AcDbArc
 50
0.0
 51
90.0
  0
ARC
  5
26B
100
AcDbEntity
  8
0
100
AcDbCircle
 62
7
  6
CONTINUOUS
 10
6.6594027092
 20
5.4915765897
 40
0.0492125984
100
AcDbArc
 50
90.0
 51
180.0
  0
ARC
  5
26C
100
AcDbEntity
  8
0
100
AcDbCircle
 62
7
  6
CONTINUOUS
 10
6.7824342053
 20
5.4915765897
 40
0.0492125984
100
AcDbArc
 50
0.0
 51
90.0
  0
ARC
  5
26D
100
AcDbEntity
  8
0
100
AcDbCircle
 62
7
  6
CONTINUOUS
 10
7.2499538903
 20
5.4915765897
 40
0.0492125984
100
AcDbArc
 50
90.0
 51
180.0
  0
ARC
  5
26E
100
AcDbEntity
  8
0
100
AcDbCircle
 62
7
  6
CONTINUOUS
 10
7.3729853864
 20
5.4915765897
 40
0.0492125984
100
AcDbArc
 50
0.0
 51
90.0
  0
ARC
  5
26F
100
AcDbEntity
  8
0
100
AcDbCircle
 62
7
  6
CONTINUOUS
 10
7.8405050714
 20
5.4915765897
 40
0.0492125984
100
AcDbArc
 50
90.0
 51
180.0
  0
SPLINE
  5
270
100
AcDbEntity
  8
0
100
AcDbSpline
 62
7
  6
CONTINUOUS
 70
0
 71
3
 72
12
 73
8
 74
0
 42
0.0000001
 43
0.0000001
 44
0.0000000001
 40
0.0
 40
0.0
 40
0.0
 40
0.0
 40
0.0998504657
 40
0.2032584113
 40
0.4308023804
 40
0.6965969252
 40
1.0
 40
1.0
 40
1.0
 40
1.0
 10
14.1970859591
 20
12.0912569229
 30
0.0
 10
14.197460222
 20
12.0924682914
 30
0.0
 10
14.1985226194
 20
12.0948510626
 30
0.0
 10
14.2018492125
 20
12.0992449121
 30
0.0
 10
14.2082381989
 20
12.1036540418
 30
0.0
 10
14.2179834565
 20
12.1067031484
 30
0.0
 10
14.2252403013
 20
12.1073180619
 30
0.0
 10
14.2290928092
 20
12.1073180619
 30
0.0
  0
SPLINE
  5
271
100
AcDbEntity
  8
0
100
AcDbSpline
 62
7
  6
CONTINUOUS
 70
0
 71
3
 72
12
 73
8
 74
0
 42
0.0000001
 43
0.0000001
 44
0.0000000001
 40
0.0
 40
0.0
 40
0.0
 40
0.0
 40
0.0998504657
 40
0.2032584113
 40
0.4308023804
 40
0.6965969252
 40
1.0
 40
1.0
 40
1.0
 40
1.0
 10
14.741019617
 20
12.0912569229
 30
0.0
 10
14.7413938799
 20
12.0924682914
 30
0.0
 10
14.7424562773
 20
12.0948510626
 30
0.0
 10
14.7457828703
 20
12.0992449121
 30
0.0
 10
14.7521718568
 20
12.1036540418
 30
0.0
 10
14.7619171144
 20
12.1067031484
 30
0.0
 10
14.7691739592
 20
12.1073180619
 30
0.0
 10
14.7730264671
 20
12.1073180619
 30
0.0
  0
SPLINE
  5
272
100
AcDbEntity
  8
0
100
AcDbSpline
 62
7
  6
CONTINUOUS
 70
0
 71
3
 72
12
 73
8
 74
0
 42
0.0000001
 43
0.0000001
 44
0.0000000001
 40
0.0
 40
0.0
 40
0.0
 40
0.0
 40
0.0998504657
 40
0.2032584113
 40
0.4308023804
 40
0.6965969252
 40
1.0
 40
1.0
 40
1.0
 40
1.0
 10
15.2849532749
 20
12.0912569229
 30
0.0
 10
15.2853275378
 20
12.0924682914
 30
0.0
 10
15.2863899352
 20
12.0948510626
 30
0.0
 10
15.2897165282
 20
12.0992449121
 30
0.0
 10
15.2961055146
 20
12.1036540418
 30
0.0
 10
15.3058507722
 20
12.1067031484
 30
0.0
 10
15.3131076171
 20
12.1073180619
 30
0.0
 10
15.316960125
 20
12.1073180619
 30
0.0
  0
SPLINE
  5
273
100
AcDbEntity
  8
0
100
AcDbSpline
 62
7
  6
CONTINUOUS
 70
0
 71
3
 72
12
 73
8
 74
0
 42
0.0000001
 43
0.0000001
 44
0.0000000001
 40
0.0
 40
0.0
 40
0.0
 40
0.0
 40
0.0998504657
 40
0.2032584113
 40
0.4308023804
 40
0.6965969252
 40
1.0
 40
1.0
 40
1.0
 40
1.0
 10
15.8288869328
 20
12.0912569229
 30
0.0
 10
15.8292611957
 20
12.0924682914
 30
0.0
 10
15.8303235931
 20
12.0948510626
 30
0.0
 10
15.8336501861
 20
12.0992449121
 30
0.0
 10
15.8400391725
 20
12.1036540418
 30
0.0
 10
15.8497844301
 20
12.1067031484
 30
0.0
 10
15.857041275
 20
12.1073180619
 30
0.0
 10
15.8608937828
 20
12.1073180619
 30
0.0
  0
SPLINE
  5
274
100
AcDbEntity
  8
0
100
AcDbSpline
 62
7
  6
CONTINUOUS
 70
0
 71
3
 72
12
 73
8
 74
0
 42
0.0000001
 43
0.0000001
 44
0.0000000001
 40
0.0
 40
0.0
 40
0.0
 40
0.0
 40
0.0998504657
 40
0.2032584113
 40
0.4308023804
 40
0.6965969252
 40
1.0
 40
1.0
 40
1.0
 40
1.0
 10
16.3728205906
 20
12.0912569229
 30
0.0
 10
16.3731948535
 20
12.0924682914
 30
0.0
 10
16.3742572509
 20
12.0948510626
 30
0.0
 10
16.377583844
 20
12.0992449121
 30
0.0
 10
16.3839728304
 20
12.1036540418
 30
0.0
 10
16.393718088
 20
12.1067031484
 30
0.0
 10
16.4009749328
 20
12.1073180619
 30
0.0
 10
16.4048274407
 20
12.1073180619
 30
0.0
  0
SPLINE
  5
275
100
AcDbEntity
  8
0
100
AcDbSpline
 62
7
  6
CONTINUOUS
 70
0
 71
3
 72
12
 73
8
 74
0
 42
0.0000001
 43
0.0000001
 44
0.0000000001
 40
0.0
 40
0.0
 40
0.0
 40
0.0
 40
0.0998504657
 40
0.2032584113
 40
0.4308023804
 40
0.6965969252
 40
1.0
 40
1.0
 40
1.0
 40
1.0
 10
16.9167542485
 20
12.0912569229
 30
0.0
 10
16.9171285114
 20
12.0924682914
 30
0.0
 10
16.9181909088
 20
12.0948510626
 30
0.0
 10
16.9215175018
 20
12.0992449121
 30
0.0
 10
16.9279064883
 20
12.1036540418
 30
0.0
 10
16.9376517459
 20
12.1067031484
 30
0.0
 10
16.9449085907
 20
12.1073180619
 30
0.0
 10
16.9487610986
 20
12.1073180619
 30
0.0
  0
SPLINE
  5
276
100
AcDbEntity
  8
0
100
AcDbSpline
 62
7
  6
CONTINUOUS
 70
0
 71
3
 72
23
 73
19
 74
0
 42
0.0000001
 43
0.0000001
 44
0.0000000001
 40
0.0
 40
0.0
 40
0.0
 40
0.0
 40
0.0543546809
 40
0.1139705252
 40
0.1785557718
 40
0.2473928736
 40
0.3194672747
 40
0.3935630013
 40
0.4683487931
 40
0.5424553372
 40
0.6145507202
 40
0.68341796
 40
0.748039856
 40
0.8076979187
 40
0.8620935782
 40
0.9114949311
 40
0.9568835535
 40
1.0
 40
1.0
 40
1.0
 40
1.0
 10
16.582119541
 20
12.0693239881
 30
0.0
 10
16.5853739687
 20
12.0626921617
 30
0.0
 10
16.5936394168
 20
12.0494740543
 30
0.0
 10
16.6096999204
 20
12.0311760943
 30
0.0
 10
16.6295617026
 20
12.0139262921
 30
0.0
 10
16.6526953261
 20
11.9981779034
 30
0.0
 10
16.6784889989
 20
11.9843393245
 30
0.0
 10
16.7062546941
 20
11.9727796594
 30
0.0
 10
16.7352492403
 20
11.9638078037
 30
0.0
 10
16.7646954456
 20
11.9576643628
 30
0.0
 10
16.7938051459
 20
11.9545138504
 30
0.0
 10
16.8218028376
 20
11.9544412573
 30
0.0
 10
16.8479491432
 20
11.9574522814
 30
0.0
 10
16.8715627255
 20
11.963480734
 30
0.0
 10
16.8920338109
 20
11.9724002975
 30
0.0
 10
16.9088211999
 20
11.9840533994
 30
0.0
 10
16.9214005668
 20
11.9982163185
 30
0.0
 10
16.9266886862
 20
12.0092382833
 30
0.0
 10
16.9284190486
 20
12.0148369131
 30
0.0
  0
SPLINE
  5
277
100
AcDbEntity
  8
0
100
AcDbSpline
 62
7
  6
CONTINUOUS
 70
0
 71
3
 72
23
 73
19
 74
0
 42
0.0000001
 43
0.0000001
 44
0.0000000001
 40
0.0
 40
0.0
 40
0.0
 40
0.0
 40
0.0543530235
 40
0.1139714364
 40
0.1785555361
 40
0.2473930845
 40
0.3194673367
 40
0.3935630696
 40
0.4683487914
 40
0.5424552664
 40
0.6145505731
 40
0.6834177456
 40
0.7480395925
 40
0.8076976278
 40
0.8620932846
 40
0.9114946594
 40
0.9568832306
 40
1.0
 40
1.0
 40
1.0
 40
1.0
 10
16.0381858831
 20
12.0693239881
 30
0.0
 10
16.0414402101
 20
12.0626923669
 30
0.0
 10
16.0497059158
 20
12.0494743086
 30
0.0
 10
16.0657659452
 20
12.0311759796
 30
0.0
 10
16.0856282785
 20
12.0139264164
 30
0.0
 10
16.1087616057
 20
11.9981778567
 30
0.0
 10
16.1345553991
 20
11.984339411
 30
0.0
 10
16.162321025
 20
11.9727797108
 30
0.0
 10
16.1913155553
 20
11.9638078968
 30
0.0
 10
16.2207617158
 20
11.9576644585
 30
0.0
 10
16.2498713751
 20
11.9545139517
 30
0.0
 10
16.2778690282
 20
11.9544413512
 30
0.0
 10
16.3040153028
 20
11.9574523536
 30
0.0
 10
16.3276288743
 20
11.9634807878
 30
0.0
 10
16.3480999433
 20
11.972400299
 30
0.0
 10
16.3648874199
 20
11.9840533816
 30
0.0
 10
16.377466524
 20
11.998216318
 30
0.0
 10
16.3827556402
 20
12.0092380507
 30
0.0
 10
16.3844852349
 20
12.0148369609
 30
0.0
  0
SPLINE
  5
278
100
AcDbEntity
  8
0
100
AcDbSpline
 62
7
  6
CONTINUOUS
 70
0
 71
3
 72
23
 73
19
 74
0
 42
0.0000001
 43
0.0000001
 44
0.0000000001
 40
0.0
 40
0.0
 40
0.0
 40
0.0
 40
0.0543515089
 40
0.1139724839
 40
0.1785553708
 40
0.2473932443
 40
0.3194671701
 40
0.3935627768
 40
0.4683484651
 40
0.5424551
 40
0.6145507002
 40
0.683418128
 40
0.7480400343
 40
0.8076979477
 40
0.8620934
 40
0.9114945975
 40
0.956882989
 40
1.0
 40
1.0
 40
1.0
 40
1.0
 10
15.4942522252
 20
12.0693239881
 30
0.0
 10
15.4975064599
 20
12.0626925551
 30
0.0
 10
15.5057724644
 20
12.049474547
 30
0.0
 10
15.5218320959
 20
12.031175907
 30
0.0
 10
15.5416950004
 20
12.0139266533
 30
0.0
 10
15.5648279872
 20
11.9981779547
 30
0.0
 10
15.5906218221
 20
11.9843396272
 30
0.0
 10
15.6183873039
 20
11.9727798201
 30
0.0
 10
15.6473817901
 20
11.9638079075
 30
0.0
 10
15.676827959
 20
11.9576643151
 30
0.0
 10
15.7059376887
 20
11.9545136816
 30
0.0
 10
15.7339354136
 20
11.9544410574
 30
0.0
 10
15.760081696
 20
11.9574521538
 30
0.0
 10
15.7836951779
 20
11.963480728
 30
0.0
 10
15.8041661335
 20
11.9724003247
 30
0.0
 10
15.8209534051
 20
11.9840535093
 30
0.0
 10
15.8335326177
 20
11.9982163277
 30
0.0
 10
15.8388215881
 20
12.0092381409
 30
0.0
 10
15.8405511926
 20
12.0148370793
 30
0.0
  0
SPLINE
  5
279
100
AcDbEntity
  8
0
100
AcDbSpline
 62
7
  6
CONTINUOUS
 70
0
 71
3
 72
23
 73
19
 74
0
 42
0.0000001
 43
0.0000001
 44
0.0000000001
 40
0.0
 40
0.0
 40
0.0
 40
0.0
 40
0.0543492957
 40
0.1139738591
 40
0.1785549487
 40
0.2473929858
 40
0.3194666678
 40
0.3935624302
 40
0.4683483838
 40
0.5424548784
 40
0.6145499863
 40
0.683417013
 40
0.7480390251
 40
0.807697497
 40
0.86209341
 40
0.9114946015
 40
0.9568827834
 40
1.0
 40
1.0
 40
1.0
 40
1.0
 10
14.9503185674
 20
12.0693239881
 30
0.0
 10
14.9535726688
 20
12.0626928265
 30
0.0
 10
14.9618391307
 20
12.0494749156
 30
0.0
 10
14.9778981854
 20
12.0311758508
 30
0.0
 10
14.9977617626
 20
12.0139269441
 30
0.0
 10
15.0208942055
 20
11.9981779724
 30
0.0
 10
15.0466880228
 20
11.9843395614
 30
0.0
 10
15.074453438
 20
11.9727795556
 30
0.0
 10
15.1034480067
 20
11.9638077538
 30
0.0
 10
15.1328941907
 20
11.9576645023
 30
0.0
 10
15.1620037963
 20
11.9545141342
 30
0.0
 10
15.1900013971
 20
11.9544415193
 30
0.0
 10
15.2161477325
 20
11.9574523431
 30
0.0
 10
15.2397614578
 20
11.9634805092
 30
0.0
 10
15.2602327029
 20
11.9723999066
 30
0.0
 10
15.2770197931
 20
11.984053321
 30
0.0
 10
15.289599168
 20
11.9982161878
 30
0.0
 10
15.294887128
 20
12.0092383612
 30
0.0
 10
15.2966171412
 20
12.0148372014
 30
0.0
  0
SPLINE
  5
27A
100
AcDbEntity
  8
0
100
AcDbSpline
 62
7
  6
CONTINUOUS
 70
0
 71
3
 72
23
 73
19
 74
0
 42
0.0000001
 43
0.0000001
 44
0.0000000001
 40
0.0
 40
0.0
 40
0.0
 40
0.0
 40
0.0543461802
 40
0.1139755518
 40
0.1785543614
 40
0.2473924336
 40
0.3194665954
 40
0.3935624236
 40
0.4683479186
 40
0.5424541271
 40
0.6145498127
 40
0.6834173369
 40
0.7480387442
 40
0.807696319
 40
0.8620921667
 40
0.9114940844
 40
0.9568826204
 40
1.0
 40
1.0
 40
1.0
 40
1.0
 10
14.4063849095
 20
12.0693239881
 30
0.0
 10
14.4096388233
 20
12.0626932089
 30
0.0
 10
14.4179059476
 20
12.0494754829
 30
0.0
 10
14.4339641723
 20
12.0311758281
 30
0.0
 10
14.4538284295
 20
12.013927139
 30
0.0
 10
14.4769602482
 20
11.9981777658
 30
0.0
 10
14.5027541727
 20
11.9843393063
 30
0.0
 10
14.5305198668
 20
11.9727799774
 30
0.0
 10
14.5595143509
 20
11.9638083214
 30
0.0
 10
14.5889604186
 20
11.9576647443
 30
0.0
 10
14.6180700525
 20
11.9545137167
 30
0.0
 10
14.6460677416
 20
11.9544410218
 30
0.0
 10
14.6722138688
 20
11.9574524996
 30
0.0
 10
14.6958272441
 20
11.9634810561
 30
0.0
 10
14.7162984517
 20
11.9724003399
 30
0.0
 10
14.7330861763
 20
11.984052889
 30
0.0
 10
14.7456662991
 20
11.9982157708
 30
0.0
 10
14.7509526061
 20
12.009238609
 30
0.0
 10
14.7526833093
 20
12.014837257
 30
0.0
  0
SPLINE
  5
27B
100
AcDbEntity
  8
0
100
AcDbSpline
 62
7
  6
CONTINUOUS
 70
0
 71
3
 72
23
 73
19
 74
0
 42
0.0000001
 43
0.0000001
 44
0.0000000001
 40
0.0
 40
0.0
 40
0.0
 40
0.0
 40
0.0543418599
 40
0.1139774513
 40
0.1785539413
 40
0.247392116
 40
0.319467288
 40
0.3935621609
 40
0.4683477779
 40
0.5424547321
 40
0.6145495967
 40
0.6834163485
 40
0.7480390612
 40
0.8076973325
 40
0.8620920099
 40
0.9114931889
 40
0.9568826094
 40
1.0
 40
1.0
 40
1.0
 40
1.0
 10
13.8624512516
 20
12.0693239881
 30
0.0
 10
13.8657049042
 20
12.0626937412
 30
0.0
 10
13.8739729586
 20
12.0494763495
 30
0.0
 10
13.8900300213
 20
12.0311758473
 30
0.0
 10
13.9098948623
 20
12.0139269318
 30
0.0
 10
13.9330264912
 20
11.9981776259
 30
0.0
 10
13.9588207866
 20
11.9843398263
 30
0.0
 10
13.9865864214
 20
11.9727804777
 30
0.0
 10
14.0155805644
 20
11.9638078482
 30
0.0
 10
14.0450266565
 20
11.9576642003
 30
0.0
 10
14.0741363015
 20
11.9545144693
 30
0.0
 10
14.1021338521
 20
11.9544419052
 30
0.0
 10
14.1282802778
 20
11.9574519641
 30
0.0
 10
14.1518938878
 20
11.9634803742
 30
0.0
 10
14.1723644139
 20
11.9724009013
 30
0.0
 10
14.1891516345
 20
11.9840534986
 30
0.0
 10
14.2017330708
 20
11.9982154672
 30
0.0
 10
14.2070185471
 20
12.0092387367
 30
0.0
 10
14.2087499116
 20
12.014837177
 30
0.0
  0
SPLINE
  5
27C
100
AcDbEntity
  8
0
100
AcDbSpline
 62
7
  6
CONTINUOUS
 70
0
 71
3
 72
13
 73
9
 74
0
 42
0.0000001
 43
0.0000001
 44
0.0000000001
 40
0.0
 40
0.0
 40
0.0
 40
0.0
 40
0.2643272335
 40
0.5358584306
 40
0.6659232508
 40
0.7879182518
 40
0.8996862736
 40
1.0
 40
1.0
 40
1.0
 40
1.0
 10
13.7984786634
 20
12.1073180619
 30
0.0
 10
13.8046906398
 20
12.1073180619
 30
0.0
 10
13.817305819
 20
12.1056137736
 30
0.0
 10
13.8321263511
 20
12.1001885272
 30
0.0
 10
13.8427880069
 20
12.093989533
 30
0.0
 10
13.8495823413
 20
12.0887506022
 30
0.0
 10
13.8550295928
 20
12.083052465
 30
0.0
 10
13.8577797999
 20
12.0788434057
 30
0.0
 10
13.8588183711
 20
12.0767270202
 30
0.0
  0
SPLINE
  5
27D
100
AcDbEntity
  8
0
100
AcDbSpline
 62
7
  6
CONTINUOUS
 70
0
 71
3
 72
13
 73
9
 74
0
 42
0.0000001
 43
0.0000001
 44
0.0000000001
 40
0.0
 40
0.0
 40
0.0
 40
0.0
 40
0.2643272335
 40
0.5358584306
 40
0.6659232508
 40
0.7879182518
 40
0.8996862736
 40
1.0
 40
1.0
 40
1.0
 40
1.0
 10
14.3424123213
 20
12.1073180619
 30
0.0
 10
14.3486242976
 20
12.1073180619
 30
0.0
 10
14.3612394768
 20
12.1056137736
 30
0.0
 10
14.376060009
 20
12.1001885272
 30
0.0
 10
14.3867216647
 20
12.093989533
 30
0.0
 10
14.3935159992
 20
12.0887506022
 30
0.0
 10
14.3989632506
 20
12.083052465
 30
0.0
 10
14.4017134578
 20
12.0788434057
 30
0.0
 10
14.402752029
 20
12.0767270202
 30
0.0
  0
SPLINE
  5
27E
100
AcDbEntity
  8
0
100
AcDbSpline
 62
7
  6
CONTINUOUS
 70
0
 71
3
 72
13
 73
9
 74
0
 42
0.0000001
 43
0.0000001
 44
0.0000000001
 40
0.0
 40
0.0
 40
0.0
 40
0.0
 40
0.2643272335
 40
0.5358584306
 40
0.6659232508
 40
0.7879182518
 40
0.8996862736
 40
1.0
 40
1.0
 40
1.0
 40
1.0
 10
14.8863459791
 20
12.1073180619
 30
0.0
 10
14.8925579555
 20
12.1073180619
 30
0.0
 10
14.9051731347
 20
12.1056137736
 30
0.0
 10
14.9199936669
 20
12.1001885272
 30
0.0
 10
14.9306553226
 20
12.093989533
 30
0.0
 10
14.9374496571
 20
12.0887506022
 30
0.0
 10
14.9428969085
 20
12.083052465
 30
0.0
 10
14.9456471157
 20
12.0788434057
 30
0.0
 10
14.9466856869
 20
12.0767270202
 30
0.0
  0
SPLINE
  5
27F
100
AcDbEntity
  8
0
100
AcDbSpline
 62
7
  6
CONTINUOUS
 70
0
 71
3
 72
13
 73
9
 74
0
 42
0.0000001
 43
0.0000001
 44
0.0000000001
 40
0.0
 40
0.0
 40
0.0
 40
0.0
 40
0.2643272335
 40
0.5358584306
 40
0.6659232508
 40
0.7879182518
 40
0.8996862736
 40
1.0
 40
1.0
 40
1.0
 40
1.0
 10
15.430279637
 20
12.1073180619
 30
0.0
 10
15.4364916134
 20
12.1073180619
 30
0.0
 10
15.4491067926
 20
12.1056137736
 30
0.0
 10
15.4639273247
 20
12.1001885272
 30
0.0
 10
15.4745889805
 20
12.093989533
 30
0.0
 10
15.4813833149
 20
12.0887506022
 30
0.0
 10
15.4868305664
 20
12.083052465
 30
0.0
 10
15.4895807735
 20
12.0788434057
 30
0.0
 10
15.4906193447
 20
12.0767270202
 30
0.0
  0
SPLINE
  5
280
100
AcDbEntity
  8
0
100
AcDbSpline
 62
7
  6
CONTINUOUS
 70
0
 71
3
 72
13
 73
9
 74
0
 42
0.0000001
 43
0.0000001
 44
0.0000000001
 40
0.0
 40
0.0
 40
0.0
 40
0.0
 40
0.2643272335
 40
0.5358584306
 40
0.6659232508
 40
0.7879182518
 40
0.8996862736
 40
1.0
 40
1.0
 40
1.0
 40
1.0
 10
15.9742132949
 20
12.1073180619
 30
0.0
 10
15.9804252713
 20
12.1073180619
 30
0.0
 10
15.9930404505
 20
12.1056137736
 30
0.0
 10
16.0078609826
 20
12.1001885272
 30
0.0
 10
16.0185226384
 20
12.093989533
 30
0.0
 10
16.0253169728
 20
12.0887506022
 30
0.0
 10
16.0307642243
 20
12.083052465
 30
0.0
 10
16.0335144314
 20
12.0788434057
 30
0.0
 10
16.0345530026
 20
12.0767270202
 30
0.0
  0
SPLINE
  5
281
100
AcDbEntity
  8
0
100
AcDbSpline
 62
7
  6
CONTINUOUS
 70
0
 71
3
 72
13
 73
9
 74
0
 42
0.0000001
 43
0.0000001
 44
0.0000000001
 40
0.0
 40
0.0
 40
0.0
 40
0.0
 40
0.2643272335
 40
0.5358584306
 40
0.6659232508
 40
0.7879182518
 40
0.8996862736
 40
1.0
 40
1.0
 40
1.0
 40
1.0
 10
16.5181469528
 20
12.1073180619
 30
0.0
 10
16.5243589292
 20
12.1073180619
 30
0.0
 10
16.5369741083
 20
12.1056137736
 30
0.0
 10
16.5517946405
 20
12.1001885272
 30
0.0
 10
16.5624562962
 20
12.093989533
 30
0.0
 10
16.5692506307
 20
12.0887506022
 30
0.0
 10
16.5746978821
 20
12.083052465
 30
0.0
 10
16.5774480893
 20
12.0788434057
 30
0.0
 10
16.5784866605
 20
12.0767270202
 30
0.0
  0
SPLINE
  5
282
100
AcDbEntity
  8
0
100
AcDbSpline
 62
7
  6
CONTINUOUS
 70
0
 71
3
 72
11
 73
7
 74
0
 42
0.0000001
 43
0.0000001
 44
0.0000000001
 40
0.0
 40
0.0
 40
0.0
 40
0.0
 40
0.2336985128
 40
0.4744525156
 40
0.7284652344
 40
1.0
 40
1.0
 40
1.0
 40
1.0
 10
16.3844852349
 20
12.0148369609
 30
0.0
 10
16.3857757082
 20
12.0190143809
 30
0.0
 10
16.3874710918
 20
12.0278101895
 30
0.0
 10
16.3871727449
 20
12.0415258936
 30
0.0
 10
16.3840949163
 20
12.055607705
 30
0.0
 10
16.3803824077
 20
12.0647634472
 30
0.0
 10
16.3781444193
 20
12.0693239881
 30
0.0
  0
SPLINE
  5
283
100
AcDbEntity
  8
0
100
AcDbSpline
 62
7
  6
CONTINUOUS
 70
0
 71
3
 72
11
 73
7
 74
0
 42
0.0000001
 43
0.0000001
 44
0.0000000001
 40
0.0
 40
0.0
 40
0.0
 40
0.0
 40
0.2337006148
 40
0.4744600685
 40
0.7284408233
 40
1.0
 40
1.0
 40
1.0
 40
1.0
 10
16.9284190486
 20
12.0148369131
 30
0.0
 10
16.9297101162
 20
12.0190141935
 30
0.0
 10
16.931404144
 20
12.0278105247
 30
0.0
 10
16.9311063673
 20
12.0415255807
 30
0.0
 10
16.9280292641
 20
12.0556076209
 30
0.0
 10
16.9243162682
 20
12.0647630344
 30
0.0
 10
16.9220780772
 20
12.0693239881
 30
0.0
  0
SPLINE
  5
284
100
AcDbEntity
  8
0
100
AcDbSpline
 62
7
  6
CONTINUOUS
 70
0
 71
3
 72
11
 73
7
 74
0
 42
0.0000001
 43
0.0000001
 44
0.0000000001
 40
0.0
 40
0.0
 40
0.0
 40
0.0
 40
0.2336854563
 40
0.4744444727
 40
0.7285054322
 40
1.0
 40
1.0
 40
1.0
 40
1.0
 10
15.2966171412
 20
12.0148372014
 30
0.0
 10
15.2979078394
 20
12.0190142869
 30
0.0
 10
15.2996043275
 20
12.0278097208
 30
0.0
 10
15.2993057857
 20
12.0415263291
 30
0.0
 10
15.2962262876
 20
12.0556079174
 30
0.0
 10
15.292514756
 20
12.0647641317
 30
0.0
 10
15.2902771035
 20
12.0693239881
 30
0.0
  0
SPLINE
  5
285
100
AcDbEntity
  8
0
100
AcDbSpline
 62
7
  6
CONTINUOUS
 70
0
 71
3
 72
10
 73
6
 74
0
 42
0.0000001
 43
0.0000001
 44
0.0000000001
 40
0.0
 40
0.0
 40
0.0
 40
0.0
 40
0.5245631538
 40
0.7658837687
 40
1.0
 40
1.0
 40
1.0
 40
1.0
 10
14.1987769073
 20
12.0767270202
 30
0.0
 10
14.197626177
 20
12.0790719619
 30
0.0
 10
14.1963973258
 20
12.0827895326
 30
0.0
 10
14.1962901953
 20
12.0877963881
 30
0.0
 10
14.1967418292
 20
12.0901430853
 30
0.0
 10
14.1970859591
 20
12.0912569229
 30
0.0
  0
SPLINE
  5
286
100
AcDbEntity
  8
0
100
AcDbSpline
 62
7
  6
CONTINUOUS
 70
0
 71
3
 72
11
 73
7
 74
0
 42
0.0000001
 43
0.0000001
 44
0.0000000001
 40
0.0
 40
0.0
 40
0.0
 40
0.0
 40
0.2336627515
 40
0.4744485601
 40
0.7285753422
 40
1.0
 40
1.0
 40
1.0
 40
1.0
 10
14.2087499116
 20
12.014837177
 30
0.0
 10
14.2100414847
 20
12.019013533
 30
0.0
 10
14.211736079
 20
12.0278094525
 30
0.0
 10
14.2114394752
 20
12.0415273263
 30
0.0
 10
14.2083564217
 20
12.0556086213
 30
0.0
 10
14.204646857
 20
12.0647653202
 30
0.0
 10
14.2024097878
 20
12.0693239881
 30
0.0
  0
SPLINE
  5
287
100
AcDbEntity
  8
0
100
AcDbSpline
 62
7
  6
CONTINUOUS
 70
0
 71
3
 72
10
 73
6
 74
0
 42
0.0000001
 43
0.0000001
 44
0.0000000001
 40
0.0
 40
0.0
 40
0.0
 40
0.0
 40
0.5245631538
 40
0.7658837687
 40
1.0
 40
1.0
 40
1.0
 40
1.0
 10
14.7427105651
 20
12.0767270202
 30
0.0
 10
14.7415598349
 20
12.0790719619
 30
0.0
 10
14.7403309837
 20
12.0827895326
 30
0.0
 10
14.7402238532
 20
12.0877963881
 30
0.0
 10
14.7406754871
 20
12.0901430853
 30
0.0
 10
14.741019617
 20
12.0912569229
 30
0.0
  0
SPLINE
  5
288
100
AcDbEntity
  8
0
100
AcDbSpline
 62
7
  6
CONTINUOUS
 70
0
 71
3
 72
10
 73
6
 74
0
 42
0.0000001
 43
0.0000001
 44
0.0000000001
 40
0.0
 40
0.0
 40
0.0
 40
0.0
 40
0.5245631538
 40
0.7658837687
 40
1.0
 40
1.0
 40
1.0
 40
1.0
 10
15.286644223
 20
12.0767270202
 30
0.0
 10
15.2854934928
 20
12.0790719619
 30
0.0
 10
15.2842646416
 20
12.0827895326
 30
0.0
 10
15.284157511
 20
12.0877963881
 30
0.0
 10
15.284609145
 20
12.0901430853
 30
0.0
 10
15.2849532749
 20
12.0912569229
 30
0.0
  0
SPLINE
  5
289
100
AcDbEntity
  8
0
100
AcDbSpline
 62
7
  6
CONTINUOUS
 70
0
 71
3
 72
10
 73
6
 74
0
 42
0.0000001
 43
0.0000001
 44
0.0000000001
 40
0.0
 40
0.0
 40
0.0
 40
0.0
 40
0.5245631538
 40
0.7658837687
 40
1.0
 40
1.0
 40
1.0
 40
1.0
 10
15.8305778809
 20
12.0767270202
 30
0.0
 10
15.8294271506
 20
12.0790719619
 30
0.0
 10
15.8281982994
 20
12.0827895326
 30
0.0
 10
15.8280911689
 20
12.0877963881
 30
0.0
 10
15.8285428029
 20
12.0901430853
 30
0.0
 10
15.8288869328
 20
12.0912569229
 30
0.0
  0
SPLINE
  5
28A
100
AcDbEntity
  8
0
100
AcDbSpline
 62
7
  6
CONTINUOUS
 70
0
 71
3
 72
11
 73
7
 74
0
 42
0.0000001
 43
0.0000001
 44
0.0000000001
 40
0.0
 40
0.0
 40
0.0
 40
0.0
 40
0.2336936203
 40
0.4744482201
 40
0.7284827705
 40
1.0
 40
1.0
 40
1.0
 40
1.0
 10
15.8405511926
 20
12.0148370793
 30
0.0
 10
15.8418416385
 20
12.0190144084
 30
0.0
 10
15.8435378736
 20
12.0278099523
 30
0.0
 10
15.8432391731
 20
12.0415260855
 30
0.0
 10
15.8401607183
 20
12.055607782
 30
0.0
 10
15.8364486036
 20
12.0647637452
 30
0.0
 10
15.8342107614
 20
12.0693239881
 30
0.0
  0
SPLINE
  5
28B
100
AcDbEntity
  8
0
100
AcDbSpline
 62
7
  6
CONTINUOUS
 70
0
 71
3
 72
10
 73
6
 74
0
 42
0.0000001
 43
0.0000001
 44
0.0000000001
 40
0.0
 40
0.0
 40
0.0
 40
0.0
 40
0.5245631538
 40
0.7658837687
 40
1.0
 40
1.0
 40
1.0
 40
1.0
 10
16.3745115388
 20
12.0767270202
 30
0.0
 10
16.3733608085
 20
12.0790719619
 30
0.0
 10
16.3721319573
 20
12.0827895326
 30
0.0
 10
16.3720248268
 20
12.0877963881
 30
0.0
 10
16.3724764607
 20
12.0901430853
 30
0.0
 10
16.3728205906
 20
12.0912569229
 30
0.0
  0
SPLINE
  5
28C
100
AcDbEntity
  8
0
100
AcDbSpline
 62
7
  6
CONTINUOUS
 70
0
 71
3
 72
11
 73
7
 74
0
 42
0.0000001
 43
0.0000001
 44
0.0000000001
 40
0.0
 40
0.0
 40
0.0
 40
0.0
 40
0.2336745839
 40
0.4744432871
 40
0.7285352633
 40
1.0
 40
1.0
 40
1.0
 40
1.0
 10
14.7526833093
 20
12.014837257
 30
0.0
 10
14.7539744557
 20
12.0190139838
 30
0.0
 10
14.7556703489
 20
12.0278095357
 30
0.0
 10
14.7553725961
 20
12.0415266961
 30
0.0
 10
14.7522915466
 20
12.0556081647
 30
0.0
 10
14.7485808487
 20
12.06476464
 30
0.0
 10
14.7463434456
 20
12.0693239881
 30
0.0
  0
SPLINE
  5
28D
100
AcDbEntity
  8
0
100
AcDbSpline
 62
7
  6
CONTINUOUS
 70
0
 71
3
 72
10
 73
6
 74
0
 42
0.0000001
 43
0.0000001
 44
0.0000000001
 40
0.0
 40
0.0
 40
0.0
 40
0.0
 40
0.5245631538
 40
0.7658837687
 40
1.0
 40
1.0
 40
1.0
 40
1.0
 10
16.9184451967
 20
12.0767270202
 30
0.0
 10
16.9172944664
 20
12.0790719619
 30
0.0
 10
16.9160656152
 20
12.0827895326
 30
0.0
 10
16.9159584847
 20
12.0877963881
 30
0.0
 10
16.9164101186
 20
12.0901430853
 30
0.0
 10
16.9167542485
 20
12.0912569229
 30
0.0
  0
ENDSEC
  0
SECTION
  2
OBJECTS
  0
DICTIONARY
  5
C
100
AcDbDictionary
280
0
281
1
  3
ACAD_GROUP
350
D
  3
ACAD_MLINESTYLE
350
17
  3
ACAD_LAYOUT
350
1A
  3
ACAD_PLOTSETTINGS
350
19
  3
ACAD_PLOTSTYLENAME
350
E
  0
DICTIONARY
  5
D
102
{ACAD_REACTORS
330
C
102
}
100
AcDbDictionary
280
0
281
1
  0
ACDBDICTIONARYWDFLT
  5
E
102
{ACAD_REACTORS
330
C
102
}
100
AcDbDictionary
281
1
  3
Normal
350
F
100
AcDbDictionaryWithDefault
340
F
  0
DICTIONARY
  5
17
102
{ACAD_REACTORS
330
C
102
}
100
AcDbDictionary
280
0
281
1
  3
Standard
350
18
  0
DICTIONARY
  5
19
102
{ACAD_REACTORS
330
C
102
}
100
AcDbDictionary
281
1
  0
DICTIONARY
  5
1A
102
{ACAD_REACTORS
330
C
102
}
100
AcDbDictionary
281
1
  3
Model
350
28E
  3
Layout1
350
28F
  0
ACDBPLACEHOLDER
  5
F
102
{ACAD_REACTORS
330
E
102
}
  0
MLINESTYLE
  5
18
102
{ACAD_REACTORS
330
17
102
}
100
AcDbMlineStyle
  2
STANDARD
 70
0
  3

 62
256
 51
90.0
 52
90.0
 71
2
 49
0.5
 62
256
  6
BYLAYER
 49
-0.5
 62
256
  6
BYLAYER
  0
LAYOUT
  5
28E
102
{ACAD_REACTORS
330
1A
102
}
100
AcDbPlotSettings
  1

  2
none_device
  4
ANSI_C_(22.00_x_17.00_Inches)
  6

 40
0.0
 41
0.0
 42
0.0
 43
0.0
 44
558.8
 45
431.8
 46
0.0
 47
0.0
 48
0.0
 49
0.0
140
0.0
141
0.0
142
1.0
143
1.0
 70
1024
 72
0
 73
0
 74
0
  7

 75
0
147
1.0
148
0.0
149
0.0
100
AcDbLayout
  1
Model
 70
0
 71
0
 10
0.0
 20
0.0
 11
22.0
 21
17.0
 12
0.0
 22
0.0
 32
0.0
 14
0.0
 24
0.0
 34
0.0
 15
0.0
 25
0.0
 35
0.0
146
0.0
 13
0.0
 23
0.0
 33
0.0
 16
1.0
 26
0.0
 36
0.0
 17
0.0
 27
1.0
 37
0.0
 76
0
330
216
345
0
346
0
  0
LAYOUT
  5
28F
102
{ACAD_REACTORS
330
1A
102
}
100
AcDbPlotSettings
  1

  2
none_device
  4
ANSI_C_(22.00_x_17.00_Inches)
  6

 40
0.0
 41
0.0
 42
0.0
 43
0.0
 44
558.8
 45
431.8
 46
0.0
 47
0.0
 48
0.0
 49
0.0
140
0.0
141
0.0
142
1.0
143
1.0
 70
0
 72
0
 73
0
 74
0
  7

 75
0
147
1.0
148
0.0
149
0.0
100
AcDbLayout
  1
Layout1
 70
0
 71
1
 10
0.0
 20
0.0
 11
22.0
 21
17.0
 12
0.0
 22
0.0
 32
0.0
 14
0.0
 24
0.0
 34
0.0
 15
0.0
 25
0.0
 35
0.0
146
0.0
 13
0.0
 23
0.0
 33
0.0
 16
1.0
 26
0.0
 36
0.0
 17
0.0
 27
1.0
 37
0.0
 76
0
330
217
345
0
346
0
  0
ENDSEC
  0
EOF