999
DXF file: _cgs_temp_output.dxf
999
Pro/ENGINEER 2016360 by Parametric Technology Corporation
  0
SECTION
  2
HEADER
  9
$ACADVER
  1
AC1021
  9
$DWGCODEPAGE
  3
ANSI_1252
  9
$EXTMAX
 10
22.0
 20
17.0
 30
0.0
  9
$EXTMIN
 10
0.0
 20
0.0
 30
0.0
  9
$LIMMIN
 10
0.0
 20
0.0
  9
$LIMMAX
 10
22.0
 20
17.0
  9
$VIEWCTR
 10
11.0
 20
8.5
  9
$VIEWSIZE
 40
17.0
  9
$CLAYER
  8
0
  9
$LTSCALE
 40
1.21
  9
$CELTYPE
  6
BYLAYER
  9
$DIMSCALE
 40
1.0
  9
$DIMASZ
 40
0.1875
  9
$DIMEXO
 40
0.0625
  9
$DIMDLI
 40
0.836
  9
$DIMEXE
 40
0.125
  9
$DIMCEN
 40
0.198
  9
$DIMLFAC
 40
1.0
  9
$DIMBLK
  1
_CLOSED
  9
$DIMALT
 70
0
  9
$DIMALTF
 40
25.4
  9
$DIMTXT
 40
0.15625
  9
$DIMTOL
 70
0
  9
$DIMLIM
 70
0
  9
$DIMTFAC
 40
1.0
  9
$DIMGAP
 40
0.09
  9
$DIMDSEP
 70
46
  9
$AUNITS
 70
0
  9
$PDMODE
 70
3
  9
$PDSIZE
 40
0.3125
  9
$HANDSEED
  5
302
  9
$TILEMODE
 70
1
  9
$MEASUREMENT
 70
0
  9
$INSUNITS
 70
1
  0
ENDSEC
  0
SECTION
  2
CLASSES
  0
CLASS
  1
ACDBDICTIONARYWDFLT
  2
AcDbDictionaryWithDefault
  3
AutoCAD 2000
 90
0
 91
1
280
0
281
0
  0
CLASS
  1
ACDBPLACEHOLDER
  2
AcDbPlaceHolder
  3
AutoCAD 2000
 90
0
 91
1
280
0
281
0
  0
CLASS
  1
LAYOUT
  2
AcDbLayout
  3
AutoCAD 2000
 90
0
 91
0
280
0
281
0
  0
ENDSEC
  0
SECTION
  2
TABLES
  0
TABLE
  2
VPORT
  5
8
100
AcDbSymbolTable
 70
2
  0
VPORT
  5
1F4
100
AcDbSymbolTableRecord
100
AcDbViewportTableRecord
  2
*ACTIVE
 70
0
 10
0.0
 20
0.0
 11
1.0
 21
1.0
 12
11.0
 22
8.5
 13
0.0
 23
0.0
 14
1.0
 24
1.0
 15
0.0
 25
0.0
 16
0.0
 26
0.0
 36
1.0
 17
0.0
 27
0.0
 37
0.0
 40
17.0
 41
1.2941176471
 42
50.0
 43
0.0
 44
0.0
 50
0.0
 51
0.0
 71
0
 72
100
 73
1
 74
1
 75
0
 76
0
 77
0
 78
0
  0
ENDTAB
  0
TABLE
  2
LTYPE
  5
5
100
AcDbSymbolTable
 70
6
  0
LTYPE
  5
14
100
AcDbSymbolTableRecord
100
AcDbLinetypeTableRecord
  2
BYBLOCK
 70
0
  3

 72
65
 73
0
 40
0.0
  0
LTYPE
  5
15
100
AcDbSymbolTableRecord
100
AcDbLinetypeTableRecord
  2
BYLAYER
 70
0
  3

 72
65
 73
0
 40
0.0
  0
LTYPE
  5
16
100
AcDbSymbolTableRecord
100
AcDbLinetypeTableRecord
  2
CONTINUOUS
 70
64
  3
Solid line
 72
65
 73
0
 40
0.0
  0
LTYPE
  5
1F5
100
AcDbSymbolTableRecord
100
AcDbLinetypeTableRecord
  2
CENTER
 70
64
  3
____ _ ____ _ ____ _ ____ _ ____ _ ____ _ ____
 72
65
 73
4
 40
0.6
 49
0.375
 74
0
 49
-0.075
 74
0
 49
0.075
 74
0
 49
-0.075
 74
0
  0
LTYPE
  5
1F6
100
AcDbSymbolTableRecord
100
AcDbLinetypeTableRecord
  2
HIDDEN
 70
64
  3
- - - - - - - - - - - - - - - - - - - -
 72
65
 73
2
 40
0.2
 49
0.1
 74
0
 49
-0.1
 74
0
  0
LTYPE
  5
1F7
100
AcDbSymbolTableRecord
100
AcDbLinetypeTableRecord
  2
PHANTOM
 70
64
  3
_____ _ _ _____ _ _ _____ _ _ _____
 72
65
 73
6
 40
0.8
 49
0.45
 74
0
 49
-0.05
 74
0
 49
0.1
 74
0
 49
-0.05
 74
0
 49
0.1
 74
0
 49
-0.05
 74
0
  0
LTYPE
  5
1F8
100
AcDbSymbolTableRecord
100
AcDbLinetypeTableRecord
  2
DOT
 70
64
  3
. . . . . . . . . . . . . . . . . . . .
 72
65
 73
2
 40
0.2
 49
0.1
 74
0
 49
-0.1
 74
0
  0
LTYPE
  5
1F9
100
AcDbSymbolTableRecord
100
AcDbLinetypeTableRecord
  2
DASHED
 70
64
  3
- - - - - - - - - - - - - - - - - - - -
 72
65
 73
2
 40
0.2
 49
0.1
 74
0
 49
-0.1
 74
0
  0
ENDTAB
  0
TABLE
  2
LAYER
  5
2
100
AcDbSymbolTable
 70
36
  0
LAYER
  5
10
100
AcDbSymbolTableRecord
100
AcDbLayerTableRecord
  2
0
 70
0
 62
7
  6
CONTINUOUS
370
-3
390
F
  0
LAYER
  5
1FA
100
AcDbSymbolTableRecord
100
AcDbLayerTableRecord
  2
DEFAULT_1
 70
0
 62
7
  6
CENTER
370
-3
390
F
  0
LAYER
  5
1FB
100
AcDbSymbolTableRecord
100
AcDbLayerTableRecord
  2
DEFAULT_2
 70
0
 62
8
  6
HIDDEN
370
-3
390
F
  0
LAYER
  5
1FC
100
AcDbSymbolTableRecord
100
AcDbLayerTableRecord
  2
DEFAULT_3
 70
0
 62
7
  6
PHANTOM
370
-3
390
F
  0
LAYER
  5
1FD
100
AcDbSymbolTableRecord
100
AcDbLayerTableRecord
  2
01_ALL_DTM_PLN
 70
0
 62
7
  6
CONTINUOUS
370
-3
390
F
  0
LAYER
  5
1FE
100
AcDbSymbolTableRecord
100
AcDbLayerTableRecord
  2
01__ASM_ALL_DTM_PLN
 70
0
 62
7
  6
CONTINUOUS
370
-3
390
F
  0
LAYER
  5
1FF
100
AcDbSymbolTableRecord
100
AcDbLayerTableRecord
  2
01__ASM_DEF_DTM_PLN
 70
0
 62
7
  6
CONTINUOUS
370
-3
390
F
  0
LAYER
  5
200
100
AcDbSymbolTableRecord
100
AcDbLayerTableRecord
  2
01___PRT_ALL_DTM_PLN
 70
0
 62
7
  6
CONTINUOUS
370
-3
390
F
  0
LAYER
  5
201
100
AcDbSymbolTableRecord
100
AcDbLayerTableRecord
  2
01___PRT_DEF_DTM_PLN
 70
0
 62
7
  6
CONTINUOUS
370
-3
390
F
  0
LAYER
  5
202
100
AcDbSymbolTableRecord
100
AcDbLayerTableRecord
  2
02_ALL_AXES
 70
0
 62
7
  6
CONTINUOUS
370
-3
390
F
  0
LAYER
  5
203
100
AcDbSymbolTableRecord
100
AcDbLayerTableRecord
  2
02__ASM_ALL_AXES
 70
0
 62
7
  6
CONTINUOUS
370
-3
390
F
  0
LAYER
  5
204
100
AcDbSymbolTableRecord
100
AcDbLayerTableRecord
  2
02___PRT_ALL_AXES
 70
0
 62
7
  6
CONTINUOUS
370
-3
390
F
  0
LAYER
  5
205
100
AcDbSymbolTableRecord
100
AcDbLayerTableRecord
  2
03_ALL_CURVES
 70
0
 62
7
  6
CONTINUOUS
370
-3
390
F
  0
LAYER
  5
206
100
AcDbSymbolTableRecord
100
AcDbLayerTableRecord
  2
03__ASM_ALL_CURVES
 70
0
 62
7
  6
CONTINUOUS
370
-3
390
F
  0
LAYER
  5
207
100
AcDbSymbolTableRecord
100
AcDbLayerTableRecord
  2
03___PRT_ALL_CURVES
 70
0
 62
7
  6
CONTINUOUS
370
-3
390
F
  0
LAYER
  5
208
100
AcDbSymbolTableRecord
100
AcDbLayerTableRecord
  2
04_ALL_DTM_PNT
 70
0
 62
7
  6
CONTINUOUS
370
-3
390
F
  0
LAYER
  5
209
100
AcDbSymbolTableRecord
100
AcDbLayerTableRecord
  2
04__ASM_ALL_DTM_PNT
 70
0
 62
7
  6
CONTINUOUS
370
-3
390
F
  0
LAYER
  5
20A
100
AcDbSymbolTableRecord
100
AcDbLayerTableRecord
  2
04___PRT_ALL_DTM_PNT
 70
0
 62
7
  6
CONTINUOUS
370
-3
390
F
  0
LAYER
  5
20B
100
AcDbSymbolTableRecord
100
AcDbLayerTableRecord
  2
05_ALL_DTM_CSYS
 70
0
 62
7
  6
CONTINUOUS
370
-3
390
F
  0
LAYER
  5
20C
100
AcDbSymbolTableRecord
100
AcDbLayerTableRecord
  2
05__ASM_ALL_DTM_CSYS
 70
0
 62
7
  6
CONTINUOUS
370
-3
390
F
  0
LAYER
  5
20D
100
AcDbSymbolTableRecord
100
AcDbLayerTableRecord
  2
05__ASM_DEF_DTM_CSYS
 70
0
 62
7
  6
CONTINUOUS
370
-3
390
F
  0
LAYER
  5
20E
100
AcDbSymbolTableRecord
100
AcDbLayerTableRecord
  2
05___PRT_ALL_DTM_CSYS
 70
0
 62
7
  6
CONTINUOUS
370
-3
390
F
  0
LAYER
  5
20F
100
AcDbSymbolTableRecord
100
AcDbLayerTableRecord
  2
05___PRT_DEF_DTM_CSYS
 70
0
 62
7
  6
CONTINUOUS
370
-3
390
F
  0
LAYER
  5
210
100
AcDbSymbolTableRecord
100
AcDbLayerTableRecord
  2
06_ALL_SURFS
 70
0
 62
7
  6
CONTINUOUS
370
-3
390
F
  0
LAYER
  5
211
100
AcDbSymbolTableRecord
100
AcDbLayerTableRecord
  2
06__ASM_ALL_SURFS
 70
0
 62
7
  6
CONTINUOUS
370
-3
390
F
  0
LAYER
  5
212
100
AcDbSymbolTableRecord
100
AcDbLayerTableRecord
  2
06___PRT_ALL_SURFS
 70
0
 62
7
  6
CONTINUOUS
370
-3
390
F
  0
LAYER
  5
213
100
AcDbSymbolTableRecord
100
AcDbLayerTableRecord
  2
07__ASM_ALL_SKELETONS
 70
0
 62
7
  6
CONTINUOUS
370
-3
390
F
  0
ENDTAB
  0
TABLE
  2
STYLE
  5
3
100
AcDbSymbolTable
 70
1
  0
STYLE
  5
11
100
AcDbSymbolTableRecord
100
AcDbTextStyleTableRecord
  2
STANDARD
 70
0
 40
0.0
 41
0.8
 50
0.0
 71
0
 42
0.2
  3
txt
  4

  0
STYLE
  5
214
100
AcDbSymbolTableRecord
100
AcDbTextStyleTableRecord
  2
TEXTSTYLE_1
 70
0
 40
0.0
 41
0.8
 50
0.0
 71
0
 42
0.2
  3
gdt
  4

  0
ENDTAB
  0
TABLE
  2
VIEW
  5
6
100
AcDbSymbolTable
 70
0
  0
ENDTAB
  0
TABLE
  2
UCS
  5
7
100
AcDbSymbolTable
 70
0
  0
ENDTAB
  0
TABLE
  2
APPID
  5
9
100
AcDbSymbolTable
 70
1
  0
APPID
  5
215
100
AcDbSymbolTableRecord
100
AcDbRegAppTableRecord
  2
ACAD
 70
0
  0
ENDTAB
  0
TABLE
  2
BLOCK_RECORD
  5
1
100
AcDbSymbolTable
 70
0
  0
BLOCK_RECORD
  5
216
100
AcDbSymbolTableRecord
100
AcDbBlockTableRecord
  2
*Model_Space
  0
BLOCK_RECORD
  5
217
100
AcDbSymbolTableRecord
100
AcDbBlockTableRecord
  2
*Paper_Space
  0
ENDTAB
  0
TABLE
  2
DIMSTYLE
  5
A
100
AcDbSymbolTable
 70
1
100
AcDbDimStyleTable
 71
0
  0
DIMSTYLE
105
218
100
AcDbSymbolTableRecord
100
AcDbDimStyleTableRecord
  2
STANDARD
 70
0
  3

  4

 40
1.0
 41
0.1875
 42
0.0625
 43
0.38
 44
0.125
 45
0.0
 46
0.0
 47
0.0001
 48
0.0001
140
0.15625
141
0.09
142
0.0
143
25.4
144
1.0
145
0.0
146
1.0
147
0.09
 71
0.0
 72
0.0
 73
1
 74
1
 75
0
 76
0
 77
0
 78
4
 79
1
170
0
171
3
172
0
173
0
174
0
175
0
176
0
177
0
178
0
270
2
179
4
271
4
272
4
273
2
274
2
275
0
280
0
281
0
282
0
283
1
284
4
285
0
286
0
287
3
288
0
340
11
278
46
  0
ENDTAB
  0
ENDSEC
  0
SECTION
  2
BLOCKS
  0
BLOCK
  5
20
100
AcDbEntity
  8
0
100
AcDbBlockBegin
  2
*Model_Space
 70
0
 10
0.0
 20
0.0
 30
0.0
  3
*Model_Space
  1

  0
ENDBLK
  5
21
100
AcDbEntity
  8
0
100
AcDbBlockEnd
  0
BLOCK
  5
1C
100
AcDbEntity
  8
0
100
AcDbBlockBegin
  2
*Paper_Space
 70
0
 10
0.0
 20
0.0
 30
0.0
  3
*Paper_Space
  1

  0
ENDBLK
  5
1D
100
AcDbEntity
  8
0
100
AcDbBlockEnd
  0
ENDSEC
  0
SECTION
  2
ENTITIES
  0
MTEXT
  5
219
100
AcDbEntity
  8
0
100
AcDbMText
 62
7
  6
CONTINUOUS
  7
STANDARD
 71
1
 72
1
 10
15.9560215477
 20
0.9479130325
 30
0.0
 11
1.0
 21
0.0
 31
0.0
 44
0.9
  1
SCALE: 1:1.000
 40
0.3
 41
3.36
  0
LINE
  5
21A
100
AcDbEntity
  8
0
100
AcDbLine
 62
7
  6
CONTINUOUS
 10
0.0
 20
0.0
 11
0.0
 21
17.0
  0
LINE
  5
21B
100
AcDbEntity
  8
0
100
AcDbLine
 62
7
  6
CONTINUOUS
 10
0.0
 20
0.0
 11
22.0
 21
0.0
  0
LINE
  5
21C
100
AcDbEntity
  8
0
100
AcDbLine
 62
7
  6
CONTINUOUS
 10
0.0
 20
17.0
 11
22.0
 21
17.0
  0
LINE
  5
21D
100
AcDbEntity
  8
0
100
AcDbLine
 62
7
  6
CONTINUOUS
 10
22.0
 20
0.0
 11
22.0
 21
17.0
  0
LINE
  5
21E
100
AcDbEntity
  8
0
100
AcDbLine
 62
7
  6
CONTINUOUS
 10
4.5053672762
 20
5.9326198968
 11
4.5053672762
 21
5.7511483528
  0
LINE
  5
21F
100
AcDbEntity
  8
0
100
AcDbLine
 62
7
  6
CONTINUOUS
 10
4.6642635255
 20
5.1015718494
 11
4.5083377035
 21
5.7269561633
  0
LINE
  5
220
100
AcDbEntity
  8
0
100
AcDbLine
 62
7
  6
CONTINUOUS
 10
4.6885209187
 20
5.0826198968
 11
7.5722136336
 21
5.0826198968
  0
LINE
  5
221
100
AcDbEntity
  8
0
100
AcDbLine
 62
7
  6
CONTINUOUS
 10
4.6158002512
 20
5.3742865634
 11
7.6449343011
 21
5.3742865634
  0
LINE
  5
222
100
AcDbEntity
  8
0
100
AcDbLine
 62
7
  6
CONTINUOUS
 10
7.7303672762
 20
5.9576198968
 11
4.5303672762
 21
5.9576198968
  0
LINE
  5
223
100
AcDbEntity
  8
0
100
AcDbLine
 62
7
  6
CONTINUOUS
 10
7.7553672762
 20
5.7511483528
 11
7.7553672762
 21
5.9326198968
  0
LINE
  5
224
100
AcDbEntity
  8
0
100
AcDbLine
 62
7
  6
CONTINUOUS
 10
7.5964710268
 20
5.1015718494
 11
7.7523968488
 21
5.7269561633
  0
LINE
  5
225
100
AcDbEntity
  8
0
100
AcDbLine
 62
7
  6
CONTINUOUS
 10
7.6958720839
 20
10.6000477814
 11
4.4458720839
 21
10.6000477814
  0
LINE
  5
226
100
AcDbEntity
  8
0
100
AcDbLine
 62
7
  6
CONTINUOUS
 10
4.4458720839
 20
10.6000477814
 11
4.4458720839
 21
14.6000477814
  0
LINE
  5
227
100
AcDbEntity
  8
0
100
AcDbLine
 62
7
  6
CONTINUOUS
 10
7.6958720839
 20
10.6000477814
 11
7.6958720839
 21
14.6000477814
  0
LINE
  5
228
100
AcDbEntity
  8
0
100
AcDbLine
 62
7
  6
CONTINUOUS
 10
4.4458720839
 20
14.6000477814
 11
7.6958720839
 21
14.6000477814
  0
LINE
  5
229
100
AcDbEntity
  8
0
100
AcDbLine
 62
7
  6
CONTINUOUS
 10
13.5603552569
 20
5.3147913711
 11
13.5603552569
 21
5.8981247044
  0
LINE
  5
22A
100
AcDbEntity
  8
0
100
AcDbLine
 62
7
  6
CONTINUOUS
 10
13.6647342607
 20
5.2582773855
 11
13.7059762532
 21
5.0796386901
  0
LINE
  5
22B
100
AcDbEntity
  8
0
100
AcDbLine
 62
7
  6
CONTINUOUS
 10
13.9147342607
 20
5.0796386901
 11
13.9559762532
 21
5.2582773855
  0
LINE
  5
22C
100
AcDbEntity
  8
0
100
AcDbLine
 62
7
  6
CONTINUOUS
 10
14.1647342607
 20
5.2582773855
 11
14.2059762532
 21
5.0796386901
  0
LINE
  5
22D
100
AcDbEntity
  8
0
100
AcDbLine
 62
7
  6
CONTINUOUS
 10
14.4147342607
 20
5.0796386901
 11
14.4559762532
 21
5.2582773855
  0
LINE
  5
22E
100
AcDbEntity
  8
0
100
AcDbLine
 62
7
  6
CONTINUOUS
 10
14.6647342607
 20
5.2582773855
 11
14.7059762532
 21
5.0796386901
  0
LINE
  5
22F
100
AcDbEntity
  8
0
100
AcDbLine
 62
7
  6
CONTINUOUS
 10
14.9147342607
 20
5.0796386901
 11
14.9559762532
 21
5.2582773855
  0
LINE
  5
230
100
AcDbEntity
  8
0
100
AcDbLine
 62
7
  6
CONTINUOUS
 10
13.7770240704
 20
5.0231247044
 11
13.8436864435
 21
5.0231247044
  0
LINE
  5
231
100
AcDbEntity
  8
0
100
AcDbLine
 62
7
  6
CONTINUOUS
 10
14.2770240704
 20
5.0231247044
 11
14.3436864435
 21
5.0231247044
  0
LINE
  5
232
100
AcDbEntity
  8
0
100
AcDbLine
 62
7
  6
CONTINUOUS
 10
14.7770240704
 20
5.0231247044
 11
14.8436864435
 21
5.0231247044
  0
LINE
  5
233
100
AcDbEntity
  8
0
100
AcDbLine
 62
7
  6
CONTINUOUS
 10
15.2770240704
 20
5.0231247044
 11
15.3436864435
 21
5.0231247044
  0
LINE
  5
234
100
AcDbEntity
  8
0
100
AcDbLine
 62
7
  6
CONTINUOUS
 10
15.7770240704
 20
5.0231247044
 11
15.8436864435
 21
5.0231247044
  0
LINE
  5
235
100
AcDbEntity
  8
0
100
AcDbLine
 62
7
  6
CONTINUOUS
 10
16.2770240704
 20
5.0231247044
 11
16.3436864435
 21
5.0231247044
  0
LINE
  5
236
100
AcDbEntity
  8
0
100
AcDbLine
 62
7
  6
CONTINUOUS
 10
16.7770240704
 20
5.0231247044
 11
16.8436864435
 21
5.0231247044
  0
LINE
  5
237
100
AcDbEntity
  8
0
100
AcDbLine
 62
7
  6
CONTINUOUS
 10
17.2770240704
 20
5.0231247044
 11
17.3436864435
 21
5.0231247044
  0
LINE
  5
238
100
AcDbEntity
  8
0
100
AcDbLine
 62
7
  6
CONTINUOUS
 10
15.1647342607
 20
5.2582773855
 11
15.2059762532
 21
5.0796386901
  0
LINE
  5
239
100
AcDbEntity
  8
0
100
AcDbLine
 62
7
  6
CONTINUOUS
 10
13.5603552569
 20
5.3147913711
 11
13.5936864435
 21
5.3147913711
  0
LINE
  5
23A
100
AcDbEntity
  8
0
100
AcDbLine
 62
7
  6
CONTINUOUS
 10
14.0270240704
 20
5.3147913711
 11
14.0936864435
 21
5.3147913711
  0
LINE
  5
23B
100
AcDbEntity
  8
0
100
AcDbLine
 62
7
  6
CONTINUOUS
 10
14.5270240704
 20
5.3147913711
 11
14.5936864435
 21
5.3147913711
  0
LINE
  5
23C
100
AcDbEntity
  8
0
100
AcDbLine
 62
7
  6
CONTINUOUS
 10
15.0270240704
 20
5.3147913711
 11
15.0936864435
 21
5.3147913711
  0
LINE
  5
23D
100
AcDbEntity
  8
0
100
AcDbLine
 62
7
  6
CONTINUOUS
 10
15.5270240704
 20
5.3147913711
 11
15.5936864435
 21
5.3147913711
  0
LINE
  5
23E
100
AcDbEntity
  8
0
100
AcDbLine
 62
7
  6
CONTINUOUS
 10
16.0270240704
 20
5.3147913711
 11
16.0936864435
 21
5.3147913711
  0
LINE
  5
23F
100
AcDbEntity
  8
0
100
AcDbLine
 62
7
  6
CONTINUOUS
 10
16.5270240704
 20
5.3147913711
 11
16.5936864435
 21
5.3147913711
  0
LINE
  5
240
100
AcDbEntity
  8
0
100
AcDbLine
 62
7
  6
CONTINUOUS
 10
17.0270240704
 20
5.3147913711
 11
17.0936864435
 21
5.3147913711
  0
LINE
  5
241
100
AcDbEntity
  8
0
100
AcDbLine
 62
7
  6
CONTINUOUS
 10
17.5270240704
 20
5.3147913711
 11
17.5603552569
 21
5.3147913711
  0
LINE
  5
242
100
AcDbEntity
  8
0
100
AcDbLine
 62
7
  6
CONTINUOUS
 10
15.4147342607
 20
5.0796386901
 11
15.4559762532
 21
5.2582773855
  0
LINE
  5
243
100
AcDbEntity
  8
0
100
AcDbLine
 62
7
  6
CONTINUOUS
 10
15.6647342607
 20
5.2582773855
 11
15.7059762532
 21
5.0796386901
  0
LINE
  5
244
100
AcDbEntity
  8
0
100
AcDbLine
 62
7
  6
CONTINUOUS
 10
15.9147342607
 20
5.0796386901
 11
15.9559762532
 21
5.2582773855
  0
LINE
  5
245
100
AcDbEntity
  8
0
100
AcDbLine
 62
7
  6
CONTINUOUS
 10
13.5603552569
 20
5.8981247044
 11
17.5603552569
 21
5.8981247044
  0
LINE
  5
246
100
AcDbEntity
  8
0
100
AcDbLine
 62
7
  6
CONTINUOUS
 10
16.1647342607
 20
5.2582773855
 11
16.2059762532
 21
5.0796386901
  0
LINE
  5
247
100
AcDbEntity
  8
0
100
AcDbLine
 62
7
  6
CONTINUOUS
 10
16.4147342607
 20
5.0796386901
 11
16.4559762532
 21
5.2582773855
  0
LINE
  5
248
100
AcDbEntity
  8
0
100
AcDbLine
 62
7
  6
CONTINUOUS
 10
16.6647342607
 20
5.2582773855
 11
16.7059762532
 21
5.0796386901
  0
LINE
  5
249
100
AcDbEntity
  8
0
100
AcDbLine
 62
7
  6
CONTINUOUS
 10
16.9147342607
 20
5.0796386901
 11
16.9559762532
 21
5.2582773855
  0
LINE
  5
24A
100
AcDbEntity
  8
0
100
AcDbLine
 62
7
  6
CONTINUOUS
 10
17.1647342607
 20
5.2582773855
 11
17.2059762532
 21
5.0796386901
  0
LINE
  5
24B
100
AcDbEntity
  8
0
100
AcDbLine
 62
7
  6
CONTINUOUS
 10
17.5603552569
 20
5.3147913711
 11
17.5603552569
 21
5.8981247044
  0
LINE
  5
24C
100
AcDbEntity
  8
0
100
AcDbLine
 62
7
  6
CONTINUOUS
 10
17.4147342607
 20
5.0796386901
 11
17.4559762532
 21
5.2582773855
  0
LINE
  5
24D
100
AcDbEntity
  8
0
100
AcDbLine
 62
7
  6
CONTINUOUS
 10
13.8750193937
 20
10.7528442893
 11
13.8840841519
 21
10.7474041416
  0
LINE
  5
24E
100
AcDbEntity
  8
0
100
AcDbLine
 62
7
  6
CONTINUOUS
 10
13.8750186569
 20
10.7528432971
 11
13.8353712964
 21
10.7824333375
  0
LINE
  5
24F
100
AcDbEntity
  8
0
100
AcDbLine
 62
7
  6
CONTINUOUS
 10
13.5137620462
 20
11.0016562763
 11
13.6921969225
 21
10.7942140602
  0
LINE
  5
250
100
AcDbEntity
  8
0
100
AcDbLine
 62
7
  6
CONTINUOUS
 10
13.4482900522
 20
11.1294989031
 11
13.5036464707
 21
11.0166943825
  0
LWPOLYLINE
  5
251
100
AcDbEntity
  8
0
100
AcDbPolyline
 62
7
  6
CONTINUOUS
 90
3
 70
0
 10
13.8840841519
 20
10.7474041416
 10
13.8996349753
 20
10.7433501319
 10
13.902352635
 20
10.7432622192
  0
LWPOLYLINE
  5
252
100
AcDbEntity
  8
0
100
AcDbPolyline
 62
7
  6
CONTINUOUS
 90
5
 70
0
 10
16.5666970634
 20
10.7432621479
 10
16.5746173248
 20
10.7444393722
 10
16.5832531473
 20
10.7487744495
 10
16.5899270761
 20
10.7553339324
 10
16.5947760796
 20
10.7630709076
  0
LINE
  5
253
100
AcDbEntity
  8
0
100
AcDbLine
 62
7
  6
CONTINUOUS
 10
13.9023124038
 20
10.7432620024
 11
16.5666982777
 21
10.7432620024
  0
LINE
  5
254
100
AcDbEntity
  8
0
100
AcDbLine
 62
7
  6
CONTINUOUS
 10
13.9023591095
 20
10.7432620586
 11
13.9023131719
 21
10.7432620024
  0
LINE
  5
255
100
AcDbEntity
  8
0
100
AcDbLine
 62
7
  6
CONTINUOUS
 10
13.7203206002
 20
10.7824333375
 11
16.5103378192
 21
10.7824333375
  0
LINE
  5
256
100
AcDbEntity
  8
0
100
AcDbLine
 62
7
  6
CONTINUOUS
 10
13.447431056
 20
11.1368800874
 11
14.4156963496
 21
14.2701877259
  0
LWPOLYLINE
  5
257
100
AcDbEntity
  8
0
100
AcDbPolyline
 62
7
  6
CONTINUOUS
 90
5
 70
0
 10
16.6877302251
 20
11.1349256027
 10
16.6956504865
 20
11.1361028271
 10
16.704286309
 20
11.1404379043
 10
16.7109602378
 20
11.1469973872
 10
16.7158092413
 20
11.1547343624
  0
LINE
  5
258
100
AcDbEntity
  8
0
100
AcDbLine
 62
7
  6
CONTINUOUS
 10
16.6340768215
 20
11.1349254572
 11
16.6877314394
 21
11.1349254572
  0
LINE
  5
259
100
AcDbEntity
  8
0
100
AcDbLine
 62
7
  6
CONTINUOUS
 10
16.4110857112
 20
11.1450391523
 11
13.4636905304
 21
11.1450391523
  0
LWPOLYLINE
  5
25A
100
AcDbEntity
  8
0
100
AcDbPolyline
 62
7
  6
CONTINUOUS
 90
5
 70
0
 10
16.8087633868
 20
11.5265890575
 10
16.8166836482
 20
11.5277662819
 10
16.8253194708
 20
11.5321013591
 10
16.8319933996
 20
11.538660842
 10
16.836842403
 20
11.5463978172
  0
LINE
  5
25B
100
AcDbEntity
  8
0
100
AcDbLine
 62
7
  6
CONTINUOUS
 10
16.7551099832
 20
11.526588912
 11
16.8087646011
 21
11.526588912
  0
LWPOLYLINE
  5
25C
100
AcDbEntity
  8
0
100
AcDbPolyline
 62
7
  6
CONTINUOUS
 90
5
 70
0
 10
16.9297965485
 20
11.9182525123
 10
16.9377168099
 20
11.9194297367
 10
16.9463526325
 20
11.9237648139
 10
16.9530265613
 20
11.9303242969
 10
16.9578755647
 20
11.938061272
  0
LINE
  5
25D
100
AcDbEntity
  8
0
100
AcDbLine
 62
7
  6
CONTINUOUS
 10
16.8761431449
 20
11.9182523668
 11
16.9297977628
 21
11.9182523668
  0
LWPOLYLINE
  5
25E
100
AcDbEntity
  8
0
100
AcDbPolyline
 62
7
  6
CONTINUOUS
 90
5
 70
0
 10
17.0508297103
 20
12.3099159671
 10
17.0587499716
 20
12.3110931915
 10
17.0673857942
 20
12.3154282687
 10
17.074059723
 20
12.3219877517
 10
17.0789087264
 20
12.3297247268
  0
LINE
  5
25F
100
AcDbEntity
  8
0
100
AcDbLine
 62
7
  6
CONTINUOUS
 10
16.9971763066
 20
12.3099158216
 11
17.0508309245
 21
12.3099158216
  0
LWPOLYLINE
  5
260
100
AcDbEntity
  8
0
100
AcDbPolyline
 62
7
  6
CONTINUOUS
 90
5
 70
0
 10
17.171862872
 20
12.7015794219
 10
17.1797831333
 20
12.7027566463
 10
17.1884189559
 20
12.7070917236
 10
17.1950928847
 20
12.7136512065
 10
17.1999418881
 20
12.7213881816
  0
LINE
  5
261
100
AcDbEntity
  8
0
100
AcDbLine
 62
7
  6
CONTINUOUS
 10
17.1182094683
 20
12.7015792764
 11
17.1718640862
 21
12.7015792764
  0
LWPOLYLINE
  5
262
100
AcDbEntity
  8
0
100
AcDbPolyline
 62
7
  6
CONTINUOUS
 90
5
 70
0
 10
17.2928960337
 20
13.0932428767
 10
17.300816295
 20
13.0944201011
 10
17.3094521176
 20
13.0987551784
 10
17.3161260464
 20
13.1053146613
 10
17.3209750498
 20
13.1130516365
  0
LINE
  5
263
100
AcDbEntity
  8
0
100
AcDbLine
 62
7
  6
CONTINUOUS
 10
16.4970947012
 20
11.0166943825
 11
16.4417382827
 21
11.1294989031
  0
LWPOLYLINE
  5
264
100
AcDbEntity
  8
0
100
AcDbPolyline
 62
7
  6
CONTINUOUS
 90
5
 70
0
 10
17.4139291954
 20
13.4849063315
 10
17.4218494567
 20
13.4860835559
 10
17.4304852793
 20
13.4904186332
 10
17.4371592081
 20
13.4969781161
 10
17.4420082115
 20
13.5047150913
  0
LINE
  5
265
100
AcDbEntity
  8
0
100
AcDbLine
 62
7
  6
CONTINUOUS
 10
17.23924263
 20
13.0932427312
 11
17.292897248
 21
13.0932427312
  0
LINE
  5
266
100
AcDbEntity
  8
0
100
AcDbLine
 62
7
  6
CONTINUOUS
 10
16.5268992188
 20
10.7942140602
 11
16.5017383871
 21
11.0016562763
  0
LINE
  5
267
100
AcDbEntity
  8
0
100
AcDbLine
 62
7
  6
CONTINUOUS
 10
17.3602757917
 20
13.4849061861
 11
17.4139304097
 21
13.4849061861
  0
LINE
  5
268
100
AcDbEntity
  8
0
100
AcDbLine
 62
7
  6
CONTINUOUS
 10
16.6267814062
 20
10.8988768822
 11
16.6232961377
 21
11.0422264382
  0
LINE
  5
269
100
AcDbEntity
  8
0
100
AcDbLine
 62
7
  6
CONTINUOUS
 10
16.7478145679
 20
11.290540337
 11
16.7443292994
 21
11.433889893
  0
LWPOLYLINE
  5
26A
100
AcDbEntity
  8
0
100
AcDbPolyline
 62
7
  6
CONTINUOUS
 90
7
 70
0
 10
16.6232952551
 20
11.0422503667
 10
16.6233060431
 20
11.0535802426
 10
16.6245440742
 20
11.0753167982
 10
16.6273066132
 20
11.0992338698
 10
16.6313775077
 20
11.1231200673
 10
16.6363217193
 20
11.1447434687
 10
16.6395575971
 20
11.156134429
  0
LWPOLYLINE
  5
26B
100
AcDbEntity
  8
0
100
AcDbPolyline
 62
7
  6
CONTINUOUS
 90
7
 70
0
 10
16.7443284168
 20
11.4339138215
 10
16.7443392048
 20
11.4452436974
 10
16.7455772359
 20
11.466980253
 10
16.7483397749
 20
11.4908973246
 10
16.7524106694
 20
11.5147835221
 10
16.757354881
 20
11.5364069235
 10
16.7605907588
 20
11.5477978838
  0
LINE
  5
26C
100
AcDbEntity
  8
0
100
AcDbLine
 62
7
  6
CONTINUOUS
 10
16.6266656067
 20
10.8881314922
 11
16.626779801
 21
10.8989227578
  0
LINE
  5
26D
100
AcDbEntity
  8
0
100
AcDbLine
 62
7
  6
CONTINUOUS
 10
16.5265936171
 20
10.7905935324
 11
16.5268992188
 21
10.7942140602
  0
LINE
  5
26E
100
AcDbEntity
  8
0
100
AcDbLine
 62
7
  6
CONTINUOUS
 10
16.8688477296
 20
11.6822037919
 11
16.8653624611
 21
11.8255533478
  0
LWPOLYLINE
  5
26F
100
AcDbEntity
  8
0
100
AcDbPolyline
 62
7
  6
CONTINUOUS
 90
7
 70
0
 10
16.8653615785
 20
11.8255772763
 10
16.8653723665
 20
11.8369071522
 10
16.8666103976
 20
11.8586437078
 10
16.8693729366
 20
11.8825607794
 10
16.8734438311
 20
11.9064469769
 10
16.8783880427
 20
11.9280703783
 10
16.8816239206
 20
11.9394613386
  0
LINE
  5
270
100
AcDbEntity
  8
0
100
AcDbLine
 62
7
  6
CONTINUOUS
 10
16.7476987684
 20
11.279794947
 11
16.7478129627
 21
11.2905862126
  0
LINE
  5
271
100
AcDbEntity
  8
0
100
AcDbLine
 62
7
  6
CONTINUOUS
 10
16.8687319301
 20
11.6714584018
 11
16.8688461244
 21
11.6822496675
  0
LINE
  5
272
100
AcDbEntity
  8
0
100
AcDbLine
 62
7
  6
CONTINUOUS
 10
17.3832947222
 20
13.5627064218
 11
17.3866398927
 21
13.5718759285
  0
LINE
  5
273
100
AcDbEntity
  8
0
100
AcDbLine
 62
7
  6
CONTINUOUS
 10
17.2622615605
 20
13.171042967
 11
17.265606731
 21
13.1802124737
  0
LINE
  5
274
100
AcDbEntity
  8
0
100
AcDbLine
 62
7
  6
CONTINUOUS
 10
17.4420082115
 20
13.5047150913
 11
17.4461012272
 21
13.5142127092
  0
LWPOLYLINE
  5
275
100
AcDbEntity
  8
0
100
AcDbPolyline
 62
7
  6
CONTINUOUS
 90
4
 70
0
 10
17.3866398927
 20
13.5718759285
 10
17.389543142
 20
13.5783616802
 10
17.3915867499
 20
13.5819552823
 10
17.3919781597
 20
13.5825039309
  0
LWPOLYLINE
  5
276
100
AcDbEntity
  8
0
100
AcDbPolyline
 62
7
  6
CONTINUOUS
 90
4
 70
0
 10
17.265606731
 20
13.1802124737
 10
17.2685099803
 20
13.1866982254
 10
17.2705535882
 20
13.1902918274
 10
17.270944998
 20
13.190840476
  0
LWPOLYLINE
  5
277
100
AcDbEntity
  8
0
100
AcDbPolyline
 62
7
  6
CONTINUOUS
 90
4
 70
0
 10
17.1445735693
 20
12.7885490189
 10
17.1474768186
 20
12.7950347706
 10
17.1495204265
 20
12.7986283726
 10
17.1499118363
 20
12.7991770212
  0
LINE
  5
278
100
AcDbEntity
  8
0
100
AcDbLine
 62
7
  6
CONTINUOUS
 10
16.9898808913
 20
12.0738672467
 11
16.9863956228
 21
12.2172168026
  0
LWPOLYLINE
  5
279
100
AcDbEntity
  8
0
100
AcDbPolyline
 62
7
  6
CONTINUOUS
 90
7
 70
0
 10
16.9863947402
 20
12.2172407311
 10
16.9864055282
 20
12.2285706071
 10
16.9876435593
 20
12.2503071626
 10
16.9904060983
 20
12.2742242343
 10
16.9944769928
 20
12.2981104317
 10
16.9994212044
 20
12.3197338331
 10
17.0026570823
 20
12.3311247934
  0
LWPOLYLINE
  5
27A
100
AcDbEntity
  8
0
100
AcDbPolyline
 62
7
  6
CONTINUOUS
 90
7
 70
0
 10
17.1074279019
 20
12.6089041859
 10
17.1074386899
 20
12.6202340619
 10
17.108676721
 20
12.6419706174
 10
17.1114392601
 20
12.6658876891
 10
17.1155101545
 20
12.6897738865
 10
17.1204543661
 20
12.7113972879
 10
17.123690244
 20
12.7227882482
  0
LINE
  5
27B
100
AcDbEntity
  8
0
100
AcDbLine
 62
7
  6
CONTINUOUS
 10
16.9897650918
 20
12.0631218566
 11
16.9898792861
 21
12.0739131223
  0
LWPOLYLINE
  5
27C
100
AcDbEntity
  8
0
100
AcDbPolyline
 62
7
  6
CONTINUOUS
 90
4
 70
0
 10
16.6197137333
 20
10.8403617969
 10
16.6230281156
 20
10.8559245969
 10
16.6253731994
 20
10.8719325366
 10
16.6266656067
 20
10.8881314922
  0
LWPOLYLINE
  5
27D
100
AcDbEntity
  8
0
100
AcDbPolyline
 62
7
  6
CONTINUOUS
 90
4
 70
0
 10
16.740746895
 20
11.2320252518
 10
16.7440612773
 20
11.2475880517
 10
16.7464063611
 20
11.2635959914
 10
16.7476987684
 20
11.279794947
  0
LWPOLYLINE
  5
27E
100
AcDbEntity
  8
0
100
AcDbPolyline
 62
7
  6
CONTINUOUS
 90
4
 70
0
 10
16.8617800567
 20
11.6236887066
 10
16.865094439
 20
11.6392515065
 10
16.8674395228
 20
11.6552594462
 10
16.8687319301
 20
11.6714584018
  0
LWPOLYLINE
  5
27F
100
AcDbEntity
  8
0
100
AcDbPolyline
 62
7
  6
CONTINUOUS
 90
4
 70
0
 10
16.9828132184
 20
12.0153521614
 10
16.9861276007
 20
12.0309149613
 10
16.9884726845
 20
12.046922901
 10
16.9897650918
 20
12.0631218566
  0
LWPOLYLINE
  5
280
100
AcDbEntity
  8
0
100
AcDbPolyline
 62
7
  6
CONTINUOUS
 90
4
 70
0
 10
17.1038463801
 20
12.4070156162
 10
17.1071607624
 20
12.4225784161
 10
17.1095058462
 20
12.4385863558
 10
17.1107982535
 20
12.4547853114
  0
LINE
  5
281
100
AcDbEntity
  8
0
100
AcDbLine
 62
7
  6
CONTINUOUS
 10
16.6171635129
 20
10.8312026874
 11
16.6197137333
 21
10.8403617969
  0
LINE
  5
282
100
AcDbEntity
  8
0
100
AcDbLine
 62
7
  6
CONTINUOUS
 10
16.7381966746
 20
11.2228661422
 11
16.740746895
 21
11.2320252518
  0
LINE
  5
283
100
AcDbEntity
  8
0
100
AcDbLine
 62
7
  6
CONTINUOUS
 10
16.8592298363
 20
11.6145295971
 11
16.8617800567
 21
11.6236887066
  0
LINE
  5
284
100
AcDbEntity
  8
0
100
AcDbLine
 62
7
  6
CONTINUOUS
 10
16.980262998
 20
12.0061930519
 11
16.9828132184
 21
12.0153521614
  0
LINE
  5
285
100
AcDbEntity
  8
0
100
AcDbLine
 62
7
  6
CONTINUOUS
 10
17.1012961597
 20
12.3978565067
 11
17.1038463801
 21
12.4070156162
  0
LINE
  5
286
100
AcDbEntity
  8
0
100
AcDbLine
 62
7
  6
CONTINUOUS
 10
17.2223293214
 20
12.7895199615
 11
17.2248795418
 21
12.798679071
  0
LINE
  5
287
100
AcDbEntity
  8
0
100
AcDbLine
 62
7
  6
CONTINUOUS
 10
17.3433624831
 20
13.1811834163
 11
17.3459127035
 21
13.1903425258
  0
LINE
  5
288
100
AcDbEntity
  8
0
100
AcDbLine
 62
7
  6
CONTINUOUS
 10
17.4643956448
 20
13.5728468711
 11
17.4669458652
 21
13.5820059806
  0
LINE
  5
289
100
AcDbEntity
  8
0
100
AcDbLine
 62
7
  6
CONTINUOUS
 10
16.5276452299
 20
10.7939835253
 11
16.5346656519
 21
10.8167016194
  0
LINE
  5
28A
100
AcDbEntity
  8
0
100
AcDbLine
 62
7
  6
CONTINUOUS
 10
16.6395620975
 20
11.1561466419
 11
16.6556988136
 21
11.2083650742
  0
LINE
  5
28B
100
AcDbEntity
  8
0
100
AcDbLine
 62
7
  6
CONTINUOUS
 10
16.7605952592
 20
11.5478100967
 11
16.7767319753
 21
11.6000285291
  0
LINE
  5
28C
100
AcDbEntity
  8
0
100
AcDbLine
 62
7
  6
CONTINUOUS
 10
16.881628421
 20
11.9394735515
 11
16.897765137
 21
11.9916919839
  0
LINE
  5
28D
100
AcDbEntity
  8
0
100
AcDbLine
 62
7
  6
CONTINUOUS
 10
17.0026615827
 20
12.3311370064
 11
17.0187982987
 21
12.3833554387
  0
LINE
  5
28E
100
AcDbEntity
  8
0
100
AcDbLine
 62
7
  6
CONTINUOUS
 10
17.1236947444
 20
12.7228004612
 11
17.1398314604
 21
12.7750188935
  0
LINE
  5
28F
100
AcDbEntity
  8
0
100
AcDbLine
 62
7
  6
CONTINUOUS
 10
17.2447279061
 20
13.114463916
 11
17.2608646221
 21
13.1666823483
  0
LINE
  5
290
100
AcDbEntity
  8
0
100
AcDbLine
 62
7
  6
CONTINUOUS
 10
17.3657610678
 20
13.5061273708
 11
17.3818977838
 21
13.5583458031
  0
LINE
  5
291
100
AcDbEntity
  8
0
100
AcDbLine
 62
7
  6
CONTINUOUS
 10
17.4867942295
 20
13.8977908256
 11
17.4948625872
 21
13.923900041
  0
LINE
  5
292
100
AcDbEntity
  8
0
100
AcDbLine
 62
7
  6
CONTINUOUS
 10
16.6010358908
 20
10.7790120071
 11
16.6171726069
 21
10.8312304392
  0
LINE
  5
293
100
AcDbEntity
  8
0
100
AcDbLine
 62
7
  6
CONTINUOUS
 10
16.7220690525
 20
11.1706754619
 11
16.7382057686
 21
11.2228938941
  0
LINE
  5
294
100
AcDbEntity
  8
0
100
AcDbLine
 62
7
  6
CONTINUOUS
 10
16.8431022142
 20
11.5623389167
 11
16.8592389303
 21
11.6145573489
  0
LINE
  5
295
100
AcDbEntity
  8
0
100
AcDbLine
 62
7
  6
CONTINUOUS
 10
16.9641353759
 20
11.9540023715
 11
16.980272092
 21
12.0062208037
  0
LINE
  5
296
100
AcDbEntity
  8
0
100
AcDbLine
 62
7
  6
CONTINUOUS
 10
17.0851685376
 20
12.3456658263
 11
17.1013052537
 21
12.3978842585
  0
LINE
  5
297
100
AcDbEntity
  8
0
100
AcDbLine
 62
7
  6
CONTINUOUS
 10
17.2062016994
 20
12.7373292812
 11
17.2223384154
 21
12.7895477133
  0
LINE
  5
298
100
AcDbEntity
  8
0
100
AcDbLine
 62
7
  6
CONTINUOUS
 10
17.3272348611
 20
13.128992736
 11
17.3433715771
 21
13.1812111681
  0
LINE
  5
299
100
AcDbEntity
  8
0
100
AcDbLine
 62
7
  6
CONTINUOUS
 10
17.4482680228
 20
13.5206561908
 11
17.4644047388
 21
13.5728746229
  0
LINE
  5
29A
100
AcDbEntity
  8
0
100
AcDbLine
 62
7
  6
CONTINUOUS
 10
17.3818976508
 20
13.558347863
 11
17.3832947222
 21
13.5627064218
  0
LINE
  5
29B
100
AcDbEntity
  8
0
100
AcDbLine
 62
7
  6
CONTINUOUS
 10
17.2608644891
 20
13.1666844082
 11
17.2622615605
 21
13.171042967
  0
LINE
  5
29C
100
AcDbEntity
  8
0
100
AcDbLine
 62
7
  6
CONTINUOUS
 10
17.1398313274
 20
12.7750209534
 11
17.1412283988
 21
12.7793795122
  0
LINE
  5
29D
100
AcDbEntity
  8
0
100
AcDbLine
 62
7
  6
CONTINUOUS
 10
17.0187981657
 20
12.3833574986
 11
17.0201952371
 21
12.3877160574
  0
LINE
  5
29E
100
AcDbEntity
  8
0
100
AcDbLine
 62
7
  6
CONTINUOUS
 10
16.897765004
 20
11.9916940438
 11
16.8991620754
 21
11.9960526025
  0
LINE
  5
29F
100
AcDbEntity
  8
0
100
AcDbLine
 62
7
  6
CONTINUOUS
 10
16.7767318423
 20
11.600030589
 11
16.7781289137
 21
11.6043891477
  0
LINE
  5
2A0
100
AcDbEntity
  8
0
100
AcDbLine
 62
7
  6
CONTINUOUS
 10
16.6556986806
 20
11.2083671341
 11
16.657095752
 21
11.2127256929
  0
LINE
  5
2A1
100
AcDbEntity
  8
0
100
AcDbLine
 62
7
  6
CONTINUOUS
 10
16.5346655189
 20
10.8167036793
 11
16.5360625903
 21
10.8210622381
  0
LINE
  5
2A2
100
AcDbEntity
  8
0
100
AcDbLine
 62
7
  6
CONTINUOUS
 10
17.4461012272
 20
13.5142127092
 11
17.4482736611
 21
13.5206760366
  0
LINE
  5
2A3
100
AcDbEntity
  8
0
100
AcDbLine
 62
7
  6
CONTINUOUS
 10
17.3250680655
 20
13.1225492544
 11
17.3272404993
 21
13.1290125818
  0
LINE
  5
2A4
100
AcDbEntity
  8
0
100
AcDbLine
 62
7
  6
CONTINUOUS
 10
17.2040349038
 20
12.7308857996
 11
17.2062073376
 21
12.737349127
  0
LINE
  5
2A5
100
AcDbEntity
  8
0
100
AcDbLine
 62
7
  6
CONTINUOUS
 10
17.0830017421
 20
12.3392223448
 11
17.0851741759
 21
12.3456856722
  0
LINE
  5
2A6
100
AcDbEntity
  8
0
100
AcDbLine
 62
7
  6
CONTINUOUS
 10
16.9619685804
 20
11.94755889
 11
16.9641410142
 21
11.9540222174
  0
LINE
  5
2A7
100
AcDbEntity
  8
0
100
AcDbLine
 62
7
  6
CONTINUOUS
 10
16.8409354187
 20
11.5558954352
 11
16.8431078525
 21
11.5623587626
  0
LINE
  5
2A8
100
AcDbEntity
  8
0
100
AcDbLine
 62
7
  6
CONTINUOUS
 10
16.719902257
 20
11.1642319803
 11
16.7220746908
 21
11.1706953078
  0
LINE
  5
2A9
100
AcDbEntity
  8
0
100
AcDbLine
 62
7
  6
CONTINUOUS
 10
16.5988690953
 20
10.7725685255
 11
16.6010415291
 21
10.7790318529
  0
LINE
  5
2AA
100
AcDbEntity
  8
0
100
AcDbLine
 62
7
  6
CONTINUOUS
 10
17.1412283988
 20
12.7793795122
 11
17.1445735693
 21
12.7885490189
  0
LINE
  5
2AB
100
AcDbEntity
  8
0
100
AcDbLine
 62
7
  6
CONTINUOUS
 10
17.0201952371
 20
12.3877160574
 11
17.0235404076
 21
12.3968855641
  0
LINE
  5
2AC
100
AcDbEntity
  8
0
100
AcDbLine
 62
7
  6
CONTINUOUS
 10
16.8991620754
 20
11.9960526025
 11
16.9025072459
 21
12.0052221093
  0
LINE
  5
2AD
100
AcDbEntity
  8
0
100
AcDbLine
 62
7
  6
CONTINUOUS
 10
16.7781289137
 20
11.6043891477
 11
16.7814740842
 21
11.6135586544
  0
LINE
  5
2AE
100
AcDbEntity
  8
0
100
AcDbLine
 62
7
  6
CONTINUOUS
 10
16.657095752
 20
11.2127256929
 11
16.6604409225
 21
11.2218951996
  0
LINE
  5
2AF
100
AcDbEntity
  8
0
100
AcDbLine
 62
7
  6
CONTINUOUS
 10
16.5360625903
 20
10.8210622381
 11
16.5394077608
 21
10.8302317448
  0
LINE
  5
2B0
100
AcDbEntity
  8
0
100
AcDbLine
 62
7
  6
CONTINUOUS
 10
17.3209750498
 20
13.1130516365
 11
17.3250680655
 21
13.1225492544
  0
LINE
  5
2B1
100
AcDbEntity
  8
0
100
AcDbLine
 62
7
  6
CONTINUOUS
 10
17.1999418881
 20
12.7213881816
 11
17.2040349038
 21
12.7308857996
  0
LINE
  5
2B2
100
AcDbEntity
  8
0
100
AcDbLine
 62
7
  6
CONTINUOUS
 10
17.0789087264
 20
12.3297247268
 11
17.0830017421
 21
12.3392223448
  0
LINE
  5
2B3
100
AcDbEntity
  8
0
100
AcDbLine
 62
7
  6
CONTINUOUS
 10
16.9578755647
 20
11.938061272
 11
16.9619685804
 21
11.94755889
  0
LINE
  5
2B4
100
AcDbEntity
  8
0
100
AcDbLine
 62
7
  6
CONTINUOUS
 10
16.836842403
 20
11.5463978172
 11
16.8409354187
 21
11.5558954352
  0
LWPOLYLINE
  5
2B5
100
AcDbEntity
  8
0
100
AcDbPolyline
 62
7
  6
CONTINUOUS
 90
4
 70
0
 10
17.0235404076
 20
12.3968855641
 10
17.0264436569
 20
12.4033713158
 10
17.0284872648
 20
12.4069649178
 10
17.0288786746
 20
12.4075135664
  0
LWPOLYLINE
  5
2B6
100
AcDbEntity
  8
0
100
AcDbPolyline
 62
7
  6
CONTINUOUS
 90
4
 70
0
 10
16.9025072459
 20
12.0052221093
 10
16.9054104952
 20
12.011707861
 10
16.9074541031
 20
12.015301463
 10
16.9078455129
 20
12.0158501116
  0
LWPOLYLINE
  5
2B7
100
AcDbEntity
  8
0
100
AcDbPolyline
 62
7
  6
CONTINUOUS
 90
4
 70
0
 10
16.7814740842
 20
11.6135586544
 10
16.7843773335
 20
11.6200444062
 10
16.7864209414
 20
11.6236380082
 10
16.7868123512
 20
11.6241866568
  0
LWPOLYLINE
  5
2B8
100
AcDbEntity
  8
0
100
AcDbPolyline
 62
7
  6
CONTINUOUS
 90
4
 70
0
 10
16.6604409225
 20
11.2218951996
 10
16.6633441718
 20
11.2283809513
 10
16.6653877797
 20
11.2319745534
 10
16.6657791895
 20
11.232523202
  0
LINE
  5
2B9
100
AcDbEntity
  8
0
100
AcDbLine
 62
7
  6
CONTINUOUS
 10
17.1109140531
 20
12.4655307015
 11
17.1074287846
 21
12.6088802574
  0
LINE
  5
2BA
100
AcDbEntity
  8
0
100
AcDbLine
 62
7
  6
CONTINUOUS
 10
17.2319472148
 20
12.8571941563
 11
17.2284619463
 21
13.0005437122
  0
LWPOLYLINE
  5
2BB
100
AcDbEntity
  8
0
100
AcDbPolyline
 62
7
  6
CONTINUOUS
 90
7
 70
0
 10
17.2284610636
 20
13.0005676407
 10
17.2284718516
 20
13.0118975167
 10
17.2297098828
 20
13.0336340722
 10
17.2324724218
 20
13.0575511439
 10
17.2365433162
 20
13.0814373414
 10
17.2414875278
 20
13.1030607427
 10
17.2447234057
 20
13.1144517031
  0
LINE
  5
2BC
100
AcDbEntity
  8
0
100
AcDbLine
 62
7
  6
CONTINUOUS
 10
17.1107982535
 20
12.4547853114
 11
17.1109124478
 21
12.4655765771
  0
LINE
  5
2BD
100
AcDbEntity
  8
0
100
AcDbLine
 62
7
  6
CONTINUOUS
 10
17.2318314152
 20
12.8464487662
 11
17.2319456095
 21
12.8572400319
  0
LWPOLYLINE
  5
2BE
100
AcDbEntity
  8
0
100
AcDbPolyline
 62
7
  6
CONTINUOUS
 90
4
 70
0
 10
17.2248795418
 20
12.798679071
 10
17.2281939241
 20
12.8142418709
 10
17.2305390079
 20
12.8302498106
 10
17.2318314152
 20
12.8464487662
  0
LWPOLYLINE
  5
2BF
100
AcDbEntity
  8
0
100
AcDbPolyline
 62
7
  6
CONTINUOUS
 90
4
 70
0
 10
17.3459127035
 20
13.1903425258
 10
17.3492270858
 20
13.2059053258
 10
17.3515721696
 20
13.2219132655
 10
17.3528645769
 20
13.238112221
  0
LWPOLYLINE
  5
2C0
100
AcDbEntity
  8
0
100
AcDbPolyline
 62
7
  6
CONTINUOUS
 90
4
 70
0
 10
17.4669458652
 20
13.5820059806
 10
17.4702602475
 20
13.5975687806
 10
17.4726053313
 20
13.6135767203
 10
17.4738977386
 20
13.6297756759
  0
LINE
  5
2C1
100
AcDbEntity
  8
0
100
AcDbLine
 62
7
  6
CONTINUOUS
 10
16.7158092413
 20
11.1547343624
 11
16.719902257
 21
11.1642319803
  0
LINE
  5
2C2
100
AcDbEntity
  8
0
100
AcDbLine
 62
7
  6
CONTINUOUS
 10
16.5947760796
 20
10.7630709076
 11
16.5988690953
 21
10.7725685255
  0
LWPOLYLINE
  5
2C3
100
AcDbEntity
  8
0
100
AcDbPolyline
 62
7
  6
CONTINUOUS
 90
4
 70
0
 10
16.5394077608
 20
10.8302317448
 10
16.5423110101
 20
10.8367174965
 10
16.544354618
 20
10.8403110986
 10
16.5447460278
 20
10.8408597472
  0
LINE
  5
2C4
100
AcDbEntity
  8
0
100
AcDbLine
 62
7
  6
CONTINUOUS
 10
17.3793510048
 20
14.2783467909
 11
14.431955824
 21
14.2783467909
  0
LINE
  5
2C5
100
AcDbEntity
  8
0
100
AcDbLine
 62
7
  6
CONTINUOUS
 10
17.3529803765
 20
13.2488576111
 11
17.349495108
 21
13.392207167
  0
LWPOLYLINE
  5
2C6
100
AcDbEntity
  8
0
100
AcDbPolyline
 62
7
  6
CONTINUOUS
 90
7
 70
0
 10
17.3494942253
 20
13.3922310955
 10
17.3495050133
 20
13.4035609715
 10
17.3507430445
 20
13.4252975271
 10
17.3535055835
 20
13.4492145987
 10
17.3575764779
 20
13.4731007962
 10
17.3625206895
 20
13.4947241976
 10
17.3657565674
 20
13.5061151579
  0
LINE
  5
2C7
100
AcDbEntity
  8
0
100
AcDbLine
 62
7
  6
CONTINUOUS
 10
17.3528645769
 20
13.238112221
 11
17.3529787713
 21
13.2489034867
  0
LINE
  5
2C8
100
AcDbEntity
  8
0
100
AcDbLine
 62
7
  6
CONTINUOUS
 10
17.4738977386
 20
13.6297756759
 11
17.474011933
 21
13.6405669415
  0
LINE
  5
2C9
100
AcDbEntity
  8
0
100
AcDbLine
 62
7
  6
CONTINUOUS
 10
17.4951645125
 20
13.9275216987
 11
17.4948589107
 21
13.9239011709
  0
LINE
  5
2CA
100
AcDbEntity
  8
0
100
AcDbLine
 62
7
  6
CONTINUOUS
 10
17.4740135382
 20
13.6405210659
 11
17.4705282697
 21
13.7838706218
  0
LWPOLYLINE
  5
2CB
100
AcDbEntity
  8
0
100
AcDbPolyline
 62
7
  6
CONTINUOUS
 90
7
 70
0
 10
17.470527387
 20
13.7838945504
 10
17.470538175
 20
13.7952244263
 10
17.4717762062
 20
13.8169609819
 10
17.4745387452
 20
13.8408780535
 10
17.4786096396
 20
13.864764251
 10
17.4835538512
 20
13.8863876524
 10
17.4867897291
 20
13.8977786127
  0
LINE
  5
2CC
100
AcDbEntity
  8
0
100
AcDbLine
 62
7
  6
CONTINUOUS
 10
17.4951645125
 20
13.9275216987
 11
17.4700036807
 21
14.1349639148
  0
LINE
  5
2CD
100
AcDbEntity
  8
0
100
AcDbLine
 62
7
  6
CONTINUOUS
 10
17.4653599949
 20
14.150002021
 11
17.4100035764
 21
14.2628065417
  0
ARC
  5
2CE
100
AcDbEntity
  8
0
100
AcDbCircle
 62
7
  6
CONTINUOUS
 10
4.6158002512
 20
5.3992865634
 40
0.025
100
AcDbArc
 50
194.0
 51
270.0
  0
ARC
  5
2CF
100
AcDbEntity
  8
0
100
AcDbCircle
 62
7
  6
CONTINUOUS
 10
4.6885205332
 20
5.1076214429
 40
0.025
100
AcDbArc
 50
194.003652086
 51
270.0008832903
  0
ARC
  5
2D0
100
AcDbEntity
  8
0
100
AcDbCircle
 62
7
  6
CONTINUOUS
 10
4.6053672762
 20
5.7511483528
 40
0.1
100
AcDbArc
 50
180.0
 51
194.0
  0
ARC
  5
2D1
100
AcDbEntity
  8
0
100
AcDbCircle
 62
7
  6
CONTINUOUS
 10
4.5303672762
 20
5.9326198968
 40
0.025
100
AcDbArc
 50
90.0
 51
180.0
  0
ARC
  5
2D2
100
AcDbEntity
  8
0
100
AcDbCircle
 62
7
  6
CONTINUOUS
 10
7.5722136336
 20
5.1076198968
 40
0.025
100
AcDbArc
 50
270.0
 51
346.0
  0
ARC
  5
2D3
100
AcDbEntity
  8
0
100
AcDbCircle
 62
7
  6
CONTINUOUS
 10
7.6449343011
 20
5.3992865634
 40
0.025
100
AcDbArc
 50
270.0
 51
346.0
  0
ARC
  5
2D4
100
AcDbEntity
  8
0
100
AcDbCircle
 62
7
  6
CONTINUOUS
 10
7.6553672762
 20
5.7511483528
 40
0.1
100
AcDbArc
 50
346.0
 51
360.0
  0
ARC
  5
2D5
100
AcDbEntity
  8
0
100
AcDbCircle
 62
7
  6
CONTINUOUS
 10
7.7303672762
 20
5.9326198968
 40
0.025
100
AcDbArc
 50
0.0
 51
90.0
  0
ARC
  5
2D6
100
AcDbEntity
  8
0
100
AcDbCircle
 62
7
  6
CONTINUOUS
 10
13.7770240704
 20
5.0960413711
 40
0.0729166667
100
AcDbArc
 50
193.0
 51
270.0
  0
ARC
  5
2D7
100
AcDbEntity
  8
0
100
AcDbCircle
 62
7
  6
CONTINUOUS
 10
13.8436864435
 20
5.0960413711
 40
0.0729166667
100
AcDbArc
 50
270.0
 51
347.0
  0
ARC
  5
2D8
100
AcDbEntity
  8
0
100
AcDbCircle
 62
7
  6
CONTINUOUS
 10
14.2770240704
 20
5.0960413711
 40
0.0729166667
100
AcDbArc
 50
193.0
 51
270.0
  0
ARC
  5
2D9
100
AcDbEntity
  8
0
100
AcDbCircle
 62
7
  6
CONTINUOUS
 10
14.3436864435
 20
5.0960413711
 40
0.0729166667
100
AcDbArc
 50
270.0
 51
347.0
  0
ARC
  5
2DA
100
AcDbEntity
  8
0
100
AcDbCircle
 62
7
  6
CONTINUOUS
 10
14.7770240704
 20
5.0960413711
 40
0.0729166667
100
AcDbArc
 50
193.0
 51
270.0
  0
ARC
  5
2DB
100
AcDbEntity
  8
0
100
AcDbCircle
 62
7
  6
CONTINUOUS
 10
14.8436864435
 20
5.0960413711
 40
0.0729166667
100
AcDbArc
 50
270.0
 51
347.0
  0
ARC
  5
2DC
100
AcDbEntity
  8
0
100
AcDbCircle
 62
7
  6
CONTINUOUS
 10
15.2770240704
 20
5.0960413711
 40
0.0729166667
100
AcDbArc
 50
193.0
 51
270.0
  0
ARC
  5
2DD
100
AcDbEntity
  8
0
100
AcDbCircle
 62
7
  6
CONTINUOUS
 10
15.3436864435
 20
5.0960413711
 40
0.0729166667
100
AcDbArc
 50
270.0
 51
347.0
  0
ARC
  5
2DE
100
AcDbEntity
  8
0
100
AcDbCircle
 62
7
  6
CONTINUOUS
 10
13.5936864435
 20
5.2418747044
 40
0.0729166667
100
AcDbArc
 50
13.0
 51
90.0
  0
ARC
  5
2DF
100
AcDbEntity
  8
0
100
AcDbCircle
 62
7
  6
CONTINUOUS
 10
14.0270240704
 20
5.2418747044
 40
0.0729166667
100
AcDbArc
 50
90.0
 51
167.0
  0
ARC
  5
2E0
100
AcDbEntity
  8
0
100
AcDbCircle
 62
7
  6
CONTINUOUS
 10
14.0936864435
 20
5.2418747044
 40
0.0729166667
100
AcDbArc
 50
13.0
 51
90.0
  0
ARC
  5
2E1
100
AcDbEntity
  8
0
100
AcDbCircle
 62
7
  6
CONTINUOUS
 10
14.5270240704
 20
5.2418747044
 40
0.0729166667
100
AcDbArc
 50
90.0
 51
167.0
  0
ARC
  5
2E2
100
AcDbEntity
  8
0
100
AcDbCircle
 62
7
  6
CONTINUOUS
 10
14.5936864435
 20
5.2418747044
 40
0.0729166667
100
AcDbArc
 50
13.0
 51
90.0
  0
ARC
  5
2E3
100
AcDbEntity
  8
0
100
AcDbCircle
 62
7
  6
CONTINUOUS
 10
15.0270240704
 20
5.2418747044
 40
0.0729166667
100
AcDbArc
 50
90.0
 51
167.0
  0
ARC
  5
2E4
100
AcDbEntity
  8
0
100
AcDbCircle
 62
7
  6
CONTINUOUS
 10
15.0936864435
 20
5.2418747044
 40
0.0729166667
100
AcDbArc
 50
13.0
 51
90.0
  0
ARC
  5
2E5
100
AcDbEntity
  8
0
100
AcDbCircle
 62
7
  6
CONTINUOUS
 10
15.5270240704
 20
5.2418747044
 40
0.0729166667
100
AcDbArc
 50
90.0
 51
167.0
  0
ARC
  5
2E6
100
AcDbEntity
  8
0
100
AcDbCircle
 62
7
  6
CONTINUOUS
 10
17.3436864435
 20
5.0960413711
 40
0.0729166667
100
AcDbArc
 50
270.0
 51
347.0
  0
ARC
  5
2E7
100
AcDbEntity
  8
0
100
AcDbCircle
 62
7
  6
CONTINUOUS
 10
17.2770240704
 20
5.0960413711
 40
0.0729166667
100
AcDbArc
 50
193.0
 51
270.0
  0
ARC
  5
2E8
100
AcDbEntity
  8
0
100
AcDbCircle
 62
7
  6
CONTINUOUS
 10
16.8436864435
 20
5.0960413711
 40
0.0729166667
100
AcDbArc
 50
270.0
 51
347.0
  0
ARC
  5
2E9
100
AcDbEntity
  8
0
100
AcDbCircle
 62
7
  6
CONTINUOUS
 10
16.7770240704
 20
5.0960413711
 40
0.0729166667
100
AcDbArc
 50
193.0
 51
270.0
  0
ARC
  5
2EA
100
AcDbEntity
  8
0
100
AcDbCircle
 62
7
  6
CONTINUOUS
 10
16.3436864435
 20
5.0960413711
 40
0.0729166667
100
AcDbArc
 50
270.0
 51
347.0
  0
ARC
  5
2EB
100
AcDbEntity
  8
0
100
AcDbCircle
 62
7
  6
CONTINUOUS
 10
16.2770240704
 20
5.0960413711
 40
0.0729166667
100
AcDbArc
 50
193.0
 51
270.0
  0
ARC
  5
2EC
100
AcDbEntity
  8
0
100
AcDbCircle
 62
7
  6
CONTINUOUS
 10
15.8436864435
 20
5.0960413711
 40
0.0729166667
100
AcDbArc
 50
270.0
 51
347.0
  0
ARC
  5
2ED
100
AcDbEntity
  8
0
100
AcDbCircle
 62
7
  6
CONTINUOUS
 10
15.7770240704
 20
5.0960413711
 40
0.0729166667
100
AcDbArc
 50
193.0
 51
270.0
  0
ARC
  5
2EE
100
AcDbEntity
  8
0
100
AcDbCircle
 62
7
  6
CONTINUOUS
 10
17.5270240704
 20
5.2418747044
 40
0.0729166667
100
AcDbArc
 50
90.0
 51
167.0
  0
ARC
  5
2EF
100
AcDbEntity
  8
0
100
AcDbCircle
 62
7
  6
CONTINUOUS
 10
17.0936864435
 20
5.2418747044
 40
0.0729166667
100
AcDbArc
 50
13.0
 51
90.0
  0
ARC
  5
2F0
100
AcDbEntity
  8
0
100
AcDbCircle
 62
7
  6
CONTINUOUS
 10
17.0270240704
 20
5.2418747044
 40
0.0729166667
100
AcDbArc
 50
90.0
 51
167.0
  0
ARC
  5
2F1
100
AcDbEntity
  8
0
100
AcDbCircle
 62
7
  6
CONTINUOUS
 10
16.5936864435
 20
5.2418747044
 40
0.0729166667
100
AcDbArc
 50
13.0
 51
90.0
  0
ARC
  5
2F2
100
AcDbEntity
  8
0
100
AcDbCircle
 62
7
  6
CONTINUOUS
 10
16.5270240704
 20
5.2418747044
 40
0.0729166667
100
AcDbArc
 50
90.0
 51
167.0
  0
ARC
  5
2F3
100
AcDbEntity
  8
0
100
AcDbCircle
 62
7
  6
CONTINUOUS
 10
16.0936864435
 20
5.2418747044
 40
0.0729166667
100
AcDbArc
 50
13.0
 51
90.0
  0
ARC
  5
2F4
100
AcDbEntity
  8
0
100
AcDbCircle
 62
7
  6
CONTINUOUS
 10
16.0270240704
 20
5.2418747044
 40
0.0729166667
100
AcDbArc
 50
90.0
 51
167.0
  0
ARC
  5
2F5
100
AcDbEntity
  8
0
100
AcDbCircle
 62
7
  6
CONTINUOUS
 10
15.5936864435
 20
5.2418747044
 40
0.0729166667
100
AcDbArc
 50
13.0
 51
90.0
  0
SPLINE
  5
2F6
100
AcDbEntity
  8
0
100
AcDbSpline
 62
7
  6
CONTINUOUS
 70
0
 71
3
 72
15
 73
11
 74
0
 42
0.0000001
 43
0.0000001
 44
0.0000000001
 40
0.0
 40
0.0
 40
0.0
 40
0.0
 40
0.1295703124
 40
0.2645784805
 40
0.401266337
 40
0.5362713604
 40
0.6662148064
 40
0.7880978521
 40
0.8998122657
 40
1.0
 40
1.0
 40
1.0
 40
1.0
 10
17.3793510048
 20
14.2783467909
 30
0.0
 10
17.3808992847
 20
14.2783467909
 30
0.0
 10
17.3840632671
 20
14.2781315289
 30
0.0
 10
17.3887857922
 20
14.2772476756
 30
0.0
 10
17.3934420717
 20
14.2758202124
 30
0.0
 10
17.3978538852
 20
14.2739048859
 30
0.0
 10
17.4018600483
 20
14.2715762483
 30
0.0
 10
17.405312141
 20
14.2689149552
 30
0.0
 10
17.4080779537
 20
14.2660188611
 30
0.0
 10
17.4094761686
 20
14.2638812857
 30
0.0
 10
17.4100035764
 20
14.2628065417
 30
0.0
  0
SPLINE
  5
2F7
100
AcDbEntity
  8
0
100
AcDbSpline
 62
7
  6
CONTINUOUS
 70
0
 71
3
 72
14
 73
10
 74
0
 42
0.0000001
 43
0.0000001
 44
0.0000000001
 40
0.0
 40
0.0
 40
0.0
 40
0.0
 40
0.0997016313
 40
0.2029867501
 40
0.3127716791
 40
0.4310997772
 40
0.6966524284
 40
0.8443074712
 40
1.0
 40
1.0
 40
1.0
 40
1.0
 10
14.4156963118
 20
14.2701877398
 30
0.0
 10
14.4158864271
 20
14.2708029712
 30
0.0
 10
14.4164250849
 20
14.2720139089
 30
0.0
 10
14.4176560599
 20
14.2736347874
 30
0.0
 10
14.4192794908
 20
14.2750501514
 30
0.0
 10
14.4220293618
 20
14.2766903358
 30
0.0
 10
14.4253504553
 20
14.2777339914
 30
0.0
 10
14.4289887216
 20
14.2782590224
 30
0.0
 10
14.4309502636
 20
14.2783467909
 30
0.0
 10
14.431955824
 20
14.2783467909
 30
0.0
  0
SPLINE
  5
2F8
100
AcDbEntity
  8
0
100
AcDbSpline
 62
7
  6
CONTINUOUS
 70
0
 71
3
 72
11
 73
7
 74
0
 42
0.0000001
 43
0.0000001
 44
0.0000000001
 40
0.0
 40
0.0
 40
0.0
 40
0.0
 40
0.2336898682
 40
0.474724685
 40
0.7289539978
 40
1.0
 40
1.0
 40
1.0
 40
1.0
 10
13.4474310182
 20
11.1368801013
 30
0.0
 10
13.4472561645
 20
11.1363142575
 30
0.0
 10
13.4470258591
 20
11.1351221153
 30
0.0
 10
13.4470681919
 20
11.133262841
 30
0.0
 10
13.4474859809
 20
11.1313556536
 30
0.0
 10
13.4479874363
 20
11.1301155696
 30
0.0
 10
13.4482900522
 20
11.1294989031
 30
0.0
  0
SPLINE
  5
2F9
100
AcDbEntity
  8
0
100
AcDbSpline
 62
7
  6
CONTINUOUS
 70
0
 71
3
 72
9
 73
5
 74
0
 42
0.0000001
 43
0.0000001
 44
0.0000000001
 40
0.0
 40
0.0
 40
0.0
 40
0.0
 40
0.516604756
 40
1.0
 40
1.0
 40
1.0
 40
1.0
 10
17.4653599949
 20
14.150002021
 30
0.0
 10
17.4665581789
 20
14.1475603786
 30
0.0
 10
17.4685504572
 20
14.1426622073
 30
0.0
 10
17.4696972474
 20
14.1374903502
 30
0.0
 10
17.4700036807
 20
14.1349639148
 30
0.0
  0
SPLINE
  5
2FA
100
AcDbEntity
  8
0
100
AcDbSpline
 62
7
  6
CONTINUOUS
 70
0
 71
3
 72
14
 73
10
 74
0
 42
0.0000001
 43
0.0000001
 44
0.0000000001
 40
0.0
 40
0.0
 40
0.0
 40
0.0
 40
0.1556211307
 40
0.3032633182
 40
0.5688390914
 40
0.6871464399
 40
0.7968763167
 40
0.900165113
 40
1.0
 40
1.0
 40
1.0
 40
1.0
 10
16.5103378192
 20
10.7824333375
 30
0.0
 10
16.511342916
 20
10.7824333375
 30
0.0
 10
16.5133038904
 20
10.7825212114
 30
0.0
 10
16.5169418286
 20
10.7830459311
 30
0.0
 10
16.5202625882
 20
10.7840900179
 30
0.0
 10
16.5230128704
 20
10.7857286964
 30
0.0
 10
16.5246366183
 20
10.7871430536
 30
0.0
 10
16.5258678639
 20
10.7887644405
 30
0.0
 10
16.5264064293
 20
10.7899764984
 30
0.0
 10
16.5265961898
 20
10.7905927383
 30
0.0
  0
SPLINE
  5
2FB
100
AcDbEntity
  8
0
100
AcDbSpline
 62
7
  6
CONTINUOUS
 70
0
 71
3
 72
15
 73
11
 74
0
 42
0.0000001
 43
0.0000001
 44
0.0000000001
 40
0.0
 40
0.0
 40
0.0
 40
0.0
 40
0.1095629038
 40
0.2276814769
 40
0.3524330116
 40
0.4818024466
 40
0.6136254879
 40
0.7455938557
 40
0.8752975023
 40
1.0
 40
1.0
 40
1.0
 40
1.0
 10
13.6921969225
 20
10.7942140602
 30
0.0
 10
13.6929428055
 20
10.7933469225
 30
0.0
 10
13.6946351691
 20
10.7916651619
 30
0.0
 10
13.6975532944
 20
10.7894116086
 30
0.0
 10
13.7008821685
 20
10.7873920508
 30
0.0
 10
13.7045257124
 20
10.7856571435
 30
0.0
 10
13.7083897892
 20
10.7842551314
 30
0.0
 10
13.7123717049
 20
10.7832200084
 30
0.0
 10
13.7163613452
 20
10.7825865016
 30
0.0
 10
13.7190187525
 20
10.7824333375
 30
0.0
 10
13.7203206002
 20
10.7824333375
 30
0.0
  0
SPLINE
  5
2FC
100
AcDbEntity
  8
0
100
AcDbSpline
 62
7
  6
CONTINUOUS
 70
0
 71
3
 72
9
 73
5
 74
0
 42
0.0000001
 43
0.0000001
 44
0.0000000001
 40
0.0
 40
0.0
 40
0.0
 40
0.0
 40
0.237142752
 40
1.0
 40
1.0
 40
1.0
 40
1.0
 10
13.5036464707
 20
11.0166943825
 30
0.0
 10
13.5042785916
 20
11.0154062555
 30
0.0
 10
13.5071459199
 20
11.0100737461
 30
0.0
 10
13.5107520379
 20
11.0051556078
 30
0.0
 10
13.5137620462
 20
11.0016562763
 30
0.0
  0
SPLINE
  5
2FD
100
AcDbEntity
  8
0
100
AcDbSpline
 62
7
  6
CONTINUOUS
 70
0
 71
3
 72
15
 73
11
 74
0
 42
0.0000001
 43
0.0000001
 44
0.0000000001
 40
0.0
 40
0.0
 40
0.0
 40
0.0
 40
0.1001877343
 40
0.2119021479
 40
0.3337851936
 40
0.4637286396
 40
0.598733663
 40
0.7354215195
 40
0.8704296876
 40
1.0
 40
1.0
 40
1.0
 40
1.0
 10
16.4417382827
 20
11.1294989031
 30
0.0
 10
16.441210875
 20
11.1305736472
 30
0.0
 10
16.4398126601
 20
11.1327112226
 30
0.0
 10
16.4370468474
 20
11.1356073167
 30
0.0
 10
16.4335947547
 20
11.1382686097
 30
0.0
 10
16.4295885916
 20
11.1405972474
 30
0.0
 10
16.4251767781
 20
11.1425125739
 30
0.0
 10
16.4205204986
 20
11.1439400371
 30
0.0
 10
16.4157979735
 20
11.1448238904
 30
0.0
 10
16.4126339911
 20
11.1450391523
 30
0.0
 10
16.4110857112
 20
11.1450391523
 30
0.0
  0
SPLINE
  5
2FE
100
AcDbEntity
  8
0
100
AcDbSpline
 62
7
  6
CONTINUOUS
 70
0
 71
3
 72
14
 73
10
 74
0
 42
0.0000001
 43
0.0000001
 44
0.0000000001
 40
0.0
 40
0.0
 40
0.0
 40
0.0
 40
0.1556925288
 40
0.3033475716
 40
0.5689002228
 40
0.6872283209
 40
0.7970132499
 40
0.9002983687
 40
1.0
 40
1.0
 40
1.0
 40
1.0
 10
13.4636905304
 20
11.1450391523
 30
0.0
 10
13.46268497
 20
11.1450391523
 30
0.0
 10
13.460723428
 20
11.1449513839
 30
0.0
 10
13.4570851617
 20
11.1444263529
 30
0.0
 10
13.4537640682
 20
11.1433826973
 30
0.0
 10
13.4510141972
 20
11.1417425129
 30
0.0
 10
13.4493907663
 20
11.1403271488
 30
0.0
 10
13.4481597912
 20
11.1387062704
 30
0.0
 10
13.4476211334
 20
11.1374953327
 30
0.0
 10
13.4474310182
 20
11.1368801013
 30
0.0
  0
SPLINE
  5
2FF
100
AcDbEntity
  8
0
100
AcDbSpline
 62
7
  6
CONTINUOUS
 70
0
 71
3
 72
9
 73
5
 74
0
 42
0.0000001
 43
0.0000001
 44
0.0000000001
 40
0.0
 40
0.0
 40
0.0
 40
0.0
 40
0.483395244
 40
1.0
 40
1.0
 40
1.0
 40
1.0
 10
16.5017383871
 20
11.0016562763
 30
0.0
 10
16.5014319537
 20
11.0041827117
 30
0.0
 10
16.5002851635
 20
11.0093545688
 30
0.0
 10
16.4982928853
 20
11.0142527401
 30
0.0
 10
16.4970947012
 20
11.0166943825
 30
0.0
  0
ENDSEC
  0
SECTION
  2
OBJECTS
  0
DICTIONARY
  5
C
100
AcDbDictionary
280
0
281
1
  3
ACAD_GROUP
350
D
  3
ACAD_MLINESTYLE
350
17
  3
ACAD_LAYOUT
350
1A
  3
ACAD_PLOTSETTINGS
350
19
  3
ACAD_PLOTSTYLENAME
350
E
  0
DICTIONARY
  5
D
102
{ACAD_REACTORS
330
C
102
}
100
AcDbDictionary
280
0
281
1
  0
ACDBDICTIONARYWDFLT
  5
E
102
{ACAD_REACTORS
330
C
102
}
100
AcDbDictionary
281
1
  3
Normal
350
F
100
AcDbDictionaryWithDefault
340
F
  0
DICTIONARY
  5
17
102
{ACAD_REACTORS
330
C
102
}
100
AcDbDictionary
280
0
281
1
  3
Standard
350
18
  0
DICTIONARY
  5
19
102
{ACAD_REACTORS
330
C
102
}
100
AcDbDictionary
281
1
  0
DICTIONARY
  5
1A
102
{ACAD_REACTORS
330
C
102
}
100
AcDbDictionary
281
1
  3
Model
350
300
  3
Layout1
350
301
  0
ACDBPLACEHOLDER
  5
F
102
{ACAD_REACTORS
330
E
102
}
  0
MLINESTYLE
  5
18
102
{ACAD_REACTORS
330
17
102
}
100
AcDbMlineStyle
  2
STANDARD
 70
0
  3

 62
256
 51
90.0
 52
90.0
 71
2
 49
0.5
 62
256
  6
BYLAYER
 49
-0.5
 62
256
  6
BYLAYER
  0
LAYOUT
  5
300
102
{ACAD_REACTORS
330
1A
102
}
100
AcDbPlotSettings
  1

  2
none_device
  4
ANSI_C_(22.00_x_17.00_Inches)
  6

 40
0.0
 41
0.0
 42
0.0
 43
0.0
 44
558.8
 45
431.8
 46
0.0
 47
0.0
 48
0.0
 49
0.0
140
0.0
141
0.0
142
1.0
143
1.0
 70
1024
 72
0
 73
0
 74
0
  7

 75
0
147
1.0
148
0.0
149
0.0
100
AcDbLayout
  1
Model
 70
0
 71
0
 10
0.0
 20
0.0
 11
22.0
 21
17.0
 12
0.0
 22
0.0
 32
0.0
 14
0.0
 24
0.0
 34
0.0
 15
0.0
 25
0.0
 35
0.0
146
0.0
 13
0.0
 23
0.0
 33
0.0
 16
1.0
 26
0.0
 36
0.0
 17
0.0
 27
1.0
 37
0.0
 76
0
330
216
345
0
346
0
  0
LAYOUT
  5
301
102
{ACAD_REACTORS
330
1A
102
}
100
AcDbPlotSettings
  1

  2
none_device
  4
ANSI_C_(22.00_x_17.00_Inches)
  6

 40
0.0
 41
0.0
 42
0.0
 43
0.0
 44
558.8
 45
431.8
 46
0.0
 47
0.0
 48
0.0
 49
0.0
140
0.0
141
0.0
142
1.0
143
1.0
 70
0
 72
0
 73
0
 74
0
  7

 75
0
147
1.0
148
0.0
149
0.0
100
AcDbLayout
  1
Layout1
 70
0
 71
1
 10
0.0
 20
0.0
 11
22.0
 21
17.0
 12
0.0
 22
0.0
 32
0.0
 14
0.0
 24
0.0
 34
0.0
 15
0.0
 25
0.0
 35
0.0
146
0.0
 13
0.0
 23
0.0
 33
0.0
 16
1.0
 26
0.0
 36
0.0
 17
0.0
 27
1.0
 37
0.0
 76
0
330
217
345
0
346
0
  0
ENDSEC
  0
EOF