999
DXF file: _cgs_temp_output.dxf
999
Pro/ENGINEER 2015110 by Parametric Technology Corporation
  0
SECTION
  2
HEADER
  9
$ACADVER
  1
AC1021
  9
$DWGCODEPAGE
  3
ANSI_1252
  9
$EXTMAX
 10
22.0
 20
17.0
 30
0.0
  9
$EXTMIN
 10
0.0
 20
0.0
 30
0.0
  9
$LIMMIN
 10
0.0
 20
0.0
  9
$LIMMAX
 10
22.0
 20
17.0
  9
$VIEWCTR
 10
11.0
 20
8.5
  9
$VIEWSIZE
 40
17.0
  9
$CLAYER
  8
0
  9
$LTSCALE
 40
1.21
  9
$CELTYPE
  6
BYLAYER
  9
$DIMSCALE
 40
1.0
  9
$DIMASZ
 40
0.1875
  9
$DIMEXO
 40
0.0625
  9
$DIMDLI
 40
0.836
  9
$DIMEXE
 40
0.125
  9
$DIMCEN
 40
0.198
  9
$DIMLFAC
 40
1.0
  9
$DIMBLK
  1
_CLOSED
  9
$DIMALT
 70
0
  9
$DIMALTF
 40
25.4
  9
$DIMTXT
 40
0.15625
  9
$DIMTOL
 70
0
  9
$DIMLIM
 70
0
  9
$DIMTFAC
 40
1.0
  9
$DIMGAP
 40
0.09
  9
$DIMDSEP
 70
46
  9
$AUNITS
 70
0
  9
$PDMODE
 70
3
  9
$PDSIZE
 40
0.3125
  9
$HANDSEED
  5
290
  9
$TILEMODE
 70
1
  9
$MEASUREMENT
 70
0
  9
$INSUNITS
 70
1
  0
ENDSEC
  0
SECTION
  2
CLASSES
  0
CLASS
  1
ACDBDICTIONARYWDFLT
  2
AcDbDictionaryWithDefault
  3
AutoCAD 2000
 90
0
 91
1
280
0
281
0
  0
CLASS
  1
ACDBPLACEHOLDER
  2
AcDbPlaceHolder
  3
AutoCAD 2000
 90
0
 91
1
280
0
281
0
  0
CLASS
  1
LAYOUT
  2
AcDbLayout
  3
AutoCAD 2000
 90
0
 91
0
280
0
281
0
  0
ENDSEC
  0
SECTION
  2
TABLES
  0
TABLE
  2
VPORT
  5
8
100
AcDbSymbolTable
 70
2
  0
VPORT
  5
1F4
100
AcDbSymbolTableRecord
100
AcDbViewportTableRecord
  2
*ACTIVE
 70
0
 10
0.0
 20
0.0
 11
1.0
 21
1.0
 12
11.0
 22
8.5
 13
0.0
 23
0.0
 14
1.0
 24
1.0
 15
0.0
 25
0.0
 16
0.0
 26
0.0
 36
1.0
 17
0.0
 27
0.0
 37
0.0
 40
17.0
 41
1.2941176471
 42
50.0
 43
0.0
 44
0.0
 50
0.0
 51
0.0
 71
0
 72
100
 73
1
 74
1
 75
0
 76
0
 77
0
 78
0
  0
ENDTAB
  0
TABLE
  2
LTYPE
  5
5
100
AcDbSymbolTable
 70
6
  0
LTYPE
  5
14
100
AcDbSymbolTableRecord
100
AcDbLinetypeTableRecord
  2
BYBLOCK
 70
0
  3

 72
65
 73
0
 40
0.0
  0
LTYPE
  5
15
100
AcDbSymbolTableRecord
100
AcDbLinetypeTableRecord
  2
BYLAYER
 70
0
  3

 72
65
 73
0
 40
0.0
  0
LTYPE
  5
16
100
AcDbSymbolTableRecord
100
AcDbLinetypeTableRecord
  2
CONTINUOUS
 70
64
  3
Solid line
 72
65
 73
0
 40
0.0
  0
LTYPE
  5
1F5
100
AcDbSymbolTableRecord
100
AcDbLinetypeTableRecord
  2
CENTER
 70
64
  3
____ _ ____ _ ____ _ ____ _ ____ _ ____ _ ____
 72
65
 73
4
 40
0.6
 49
0.375
 74
0
 49
-0.075
 74
0
 49
0.075
 74
0
 49
-0.075
 74
0
  0
LTYPE
  5
1F6
100
AcDbSymbolTableRecord
100
AcDbLinetypeTableRecord
  2
HIDDEN
 70
64
  3
- - - - - - - - - - - - - - - - - - - -
 72
65
 73
2
 40
0.2
 49
0.1
 74
0
 49
-0.1
 74
0
  0
LTYPE
  5
1F7
100
AcDbSymbolTableRecord
100
AcDbLinetypeTableRecord
  2
PHANTOM
 70
64
  3
_____ _ _ _____ _ _ _____ _ _ _____
 72
65
 73
6
 40
0.8
 49
0.45
 74
0
 49
-0.05
 74
0
 49
0.1
 74
0
 49
-0.05
 74
0
 49
0.1
 74
0
 49
-0.05
 74
0
  0
LTYPE
  5
1F8
100
AcDbSymbolTableRecord
100
AcDbLinetypeTableRecord
  2
DOT
 70
64
  3
. . . . . . . . . . . . . . . . . . . .
 72
65
 73
2
 40
0.2
 49
0.1
 74
0
 49
-0.1
 74
0
  0
LTYPE
  5
1F9
100
AcDbSymbolTableRecord
100
AcDbLinetypeTableRecord
  2
DASHED
 70
64
  3
- - - - - - - - - - - - - - - - - - - -
 72
65
 73
2
 40
0.2
 49
0.1
 74
0
 49
-0.1
 74
0
  0
ENDTAB
  0
TABLE
  2
LAYER
  5
2
100
AcDbSymbolTable
 70
36
  0
LAYER
  5
10
100
AcDbSymbolTableRecord
100
AcDbLayerTableRecord
  2
0
 70
0
 62
7
  6
CONTINUOUS
370
-3
390
F
  0
LAYER
  5
1FA
100
AcDbSymbolTableRecord
100
AcDbLayerTableRecord
  2
DEFAULT_1
 70
0
 62
7
  6
CENTER
370
-3
390
F
  0
LAYER
  5
1FB
100
AcDbSymbolTableRecord
100
AcDbLayerTableRecord
  2
DEFAULT_2
 70
0
 62
8
  6
HIDDEN
370
-3
390
F
  0
LAYER
  5
1FC
100
AcDbSymbolTableRecord
100
AcDbLayerTableRecord
  2
DEFAULT_3
 70
0
 62
7
  6
PHANTOM
370
-3
390
F
  0
LAYER
  5
1FD
100
AcDbSymbolTableRecord
100
AcDbLayerTableRecord
  2
01_ALL_DTM_PLN
 70
0
 62
7
  6
CONTINUOUS
370
-3
390
F
  0
LAYER
  5
1FE
100
AcDbSymbolTableRecord
100
AcDbLayerTableRecord
  2
01__ASM_ALL_DTM_PLN
 70
0
 62
7
  6
CONTINUOUS
370
-3
390
F
  0
LAYER
  5
1FF
100
AcDbSymbolTableRecord
100
AcDbLayerTableRecord
  2
01__ASM_DEF_DTM_PLN
 70
0
 62
7
  6
CONTINUOUS
370
-3
390
F
  0
LAYER
  5
200
100
AcDbSymbolTableRecord
100
AcDbLayerTableRecord
  2
01___PRT_ALL_DTM_PLN
 70
0
 62
7
  6
CONTINUOUS
370
-3
390
F
  0
LAYER
  5
201
100
AcDbSymbolTableRecord
100
AcDbLayerTableRecord
  2
01___PRT_DEF_DTM_PLN
 70
0
 62
7
  6
CONTINUOUS
370
-3
390
F
  0
LAYER
  5
202
100
AcDbSymbolTableRecord
100
AcDbLayerTableRecord
  2
02_ALL_AXES
 70
0
 62
7
  6
CONTINUOUS
370
-3
390
F
  0
LAYER
  5
203
100
AcDbSymbolTableRecord
100
AcDbLayerTableRecord
  2
02__ASM_ALL_AXES
 70
0
 62
7
  6
CONTINUOUS
370
-3
390
F
  0
LAYER
  5
204
100
AcDbSymbolTableRecord
100
AcDbLayerTableRecord
  2
02___PRT_ALL_AXES
 70
0
 62
7
  6
CONTINUOUS
370
-3
390
F
  0
LAYER
  5
205
100
AcDbSymbolTableRecord
100
AcDbLayerTableRecord
  2
03_ALL_CURVES
 70
0
 62
7
  6
CONTINUOUS
370
-3
390
F
  0
LAYER
  5
206
100
AcDbSymbolTableRecord
100
AcDbLayerTableRecord
  2
03__ASM_ALL_CURVES
 70
0
 62
7
  6
CONTINUOUS
370
-3
390
F
  0
LAYER
  5
207
100
AcDbSymbolTableRecord
100
AcDbLayerTableRecord
  2
03___PRT_ALL_CURVES
 70
0
 62
7
  6
CONTINUOUS
370
-3
390
F
  0
LAYER
  5
208
100
AcDbSymbolTableRecord
100
AcDbLayerTableRecord
  2
04_ALL_DTM_PNT
 70
0
 62
7
  6
CONTINUOUS
370
-3
390
F
  0
LAYER
  5
209
100
AcDbSymbolTableRecord
100
AcDbLayerTableRecord
  2
04__ASM_ALL_DTM_PNT
 70
0
 62
7
  6
CONTINUOUS
370
-3
390
F
  0
LAYER
  5
20A
100
AcDbSymbolTableRecord
100
AcDbLayerTableRecord
  2
04___PRT_ALL_DTM_PNT
 70
0
 62
7
  6
CONTINUOUS
370
-3
390
F
  0
LAYER
  5
20B
100
AcDbSymbolTableRecord
100
AcDbLayerTableRecord
  2
05_ALL_DTM_CSYS
 70
0
 62
7
  6
CONTINUOUS
370
-3
390
F
  0
LAYER
  5
20C
100
AcDbSymbolTableRecord
100
AcDbLayerTableRecord
  2
05__ASM_ALL_DTM_CSYS
 70
0
 62
7
  6
CONTINUOUS
370
-3
390
F
  0
LAYER
  5
20D
100
AcDbSymbolTableRecord
100
AcDbLayerTableRecord
  2
05__ASM_DEF_DTM_CSYS
 70
0
 62
7
  6
CONTINUOUS
370
-3
390
F
  0
LAYER
  5
20E
100
AcDbSymbolTableRecord
100
AcDbLayerTableRecord
  2
05___PRT_ALL_DTM_CSYS
 70
0
 62
7
  6
CONTINUOUS
370
-3
390
F
  0
LAYER
  5
20F
100
AcDbSymbolTableRecord
100
AcDbLayerTableRecord
  2
05___PRT_DEF_DTM_CSYS
 70
0
 62
7
  6
CONTINUOUS
370
-3
390
F
  0
LAYER
  5
210
100
AcDbSymbolTableRecord
100
AcDbLayerTableRecord
  2
06_ALL_SURFS
 70
0
 62
7
  6
CONTINUOUS
370
-3
390
F
  0
LAYER
  5
211
100
AcDbSymbolTableRecord
100
AcDbLayerTableRecord
  2
06__ASM_ALL_SURFS
 70
0
 62
7
  6
CONTINUOUS
370
-3
390
F
  0
LAYER
  5
212
100
AcDbSymbolTableRecord
100
AcDbLayerTableRecord
  2
06___PRT_ALL_SURFS
 70
0
 62
7
  6
CONTINUOUS
370
-3
390
F
  0
LAYER
  5
213
100
AcDbSymbolTableRecord
100
AcDbLayerTableRecord
  2
07__ASM_ALL_SKELETONS
 70
0
 62
7
  6
CONTINUOUS
370
-3
390
F
  0
ENDTAB
  0
TABLE
  2
STYLE
  5
3
100
AcDbSymbolTable
 70
1
  0
STYLE
  5
11
100
AcDbSymbolTableRecord
100
AcDbTextStyleTableRecord
  2
STANDARD
 70
0
 40
0.0
 41
0.8
 50
0.0
 71
0
 42
0.2
  3
txt
  4

  0
STYLE
  5
214
100
AcDbSymbolTableRecord
100
AcDbTextStyleTableRecord
  2
TEXTSTYLE_1
 70
0
 40
0.0
 41
0.8
 50
0.0
 71
0
 42
0.2
  3
gdt
  4

  0
ENDTAB
  0
TABLE
  2
VIEW
  5
6
100
AcDbSymbolTable
 70
0
  0
ENDTAB
  0
TABLE
  2
UCS
  5
7
100
AcDbSymbolTable
 70
0
  0
ENDTAB
  0
TABLE
  2
APPID
  5
9
100
AcDbSymbolTable
 70
1
  0
APPID
  5
215
100
AcDbSymbolTableRecord
100
AcDbRegAppTableRecord
  2
ACAD
 70
0
  0
ENDTAB
  0
TABLE
  2
BLOCK_RECORD
  5
1
100
AcDbSymbolTable
 70
0
  0
BLOCK_RECORD
  5
216
100
AcDbSymbolTableRecord
100
AcDbBlockTableRecord
  2
*Model_Space
  0
BLOCK_RECORD
  5
217
100
AcDbSymbolTableRecord
100
AcDbBlockTableRecord
  2
*Paper_Space
  0
ENDTAB
  0
TABLE
  2
DIMSTYLE
  5
A
100
AcDbSymbolTable
 70
1
100
AcDbDimStyleTable
 71
0
  0
DIMSTYLE
105
218
100
AcDbSymbolTableRecord
100
AcDbDimStyleTableRecord
  2
STANDARD
 70
0
  3

  4

 40
1.0
 41
0.1875
 42
0.0625
 43
0.38
 44
0.125
 45
0.0
 46
0.0
 47
0.0001
 48
0.0001
140
0.15625
141
0.09
142
0.0
143
25.4
144
1.0
145
0.0
146
1.0
147
0.09
 71
0.0
 72
0.0
 73
1
 74
1
 75
0
 76
0
 77
0
 78
4
170
0
171
2
172
0
173
0
174
0
175
0
176
0
177
0
178
0
270
2
271
4
272
4
273
2
274
2
275
0
280
0
281
0
282
0
283
1
284
4
285
0
286
0
287
3
288
0
340
11
278
46
  0
ENDTAB
  0
ENDSEC
  0
SECTION
  2
BLOCKS
  0
BLOCK
  5
20
100
AcDbEntity
  8
0
100
AcDbBlockBegin
  2
*Model_Space
 70
0
 10
0.0
 20
0.0
 30
0.0
  3
*Model_Space
  1

  0
ENDBLK
  5
21
100
AcDbEntity
  8
0
100
AcDbBlockEnd
  0
BLOCK
  5
1C
100
AcDbEntity
  8
0
100
AcDbBlockBegin
  2
*Paper_Space
 70
0
 10
0.0
 20
0.0
 30
0.0
  3
*Paper_Space
  1

  0
ENDBLK
  5
1D
100
AcDbEntity
  8
0
100
AcDbBlockEnd
  0
ENDSEC
  0
SECTION
  2
ENTITIES
  0
MTEXT
  5
219
100
AcDbEntity
  8
0
100
AcDbMText
 62
7
  6
CONTINUOUS
  7
STANDARD
 71
1
 72
1
 10
15.9560215477
 20
0.9479130325
 30
0.0
 11
1.0
 21
0.0
 31
0.0
 44
0.9
  1
SCALE: 1:1.000
 40
0.3
 41
3.36
  0
LINE
  5
21A
100
AcDbEntity
  8
0
100
AcDbLine
 62
7
  6
CONTINUOUS
 10
0.0
 20
0.0
 11
0.0
 21
17.0
  0
LINE
  5
21B
100
AcDbEntity
  8
0
100
AcDbLine
 62
7
  6
CONTINUOUS
 10
0.0
 20
0.0
 11
22.0
 21
0.0
  0
LINE
  5
21C
100
AcDbEntity
  8
0
100
AcDbLine
 62
7
  6
CONTINUOUS
 10
0.0
 20
17.0
 11
22.0
 21
17.0
  0
LINE
  5
21D
100
AcDbEntity
  8
0
100
AcDbLine
 62
7
  6
CONTINUOUS
 10
22.0
 20
0.0
 11
22.0
 21
17.0
  0
LINE
  5
21E
100
AcDbEntity
  8
0
100
AcDbLine
 62
7
  6
CONTINUOUS
 10
3.7681625518
 20
5.7799624164
 11
3.7681625518
 21
5.5909860385
  0
LINE
  5
21F
100
AcDbEntity
  8
0
100
AcDbLine
 62
7
  6
CONTINUOUS
 10
3.915800347
 20
5.5253692406
 11
3.915800347
 21
5.5063403692
  0
LINE
  5
220
100
AcDbEntity
  8
0
100
AcDbLine
 62
7
  6
CONTINUOUS
 10
4.4079263313
 20
5.5063403692
 11
4.4079263313
 21
5.5253692406
  0
LINE
  5
221
100
AcDbEntity
  8
0
100
AcDbLine
 62
7
  6
CONTINUOUS
 10
4.7032019218
 20
5.5253692406
 11
4.7032019218
 21
5.5063403692
  0
LINE
  5
222
100
AcDbEntity
  8
0
100
AcDbLine
 62
7
  6
CONTINUOUS
 10
5.1953279061
 20
5.5063403692
 11
5.1953279061
 21
5.5253692406
  0
LINE
  5
223
100
AcDbEntity
  8
0
100
AcDbLine
 62
7
  6
CONTINUOUS
 10
5.4906034966
 20
5.5253692406
 11
5.4906034966
 21
5.5063403692
  0
LINE
  5
224
100
AcDbEntity
  8
0
100
AcDbLine
 62
7
  6
CONTINUOUS
 10
5.9827294809
 20
5.5063403692
 11
5.9827294809
 21
5.5253692406
  0
LINE
  5
225
100
AcDbEntity
  8
0
100
AcDbLine
 62
7
  6
CONTINUOUS
 10
6.2780050714
 20
5.5253692406
 11
6.2780050714
 21
5.5063403692
  0
LINE
  5
226
100
AcDbEntity
  8
0
100
AcDbLine
 62
7
  6
CONTINUOUS
 10
3.7681625518
 20
5.5909860385
 11
3.8501835491
 21
5.5909860385
  0
LINE
  5
227
100
AcDbEntity
  8
0
100
AcDbLine
 62
7
  6
CONTINUOUS
 10
4.4735431292
 20
5.5909860385
 11
4.6375851239
 21
5.5909860385
  0
LINE
  5
228
100
AcDbEntity
  8
0
100
AcDbLine
 62
7
  6
CONTINUOUS
 10
5.260944704
 20
5.5909860385
 11
5.4249866987
 21
5.5909860385
  0
LINE
  5
229
100
AcDbEntity
  8
0
100
AcDbLine
 62
7
  6
CONTINUOUS
 10
6.0483462788
 20
5.5909860385
 11
6.2123882735
 21
5.5909860385
  0
LINE
  5
22A
100
AcDbEntity
  8
0
100
AcDbLine
 62
7
  6
CONTINUOUS
 10
6.8357478536
 20
5.5909860385
 11
6.9997898483
 21
5.5909860385
  0
LINE
  5
22B
100
AcDbEntity
  8
0
100
AcDbLine
 62
7
  6
CONTINUOUS
 10
7.6231494284
 20
5.5909860385
 11
7.7871914231
 21
5.5909860385
  0
LINE
  5
22C
100
AcDbEntity
  8
0
100
AcDbLine
 62
7
  6
CONTINUOUS
 10
8.4105510032
 20
5.5909860385
 11
8.4925720006
 21
5.5909860385
  0
LINE
  5
22D
100
AcDbEntity
  8
0
100
AcDbLine
 62
7
  6
CONTINUOUS
 10
8.4925720006
 20
5.7799624164
 11
3.7681625518
 21
5.7799624164
  0
LINE
  5
22E
100
AcDbEntity
  8
0
100
AcDbLine
 62
7
  6
CONTINUOUS
 10
6.7701310557
 20
5.5063403692
 11
6.7701310557
 21
5.5253692406
  0
LINE
  5
22F
100
AcDbEntity
  8
0
100
AcDbLine
 62
7
  6
CONTINUOUS
 10
7.0654066462
 20
5.5253692406
 11
7.0654066462
 21
5.5063403692
  0
LINE
  5
230
100
AcDbEntity
  8
0
100
AcDbLine
 62
7
  6
CONTINUOUS
 10
7.5575326305
 20
5.5063403692
 11
7.5575326305
 21
5.5253692406
  0
LINE
  5
231
100
AcDbEntity
  8
0
100
AcDbLine
 62
7
  6
CONTINUOUS
 10
7.852808221
 20
5.5253692406
 11
7.852808221
 21
5.5063403692
  0
LINE
  5
232
100
AcDbEntity
  8
0
100
AcDbLine
 62
7
  6
CONTINUOUS
 10
8.3449342053
 20
5.5063403692
 11
8.3449342053
 21
5.5253692406
  0
LINE
  5
233
100
AcDbEntity
  8
0
100
AcDbLine
 62
7
  6
CONTINUOUS
 10
8.4925720006
 20
5.5909860385
 11
8.4925720006
 21
5.7799624164
  0
LINE
  5
234
100
AcDbEntity
  8
0
100
AcDbLine
 62
7
  6
CONTINUOUS
 10
8.4330768083
 20
9.2535910885
 11
3.7086673594
 21
9.2535910885
  0
LINE
  5
235
100
AcDbEntity
  8
0
100
AcDbLine
 62
7
  6
CONTINUOUS
 10
3.7086673594
 20
15.9465044743
 11
3.7086673594
 21
9.2535910885
  0
LINE
  5
236
100
AcDbEntity
  8
0
100
AcDbLine
 62
7
  6
CONTINUOUS
 10
8.4330768083
 20
15.9465044743
 11
8.4330768083
 21
9.2535910885
  0
LINE
  5
237
100
AcDbEntity
  8
0
100
AcDbLine
 62
7
  6
CONTINUOUS
 10
3.7086673594
 20
15.9465044743
 11
8.4330768083
 21
15.9465044743
  0
LINE
  5
238
100
AcDbEntity
  8
0
100
AcDbLine
 62
7
  6
CONTINUOUS
 10
12.213898564
 20
5.2007821848
 11
12.213898564
 21
5.7204672241
  0
LINE
  5
239
100
AcDbEntity
  8
0
100
AcDbLine
 62
7
  6
CONTINUOUS
 10
18.9068119498
 20
5.2007821848
 11
12.213898564
 21
5.2007821848
  0
LINE
  5
23A
100
AcDbEntity
  8
0
100
AcDbLine
 62
7
  6
CONTINUOUS
 10
18.9068119498
 20
5.5314908462
 11
12.213898564
 21
5.5314908462
  0
LINE
  5
23B
100
AcDbEntity
  8
0
100
AcDbLine
 62
7
  6
CONTINUOUS
 10
18.9068119498
 20
5.7204672241
 11
12.213898564
 21
5.7204672241
  0
LINE
  5
23C
100
AcDbEntity
  8
0
100
AcDbLine
 62
7
  6
CONTINUOUS
 10
18.9068119498
 20
5.2007821848
 11
18.9068119498
 21
5.7204672241
  0
LINE
  5
23D
100
AcDbEntity
  8
0
100
AcDbLine
 62
7
  6
CONTINUOUS
 10
12.4564905153
 20
10.0509561139
 11
12.5141362224
 21
9.9334865136
  0
LINE
  5
23E
100
AcDbEntity
  8
0
100
AcDbLine
 62
7
  6
CONTINUOUS
 10
12.6701355074
 20
9.8926984579
 11
12.6759401099
 21
9.8808699218
  0
LINE
  5
23F
100
AcDbEntity
  8
0
100
AcDbLine
 62
7
  6
CONTINUOUS
 10
13.1292181581
 20
9.8808699218
 11
13.1234135556
 21
9.8926984579
  0
LINE
  5
240
100
AcDbEntity
  8
0
100
AcDbLine
 62
7
  6
CONTINUOUS
 10
13.3953803846
 20
9.8926984579
 11
13.401184987
 21
9.8808699218
  0
LINE
  5
241
100
AcDbEntity
  8
0
100
AcDbLine
 62
7
  6
CONTINUOUS
 10
12.5141362224
 20
9.9334865136
 11
12.5896825638
 21
9.9334865136
  0
LINE
  5
242
100
AcDbEntity
  8
0
100
AcDbLine
 62
7
  6
CONTINUOUS
 10
13.1638347582
 20
9.9334865136
 11
13.314927441
 21
9.9334865136
  0
LINE
  5
243
100
AcDbEntity
  8
0
100
AcDbLine
 62
7
  6
CONTINUOUS
 10
13.8890796354
 20
9.9334865136
 11
14.0401723181
 21
9.9334865136
  0
LINE
  5
244
100
AcDbEntity
  8
0
100
AcDbLine
 62
7
  6
CONTINUOUS
 10
14.6143245126
 20
9.9334865136
 11
14.7654171953
 21
9.9334865136
  0
LINE
  5
245
100
AcDbEntity
  8
0
100
AcDbLine
 62
7
  6
CONTINUOUS
 10
15.3395693897
 20
9.9334865136
 11
15.4906620725
 21
9.9334865136
  0
LINE
  5
246
100
AcDbEntity
  8
0
100
AcDbLine
 62
7
  6
CONTINUOUS
 10
16.0648142669
 20
9.9334865136
 11
16.2159069496
 21
9.9334865136
  0
LINE
  5
247
100
AcDbEntity
  8
0
100
AcDbLine
 62
7
  6
CONTINUOUS
 10
16.7900591441
 20
9.9334865136
 11
16.8656054854
 21
9.9334865136
  0
LINE
  5
248
100
AcDbEntity
  8
0
100
AcDbLine
 62
7
  6
CONTINUOUS
 10
16.8079597783
 20
10.0509561139
 11
12.4564905153
 21
10.0509561139
  0
LINE
  5
249
100
AcDbEntity
  8
0
100
AcDbLine
 62
7
  6
CONTINUOUS
 10
13.8544630352
 20
9.8808699218
 11
13.8486584328
 21
9.8926984579
  0
LINE
  5
24A
100
AcDbEntity
  8
0
100
AcDbLine
 62
7
  6
CONTINUOUS
 10
14.0766194515
 20
15.2936952728
 11
12.4564905153
 21
10.0509561139
  0
LINE
  5
24B
100
AcDbEntity
  8
0
100
AcDbLine
 62
7
  6
CONTINUOUS
 10
14.1206252617
 20
9.8926984579
 11
14.1264298642
 21
9.8808699218
  0
LINE
  5
24C
100
AcDbEntity
  8
0
100
AcDbLine
 62
7
  6
CONTINUOUS
 10
14.5797079124
 20
9.8808699218
 11
14.57390331
 21
9.8926984579
  0
LINE
  5
24D
100
AcDbEntity
  8
0
100
AcDbLine
 62
7
  6
CONTINUOUS
 10
14.8458701389
 20
9.8926984579
 11
14.8516747414
 21
9.8808699218
  0
LINE
  5
24E
100
AcDbEntity
  8
0
100
AcDbLine
 62
7
  6
CONTINUOUS
 10
13.1763829809
 20
9.9334865136
 11
13.1376728456
 21
9.8082204701
  0
LINE
  5
24F
100
AcDbEntity
  8
0
100
AcDbLine
 62
7
  6
CONTINUOUS
 10
15.3049527896
 20
9.8808699218
 11
15.2991481871
 21
9.8926984579
  0
LINE
  5
250
100
AcDbEntity
  8
0
100
AcDbLine
 62
7
  6
CONTINUOUS
 10
15.5711150161
 20
9.8926984579
 11
15.5769196185
 21
9.8808699218
  0
LINE
  5
251
100
AcDbEntity
  8
0
100
AcDbLine
 62
7
  6
CONTINUOUS
 10
13.901627858
 20
9.9334865136
 11
13.8629177228
 21
9.8082204701
  0
LINE
  5
252
100
AcDbEntity
  8
0
100
AcDbLine
 62
7
  6
CONTINUOUS
 10
16.0301976668
 20
9.8808699218
 11
16.0243930643
 21
9.8926984579
  0
LINE
  5
253
100
AcDbEntity
  8
0
100
AcDbLine
 62
7
  6
CONTINUOUS
 10
16.2963598932
 20
9.8926984579
 11
16.3021644957
 21
9.8808699218
  0
LINE
  5
254
100
AcDbEntity
  8
0
100
AcDbLine
 62
7
  6
CONTINUOUS
 10
14.6268727352
 20
9.9334865136
 11
14.5881626
 21
9.8082204701
  0
LINE
  5
255
100
AcDbEntity
  8
0
100
AcDbLine
 62
7
  6
CONTINUOUS
 10
16.7554425439
 20
9.8808699218
 11
16.7496379415
 21
9.8926984579
  0
LINE
  5
256
100
AcDbEntity
  8
0
100
AcDbLine
 62
7
  6
CONTINUOUS
 10
16.8656054854
 20
9.9334865136
 11
16.8079597783
 21
10.0509561139
  0
LINE
  5
257
100
AcDbEntity
  8
0
100
AcDbLine
 62
7
  6
CONTINUOUS
 10
15.3521176124
 20
9.9334865136
 11
15.3134074771
 21
9.8082204701
  0
LINE
  5
258
100
AcDbEntity
  8
0
100
AcDbLine
 62
7
  6
CONTINUOUS
 10
16.0773624895
 20
9.9334865136
 11
16.0386523543
 21
9.8082204701
  0
LINE
  5
259
100
AcDbEntity
  8
0
100
AcDbLine
 62
7
  6
CONTINUOUS
 10
18.4280887145
 20
15.2936952728
 11
16.8079597783
 21
10.0509561139
  0
LINE
  5
25A
100
AcDbEntity
  8
0
100
AcDbLine
 62
7
  6
CONTINUOUS
 10
16.8026073667
 20
9.9334865136
 11
16.7638972315
 21
9.8082204701
  0
LINE
  5
25B
100
AcDbEntity
  8
0
100
AcDbLine
 62
7
  6
CONTINUOUS
 10
18.4857344216
 20
15.1762256725
 11
16.8656054854
 21
9.9334865136
  0
LINE
  5
25C
100
AcDbEntity
  8
0
100
AcDbLine
 62
7
  6
CONTINUOUS
 10
14.0766194515
 20
15.2936952728
 11
18.4280887145
 21
15.2936952728
  0
LINE
  5
25D
100
AcDbEntity
  8
0
100
AcDbLine
 62
7
  6
CONTINUOUS
 10
18.4857344216
 20
15.1762256725
 11
18.4280887145
 21
15.2936952728
  0
ARC
  5
25E
100
AcDbEntity
  8
0
100
AcDbCircle
 62
7
  6
CONTINUOUS
 10
4.1618633392
 20
5.5063403692
 40
0.2460629921
100
AcDbArc
 50
180.0
 51
360.0
  0
ARC
  5
25F
100
AcDbEntity
  8
0
100
AcDbCircle
 62
7
  6
CONTINUOUS
 10
4.949264914
 20
5.5063403692
 40
0.2460629921
100
AcDbArc
 50
180.0
 51
360.0
  0
ARC
  5
260
100
AcDbEntity
  8
0
100
AcDbCircle
 62
7
  6
CONTINUOUS
 10
8.0988712132
 20
5.5063403692
 40
0.2460629921
100
AcDbArc
 50
180.0
 51
360.0
  0
ARC
  5
261
100
AcDbEntity
  8
0
100
AcDbCircle
 62
7
  6
CONTINUOUS
 10
7.3114696384
 20
5.5063403692
 40
0.2460629921
100
AcDbArc
 50
180.0
 51
360.0
  0
ARC
  5
262
100
AcDbEntity
  8
0
100
AcDbCircle
 62
7
  6
CONTINUOUS
 10
6.5240680636
 20
5.5063403692
 40
0.2460629921
100
AcDbArc
 50
180.0
 51
360.0
  0
ARC
  5
263
100
AcDbEntity
  8
0
100
AcDbCircle
 62
7
  6
CONTINUOUS
 10
5.7366664888
 20
5.5063403692
 40
0.2460629921
100
AcDbArc
 50
180.0
 51
360.0
  0
ARC
  5
264
100
AcDbEntity
  8
0
100
AcDbCircle
 62
7
  6
CONTINUOUS
 10
3.8501835491
 20
5.5253692406
 40
0.0656167979
100
AcDbArc
 50
0.0
 51
90.0
  0
ARC
  5
265
100
AcDbEntity
  8
0
100
AcDbCircle
 62
7
  6
CONTINUOUS
 10
4.4735431292
 20
5.5253692406
 40
0.0656167979
100
AcDbArc
 50
90.0
 51
180.0
  0
ARC
  5
266
100
AcDbEntity
  8
0
100
AcDbCircle
 62
7
  6
CONTINUOUS
 10
4.6375851239
 20
5.5253692406
 40
0.0656167979
100
AcDbArc
 50
0.0
 51
90.0
  0
ARC
  5
267
100
AcDbEntity
  8
0
100
AcDbCircle
 62
7
  6
CONTINUOUS
 10
5.260944704
 20
5.5253692406
 40
0.0656167979
100
AcDbArc
 50
90.0
 51
180.0
  0
ARC
  5
268
100
AcDbEntity
  8
0
100
AcDbCircle
 62
7
  6
CONTINUOUS
 10
5.4249866987
 20
5.5253692406
 40
0.0656167979
100
AcDbArc
 50
0.0
 51
90.0
  0
ARC
  5
269
100
AcDbEntity
  8
0
100
AcDbCircle
 62
7
  6
CONTINUOUS
 10
6.0483462788
 20
5.5253692406
 40
0.0656167979
100
AcDbArc
 50
90.0
 51
180.0
  0
ARC
  5
26A
100
AcDbEntity
  8
0
100
AcDbCircle
 62
7
  6
CONTINUOUS
 10
6.2123882735
 20
5.5253692406
 40
0.0656167979
100
AcDbArc
 50
0.0
 51
90.0
  0
ARC
  5
26B
100
AcDbEntity
  8
0
100
AcDbCircle
 62
7
  6
CONTINUOUS
 10
6.8357478536
 20
5.5253692406
 40
0.0656167979
100
AcDbArc
 50
90.0
 51
180.0
  0
ARC
  5
26C
100
AcDbEntity
  8
0
100
AcDbCircle
 62
7
  6
CONTINUOUS
 10
6.9997898483
 20
5.5253692406
 40
0.0656167979
100
AcDbArc
 50
0.0
 51
90.0
  0
ARC
  5
26D
100
AcDbEntity
  8
0
100
AcDbCircle
 62
7
  6
CONTINUOUS
 10
7.6231494284
 20
5.5253692406
 40
0.0656167979
100
AcDbArc
 50
90.0
 51
180.0
  0
ARC
  5
26E
100
AcDbEntity
  8
0
100
AcDbCircle
 62
7
  6
CONTINUOUS
 10
7.7871914231
 20
5.5253692406
 40
0.0656167979
100
AcDbArc
 50
0.0
 51
90.0
  0
ARC
  5
26F
100
AcDbEntity
  8
0
100
AcDbCircle
 62
7
  6
CONTINUOUS
 10
8.4105510032
 20
5.5253692406
 40
0.0656167979
100
AcDbArc
 50
90.0
 51
180.0
  0
SPLINE
  5
270
100
AcDbEntity
  8
0
100
AcDbSpline
 62
7
  6
CONTINUOUS
 70
0
 71
3
 72
11
 73
7
 74
0
 42
0.0000001
 43
0.0000001
 44
0.0000000001
 40
0.0
 40
0.0
 40
0.0
 40
0.0
 40
0.202216824
 40
0.430014192
 40
0.6962559935
 40
1.0
 40
1.0
 40
1.0
 40
1.0
 10
13.121159068
 20
9.912071637
 30
0.0
 10
13.1221684597
 20
9.9153383091
 30
0.0
 10
13.1261172612
 20
9.9217958915
 30
0.0
 10
13.1360237636
 20
9.9285869522
 30
0.0
 10
13.1490246743
 20
9.9326700762
 30
0.0
 10
13.1586990775
 20
9.9334865136
 30
0.0
 10
13.1638347582
 20
9.9334865136
 30
0.0
  0
SPLINE
  5
271
100
AcDbEntity
  8
0
100
AcDbSpline
 62
7
  6
CONTINUOUS
 70
0
 71
3
 72
11
 73
7
 74
0
 42
0.0000001
 43
0.0000001
 44
0.0000000001
 40
0.0
 40
0.0
 40
0.0
 40
0.0
 40
0.202216824
 40
0.430014192
 40
0.6962559935
 40
1.0
 40
1.0
 40
1.0
 40
1.0
 10
13.8464039452
 20
9.912071637
 30
0.0
 10
13.8474133368
 20
9.9153383091
 30
0.0
 10
13.8513621384
 20
9.9217958915
 30
0.0
 10
13.8612686408
 20
9.9285869522
 30
0.0
 10
13.8742695514
 20
9.9326700762
 30
0.0
 10
13.8839439546
 20
9.9334865136
 30
0.0
 10
13.8890796354
 20
9.9334865136
 30
0.0
  0
SPLINE
  5
272
100
AcDbEntity
  8
0
100
AcDbSpline
 62
7
  6
CONTINUOUS
 70
0
 71
3
 72
11
 73
7
 74
0
 42
0.0000001
 43
0.0000001
 44
0.0000000001
 40
0.0
 40
0.0
 40
0.0
 40
0.0
 40
0.202216824
 40
0.430014192
 40
0.6962559935
 40
1.0
 40
1.0
 40
1.0
 40
1.0
 10
14.5716488224
 20
9.912071637
 30
0.0
 10
14.572658214
 20
9.9153383091
 30
0.0
 10
14.5766070156
 20
9.9217958915
 30
0.0
 10
14.5865135179
 20
9.9285869522
 30
0.0
 10
14.5995144286
 20
9.9326700762
 30
0.0
 10
14.6091888318
 20
9.9334865136
 30
0.0
 10
14.6143245126
 20
9.9334865136
 30
0.0
  0
SPLINE
  5
273
100
AcDbEntity
  8
0
100
AcDbSpline
 62
7
  6
CONTINUOUS
 70
0
 71
3
 72
11
 73
7
 74
0
 42
0.0000001
 43
0.0000001
 44
0.0000000001
 40
0.0
 40
0.0
 40
0.0
 40
0.0
 40
0.202216824
 40
0.430014192
 40
0.6962559935
 40
1.0
 40
1.0
 40
1.0
 40
1.0
 10
15.2968936995
 20
9.912071637
 30
0.0
 10
15.2979030912
 20
9.9153383091
 30
0.0
 10
15.3018518927
 20
9.9217958915
 30
0.0
 10
15.3117583951
 20
9.9285869522
 30
0.0
 10
15.3247593058
 20
9.9326700762
 30
0.0
 10
15.334433709
 20
9.9334865136
 30
0.0
 10
15.3395693897
 20
9.9334865136
 30
0.0
  0
SPLINE
  5
274
100
AcDbEntity
  8
0
100
AcDbSpline
 62
7
  6
CONTINUOUS
 70
0
 71
3
 72
11
 73
7
 74
0
 42
0.0000001
 43
0.0000001
 44
0.0000000001
 40
0.0
 40
0.0
 40
0.0
 40
0.0
 40
0.202216824
 40
0.430014192
 40
0.6962559935
 40
1.0
 40
1.0
 40
1.0
 40
1.0
 10
16.0221385767
 20
9.912071637
 30
0.0
 10
16.0231479684
 20
9.9153383091
 30
0.0
 10
16.0270967699
 20
9.9217958915
 30
0.0
 10
16.0370032723
 20
9.9285869522
 30
0.0
 10
16.0500041829
 20
9.9326700762
 30
0.0
 10
16.0596785861
 20
9.9334865136
 30
0.0
 10
16.0648142669
 20
9.9334865136
 30
0.0
  0
SPLINE
  5
275
100
AcDbEntity
  8
0
100
AcDbSpline
 62
7
  6
CONTINUOUS
 70
0
 71
3
 72
11
 73
7
 74
0
 42
0.0000001
 43
0.0000001
 44
0.0000000001
 40
0.0
 40
0.0
 40
0.0
 40
0.0
 40
0.202216824
 40
0.430014192
 40
0.6962559935
 40
1.0
 40
1.0
 40
1.0
 40
1.0
 10
16.7473834539
 20
9.912071637
 30
0.0
 10
16.7483928455
 20
9.9153383091
 30
0.0
 10
16.7523416471
 20
9.9217958915
 30
0.0
 10
16.7622481494
 20
9.9285869522
 30
0.0
 10
16.7752490601
 20
9.9326700762
 30
0.0
 10
16.7849234633
 20
9.9334865136
 30
0.0
 10
16.7900591441
 20
9.9334865136
 30
0.0
  0
SPLINE
  5
276
100
AcDbEntity
  8
0
100
AcDbSpline
 62
7
  6
CONTINUOUS
 70
0
 71
3
 72
17
 73
13
 74
0
 42
0.0000001
 43
0.0000001
 44
0.0000000001
 40
0.0
 40
0.0
 40
0.0
 40
0.0
 40
0.1137563052
 40
0.2471371484
 40
0.3933411901
 40
0.542281105
 40
0.6832493338
 40
0.8074179548
 40
0.8618928065
 40
0.9113660806
 40
0.9568207822
 40
1.0
 40
1.0
 40
1.0
 40
1.0
 10
16.3021644957
 20
9.8808699218
 30
0.0
 10
16.3112326746
 20
9.862390916
 30
0.0
 10
16.3394056249
 20
9.8264303394
 30
0.0
 10
16.3967734362
 20
9.7834663189
 30
0.0
 10
16.4674070721
 20
9.7502800161
 30
0.0
 10
16.5442347596
 20
9.7303223779
 30
0.0
 10
16.6194671857
 20
9.7255348663
 30
0.0
 10
16.6773445733
 20
9.7350825542
 30
0.0
 10
16.7153838226
 20
9.7516355955
 30
0.0
 10
16.7377666369
 20
9.7671764481
 30
0.0
 10
16.7545392152
 20
9.7860595278
 30
0.0
 10
16.7615900226
 20
9.8007556487
 30
0.0
 10
16.7638971726
 20
9.8082204885
 30
0.0
  0
SPLINE
  5
277
100
AcDbEntity
  8
0
100
AcDbSpline
 62
7
  6
CONTINUOUS
 70
0
 71
3
 72
17
 73
13
 74
0
 42
0.0000001
 43
0.0000001
 44
0.0000000001
 40
0.0
 40
0.0
 40
0.0
 40
0.0
 40
0.1137676461
 40
0.2471380486
 40
0.393344036
 40
0.5422840271
 40
0.6832513686
 40
0.8074194343
 40
0.8618947818
 40
0.911368946
 40
0.9568233229
 40
1.0
 40
1.0
 40
1.0
 40
1.0
 10
15.5769196185
 20
9.8808699218
 30
0.0
 10
15.5859886603
 20
9.8623891577
 30
0.0
 10
15.6141610021
 20
9.8264276053
 30
0.0
 10
15.671532945
 20
9.7834689985
 30
0.0
 10
15.7421625204
 20
9.7502795496
 30
0.0
 10
15.8189904555
 20
9.7303218657
 30
0.0
 10
15.8942224138
 20
9.7255359207
 30
0.0
 10
15.952099073
 20
9.7350852767
 30
0.0
 10
15.9901384022
 20
9.7516365361
 30
0.0
 10
16.012523761
 20
9.7671756624
 30
0.0
 10
16.0292882221
 20
9.7860641064
 30
0.0
 10
16.0363459421
 20
9.8007559182
 30
0.0
 10
16.0386526617
 20
9.8082203726
 30
0.0
  0
SPLINE
  5
278
100
AcDbEntity
  8
0
100
AcDbSpline
 62
7
  6
CONTINUOUS
 70
0
 71
3
 72
17
 73
13
 74
0
 42
0.0000001
 43
0.0000001
 44
0.0000000001
 40
0.0
 40
0.0
 40
0.0
 40
0.0
 40
0.1137676461
 40
0.2471380486
 40
0.393344036
 40
0.5422840271
 40
0.6832513686
 40
0.8074194343
 40
0.8618947818
 40
0.911368946
 40
0.9568233229
 40
1.0
 40
1.0
 40
1.0
 40
1.0
 10
14.8516747414
 20
9.8808699218
 30
0.0
 10
14.8607437831
 20
9.8623891577
 30
0.0
 10
14.8889161249
 20
9.8264276053
 30
0.0
 10
14.9462880678
 20
9.7834689985
 30
0.0
 10
15.0169176432
 20
9.7502795496
 30
0.0
 10
15.0937455783
 20
9.7303218657
 30
0.0
 10
15.1689775366
 20
9.7255359207
 30
0.0
 10
15.2268541958
 20
9.7350852767
 30
0.0
 10
15.2648935251
 20
9.7516365361
 30
0.0
 10
15.2872788838
 20
9.7671756624
 30
0.0
 10
15.3040433449
 20
9.7860641064
 30
0.0
 10
15.3111010649
 20
9.8007559182
 30
0.0
 10
15.3134077846
 20
9.8082203726
 30
0.0
  0
SPLINE
  5
279
100
AcDbEntity
  8
0
100
AcDbSpline
 62
7
  6
CONTINUOUS
 70
0
 71
3
 72
17
 73
13
 74
0
 42
0.0000001
 43
0.0000001
 44
0.0000000001
 40
0.0
 40
0.0
 40
0.0
 40
0.0
 40
0.1137676461
 40
0.2471380486
 40
0.393344036
 40
0.5422840271
 40
0.6832513686
 40
0.8074194343
 40
0.8618947818
 40
0.911368946
 40
0.9568233229
 40
1.0
 40
1.0
 40
1.0
 40
1.0
 10
14.1264298642
 20
9.8808699218
 30
0.0
 10
14.1354989059
 20
9.8623891577
 30
0.0
 10
14.1636712477
 20
9.8264276053
 30
0.0
 10
14.2210431906
 20
9.7834689985
 30
0.0
 10
14.291672766
 20
9.7502795496
 30
0.0
 10
14.3685007012
 20
9.7303218657
 30
0.0
 10
14.4437326595
 20
9.7255359207
 30
0.0
 10
14.5016093186
 20
9.7350852767
 30
0.0
 10
14.5396486479
 20
9.7516365361
 30
0.0
 10
14.5620340066
 20
9.7671756624
 30
0.0
 10
14.5787984677
 20
9.7860641064
 30
0.0
 10
14.5858561877
 20
9.8007559182
 30
0.0
 10
14.5881629074
 20
9.8082203726
 30
0.0
  0
SPLINE
  5
27A
100
AcDbEntity
  8
0
100
AcDbSpline
 62
7
  6
CONTINUOUS
 70
0
 71
3
 72
17
 73
13
 74
0
 42
0.0000001
 43
0.0000001
 44
0.0000000001
 40
0.0
 40
0.0
 40
0.0
 40
0.0
 40
0.1137676461
 40
0.2471380486
 40
0.393344036
 40
0.5422840271
 40
0.6832513686
 40
0.8074194343
 40
0.8618947818
 40
0.911368946
 40
0.9568233229
 40
1.0
 40
1.0
 40
1.0
 40
1.0
 10
13.401184987
 20
9.8808699218
 30
0.0
 10
13.4102540288
 20
9.8623891577
 30
0.0
 10
13.4384263706
 20
9.8264276053
 30
0.0
 10
13.4957983135
 20
9.7834689985
 30
0.0
 10
13.5664278889
 20
9.7502795496
 30
0.0
 10
13.643255824
 20
9.7303218657
 30
0.0
 10
13.7184877823
 20
9.7255359207
 30
0.0
 10
13.7763644415
 20
9.7350852767
 30
0.0
 10
13.8144037707
 20
9.7516365361
 30
0.0
 10
13.8367891295
 20
9.7671756624
 30
0.0
 10
13.8535535906
 20
9.7860641064
 30
0.0
 10
13.8606113106
 20
9.8007559182
 30
0.0
 10
13.8629180302
 20
9.8082203726
 30
0.0
  0
SPLINE
  5
27B
100
AcDbEntity
  8
0
100
AcDbSpline
 62
7
  6
CONTINUOUS
 70
0
 71
3
 72
17
 73
13
 74
0
 42
0.0000001
 43
0.0000001
 44
0.0000000001
 40
0.0
 40
0.0
 40
0.0
 40
0.0
 40
0.1137676461
 40
0.2471380486
 40
0.393344036
 40
0.5422840271
 40
0.6832513686
 40
0.8074194343
 40
0.8618947818
 40
0.911368946
 40
0.9568233229
 40
1.0
 40
1.0
 40
1.0
 40
1.0
 10
12.6759401099
 20
9.8808699218
 30
0.0
 10
12.6850091516
 20
9.8623891577
 30
0.0
 10
12.7131814934
 20
9.8264276053
 30
0.0
 10
12.7705534363
 20
9.7834689985
 30
0.0
 10
12.8411830117
 20
9.7502795496
 30
0.0
 10
12.9180109468
 20
9.7303218657
 30
0.0
 10
12.9932429051
 20
9.7255359207
 30
0.0
 10
13.0511195643
 20
9.7350852767
 30
0.0
 10
13.0891588936
 20
9.7516365361
 30
0.0
 10
13.1115442523
 20
9.7671756624
 30
0.0
 10
13.1283087134
 20
9.7860641064
 30
0.0
 10
13.1353664334
 20
9.8007559182
 30
0.0
 10
13.1376731531
 20
9.8082203726
 30
0.0
  0
SPLINE
  5
27C
100
AcDbEntity
  8
0
100
AcDbSpline
 62
7
  6
CONTINUOUS
 70
0
 71
3
 72
11
 73
7
 74
0
 42
0.0000001
 43
0.0000001
 44
0.0000000001
 40
0.0
 40
0.0
 40
0.0
 40
0.0
 40
0.2647303378
 40
0.5366462049
 40
0.7885247419
 40
1.0
 40
1.0
 40
1.0
 40
1.0
 10
12.5896825638
 20
9.9334865136
 30
0.0
 10
12.5979655517
 20
9.9334865136
 30
0.0
 10
12.6147908765
 20
9.9312182417
 30
0.0
 10
12.638131532
 20
9.9226486968
 30
0.0
 10
12.6575768229
 20
9.910010112
 30
0.0
 10
12.6672205588
 20
9.8986384986
 30
0.0
 10
12.6701355074
 20
9.8926984579
 30
0.0
  0
SPLINE
  5
27D
100
AcDbEntity
  8
0
100
AcDbSpline
 62
7
  6
CONTINUOUS
 70
0
 71
3
 72
11
 73
7
 74
0
 42
0.0000001
 43
0.0000001
 44
0.0000000001
 40
0.0
 40
0.0
 40
0.0
 40
0.0
 40
0.2647303378
 40
0.5366462049
 40
0.7885247419
 40
1.0
 40
1.0
 40
1.0
 40
1.0
 10
13.314927441
 20
9.9334865136
 30
0.0
 10
13.3232104289
 20
9.9334865136
 30
0.0
 10
13.3400357537
 20
9.9312182417
 30
0.0
 10
13.3633764091
 20
9.9226486968
 30
0.0
 10
13.3828217001
 20
9.910010112
 30
0.0
 10
13.392465436
 20
9.8986384986
 30
0.0
 10
13.3953803846
 20
9.8926984579
 30
0.0
  0
SPLINE
  5
27E
100
AcDbEntity
  8
0
100
AcDbSpline
 62
7
  6
CONTINUOUS
 70
0
 71
3
 72
11
 73
7
 74
0
 42
0.0000001
 43
0.0000001
 44
0.0000000001
 40
0.0
 40
0.0
 40
0.0
 40
0.0
 40
0.2647303378
 40
0.5366462049
 40
0.7885247419
 40
1.0
 40
1.0
 40
1.0
 40
1.0
 10
14.0401723181
 20
9.9334865136
 30
0.0
 10
14.0484553061
 20
9.9334865136
 30
0.0
 10
14.0652806308
 20
9.9312182417
 30
0.0
 10
14.0886212863
 20
9.9226486968
 30
0.0
 10
14.1080665773
 20
9.910010112
 30
0.0
 10
14.1177103132
 20
9.8986384986
 30
0.0
 10
14.1206252617
 20
9.8926984579
 30
0.0
  0
SPLINE
  5
27F
100
AcDbEntity
  8
0
100
AcDbSpline
 62
7
  6
CONTINUOUS
 70
0
 71
3
 72
11
 73
7
 74
0
 42
0.0000001
 43
0.0000001
 44
0.0000000001
 40
0.0
 40
0.0
 40
0.0
 40
0.0
 40
0.2647303378
 40
0.5366462049
 40
0.7885247419
 40
1.0
 40
1.0
 40
1.0
 40
1.0
 10
14.7654171953
 20
9.9334865136
 30
0.0
 10
14.7737001832
 20
9.9334865136
 30
0.0
 10
14.790525508
 20
9.9312182417
 30
0.0
 10
14.8138661635
 20
9.9226486968
 30
0.0
 10
14.8333114545
 20
9.910010112
 30
0.0
 10
14.8429551903
 20
9.8986384986
 30
0.0
 10
14.8458701389
 20
9.8926984579
 30
0.0
  0
SPLINE
  5
280
100
AcDbEntity
  8
0
100
AcDbSpline
 62
7
  6
CONTINUOUS
 70
0
 71
3
 72
11
 73
7
 74
0
 42
0.0000001
 43
0.0000001
 44
0.0000000001
 40
0.0
 40
0.0
 40
0.0
 40
0.0
 40
0.2647303378
 40
0.5366462049
 40
0.7885247419
 40
1.0
 40
1.0
 40
1.0
 40
1.0
 10
15.4906620725
 20
9.9334865136
 30
0.0
 10
15.4989450604
 20
9.9334865136
 30
0.0
 10
15.5157703852
 20
9.9312182417
 30
0.0
 10
15.5391110406
 20
9.9226486968
 30
0.0
 10
15.5585563316
 20
9.910010112
 30
0.0
 10
15.5682000675
 20
9.8986384986
 30
0.0
 10
15.5711150161
 20
9.8926984579
 30
0.0
  0
SPLINE
  5
281
100
AcDbEntity
  8
0
100
AcDbSpline
 62
7
  6
CONTINUOUS
 70
0
 71
3
 72
11
 73
7
 74
0
 42
0.0000001
 43
0.0000001
 44
0.0000000001
 40
0.0
 40
0.0
 40
0.0
 40
0.0
 40
0.2647303378
 40
0.5366462049
 40
0.7885247419
 40
1.0
 40
1.0
 40
1.0
 40
1.0
 10
16.2159069496
 20
9.9334865136
 30
0.0
 10
16.2241899376
 20
9.9334865136
 30
0.0
 10
16.2410152623
 20
9.9312182417
 30
0.0
 10
16.2643559178
 20
9.9226486968
 30
0.0
 10
16.2838012088
 20
9.910010112
 30
0.0
 10
16.2934449447
 20
9.8986384986
 30
0.0
 10
16.2963598932
 20
9.8926984579
 30
0.0
  0
SPLINE
  5
282
100
AcDbEntity
  8
0
100
AcDbSpline
 62
7
  6
CONTINUOUS
 70
0
 71
3
 72
9
 73
5
 74
0
 42
0.0000001
 43
0.0000001
 44
0.0000000001
 40
0.0
 40
0.0
 40
0.0
 40
0.0
 40
0.4740410786
 40
1.0
 40
1.0
 40
1.0
 40
1.0
 10
16.0386526617
 20
9.8082203726
 30
0.0
 10
16.0421283087
 20
9.8194674298
 30
0.0
 10
16.0440087384
 20
9.8450874413
 30
0.0
 10
16.0359516492
 20
9.8691445383
 30
0.0
 10
16.0301976668
 20
9.8808699218
 30
0.0
  0
SPLINE
  5
283
100
AcDbEntity
  8
0
100
AcDbSpline
 62
7
  6
CONTINUOUS
 70
0
 71
3
 72
9
 73
5
 74
0
 42
0.0000001
 43
0.0000001
 44
0.0000000001
 40
0.0
 40
0.0
 40
0.0
 40
0.0
 40
0.4739980869
 40
1.0
 40
1.0
 40
1.0
 40
1.0
 10
16.7638971726
 20
9.8082204885
 30
0.0
 10
16.7673729429
 20
9.8194664279
 30
0.0
 10
16.7692553609
 20
9.8450864761
 30
0.0
 10
16.7611970143
 20
9.869143544
 30
0.0
 10
16.7554425439
 20
9.8808699218
 30
0.0
  0
SPLINE
  5
284
100
AcDbEntity
  8
0
100
AcDbSpline
 62
7
  6
CONTINUOUS
 70
0
 71
3
 72
9
 73
5
 74
0
 42
0.0000001
 43
0.0000001
 44
0.0000000001
 40
0.0
 40
0.0
 40
0.0
 40
0.0
 40
0.4740410786
 40
1.0
 40
1.0
 40
1.0
 40
1.0
 10
14.5881629074
 20
9.8082203726
 30
0.0
 10
14.5916385543
 20
9.8194674298
 30
0.0
 10
14.5935189841
 20
9.8450874413
 30
0.0
 10
14.5854618949
 20
9.8691445383
 30
0.0
 10
14.5797079124
 20
9.8808699218
 30
0.0
  0
SPLINE
  5
285
100
AcDbEntity
  8
0
100
AcDbSpline
 62
7
  6
CONTINUOUS
 70
0
 71
3
 72
9
 73
5
 74
0
 42
0.0000001
 43
0.0000001
 44
0.0000000001
 40
0.0
 40
0.0
 40
0.0
 40
0.0
 40
0.5257421883
 40
1.0
 40
1.0
 40
1.0
 40
1.0
 10
13.1234135556
 20
9.8926984579
 30
0.0
 10
13.1218798476
 20
9.8958238263
 30
0.0
 10
13.1197342788
 20
9.9022391688
 30
0.0
 10
13.1202319213
 20
9.9090711325
 30
0.0
 10
13.121159068
 20
9.912071637
 30
0.0
  0
SPLINE
  5
286
100
AcDbEntity
  8
0
100
AcDbSpline
 62
7
  6
CONTINUOUS
 70
0
 71
3
 72
9
 73
5
 74
0
 42
0.0000001
 43
0.0000001
 44
0.0000000001
 40
0.0
 40
0.0
 40
0.0
 40
0.0
 40
0.4740410786
 40
1.0
 40
1.0
 40
1.0
 40
1.0
 10
13.1376731531
 20
9.8082203726
 30
0.0
 10
13.1411488
 20
9.8194674298
 30
0.0
 10
13.1430292297
 20
9.8450874413
 30
0.0
 10
13.1349721405
 20
9.8691445383
 30
0.0
 10
13.1292181581
 20
9.8808699218
 30
0.0
  0
SPLINE
  5
287
100
AcDbEntity
  8
0
100
AcDbSpline
 62
7
  6
CONTINUOUS
 70
0
 71
3
 72
9
 73
5
 74
0
 42
0.0000001
 43
0.0000001
 44
0.0000000001
 40
0.0
 40
0.0
 40
0.0
 40
0.0
 40
0.5257421883
 40
1.0
 40
1.0
 40
1.0
 40
1.0
 10
13.8486584328
 20
9.8926984579
 30
0.0
 10
13.8471247248
 20
9.8958238263
 30
0.0
 10
13.844979156
 20
9.9022391688
 30
0.0
 10
13.8454767985
 20
9.9090711325
 30
0.0
 10
13.8464039452
 20
9.912071637
 30
0.0
  0
SPLINE
  5
288
100
AcDbEntity
  8
0
100
AcDbSpline
 62
7
  6
CONTINUOUS
 70
0
 71
3
 72
9
 73
5
 74
0
 42
0.0000001
 43
0.0000001
 44
0.0000000001
 40
0.0
 40
0.0
 40
0.0
 40
0.0
 40
0.5257421883
 40
1.0
 40
1.0
 40
1.0
 40
1.0
 10
14.57390331
 20
9.8926984579
 30
0.0
 10
14.5723696019
 20
9.8958238263
 30
0.0
 10
14.5702240331
 20
9.9022391688
 30
0.0
 10
14.5707216756
 20
9.9090711325
 30
0.0
 10
14.5716488224
 20
9.912071637
 30
0.0
  0
SPLINE
  5
289
100
AcDbEntity
  8
0
100
AcDbSpline
 62
7
  6
CONTINUOUS
 70
0
 71
3
 72
9
 73
5
 74
0
 42
0.0000001
 43
0.0000001
 44
0.0000000001
 40
0.0
 40
0.0
 40
0.0
 40
0.0
 40
0.5257421883
 40
1.0
 40
1.0
 40
1.0
 40
1.0
 10
15.2991481871
 20
9.8926984579
 30
0.0
 10
15.2976144791
 20
9.8958238263
 30
0.0
 10
15.2954689103
 20
9.9022391688
 30
0.0
 10
15.2959665528
 20
9.9090711325
 30
0.0
 10
15.2968936995
 20
9.912071637
 30
0.0
  0
SPLINE
  5
28A
100
AcDbEntity
  8
0
100
AcDbSpline
 62
7
  6
CONTINUOUS
 70
0
 71
3
 72
9
 73
5
 74
0
 42
0.0000001
 43
0.0000001
 44
0.0000000001
 40
0.0
 40
0.0
 40
0.0
 40
0.0
 40
0.4740410786
 40
1.0
 40
1.0
 40
1.0
 40
1.0
 10
15.3134077846
 20
9.8082203726
 30
0.0
 10
15.3168834315
 20
9.8194674298
 30
0.0
 10
15.3187638612
 20
9.8450874413
 30
0.0
 10
15.310706772
 20
9.8691445383
 30
0.0
 10
15.3049527896
 20
9.8808699218
 30
0.0
  0
SPLINE
  5
28B
100
AcDbEntity
  8
0
100
AcDbSpline
 62
7
  6
CONTINUOUS
 70
0
 71
3
 72
9
 73
5
 74
0
 42
0.0000001
 43
0.0000001
 44
0.0000000001
 40
0.0
 40
0.0
 40
0.0
 40
0.0
 40
0.5257421883
 40
1.0
 40
1.0
 40
1.0
 40
1.0
 10
16.0243930643
 20
9.8926984579
 30
0.0
 10
16.0228593563
 20
9.8958238263
 30
0.0
 10
16.0207137875
 20
9.9022391688
 30
0.0
 10
16.02121143
 20
9.9090711325
 30
0.0
 10
16.0221385767
 20
9.912071637
 30
0.0
  0
SPLINE
  5
28C
100
AcDbEntity
  8
0
100
AcDbSpline
 62
7
  6
CONTINUOUS
 70
0
 71
3
 72
9
 73
5
 74
0
 42
0.0000001
 43
0.0000001
 44
0.0000000001
 40
0.0
 40
0.0
 40
0.0
 40
0.0
 40
0.4740410786
 40
1.0
 40
1.0
 40
1.0
 40
1.0
 10
13.8629180302
 20
9.8082203726
 30
0.0
 10
13.8663936772
 20
9.8194674298
 30
0.0
 10
13.8682741069
 20
9.8450874413
 30
0.0
 10
13.8602170177
 20
9.8691445383
 30
0.0
 10
13.8544630352
 20
9.8808699218
 30
0.0
  0
SPLINE
  5
28D
100
AcDbEntity
  8
0
100
AcDbSpline
 62
7
  6
CONTINUOUS
 70
0
 71
3
 72
9
 73
5
 74
0
 42
0.0000001
 43
0.0000001
 44
0.0000000001
 40
0.0
 40
0.0
 40
0.0
 40
0.0
 40
0.5257421883
 40
1.0
 40
1.0
 40
1.0
 40
1.0
 10
16.7496379415
 20
9.8926984579
 30
0.0
 10
16.7481042334
 20
9.8958238263
 30
0.0
 10
16.7459586646
 20
9.9022391688
 30
0.0
 10
16.7464563071
 20
9.9090711325
 30
0.0
 10
16.7473834539
 20
9.912071637
 30
0.0
  0
ENDSEC
  0
SECTION
  2
OBJECTS
  0
DICTIONARY
  5
C
100
AcDbDictionary
280
0
281
1
  3
ACAD_GROUP
350
D
  3
ACAD_MLINESTYLE
350
17
  3
ACAD_LAYOUT
350
1A
  3
ACAD_PLOTSETTINGS
350
19
  3
ACAD_PLOTSTYLENAME
350
E
  0
DICTIONARY
  5
D
102
{ACAD_REACTORS
330
C
102
}
100
AcDbDictionary
280
0
281
1
  0
ACDBDICTIONARYWDFLT
  5
E
102
{ACAD_REACTORS
330
C
102
}
100
AcDbDictionary
281
1
  3
Normal
350
F
100
AcDbDictionaryWithDefault
340
F
  0
DICTIONARY
  5
17
102
{ACAD_REACTORS
330
C
102
}
100
AcDbDictionary
280
0
281
1
  3
Standard
350
18
  0
DICTIONARY
  5
19
102
{ACAD_REACTORS
330
C
102
}
100
AcDbDictionary
281
1
  0
DICTIONARY
  5
1A
102
{ACAD_REACTORS
330
C
102
}
100
AcDbDictionary
281
1
  3
Model
350
28E
  3
Layout1
350
28F
  0
ACDBPLACEHOLDER
  5
F
102
{ACAD_REACTORS
330
E
102
}
  0
MLINESTYLE
  5
18
102
{ACAD_REACTORS
330
17
102
}
100
AcDbMlineStyle
  2
STANDARD
 70
0
  3

 62
256
 51
90.0
 52
90.0
 71
2
 49
0.5
 62
256
  6
BYLAYER
 49
-0.5
 62
256
  6
BYLAYER
  0
LAYOUT
  5
28E
102
{ACAD_REACTORS
330
1A
102
}
100
AcDbPlotSettings
  1

  2
none_device
  4
ANSI_C_(22.00_x_17.00_Inches)
  6

 40
0.0
 41
0.0
 42
0.0
 43
0.0
 44
558.8
 45
431.8
 46
0.0
 47
0.0
 48
0.0
 49
0.0
140
0.0
141
0.0
142
1.0
143
1.0
 70
1024
 72
0
 73
0
 74
0
  7

 75
0
147
1.0
148
0.0
149
0.0
100
AcDbLayout
  1
Model
 70
0
 71
0
 10
0.0
 20
0.0
 11
22.0
 21
17.0
 12
0.0
 22
0.0
 32
0.0
 14
0.0
 24
0.0
 34
0.0
 15
0.0
 25
0.0
 35
0.0
146
0.0
 13
0.0
 23
0.0
 33
0.0
 16
1.0
 26
0.0
 36
0.0
 17
0.0
 27
1.0
 37
0.0
 76
0
330
216
345
0
346
0
  0
LAYOUT
  5
28F
102
{ACAD_REACTORS
330
1A
102
}
100
AcDbPlotSettings
  1

  2
none_device
  4
ANSI_C_(22.00_x_17.00_Inches)
  6

 40
0.0
 41
0.0
 42
0.0
 43
0.0
 44
558.8
 45
431.8
 46
0.0
 47
0.0
 48
0.0
 49
0.0
140
0.0
141
0.0
142
1.0
143
1.0
 70
0
 72
0
 73
0
 74
0
  7

 75
0
147
1.0
148
0.0
149
0.0
100
AcDbLayout
  1
Layout1
 70
0
 71
1
 10
0.0
 20
0.0
 11
22.0
 21
17.0
 12
0.0
 22
0.0
 32
0.0
 14
0.0
 24
0.0
 34
0.0
 15
0.0
 25
0.0
 35
0.0
146
0.0
 13
0.0
 23
0.0
 33
0.0
 16
1.0
 26
0.0
 36
0.0
 17
0.0
 27
1.0
 37
0.0
 76
0
330
217
345
0
346
0
  0
ENDSEC
  0
EOF