999
DXF file: _cgs_temp_output.dxf
999
Pro/ENGINEER 2015110 by Parametric Technology Corporation
  0
SECTION
  2
HEADER
  9
$ACADVER
  1
AC1021
  9
$DWGCODEPAGE
  3
ANSI_1252
  9
$EXTMAX
 10
22.0
 20
17.0
 30
0.0
  9
$EXTMIN
 10
0.0
 20
0.0
 30
0.0
  9
$LIMMIN
 10
0.0
 20
0.0
  9
$LIMMAX
 10
22.0
 20
17.0
  9
$VIEWCTR
 10
11.0
 20
8.5
  9
$VIEWSIZE
 40
17.0
  9
$CLAYER
  8
0
  9
$LTSCALE
 40
1.21
  9
$CELTYPE
  6
BYLAYER
  9
$DIMSCALE
 40
1.0
  9
$DIMASZ
 40
0.1875
  9
$DIMEXO
 40
0.0625
  9
$DIMDLI
 40
0.836
  9
$DIMEXE
 40
0.125
  9
$DIMCEN
 40
0.198
  9
$DIMLFAC
 40
1.0
  9
$DIMBLK
  1
_CLOSED
  9
$DIMALT
 70
0
  9
$DIMALTF
 40
25.4
  9
$DIMTXT
 40
0.15625
  9
$DIMTOL
 70
0
  9
$DIMLIM
 70
0
  9
$DIMTFAC
 40
1.0
  9
$DIMGAP
 40
0.09
  9
$DIMDSEP
 70
46
  9
$AUNITS
 70
0
  9
$PDMODE
 70
3
  9
$PDSIZE
 40
0.3125
  9
$HANDSEED
  5
29C
  9
$TILEMODE
 70
1
  9
$MEASUREMENT
 70
0
  9
$INSUNITS
 70
1
  0
ENDSEC
  0
SECTION
  2
CLASSES
  0
CLASS
  1
ACDBDICTIONARYWDFLT
  2
AcDbDictionaryWithDefault
  3
AutoCAD 2000
 90
0
 91
1
280
0
281
0
  0
CLASS
  1
ACDBPLACEHOLDER
  2
AcDbPlaceHolder
  3
AutoCAD 2000
 90
0
 91
1
280
0
281
0
  0
CLASS
  1
LAYOUT
  2
AcDbLayout
  3
AutoCAD 2000
 90
0
 91
0
280
0
281
0
  0
ENDSEC
  0
SECTION
  2
TABLES
  0
TABLE
  2
VPORT
  5
8
100
AcDbSymbolTable
 70
2
  0
VPORT
  5
1F4
100
AcDbSymbolTableRecord
100
AcDbViewportTableRecord
  2
*ACTIVE
 70
0
 10
0.0
 20
0.0
 11
1.0
 21
1.0
 12
11.0
 22
8.5
 13
0.0
 23
0.0
 14
1.0
 24
1.0
 15
0.0
 25
0.0
 16
0.0
 26
0.0
 36
1.0
 17
0.0
 27
0.0
 37
0.0
 40
17.0
 41
1.2941176471
 42
50.0
 43
0.0
 44
0.0
 50
0.0
 51
0.0
 71
0
 72
100
 73
1
 74
1
 75
0
 76
0
 77
0
 78
0
  0
ENDTAB
  0
TABLE
  2
LTYPE
  5
5
100
AcDbSymbolTable
 70
6
  0
LTYPE
  5
14
100
AcDbSymbolTableRecord
100
AcDbLinetypeTableRecord
  2
BYBLOCK
 70
0
  3

 72
65
 73
0
 40
0.0
  0
LTYPE
  5
15
100
AcDbSymbolTableRecord
100
AcDbLinetypeTableRecord
  2
BYLAYER
 70
0
  3

 72
65
 73
0
 40
0.0
  0
LTYPE
  5
16
100
AcDbSymbolTableRecord
100
AcDbLinetypeTableRecord
  2
CONTINUOUS
 70
64
  3
Solid line
 72
65
 73
0
 40
0.0
  0
LTYPE
  5
1F5
100
AcDbSymbolTableRecord
100
AcDbLinetypeTableRecord
  2
CENTER
 70
64
  3
____ _ ____ _ ____ _ ____ _ ____ _ ____ _ ____
 72
65
 73
4
 40
0.6
 49
0.375
 74
0
 49
-0.075
 74
0
 49
0.075
 74
0
 49
-0.075
 74
0
  0
LTYPE
  5
1F6
100
AcDbSymbolTableRecord
100
AcDbLinetypeTableRecord
  2
HIDDEN
 70
64
  3
- - - - - - - - - - - - - - - - - - - -
 72
65
 73
2
 40
0.2
 49
0.1
 74
0
 49
-0.1
 74
0
  0
LTYPE
  5
1F7
100
AcDbSymbolTableRecord
100
AcDbLinetypeTableRecord
  2
PHANTOM
 70
64
  3
_____ _ _ _____ _ _ _____ _ _ _____
 72
65
 73
6
 40
0.8
 49
0.45
 74
0
 49
-0.05
 74
0
 49
0.1
 74
0
 49
-0.05
 74
0
 49
0.1
 74
0
 49
-0.05
 74
0
  0
LTYPE
  5
1F8
100
AcDbSymbolTableRecord
100
AcDbLinetypeTableRecord
  2
DOT
 70
64
  3
. . . . . . . . . . . . . . . . . . . .
 72
65
 73
2
 40
0.2
 49
0.1
 74
0
 49
-0.1
 74
0
  0
LTYPE
  5
1F9
100
AcDbSymbolTableRecord
100
AcDbLinetypeTableRecord
  2
DASHED
 70
64
  3
- - - - - - - - - - - - - - - - - - - -
 72
65
 73
2
 40
0.2
 49
0.1
 74
0
 49
-0.1
 74
0
  0
ENDTAB
  0
TABLE
  2
LAYER
  5
2
100
AcDbSymbolTable
 70
36
  0
LAYER
  5
10
100
AcDbSymbolTableRecord
100
AcDbLayerTableRecord
  2
0
 70
0
 62
7
  6
CONTINUOUS
370
-3
390
F
  0
LAYER
  5
1FA
100
AcDbSymbolTableRecord
100
AcDbLayerTableRecord
  2
DEFAULT_1
 70
0
 62
7
  6
CENTER
370
-3
390
F
  0
LAYER
  5
1FB
100
AcDbSymbolTableRecord
100
AcDbLayerTableRecord
  2
DEFAULT_2
 70
0
 62
8
  6
HIDDEN
370
-3
390
F
  0
LAYER
  5
1FC
100
AcDbSymbolTableRecord
100
AcDbLayerTableRecord
  2
DEFAULT_3
 70
0
 62
7
  6
PHANTOM
370
-3
390
F
  0
LAYER
  5
1FD
100
AcDbSymbolTableRecord
100
AcDbLayerTableRecord
  2
01_ALL_DTM_PLN
 70
0
 62
7
  6
CONTINUOUS
370
-3
390
F
  0
LAYER
  5
1FE
100
AcDbSymbolTableRecord
100
AcDbLayerTableRecord
  2
01__ASM_ALL_DTM_PLN
 70
0
 62
7
  6
CONTINUOUS
370
-3
390
F
  0
LAYER
  5
1FF
100
AcDbSymbolTableRecord
100
AcDbLayerTableRecord
  2
01__ASM_DEF_DTM_PLN
 70
0
 62
7
  6
CONTINUOUS
370
-3
390
F
  0
LAYER
  5
200
100
AcDbSymbolTableRecord
100
AcDbLayerTableRecord
  2
01___PRT_ALL_DTM_PLN
 70
0
 62
7
  6
CONTINUOUS
370
-3
390
F
  0
LAYER
  5
201
100
AcDbSymbolTableRecord
100
AcDbLayerTableRecord
  2
01___PRT_DEF_DTM_PLN
 70
0
 62
7
  6
CONTINUOUS
370
-3
390
F
  0
LAYER
  5
202
100
AcDbSymbolTableRecord
100
AcDbLayerTableRecord
  2
02_ALL_AXES
 70
0
 62
7
  6
CONTINUOUS
370
-3
390
F
  0
LAYER
  5
203
100
AcDbSymbolTableRecord
100
AcDbLayerTableRecord
  2
02__ASM_ALL_AXES
 70
0
 62
7
  6
CONTINUOUS
370
-3
390
F
  0
LAYER
  5
204
100
AcDbSymbolTableRecord
100
AcDbLayerTableRecord
  2
02___PRT_ALL_AXES
 70
0
 62
7
  6
CONTINUOUS
370
-3
390
F
  0
LAYER
  5
205
100
AcDbSymbolTableRecord
100
AcDbLayerTableRecord
  2
03_ALL_CURVES
 70
0
 62
7
  6
CONTINUOUS
370
-3
390
F
  0
LAYER
  5
206
100
AcDbSymbolTableRecord
100
AcDbLayerTableRecord
  2
03__ASM_ALL_CURVES
 70
0
 62
7
  6
CONTINUOUS
370
-3
390
F
  0
LAYER
  5
207
100
AcDbSymbolTableRecord
100
AcDbLayerTableRecord
  2
03___PRT_ALL_CURVES
 70
0
 62
7
  6
CONTINUOUS
370
-3
390
F
  0
LAYER
  5
208
100
AcDbSymbolTableRecord
100
AcDbLayerTableRecord
  2
04_ALL_DTM_PNT
 70
0
 62
7
  6
CONTINUOUS
370
-3
390
F
  0
LAYER
  5
209
100
AcDbSymbolTableRecord
100
AcDbLayerTableRecord
  2
04__ASM_ALL_DTM_PNT
 70
0
 62
7
  6
CONTINUOUS
370
-3
390
F
  0
LAYER
  5
20A
100
AcDbSymbolTableRecord
100
AcDbLayerTableRecord
  2
04___PRT_ALL_DTM_PNT
 70
0
 62
7
  6
CONTINUOUS
370
-3
390
F
  0
LAYER
  5
20B
100
AcDbSymbolTableRecord
100
AcDbLayerTableRecord
  2
05_ALL_DTM_CSYS
 70
0
 62
7
  6
CONTINUOUS
370
-3
390
F
  0
LAYER
  5
20C
100
AcDbSymbolTableRecord
100
AcDbLayerTableRecord
  2
05__ASM_ALL_DTM_CSYS
 70
0
 62
7
  6
CONTINUOUS
370
-3
390
F
  0
LAYER
  5
20D
100
AcDbSymbolTableRecord
100
AcDbLayerTableRecord
  2
05__ASM_DEF_DTM_CSYS
 70
0
 62
7
  6
CONTINUOUS
370
-3
390
F
  0
LAYER
  5
20E
100
AcDbSymbolTableRecord
100
AcDbLayerTableRecord
  2
05___PRT_ALL_DTM_CSYS
 70
0
 62
7
  6
CONTINUOUS
370
-3
390
F
  0
LAYER
  5
20F
100
AcDbSymbolTableRecord
100
AcDbLayerTableRecord
  2
05___PRT_DEF_DTM_CSYS
 70
0
 62
7
  6
CONTINUOUS
370
-3
390
F
  0
LAYER
  5
210
100
AcDbSymbolTableRecord
100
AcDbLayerTableRecord
  2
06_ALL_SURFS
 70
0
 62
7
  6
CONTINUOUS
370
-3
390
F
  0
LAYER
  5
211
100
AcDbSymbolTableRecord
100
AcDbLayerTableRecord
  2
06__ASM_ALL_SURFS
 70
0
 62
7
  6
CONTINUOUS
370
-3
390
F
  0
LAYER
  5
212
100
AcDbSymbolTableRecord
100
AcDbLayerTableRecord
  2
06___PRT_ALL_SURFS
 70
0
 62
7
  6
CONTINUOUS
370
-3
390
F
  0
LAYER
  5
213
100
AcDbSymbolTableRecord
100
AcDbLayerTableRecord
  2
07__ASM_ALL_SKELETONS
 70
0
 62
7
  6
CONTINUOUS
370
-3
390
F
  0
LAYER
  5
214
100
AcDbSymbolTableRecord
100
AcDbLayerTableRecord
  2
LAYER_DIM
 70
0
 62
7
  6
CONTINUOUS
370
-3
390
F
  0
LAYER
  5
215
100
AcDbSymbolTableRecord
100
AcDbLayerTableRecord
  2
LAYER_FEATURE
 70
0
 62
7
  6
CONTINUOUS
370
-3
390
F
  0
LAYER
  5
216
100
AcDbSymbolTableRecord
100
AcDbLayerTableRecord
  2
LAYER_GEOM_FEAT
 70
0
 62
7
  6
CONTINUOUS
370
-3
390
F
  0
LAYER
  5
217
100
AcDbSymbolTableRecord
100
AcDbLayerTableRecord
  2
LAYER_PARAMETER_DIM
 70
0
 62
7
  6
CONTINUOUS
370
-3
390
F
  0
LAYER
  5
218
100
AcDbSymbolTableRecord
100
AcDbLayerTableRecord
  2
LAYER_PROTRUSION_FEAT
 70
0
 62
7
  6
CONTINUOUS
370
-3
390
F
  0
LAYER
  5
219
100
AcDbSymbolTableRecord
100
AcDbLayerTableRecord
  2
LAYER_ROUND_FEAT
 70
0
 62
7
  6
CONTINUOUS
370
-3
390
F
  0
ENDTAB
  0
TABLE
  2
STYLE
  5
3
100
AcDbSymbolTable
 70
1
  0
STYLE
  5
11
100
AcDbSymbolTableRecord
100
AcDbTextStyleTableRecord
  2
STANDARD
 70
0
 40
0.0
 41
0.8
 50
0.0
 71
0
 42
0.2
  3
txt
  4

  0
STYLE
  5
21A
100
AcDbSymbolTableRecord
100
AcDbTextStyleTableRecord
  2
TEXTSTYLE_1
 70
0
 40
0.0
 41
0.8
 50
0.0
 71
0
 42
0.2
  3
gdt
  4

  0
ENDTAB
  0
TABLE
  2
VIEW
  5
6
100
AcDbSymbolTable
 70
0
  0
ENDTAB
  0
TABLE
  2
UCS
  5
7
100
AcDbSymbolTable
 70
0
  0
ENDTAB
  0
TABLE
  2
APPID
  5
9
100
AcDbSymbolTable
 70
1
  0
APPID
  5
21B
100
AcDbSymbolTableRecord
100
AcDbRegAppTableRecord
  2
ACAD
 70
0
  0
ENDTAB
  0
TABLE
  2
BLOCK_RECORD
  5
1
100
AcDbSymbolTable
 70
0
  0
BLOCK_RECORD
  5
21C
100
AcDbSymbolTableRecord
100
AcDbBlockTableRecord
  2
*Model_Space
  0
BLOCK_RECORD
  5
21D
100
AcDbSymbolTableRecord
100
AcDbBlockTableRecord
  2
*Paper_Space
  0
ENDTAB
  0
TABLE
  2
DIMSTYLE
  5
A
100
AcDbSymbolTable
 70
1
100
AcDbDimStyleTable
 71
0
  0
DIMSTYLE
105
21E
100
AcDbSymbolTableRecord
100
AcDbDimStyleTableRecord
  2
STANDARD
 70
0
  3

  4

 40
1.0
 41
0.1875
 42
0.0625
 43
0.38
 44
0.125
 45
0.0
 46
0.0
 47
0.0001
 48
0.0001
140
0.15625
141
0.09
142
0.0
143
25.4
144
1.0
145
0.0
146
1.0
147
0.09
 71
0.0
 72
0.0
 73
1
 74
1
 75
0
 76
0
 77
0
 78
4
170
0
171
2
172
0
173
0
174
0
175
0
176
0
177
0
178
0
270
2
271
4
272
4
273
2
274
2
275
0
280
0
281
0
282
0
283
1
284
4
285
0
286
0
287
3
288
0
340
11
278
46
  0
ENDTAB
  0
ENDSEC
  0
SECTION
  2
BLOCKS
  0
BLOCK
  5
20
100
AcDbEntity
  8
0
100
AcDbBlockBegin
  2
*Model_Space
 70
0
 10
0.0
 20
0.0
 30
0.0
  3
*Model_Space
  1

  0
ENDBLK
  5
21
100
AcDbEntity
  8
0
100
AcDbBlockEnd
  0
BLOCK
  5
1C
100
AcDbEntity
  8
0
100
AcDbBlockBegin
  2
*Paper_Space
 70
0
 10
0.0
 20
0.0
 30
0.0
  3
*Paper_Space
  1

  0
ENDBLK
  5
1D
100
AcDbEntity
  8
0
100
AcDbBlockEnd
  0
ENDSEC
  0
SECTION
  2
ENTITIES
  0
MTEXT
  5
21F
100
AcDbEntity
  8
0
100
AcDbMText
 62
7
  6
CONTINUOUS
  7
STANDARD
 71
1
 72
1
 10
15.9560215477
 20
0.9479130325
 30
0.0
 11
1.0
 21
0.0
 31
0.0
 44
0.9
  1
SCALE: 1:1.000
 40
0.3
 41
3.36
  0
LINE
  5
220
100
AcDbEntity
  8
0
100
AcDbLine
 62
7
  6
CONTINUOUS
 10
0.0
 20
0.0
 11
0.0
 21
17.0
  0
LINE
  5
221
100
AcDbEntity
  8
0
100
AcDbLine
 62
7
  6
CONTINUOUS
 10
0.0
 20
0.0
 11
22.0
 21
0.0
  0
LINE
  5
222
100
AcDbEntity
  8
0
100
AcDbLine
 62
7
  6
CONTINUOUS
 10
0.0
 20
17.0
 11
22.0
 21
17.0
  0
LINE
  5
223
100
AcDbEntity
  8
0
100
AcDbLine
 62
7
  6
CONTINUOUS
 10
22.0
 20
0.0
 11
22.0
 21
17.0
  0
LINE
  5
224
100
AcDbEntity
  8
0
100
AcDbLine
 62
7
  6
CONTINUOUS
 10
2.6293672762
 20
5.9251198968
 11
2.6293672762
 21
5.8501198968
  0
LINE
  5
225
100
AcDbEntity
  8
0
100
AcDbLine
 62
7
  6
CONTINUOUS
 10
2.6293672762
 20
5.8501198968
 11
2.8523209707
 21
5.1366680742
  0
LINE
  5
226
100
AcDbEntity
  8
0
100
AcDbLine
 62
7
  6
CONTINUOUS
 10
3.8793672762
 20
5.8501198968
 11
3.8793672762
 21
5.8951198968
  0
LINE
  5
227
100
AcDbEntity
  8
0
100
AcDbLine
 62
7
  6
CONTINUOUS
 10
3.6564135816
 20
5.1366680742
 11
3.8793672762
 21
5.8501198968
  0
LINE
  5
228
100
AcDbEntity
  8
LAYER_FEATURE
100
AcDbLine
 62
7
  6
CONTINUOUS
 10
4.0673672762
 20
5.8951198968
 11
4.0673672762
 21
5.8501198968
  0
LINE
  5
229
100
AcDbEntity
  8
LAYER_FEATURE
100
AcDbLine
 62
7
  6
CONTINUOUS
 10
4.0673672762
 20
5.8501198968
 11
4.2903209707
 21
5.1366680742
  0
LINE
  5
22A
100
AcDbEntity
  8
LAYER_FEATURE
100
AcDbLine
 62
7
  6
CONTINUOUS
 10
5.3173672762
 20
5.8501198968
 11
5.3173672762
 21
5.8951198968
  0
LINE
  5
22B
100
AcDbEntity
  8
LAYER_FEATURE
100
AcDbLine
 62
7
  6
CONTINUOUS
 10
5.0944135816
 20
5.1366680742
 11
5.3173672762
 21
5.8501198968
  0
LINE
  5
22C
100
AcDbEntity
  8
LAYER_FEATURE
100
AcDbLine
 62
7
  6
CONTINUOUS
 10
5.5053672762
 20
5.8951198968
 11
5.5053672762
 21
5.8501198968
  0
LINE
  5
22D
100
AcDbEntity
  8
LAYER_FEATURE
100
AcDbLine
 62
7
  6
CONTINUOUS
 10
5.5053672762
 20
5.8501198968
 11
5.7283209707
 21
5.1366680742
  0
LINE
  5
22E
100
AcDbEntity
  8
0
100
AcDbLine
 62
7
  6
CONTINUOUS
 10
2.9020334696
 20
5.1001198968
 11
3.6067010828
 21
5.1001198968
  0
LINE
  5
22F
100
AcDbEntity
  8
LAYER_FEATURE
100
AcDbLine
 62
7
  6
CONTINUOUS
 10
4.3400334696
 20
5.1001198968
 11
5.0447010828
 21
5.1001198968
  0
LINE
  5
230
100
AcDbEntity
  8
LAYER_FEATURE
100
AcDbLine
 62
7
  6
CONTINUOUS
 10
5.7780334696
 20
5.1001198968
 11
6.4827010828
 21
5.1001198968
  0
LINE
  5
231
100
AcDbEntity
  8
LAYER_FEATURE
100
AcDbLine
 62
7
  6
CONTINUOUS
 10
7.2160334696
 20
5.1001198968
 11
7.9207010828
 21
5.1001198968
  0
LINE
  5
232
100
AcDbEntity
  8
LAYER_FEATURE
100
AcDbLine
 62
7
  6
CONTINUOUS
 10
8.6540334696
 20
5.1001198968
 11
9.3587010828
 21
5.1001198968
  0
LINE
  5
233
100
AcDbEntity
  8
LAYER_FEATURE
100
AcDbLine
 62
7
  6
CONTINUOUS
 10
6.5324135816
 20
5.1366680742
 11
6.7553672762
 21
5.8501198968
  0
LINE
  5
234
100
AcDbEntity
  8
LAYER_FEATURE
100
AcDbLine
 62
7
  6
CONTINUOUS
 10
3.8793672762
 20
5.8951198968
 11
4.0673672762
 21
5.8951198968
  0
LINE
  5
235
100
AcDbEntity
  8
LAYER_FEATURE
100
AcDbLine
 62
7
  6
CONTINUOUS
 10
5.3173672762
 20
5.8951198968
 11
5.5053672762
 21
5.8951198968
  0
LINE
  5
236
100
AcDbEntity
  8
LAYER_FEATURE
100
AcDbLine
 62
7
  6
CONTINUOUS
 10
6.7553672762
 20
5.8951198968
 11
6.9433672762
 21
5.8951198968
  0
LINE
  5
237
100
AcDbEntity
  8
LAYER_FEATURE
100
AcDbLine
 62
7
  6
CONTINUOUS
 10
8.1933672762
 20
5.8951198968
 11
8.3813672762
 21
5.8951198968
  0
LINE
  5
238
100
AcDbEntity
  8
0
100
AcDbLine
 62
7
  6
CONTINUOUS
 10
9.6163672762
 20
5.9401198968
 11
2.6443672762
 21
5.9401198968
  0
LINE
  5
239
100
AcDbEntity
  8
LAYER_FEATURE
100
AcDbLine
 62
7
  6
CONTINUOUS
 10
6.7553672762
 20
5.8501198968
 11
6.7553672762
 21
5.8951198968
  0
LINE
  5
23A
100
AcDbEntity
  8
LAYER_FEATURE
100
AcDbLine
 62
7
  6
CONTINUOUS
 10
6.9433672762
 20
5.8951198968
 11
6.9433672762
 21
5.8501198968
  0
LINE
  5
23B
100
AcDbEntity
  8
LAYER_FEATURE
100
AcDbLine
 62
7
  6
CONTINUOUS
 10
6.9433672762
 20
5.8501198968
 11
7.1663209707
 21
5.1366680742
  0
LINE
  5
23C
100
AcDbEntity
  8
LAYER_FEATURE
100
AcDbLine
 62
7
  6
CONTINUOUS
 10
7.9704135816
 20
5.1366680742
 11
8.1933672762
 21
5.8501198968
  0
LINE
  5
23D
100
AcDbEntity
  8
LAYER_FEATURE
100
AcDbLine
 62
7
  6
CONTINUOUS
 10
8.1933672762
 20
5.8501198968
 11
8.1933672762
 21
5.8951198968
  0
LINE
  5
23E
100
AcDbEntity
  8
LAYER_FEATURE
100
AcDbLine
 62
7
  6
CONTINUOUS
 10
8.3813672762
 20
5.8951198968
 11
8.3813672762
 21
5.8501198968
  0
LINE
  5
23F
100
AcDbEntity
  8
LAYER_FEATURE
100
AcDbLine
 62
7
  6
CONTINUOUS
 10
8.3813672762
 20
5.8501198968
 11
8.6043209707
 21
5.1366680742
  0
LINE
  5
240
100
AcDbEntity
  8
0
100
AcDbLine
 62
7
  6
CONTINUOUS
 10
9.6313672762
 20
5.8501198968
 11
9.6313672762
 21
5.9251198968
  0
LINE
  5
241
100
AcDbEntity
  8
LAYER_FEATURE
100
AcDbLine
 62
7
  6
CONTINUOUS
 10
9.4084135816
 20
5.1366680742
 11
9.6313672762
 21
5.8501198968
  0
LINE
  5
242
100
AcDbEntity
  8
0
100
AcDbLine
 62
7
  6
CONTINUOUS
 10
2.5698720839
 20
14.6000477814
 11
2.5698720839
 21
10.6000477814
  0
LINE
  5
243
100
AcDbEntity
  8
0
100
AcDbLine
 62
7
  6
CONTINUOUS
 10
9.5718720839
 20
10.6000477814
 11
2.5698720839
 21
10.6000477814
  0
LINE
  5
244
100
AcDbEntity
  8
0
100
AcDbLine
 62
7
  6
CONTINUOUS
 10
2.5698720839
 20
14.6000477814
 11
9.5718720839
 21
14.6000477814
  0
LINE
  5
245
100
AcDbEntity
  8
0
100
AcDbLine
 62
7
  6
CONTINUOUS
 10
9.5718720839
 20
10.6000477814
 11
9.5718720839
 21
14.6000477814
  0
LINE
  5
246
100
AcDbEntity
  8
LAYER_FEATURE
100
AcDbLine
 62
7
  6
CONTINUOUS
 10
13.5603552569
 20
5.0406247044
 11
13.5603552569
 21
5.7906247044
  0
LINE
  5
247
100
AcDbEntity
  8
0
100
AcDbLine
 62
7
  6
CONTINUOUS
 10
13.5603552569
 20
5.7906247044
 11
13.5603552569
 21
5.8806247044
  0
LINE
  5
248
100
AcDbEntity
  8
LAYER_FEATURE
100
AcDbLine
 62
7
  6
CONTINUOUS
 10
13.5603552569
 20
5.0406247044
 11
17.5603552569
 21
5.0406247044
  0
LINE
  5
249
100
AcDbEntity
  8
LAYER_FEATURE
100
AcDbLine
 62
7
  6
CONTINUOUS
 10
17.5603552569
 20
5.7906247044
 11
13.5603552569
 21
5.7906247044
  0
LINE
  5
24A
100
AcDbEntity
  8
0
100
AcDbLine
 62
7
  6
CONTINUOUS
 10
13.5603552569
 20
5.8806247044
 11
17.5603552569
 21
5.8806247044
  0
LINE
  5
24B
100
AcDbEntity
  8
0
100
AcDbLine
 62
7
  6
CONTINUOUS
 10
17.5603552569
 20
5.8806247044
 11
17.5603552569
 21
5.7906247044
  0
LINE
  5
24C
100
AcDbEntity
  8
LAYER_FEATURE
100
AcDbLine
 62
7
  6
CONTINUOUS
 10
17.5603552569
 20
5.0406247044
 11
17.5603552569
 21
5.7906247044
  0
LINE
  5
24D
100
AcDbEntity
  8
0
100
AcDbLine
 62
7
  6
CONTINUOUS
 10
11.7451172519
 20
11.1959032108
 11
11.7679953919
 21
11.1492824632
  0
LINE
  5
24E
100
AcDbEntity
  8
0
100
AcDbLine
 62
7
  6
CONTINUOUS
 10
11.7679953919
 20
11.1492824632
 11
12.1909820191
 21
10.7057936984
  0
LINE
  5
24F
100
AcDbEntity
  8
0
100
AcDbLine
 62
7
  6
CONTINUOUS
 10
12.7128671477
 20
14.3336395599
 11
11.7446018541
 21
11.2003319214
  0
LINE
  5
250
100
AcDbEntity
  8
0
100
AcDbLine
 62
7
  6
CONTINUOUS
 10
12.9193216344
 20
11.1492824632
 11
12.9055947504
 21
11.1772549118
  0
LINE
  5
251
100
AcDbEntity
  8
LAYER_FEATURE
100
AcDbLine
 62
7
  6
CONTINUOUS
 10
13.0787542172
 20
11.1772549118
 11
13.0924811012
 21
11.1492824632
  0
LINE
  5
252
100
AcDbEntity
  8
0
100
AcDbLine
 62
7
  6
CONTINUOUS
 10
12.9316003585
 20
10.7057936984
 11
12.9193216344
 21
11.1492824632
  0
LINE
  5
253
100
AcDbEntity
  8
LAYER_FEATURE
100
AcDbLine
 62
7
  6
CONTINUOUS
 10
13.0924811012
 20
11.1492824632
 11
13.5154677285
 21
10.7057936984
  0
LINE
  5
254
100
AcDbEntity
  8
0
100
AcDbLine
 62
7
  6
CONTINUOUS
 10
12.9308266819
 20
10.7000755196
 11
12.9316003585
 21
10.7057936984
  0
LINE
  5
255
100
AcDbEntity
  8
0
100
AcDbLine
 62
7
  6
CONTINUOUS
 10
12.9279657748
 20
11.1772549118
 11
12.9193216344
 21
11.1492824632
  0
LINE
  5
256
100
AcDbEntity
  8
0
100
AcDbLine
 62
7
  6
CONTINUOUS
 10
12.9325151987
 20
10.7055109914
 11
13.078335118
 21
11.1773844232
  0
LINE
  5
257
100
AcDbEntity
  8
0
100
AcDbLine
 62
7
  6
CONTINUOUS
 10
12.247918987
 20
10.683074987
 11
12.8969608392
 21
10.683074987
  0
LINE
  5
258
100
AcDbEntity
  8
LAYER_FEATURE
100
AcDbLine
 62
7
  6
CONTINUOUS
 10
13.5724046963
 20
10.683074987
 11
14.2214465486
 21
10.683074987
  0
LINE
  5
259
100
AcDbEntity
  8
LAYER_FEATURE
100
AcDbLine
 62
7
  6
CONTINUOUS
 10
14.8968904057
 20
10.683074987
 11
15.545932258
 21
10.683074987
  0
LINE
  5
25A
100
AcDbEntity
  8
LAYER_FEATURE
100
AcDbLine
 62
7
  6
CONTINUOUS
 10
16.2213761151
 20
10.683074987
 11
16.8704179673
 21
10.683074987
  0
LINE
  5
25B
100
AcDbEntity
  8
LAYER_FEATURE
100
AcDbLine
 62
7
  6
CONTINUOUS
 10
17.5458618245
 20
10.683074987
 11
18.1949036767
 21
10.683074987
  0
LINE
  5
25C
100
AcDbEntity
  8
LAYER_FEATURE
100
AcDbLine
 62
7
  6
CONTINUOUS
 10
14.4169668106
 20
11.1492824632
 11
14.8399534378
 21
10.7057936984
  0
LINE
  5
25D
100
AcDbEntity
  8
LAYER_FEATURE
100
AcDbLine
 62
7
  6
CONTINUOUS
 10
14.2438073437
 20
11.1492824632
 11
14.2300804597
 21
11.1772549118
  0
LINE
  5
25E
100
AcDbEntity
  8
LAYER_FEATURE
100
AcDbLine
 62
7
  6
CONTINUOUS
 10
14.4032399266
 20
11.1772549118
 11
14.4169668106
 21
11.1492824632
  0
LINE
  5
25F
100
AcDbEntity
  8
LAYER_FEATURE
100
AcDbLine
 62
7
  6
CONTINUOUS
 10
14.2560860679
 20
10.7057936984
 11
14.2438073437
 21
11.1492824632
  0
LINE
  5
260
100
AcDbEntity
  8
LAYER_FEATURE
100
AcDbLine
 62
7
  6
CONTINUOUS
 10
12.9055947504
 20
11.1772549118
 11
13.0787542172
 21
11.1772549118
  0
LINE
  5
261
100
AcDbEntity
  8
LAYER_FEATURE
100
AcDbLine
 62
7
  6
CONTINUOUS
 10
14.2300804597
 20
11.1772549118
 11
14.4032399266
 21
11.1772549118
  0
LINE
  5
262
100
AcDbEntity
  8
LAYER_FEATURE
100
AcDbLine
 62
7
  6
CONTINUOUS
 10
15.5545661691
 20
11.1772549118
 11
15.727725636
 21
11.1772549118
  0
LINE
  5
263
100
AcDbEntity
  8
LAYER_FEATURE
100
AcDbLine
 62
7
  6
CONTINUOUS
 10
16.8790518785
 20
11.1772549118
 11
17.0522113454
 21
11.1772549118
  0
LINE
  5
264
100
AcDbEntity
  8
0
100
AcDbLine
 62
7
  6
CONTINUOUS
 10
18.175994789
 20
11.2052273603
 11
11.7543575388
 21
11.2052273603
  0
LINE
  5
265
100
AcDbEntity
  8
LAYER_FEATURE
100
AcDbLine
 62
7
  6
CONTINUOUS
 10
14.2553123912
 20
10.7000755196
 11
14.2560860679
 21
10.7057936984
  0
LINE
  5
266
100
AcDbEntity
  8
LAYER_FEATURE
100
AcDbLine
 62
7
  6
CONTINUOUS
 10
14.2524514841
 20
11.1772549118
 11
14.2438073437
 21
11.1492824632
  0
LINE
  5
267
100
AcDbEntity
  8
LAYER_FEATURE
100
AcDbLine
 62
7
  6
CONTINUOUS
 10
14.2570009081
 20
10.7055109914
 11
14.4028208274
 21
11.1773844232
  0
LINE
  5
268
100
AcDbEntity
  8
LAYER_FEATURE
100
AcDbLine
 62
7
  6
CONTINUOUS
 10
15.74145252
 20
11.1492824632
 11
16.1644391472
 21
10.7057936984
  0
LINE
  5
269
100
AcDbEntity
  8
LAYER_FEATURE
100
AcDbLine
 62
7
  6
CONTINUOUS
 10
15.5682930531
 20
11.1492824632
 11
15.5545661691
 21
11.1772549118
  0
LINE
  5
26A
100
AcDbEntity
  8
LAYER_FEATURE
100
AcDbLine
 62
7
  6
CONTINUOUS
 10
15.727725636
 20
11.1772549118
 11
15.74145252
 21
11.1492824632
  0
LINE
  5
26B
100
AcDbEntity
  8
LAYER_FEATURE
100
AcDbLine
 62
7
  6
CONTINUOUS
 10
15.5805717773
 20
10.7057936984
 11
15.5682930531
 21
11.1492824632
  0
LINE
  5
26C
100
AcDbEntity
  8
LAYER_FEATURE
100
AcDbLine
 62
7
  6
CONTINUOUS
 10
17.0659382294
 20
11.1492824632
 11
17.4889248566
 21
10.7057936984
  0
LINE
  5
26D
100
AcDbEntity
  8
LAYER_FEATURE
100
AcDbLine
 62
7
  6
CONTINUOUS
 10
15.5797981006
 20
10.7000755196
 11
15.5805717773
 21
10.7057936984
  0
LINE
  5
26E
100
AcDbEntity
  8
LAYER_FEATURE
100
AcDbLine
 62
7
  6
CONTINUOUS
 10
15.5769371935
 20
11.1772549118
 11
15.5682930531
 21
11.1492824632
  0
LINE
  5
26F
100
AcDbEntity
  8
LAYER_FEATURE
100
AcDbLine
 62
7
  6
CONTINUOUS
 10
15.5814866175
 20
10.7055109914
 11
15.7273065368
 21
11.1773844232
  0
LINE
  5
270
100
AcDbEntity
  8
LAYER_FEATURE
100
AcDbLine
 62
7
  6
CONTINUOUS
 10
16.8927787625
 20
11.1492824632
 11
16.8790518785
 21
11.1772549118
  0
LINE
  5
271
100
AcDbEntity
  8
LAYER_FEATURE
100
AcDbLine
 62
7
  6
CONTINUOUS
 10
17.0522113454
 20
11.1772549118
 11
17.0659382294
 21
11.1492824632
  0
LINE
  5
272
100
AcDbEntity
  8
LAYER_FEATURE
100
AcDbLine
 62
7
  6
CONTINUOUS
 10
16.9050574867
 20
10.7057936984
 11
16.8927787625
 21
11.1492824632
  0
LINE
  5
273
100
AcDbEntity
  8
LAYER_FEATURE
100
AcDbLine
 62
7
  6
CONTINUOUS
 10
16.90428381
 20
10.7000755196
 11
16.9050574867
 21
10.7057936984
  0
LINE
  5
274
100
AcDbEntity
  8
LAYER_FEATURE
100
AcDbLine
 62
7
  6
CONTINUOUS
 10
16.9014229029
 20
11.1772549118
 11
16.8927787625
 21
11.1492824632
  0
LINE
  5
275
100
AcDbEntity
  8
LAYER_FEATURE
100
AcDbLine
 62
7
  6
CONTINUOUS
 10
16.9059723268
 20
10.7055109914
 11
17.0517922461
 21
11.1773844232
  0
LINE
  5
276
100
AcDbEntity
  8
0
100
AcDbLine
 62
7
  6
CONTINUOUS
 10
12.7226228324
 20
14.3385349988
 11
19.1442600826
 21
14.3385349988
  0
LINE
  5
277
100
AcDbEntity
  8
0
100
AcDbLine
 62
7
  6
CONTINUOUS
 10
18.2172644719
 20
11.1492824632
 11
18.1943863319
 21
11.1959032108
  0
LINE
  5
278
100
AcDbEntity
  8
LAYER_FEATURE
100
AcDbLine
 62
7
  6
CONTINUOUS
 10
18.2295431961
 20
10.7057936984
 11
18.2172644719
 21
11.1492824632
  0
LINE
  5
279
100
AcDbEntity
  8
LAYER_FEATURE
100
AcDbLine
 62
7
  6
CONTINUOUS
 10
18.2287695194
 20
10.7000755196
 11
18.2295431961
 21
10.7057936984
  0
LINE
  5
27A
100
AcDbEntity
  8
LAYER_FEATURE
100
AcDbLine
 62
7
  6
CONTINUOUS
 10
19.1855297655
 20
14.2825901017
 11
18.2172644719
 21
11.1492824632
  0
LINE
  5
27B
100
AcDbEntity
  8
LAYER_FEATURE
100
AcDbLine
 62
7
  6
CONTINUOUS
 10
18.2304580362
 20
10.7055109914
 11
19.1970428754
 21
13.8333806774
  0
LINE
  5
27C
100
AcDbEntity
  8
LAYER_FEATURE
100
AcDbLine
 62
7
  6
CONTINUOUS
 10
19.1978084897
 20
13.8391013369
 11
19.197034813
 21
13.8333831581
  0
LINE
  5
27D
100
AcDbEntity
  8
LAYER_FEATURE
100
AcDbLine
 62
7
  6
CONTINUOUS
 10
19.1978084897
 20
13.8391013369
 11
19.1855297655
 21
14.2825901017
  0
LINE
  5
27E
100
AcDbEntity
  8
0
100
AcDbLine
 62
7
  6
CONTINUOUS
 10
19.1626516255
 20
14.3292108493
 11
19.1855297655
 21
14.2825901017
  0
ARC
  5
27F
100
AcDbEntity
  8
0
100
AcDbCircle
 62
7
  6
CONTINUOUS
 10
2.9020334696
 20
5.1522032301
 40
0.0520833333
100
AcDbArc
 50
197.3540246363
 51
270.0
  0
ARC
  5
280
100
AcDbEntity
  8
0
100
AcDbCircle
 62
7
  6
CONTINUOUS
 10
3.6067010828
 20
5.1522032301
 40
0.0520833333
100
AcDbArc
 50
270.0
 51
342.6459753637
  0
ARC
  5
281
100
AcDbEntity
  8
LAYER_FEATURE
100
AcDbCircle
 62
7
  6
CONTINUOUS
 10
4.3400334696
 20
5.1522032301
 40
0.0520833333
100
AcDbArc
 50
197.3540246363
 51
270.0
  0
ARC
  5
282
100
AcDbEntity
  8
LAYER_FEATURE
100
AcDbCircle
 62
7
  6
CONTINUOUS
 10
5.0447010828
 20
5.1522032301
 40
0.0520833333
100
AcDbArc
 50
270.0
 51
342.6459753637
  0
ARC
  5
283
100
AcDbEntity
  8
LAYER_FEATURE
100
AcDbCircle
 62
7
  6
CONTINUOUS
 10
5.7780334696
 20
5.1522032301
 40
0.0520833333
100
AcDbArc
 50
197.3540246363
 51
270.0
  0
ARC
  5
284
100
AcDbEntity
  8
LAYER_FEATURE
100
AcDbCircle
 62
7
  6
CONTINUOUS
 10
6.4827010828
 20
5.1522032301
 40
0.0520833333
100
AcDbArc
 50
270.0
 51
342.6459753637
  0
ARC
  5
285
100
AcDbEntity
  8
LAYER_FEATURE
100
AcDbCircle
 62
7
  6
CONTINUOUS
 10
7.2160334696
 20
5.1522032301
 40
0.0520833333
100
AcDbArc
 50
197.3540246363
 51
270.0
  0
ARC
  5
286
100
AcDbEntity
  8
LAYER_FEATURE
100
AcDbCircle
 62
7
  6
CONTINUOUS
 10
7.9207010828
 20
5.1522032301
 40
0.0520833333
100
AcDbArc
 50
270.0
 51
342.6459753637
  0
ARC
  5
287
100
AcDbEntity
  8
LAYER_FEATURE
100
AcDbCircle
 62
7
  6
CONTINUOUS
 10
9.3587010828
 20
5.1522032301
 40
0.0520833333
100
AcDbArc
 50
270.0
 51
342.6459753637
  0
ARC
  5
288
100
AcDbEntity
  8
LAYER_FEATURE
100
AcDbCircle
 62
7
  6
CONTINUOUS
 10
8.6540334696
 20
5.1522032301
 40
0.0520833333
100
AcDbArc
 50
197.3540246363
 51
270.0
  0
ARC
  5
289
100
AcDbEntity
  8
0
100
AcDbCircle
 62
7
  6
CONTINUOUS
 10
2.6443672762
 20
5.9251198968
 40
0.015
100
AcDbArc
 50
90.0
 51
180.0
  0
ARC
  5
28A
100
AcDbEntity
  8
0
100
AcDbCircle
 62
7
  6
CONTINUOUS
 10
9.6163672762
 20
5.9251198968
 40
0.015
100
AcDbArc
 50
0.0
 51
90.0
  0
SPLINE
  5
28B
100
AcDbEntity
  8
0
100
AcDbSpline
 62
7
  6
CONTINUOUS
 70
0
 71
3
 72
15
 73
11
 74
0
 42
0.0000001
 43
0.0000001
 44
0.0000000001
 40
0.0
 40
0.0
 40
0.0
 40
0.0
 40
0.1294165569
 40
0.2645180781
 40
0.4012970774
 40
0.5362628266
 40
0.6661560434
 40
0.78813941
 40
0.8999194788
 40
1.0
 40
1.0
 40
1.0
 40
1.0
 10
19.1442600826
 20
14.3385349988
 30
0.0
 10
19.145187936
 20
14.3385349988
 30
0.0
 10
19.1470857403
 20
14.3384047906
 30
0.0
 10
19.1499198033
 20
14.3378763572
 30
0.0
 10
19.1527141557
 20
14.3370183806
 30
0.0
 10
19.1553619987
 20
14.3358709002
 30
0.0
 10
19.1577647458
 20
14.3344720768
 30
0.0
 10
19.1598376371
 20
14.3328759926
 30
0.0
 10
19.1614956569
 20
14.3311364577
 30
0.0
 10
19.1623355236
 20
14.3298549973
 30
0.0
 10
19.1626516255
 20
14.3292108493
 30
0.0
  0
SPLINE
  5
28C
100
AcDbEntity
  8
0
100
AcDbSpline
 62
7
  6
CONTINUOUS
 70
0
 71
3
 72
10
 73
6
 74
0
 42
0.0000001
 43
0.0000001
 44
0.0000000001
 40
0.0
 40
0.0
 40
0.0
 40
0.0
 40
0.2343758129
 40
0.4761728829
 40
1.0
 40
1.0
 40
1.0
 40
1.0
 10
11.7446019404
 20
11.2003318694
 30
0.0
 10
11.7444967122
 20
11.1999921043
 30
0.0
 10
11.7443587612
 20
11.1992756251
 30
0.0
 10
11.7443956381
 20
11.1977499232
 30
0.0
 10
11.7447670396
 20
11.1966168683
 30
0.0
 10
11.7451172519
 20
11.1959032108
 30
0.0
  0
SPLINE
  5
28D
100
AcDbEntity
  8
0
100
AcDbSpline
 62
7
  6
CONTINUOUS
 70
0
 71
3
 72
13
 73
9
 74
0
 42
0.0000001
 43
0.0000001
 44
0.0000000001
 40
0.0
 40
0.0
 40
0.0
 40
0.0
 40
0.0997942201
 40
0.2030647278
 40
0.3128498857
 40
0.4312452013
 40
0.6971835619
 40
1.0
 40
1.0
 40
1.0
 40
1.0
 10
12.712867234
 20
14.333639508
 30
0.0
 10
12.7129815972
 20
14.3340087684
 30
0.0
 10
12.7133054017
 20
14.334734877
 30
0.0
 10
12.7140420943
 20
14.3357086592
 30
0.0
 10
12.7150170887
 20
14.3365564236
 30
0.0
 10
12.716667776
 20
14.3375416552
 30
0.0
 10
12.7192404803
 20
14.3383475429
 30
0.0
 10
12.7214498374
 20
14.3385349988
 30
0.0
 10
12.7226228324
 20
14.3385349988
 30
0.0
  0
SPLINE
  5
28E
100
AcDbEntity
  8
LAYER_FEATURE
100
AcDbSpline
 62
7
  6
CONTINUOUS
 70
0
 71
3
 72
15
 73
11
 74
0
 42
0.0000001
 43
0.0000001
 44
0.0000000001
 40
0.0
 40
0.0
 40
0.0
 40
0.0
 40
0.1555642814
 40
0.3031062113
 40
0.4411068892
 40
0.5690477971
 40
0.687283667
 40
0.7969677136
 40
0.9002174191
 40
1.0
 40
1.0
 40
1.0
 40
1.0
 10
18.1949036767
 20
10.683074987
 30
0.0
 10
18.1969980656
 20
10.683074987
 30
0.0
 10
18.2010818338
 20
10.6832575437
 30
0.0
 10
18.2069701469
 20
10.6841064497
 30
0.0
 10
18.2123686351
 20
10.6855202063
 30
0.0
 10
18.2171751339
 20
10.6874755733
 30
0.0
 10
18.2213087672
 20
10.689940006
 30
0.0
 10
18.22469229
 20
10.6928857741
 30
0.0
 10
18.2272580393
 20
10.6962643541
 30
0.0
 10
18.2283786806
 20
10.698790227
 30
0.0
 10
18.2287748554
 20
10.7000738714
 30
0.0
  0
SPLINE
  5
28F
100
AcDbEntity
  8
LAYER_FEATURE
100
AcDbSpline
 62
7
  6
CONTINUOUS
 70
0
 71
3
 72
15
 73
11
 74
0
 42
0.0000001
 43
0.0000001
 44
0.0000000001
 40
0.0
 40
0.0
 40
0.0
 40
0.0
 40
0.1116980903
 40
0.2311212005
 40
0.3563827123
 40
0.4855761614
 40
0.6166965896
 40
0.7476430421
 40
0.8762346857
 40
1.0
 40
1.0
 40
1.0
 40
1.0
 10
17.4889248566
 20
10.7057936984
 30
0.0
 10
17.4905383834
 20
10.704101964
 30
0.0
 10
17.4941250389
 20
10.7008337455
 30
0.0
 10
17.5001867576
 20
10.6964640594
 30
0.0
 10
17.5069883481
 20
10.6925678668
 30
0.0
 10
17.514350578
 20
10.6892348506
 30
0.0
 10
17.5220988161
 20
10.6865502902
 30
0.0
 10
17.5300446413
 20
10.6845737299
 30
0.0
 10
17.5379868298
 20
10.683365713
 30
0.0
 10
17.5432714323
 20
10.683074987
 30
0.0
 10
17.5458618245
 20
10.683074987
 30
0.0
  0
SPLINE
  5
290
100
AcDbEntity
  8
LAYER_FEATURE
100
AcDbSpline
 62
7
  6
CONTINUOUS
 70
0
 71
3
 72
15
 73
11
 74
0
 42
0.0000001
 43
0.0000001
 44
0.0000000001
 40
0.0
 40
0.0
 40
0.0
 40
0.0
 40
0.1555642814
 40
0.3031062113
 40
0.4411068892
 40
0.5690477971
 40
0.687283667
 40
0.7969677136
 40
0.9002174191
 40
1.0
 40
1.0
 40
1.0
 40
1.0
 10
16.8704179673
 20
10.683074987
 30
0.0
 10
16.8725123563
 20
10.683074987
 30
0.0
 10
16.8765961244
 20
10.6832575437
 30
0.0
 10
16.8824844375
 20
10.6841064497
 30
0.0
 10
16.8878829257
 20
10.6855202063
 30
0.0
 10
16.8926894245
 20
10.6874755733
 30
0.0
 10
16.8968230578
 20
10.689940006
 30
0.0
 10
16.9002065806
 20
10.6928857741
 30
0.0
 10
16.9027723299
 20
10.6962643541
 30
0.0
 10
16.9038929712
 20
10.698790227
 30
0.0
 10
16.904289146
 20
10.7000738714
 30
0.0
  0
SPLINE
  5
291
100
AcDbEntity
  8
LAYER_FEATURE
100
AcDbSpline
 62
7
  6
CONTINUOUS
 70
0
 71
3
 72
15
 73
11
 74
0
 42
0.0000001
 43
0.0000001
 44
0.0000000001
 40
0.0
 40
0.0
 40
0.0
 40
0.0
 40
0.1116980903
 40
0.2311212005
 40
0.3563827123
 40
0.4855761614
 40
0.6166965896
 40
0.7476430421
 40
0.8762346857
 40
1.0
 40
1.0
 40
1.0
 40
1.0
 10
16.1644391472
 20
10.7057936984
 30
0.0
 10
16.166052674
 20
10.704101964
 30
0.0
 10
16.1696393295
 20
10.7008337455
 30
0.0
 10
16.1757010482
 20
10.6964640594
 30
0.0
 10
16.1825026387
 20
10.6925678668
 30
0.0
 10
16.1898648686
 20
10.6892348506
 30
0.0
 10
16.1976131067
 20
10.6865502902
 30
0.0
 10
16.2055589319
 20
10.6845737299
 30
0.0
 10
16.2135011204
 20
10.683365713
 30
0.0
 10
16.2187857229
 20
10.683074987
 30
0.0
 10
16.2213761151
 20
10.683074987
 30
0.0
  0
SPLINE
  5
292
100
AcDbEntity
  8
LAYER_FEATURE
100
AcDbSpline
 62
7
  6
CONTINUOUS
 70
0
 71
3
 72
15
 73
11
 74
0
 42
0.0000001
 43
0.0000001
 44
0.0000000001
 40
0.0
 40
0.0
 40
0.0
 40
0.0
 40
0.1555642814
 40
0.3031062113
 40
0.4411068892
 40
0.5690477971
 40
0.687283667
 40
0.7969677136
 40
0.9002174191
 40
1.0
 40
1.0
 40
1.0
 40
1.0
 10
15.545932258
 20
10.683074987
 30
0.0
 10
15.5480266469
 20
10.683074987
 30
0.0
 10
15.552110415
 20
10.6832575437
 30
0.0
 10
15.5579987281
 20
10.6841064497
 30
0.0
 10
15.5633972163
 20
10.6855202063
 30
0.0
 10
15.5682037152
 20
10.6874755733
 30
0.0
 10
15.5723373484
 20
10.689940006
 30
0.0
 10
15.5757208712
 20
10.6928857741
 30
0.0
 10
15.5782866205
 20
10.6962643541
 30
0.0
 10
15.5794072619
 20
10.698790227
 30
0.0
 10
15.5798034366
 20
10.7000738714
 30
0.0
  0
SPLINE
  5
293
100
AcDbEntity
  8
LAYER_FEATURE
100
AcDbSpline
 62
7
  6
CONTINUOUS
 70
0
 71
3
 72
15
 73
11
 74
0
 42
0.0000001
 43
0.0000001
 44
0.0000000001
 40
0.0
 40
0.0
 40
0.0
 40
0.0
 40
0.1116980903
 40
0.2311212005
 40
0.3563827123
 40
0.4855761614
 40
0.6166965896
 40
0.7476430421
 40
0.8762346857
 40
1.0
 40
1.0
 40
1.0
 40
1.0
 10
14.8399534378
 20
10.7057936984
 30
0.0
 10
14.8415669646
 20
10.704101964
 30
0.0
 10
14.8451536202
 20
10.7008337455
 30
0.0
 10
14.8512153388
 20
10.6964640594
 30
0.0
 10
14.8580169293
 20
10.6925678668
 30
0.0
 10
14.8653791593
 20
10.6892348506
 30
0.0
 10
14.8731273973
 20
10.6865502902
 30
0.0
 10
14.8810732226
 20
10.6845737299
 30
0.0
 10
14.889015411
 20
10.683365713
 30
0.0
 10
14.8943000135
 20
10.683074987
 30
0.0
 10
14.8968904057
 20
10.683074987
 30
0.0
  0
SPLINE
  5
294
100
AcDbEntity
  8
LAYER_FEATURE
100
AcDbSpline
 62
7
  6
CONTINUOUS
 70
0
 71
3
 72
15
 73
11
 74
0
 42
0.0000001
 43
0.0000001
 44
0.0000000001
 40
0.0
 40
0.0
 40
0.0
 40
0.0
 40
0.1555642814
 40
0.3031062113
 40
0.4411068892
 40
0.5690477971
 40
0.687283667
 40
0.7969677136
 40
0.9002174191
 40
1.0
 40
1.0
 40
1.0
 40
1.0
 10
14.2214465486
 20
10.683074987
 30
0.0
 10
14.2235409375
 20
10.683074987
 30
0.0
 10
14.2276247056
 20
10.6832575437
 30
0.0
 10
14.2335130187
 20
10.6841064497
 30
0.0
 10
14.2389115069
 20
10.6855202063
 30
0.0
 10
14.2437180058
 20
10.6874755733
 30
0.0
 10
14.247851639
 20
10.689940006
 30
0.0
 10
14.2512351618
 20
10.6928857741
 30
0.0
 10
14.2538009111
 20
10.6962643541
 30
0.0
 10
14.2549215525
 20
10.698790227
 30
0.0
 10
14.2553177272
 20
10.7000738714
 30
0.0
  0
SPLINE
  5
295
100
AcDbEntity
  8
LAYER_FEATURE
100
AcDbSpline
 62
7
  6
CONTINUOUS
 70
0
 71
3
 72
15
 73
11
 74
0
 42
0.0000001
 43
0.0000001
 44
0.0000000001
 40
0.0
 40
0.0
 40
0.0
 40
0.0
 40
0.1116980903
 40
0.2311212005
 40
0.3563827123
 40
0.4855761614
 40
0.6166965896
 40
0.7476430421
 40
0.8762346857
 40
1.0
 40
1.0
 40
1.0
 40
1.0
 10
13.5154677285
 20
10.7057936984
 30
0.0
 10
13.5170812553
 20
10.704101964
 30
0.0
 10
13.5206679108
 20
10.7008337455
 30
0.0
 10
13.5267296294
 20
10.6964640594
 30
0.0
 10
13.53353122
 20
10.6925678668
 30
0.0
 10
13.5408934499
 20
10.6892348506
 30
0.0
 10
13.5486416879
 20
10.6865502902
 30
0.0
 10
13.5565875132
 20
10.6845737299
 30
0.0
 10
13.5645297016
 20
10.683365713
 30
0.0
 10
13.5698143041
 20
10.683074987
 30
0.0
 10
13.5724046963
 20
10.683074987
 30
0.0
  0
SPLINE
  5
296
100
AcDbEntity
  8
0
100
AcDbSpline
 62
7
  6
CONTINUOUS
 70
0
 71
3
 72
15
 73
11
 74
0
 42
0.0000001
 43
0.0000001
 44
0.0000000001
 40
0.0
 40
0.0
 40
0.0
 40
0.0
 40
0.1555642814
 40
0.3031062113
 40
0.4411068892
 40
0.5690477971
 40
0.687283667
 40
0.7969677136
 40
0.9002174191
 40
1.0
 40
1.0
 40
1.0
 40
1.0
 10
12.8969608392
 20
10.683074987
 30
0.0
 10
12.8990552281
 20
10.683074987
 30
0.0
 10
12.9031389963
 20
10.6832575437
 30
0.0
 10
12.9090273094
 20
10.6841064497
 30
0.0
 10
12.9144257976
 20
10.6855202063
 30
0.0
 10
12.9192322964
 20
10.6874755733
 30
0.0
 10
12.9233659297
 20
10.689940006
 30
0.0
 10
12.9267494525
 20
10.6928857741
 30
0.0
 10
12.9293152018
 20
10.6962643541
 30
0.0
 10
12.9304358431
 20
10.698790227
 30
0.0
 10
12.9308320179
 20
10.7000738714
 30
0.0
  0
SPLINE
  5
297
100
AcDbEntity
  8
0
100
AcDbSpline
 62
7
  6
CONTINUOUS
 70
0
 71
3
 72
15
 73
11
 74
0
 42
0.0000001
 43
0.0000001
 44
0.0000000001
 40
0.0
 40
0.0
 40
0.0
 40
0.0
 40
0.1116980903
 40
0.2311212005
 40
0.3563827123
 40
0.4855761614
 40
0.6166965896
 40
0.7476430421
 40
0.8762346857
 40
1.0
 40
1.0
 40
1.0
 40
1.0
 10
12.1909820191
 20
10.7057936984
 30
0.0
 10
12.1925955459
 20
10.704101964
 30
0.0
 10
12.1961822014
 20
10.7008337455
 30
0.0
 10
12.2022439201
 20
10.6964640594
 30
0.0
 10
12.2090455106
 20
10.6925678668
 30
0.0
 10
12.2164077405
 20
10.6892348506
 30
0.0
 10
12.2241559786
 20
10.6865502902
 30
0.0
 10
12.2321018038
 20
10.6845737299
 30
0.0
 10
12.2400439923
 20
10.683365713
 30
0.0
 10
12.2453285947
 20
10.683074987
 30
0.0
 10
12.247918987
 20
10.683074987
 30
0.0
  0
SPLINE
  5
298
100
AcDbEntity
  8
0
100
AcDbSpline
 62
7
  6
CONTINUOUS
 70
0
 71
3
 72
13
 73
9
 74
0
 42
0.0000001
 43
0.0000001
 44
0.0000000001
 40
0.0
 40
0.0
 40
0.0
 40
0.0
 40
0.3028164381
 40
0.5687547987
 40
0.6871501143
 40
0.7969352722
 40
0.9002057799
 40
1.0
 40
1.0
 40
1.0
 40
1.0
 10
11.7543575388
 20
11.2052273603
 30
0.0
 10
11.7531845437
 20
11.2052273603
 30
0.0
 10
11.7509751866
 20
11.2050399044
 30
0.0
 10
11.7484024824
 20
11.2042340167
 30
0.0
 10
11.746751795
 20
11.2032487851
 30
0.0
 10
11.7457768007
 20
11.2024010207
 30
0.0
 10
11.745040108
 20
11.2014272385
 30
0.0
 10
11.7447163035
 20
11.2007011299
 30
0.0
 10
11.7446019404
 20
11.2003318694
 30
0.0
  0
SPLINE
  5
299
100
AcDbEntity
  8
0
100
AcDbSpline
 62
7
  6
CONTINUOUS
 70
0
 71
3
 72
15
 73
11
 74
0
 42
0.0000001
 43
0.0000001
 44
0.0000000001
 40
0.0
 40
0.0
 40
0.0
 40
0.0
 40
0.1000805212
 40
0.21186059
 40
0.3338439566
 40
0.4637371734
 40
0.5987029226
 40
0.7354819219
 40
0.8705834431
 40
1.0
 40
1.0
 40
1.0
 40
1.0
 10
18.1943863319
 20
11.1959032108
 30
0.0
 10
18.19407023
 20
11.1965473588
 30
0.0
 10
18.1932303633
 20
11.1978288191
 30
0.0
 10
18.1915723435
 20
11.1995683541
 30
0.0
 10
18.1894994522
 20
11.2011644383
 30
0.0
 10
18.1870967051
 20
11.2025632617
 30
0.0
 10
18.1844488621
 20
11.2037107421
 30
0.0
 10
18.1816545097
 20
11.2045687187
 30
0.0
 10
18.1788204467
 20
11.2050971521
 30
0.0
 10
18.1769226424
 20
11.2052273603
 30
0.0
 10
18.175994789
 20
11.2052273603
 30
0.0
  0
ENDSEC
  0
SECTION
  2
OBJECTS
  0
DICTIONARY
  5
C
100
AcDbDictionary
280
0
281
1
  3
ACAD_GROUP
350
D
  3
ACAD_MLINESTYLE
350
17
  3
ACAD_LAYOUT
350
1A
  3
ACAD_PLOTSETTINGS
350
19
  3
ACAD_PLOTSTYLENAME
350
E
  0
DICTIONARY
  5
D
102
{ACAD_REACTORS
330
C
102
}
100
AcDbDictionary
280
0
281
1
  0
ACDBDICTIONARYWDFLT
  5
E
102
{ACAD_REACTORS
330
C
102
}
100
AcDbDictionary
281
1
  3
Normal
350
F
100
AcDbDictionaryWithDefault
340
F
  0
DICTIONARY
  5
17
102
{ACAD_REACTORS
330
C
102
}
100
AcDbDictionary
280
0
281
1
  3
Standard
350
18
  0
DICTIONARY
  5
19
102
{ACAD_REACTORS
330
C
102
}
100
AcDbDictionary
281
1
  0
DICTIONARY
  5
1A
102
{ACAD_REACTORS
330
C
102
}
100
AcDbDictionary
281
1
  3
Model
350
29A
  3
Layout1
350
29B
  0
ACDBPLACEHOLDER
  5
F
102
{ACAD_REACTORS
330
E
102
}
  0
MLINESTYLE
  5
18
102
{ACAD_REACTORS
330
17
102
}
100
AcDbMlineStyle
  2
STANDARD
 70
0
  3

 62
256
 51
90.0
 52
90.0
 71
2
 49
0.5
 62
256
  6
BYLAYER
 49
-0.5
 62
256
  6
BYLAYER
  0
LAYOUT
  5
29A
102
{ACAD_REACTORS
330
1A
102
}
100
AcDbPlotSettings
  1

  2
none_device
  4
ANSI_C_(22.00_x_17.00_Inches)
  6

 40
0.0
 41
0.0
 42
0.0
 43
0.0
 44
558.8
 45
431.8
 46
0.0
 47
0.0
 48
0.0
 49
0.0
140
0.0
141
0.0
142
1.0
143
1.0
 70
1024
 72
0
 73
0
 74
0
  7

 75
0
147
1.0
148
0.0
149
0.0
100
AcDbLayout
  1
Model
 70
0
 71
0
 10
0.0
 20
0.0
 11
22.0
 21
17.0
 12
0.0
 22
0.0
 32
0.0
 14
0.0
 24
0.0
 34
0.0
 15
0.0
 25
0.0
 35
0.0
146
0.0
 13
0.0
 23
0.0
 33
0.0
 16
1.0
 26
0.0
 36
0.0
 17
0.0
 27
1.0
 37
0.0
 76
0
330
21C
345
0
346
0
  0
LAYOUT
  5
29B
102
{ACAD_REACTORS
330
1A
102
}
100
AcDbPlotSettings
  1

  2
none_device
  4
ANSI_C_(22.00_x_17.00_Inches)
  6

 40
0.0
 41
0.0
 42
0.0
 43
0.0
 44
558.8
 45
431.8
 46
0.0
 47
0.0
 48
0.0
 49
0.0
140
0.0
141
0.0
142
1.0
143
1.0
 70
0
 72
0
 73
0
 74
0
  7

 75
0
147
1.0
148
0.0
149
0.0
100
AcDbLayout
  1
Layout1
 70
0
 71
1
 10
0.0
 20
0.0
 11
22.0
 21
17.0
 12
0.0
 22
0.0
 32
0.0
 14
0.0
 24
0.0
 34
0.0
 15
0.0
 25
0.0
 35
0.0
146
0.0
 13
0.0
 23
0.0
 33
0.0
 16
1.0
 26
0.0
 36
0.0
 17
0.0
 27
1.0
 37
0.0
 76
0
330
21D
345
0
346
0
  0
ENDSEC
  0
EOF