999
DXF file: _cgs_temp_output.dxf
999
Pro/ENGINEER 2016360 by Parametric Technology Corporation
  0
SECTION
  2
HEADER
  9
$ACADVER
  1
AC1021
  9
$DWGCODEPAGE
  3
ANSI_1252
  9
$EXTMAX
 10
22.0
 20
17.0
 30
0.0
  9
$EXTMIN
 10
0.0
 20
0.0
 30
0.0
  9
$LIMMIN
 10
0.0
 20
0.0
  9
$LIMMAX
 10
22.0
 20
17.0
  9
$VIEWCTR
 10
11.0
 20
8.5
  9
$VIEWSIZE
 40
17.0
  9
$CLAYER
  8
0
  9
$LTSCALE
 40
1.21
  9
$CELTYPE
  6
BYLAYER
  9
$DIMSCALE
 40
1.0
  9
$DIMASZ
 40
0.1875
  9
$DIMEXO
 40
0.0625
  9
$DIMDLI
 40
0.836
  9
$DIMEXE
 40
0.125
  9
$DIMCEN
 40
0.198
  9
$DIMLFAC
 40
1.0
  9
$DIMBLK
  1
_CLOSED
  9
$DIMALT
 70
0
  9
$DIMALTF
 40
25.4
  9
$DIMTXT
 40
0.15625
  9
$DIMTOL
 70
0
  9
$DIMLIM
 70
0
  9
$DIMTFAC
 40
1.0
  9
$DIMGAP
 40
0.09
  9
$DIMDSEP
 70
46
  9
$AUNITS
 70
0
  9
$PDMODE
 70
3
  9
$PDSIZE
 40
0.3125
  9
$HANDSEED
  5
2FC
  9
$TILEMODE
 70
1
  9
$MEASUREMENT
 70
0
  9
$INSUNITS
 70
1
  0
ENDSEC
  0
SECTION
  2
CLASSES
  0
CLASS
  1
ACDBDICTIONARYWDFLT
  2
AcDbDictionaryWithDefault
  3
AutoCAD 2000
 90
0
 91
1
280
0
281
0
  0
CLASS
  1
ACDBPLACEHOLDER
  2
AcDbPlaceHolder
  3
AutoCAD 2000
 90
0
 91
1
280
0
281
0
  0
CLASS
  1
LAYOUT
  2
AcDbLayout
  3
AutoCAD 2000
 90
0
 91
0
280
0
281
0
  0
ENDSEC
  0
SECTION
  2
TABLES
  0
TABLE
  2
VPORT
  5
8
100
AcDbSymbolTable
 70
2
  0
VPORT
  5
1F4
100
AcDbSymbolTableRecord
100
AcDbViewportTableRecord
  2
*ACTIVE
 70
0
 10
0.0
 20
0.0
 11
1.0
 21
1.0
 12
11.0
 22
8.5
 13
0.0
 23
0.0
 14
1.0
 24
1.0
 15
0.0
 25
0.0
 16
0.0
 26
0.0
 36
1.0
 17
0.0
 27
0.0
 37
0.0
 40
17.0
 41
1.2941176471
 42
50.0
 43
0.0
 44
0.0
 50
0.0
 51
0.0
 71
0
 72
100
 73
1
 74
1
 75
0
 76
0
 77
0
 78
0
  0
ENDTAB
  0
TABLE
  2
LTYPE
  5
5
100
AcDbSymbolTable
 70
6
  0
LTYPE
  5
14
100
AcDbSymbolTableRecord
100
AcDbLinetypeTableRecord
  2
BYBLOCK
 70
0
  3

 72
65
 73
0
 40
0.0
  0
LTYPE
  5
15
100
AcDbSymbolTableRecord
100
AcDbLinetypeTableRecord
  2
BYLAYER
 70
0
  3

 72
65
 73
0
 40
0.0
  0
LTYPE
  5
16
100
AcDbSymbolTableRecord
100
AcDbLinetypeTableRecord
  2
CONTINUOUS
 70
64
  3
Solid line
 72
65
 73
0
 40
0.0
  0
LTYPE
  5
1F5
100
AcDbSymbolTableRecord
100
AcDbLinetypeTableRecord
  2
CENTER
 70
64
  3
____ _ ____ _ ____ _ ____ _ ____ _ ____ _ ____
 72
65
 73
4
 40
0.6
 49
0.375
 74
0
 49
-0.075
 74
0
 49
0.075
 74
0
 49
-0.075
 74
0
  0
LTYPE
  5
1F6
100
AcDbSymbolTableRecord
100
AcDbLinetypeTableRecord
  2
HIDDEN
 70
64
  3
- - - - - - - - - - - - - - - - - - - -
 72
65
 73
2
 40
0.2
 49
0.1
 74
0
 49
-0.1
 74
0
  0
LTYPE
  5
1F7
100
AcDbSymbolTableRecord
100
AcDbLinetypeTableRecord
  2
PHANTOM
 70
64
  3
_____ _ _ _____ _ _ _____ _ _ _____
 72
65
 73
6
 40
0.8
 49
0.45
 74
0
 49
-0.05
 74
0
 49
0.1
 74
0
 49
-0.05
 74
0
 49
0.1
 74
0
 49
-0.05
 74
0
  0
LTYPE
  5
1F8
100
AcDbSymbolTableRecord
100
AcDbLinetypeTableRecord
  2
DOT
 70
64
  3
. . . . . . . . . . . . . . . . . . . .
 72
65
 73
2
 40
0.2
 49
0.1
 74
0
 49
-0.1
 74
0
  0
LTYPE
  5
1F9
100
AcDbSymbolTableRecord
100
AcDbLinetypeTableRecord
  2
DASHED
 70
64
  3
- - - - - - - - - - - - - - - - - - - -
 72
65
 73
2
 40
0.2
 49
0.1
 74
0
 49
-0.1
 74
0
  0
ENDTAB
  0
TABLE
  2
LAYER
  5
2
100
AcDbSymbolTable
 70
36
  0
LAYER
  5
10
100
AcDbSymbolTableRecord
100
AcDbLayerTableRecord
  2
0
 70
0
 62
7
  6
CONTINUOUS
370
-3
390
F
  0
LAYER
  5
1FA
100
AcDbSymbolTableRecord
100
AcDbLayerTableRecord
  2
DEFAULT_1
 70
0
 62
7
  6
CENTER
370
-3
390
F
  0
LAYER
  5
1FB
100
AcDbSymbolTableRecord
100
AcDbLayerTableRecord
  2
DEFAULT_2
 70
0
 62
8
  6
HIDDEN
370
-3
390
F
  0
LAYER
  5
1FC
100
AcDbSymbolTableRecord
100
AcDbLayerTableRecord
  2
DEFAULT_3
 70
0
 62
7
  6
PHANTOM
370
-3
390
F
  0
LAYER
  5
1FD
100
AcDbSymbolTableRecord
100
AcDbLayerTableRecord
  2
01_ALL_DTM_PLN
 70
0
 62
7
  6
CONTINUOUS
370
-3
390
F
  0
LAYER
  5
1FE
100
AcDbSymbolTableRecord
100
AcDbLayerTableRecord
  2
01__ASM_ALL_DTM_PLN
 70
0
 62
7
  6
CONTINUOUS
370
-3
390
F
  0
LAYER
  5
1FF
100
AcDbSymbolTableRecord
100
AcDbLayerTableRecord
  2
01__ASM_DEF_DTM_PLN
 70
0
 62
7
  6
CONTINUOUS
370
-3
390
F
  0
LAYER
  5
200
100
AcDbSymbolTableRecord
100
AcDbLayerTableRecord
  2
01___PRT_ALL_DTM_PLN
 70
0
 62
7
  6
CONTINUOUS
370
-3
390
F
  0
LAYER
  5
201
100
AcDbSymbolTableRecord
100
AcDbLayerTableRecord
  2
01___PRT_DEF_DTM_PLN
 70
0
 62
7
  6
CONTINUOUS
370
-3
390
F
  0
LAYER
  5
202
100
AcDbSymbolTableRecord
100
AcDbLayerTableRecord
  2
02_ALL_AXES
 70
0
 62
7
  6
CONTINUOUS
370
-3
390
F
  0
LAYER
  5
203
100
AcDbSymbolTableRecord
100
AcDbLayerTableRecord
  2
02__ASM_ALL_AXES
 70
0
 62
7
  6
CONTINUOUS
370
-3
390
F
  0
LAYER
  5
204
100
AcDbSymbolTableRecord
100
AcDbLayerTableRecord
  2
02___PRT_ALL_AXES
 70
0
 62
7
  6
CONTINUOUS
370
-3
390
F
  0
LAYER
  5
205
100
AcDbSymbolTableRecord
100
AcDbLayerTableRecord
  2
03_ALL_CURVES
 70
0
 62
7
  6
CONTINUOUS
370
-3
390
F
  0
LAYER
  5
206
100
AcDbSymbolTableRecord
100
AcDbLayerTableRecord
  2
03__ASM_ALL_CURVES
 70
0
 62
7
  6
CONTINUOUS
370
-3
390
F
  0
LAYER
  5
207
100
AcDbSymbolTableRecord
100
AcDbLayerTableRecord
  2
03___PRT_ALL_CURVES
 70
0
 62
7
  6
CONTINUOUS
370
-3
390
F
  0
LAYER
  5
208
100
AcDbSymbolTableRecord
100
AcDbLayerTableRecord
  2
04_ALL_DTM_PNT
 70
0
 62
7
  6
CONTINUOUS
370
-3
390
F
  0
LAYER
  5
209
100
AcDbSymbolTableRecord
100
AcDbLayerTableRecord
  2
04__ASM_ALL_DTM_PNT
 70
0
 62
7
  6
CONTINUOUS
370
-3
390
F
  0
LAYER
  5
20A
100
AcDbSymbolTableRecord
100
AcDbLayerTableRecord
  2
04___PRT_ALL_DTM_PNT
 70
0
 62
7
  6
CONTINUOUS
370
-3
390
F
  0
LAYER
  5
20B
100
AcDbSymbolTableRecord
100
AcDbLayerTableRecord
  2
05_ALL_DTM_CSYS
 70
0
 62
7
  6
CONTINUOUS
370
-3
390
F
  0
LAYER
  5
20C
100
AcDbSymbolTableRecord
100
AcDbLayerTableRecord
  2
05__ASM_ALL_DTM_CSYS
 70
0
 62
7
  6
CONTINUOUS
370
-3
390
F
  0
LAYER
  5
20D
100
AcDbSymbolTableRecord
100
AcDbLayerTableRecord
  2
05__ASM_DEF_DTM_CSYS
 70
0
 62
7
  6
CONTINUOUS
370
-3
390
F
  0
LAYER
  5
20E
100
AcDbSymbolTableRecord
100
AcDbLayerTableRecord
  2
05___PRT_ALL_DTM_CSYS
 70
0
 62
7
  6
CONTINUOUS
370
-3
390
F
  0
LAYER
  5
20F
100
AcDbSymbolTableRecord
100
AcDbLayerTableRecord
  2
05___PRT_DEF_DTM_CSYS
 70
0
 62
7
  6
CONTINUOUS
370
-3
390
F
  0
LAYER
  5
210
100
AcDbSymbolTableRecord
100
AcDbLayerTableRecord
  2
06_ALL_SURFS
 70
0
 62
7
  6
CONTINUOUS
370
-3
390
F
  0
LAYER
  5
211
100
AcDbSymbolTableRecord
100
AcDbLayerTableRecord
  2
06__ASM_ALL_SURFS
 70
0
 62
7
  6
CONTINUOUS
370
-3
390
F
  0
LAYER
  5
212
100
AcDbSymbolTableRecord
100
AcDbLayerTableRecord
  2
06___PRT_ALL_SURFS
 70
0
 62
7
  6
CONTINUOUS
370
-3
390
F
  0
LAYER
  5
213
100
AcDbSymbolTableRecord
100
AcDbLayerTableRecord
  2
07__ASM_ALL_SKELETONS
 70
0
 62
7
  6
CONTINUOUS
370
-3
390
F
  0
ENDTAB
  0
TABLE
  2
STYLE
  5
3
100
AcDbSymbolTable
 70
1
  0
STYLE
  5
11
100
AcDbSymbolTableRecord
100
AcDbTextStyleTableRecord
  2
STANDARD
 70
0
 40
0.0
 41
0.8
 50
0.0
 71
0
 42
0.2
  3
txt
  4

  0
STYLE
  5
214
100
AcDbSymbolTableRecord
100
AcDbTextStyleTableRecord
  2
TEXTSTYLE_1
 70
0
 40
0.0
 41
0.8
 50
0.0
 71
0
 42
0.2
  3
gdt
  4

  0
ENDTAB
  0
TABLE
  2
VIEW
  5
6
100
AcDbSymbolTable
 70
0
  0
ENDTAB
  0
TABLE
  2
UCS
  5
7
100
AcDbSymbolTable
 70
0
  0
ENDTAB
  0
TABLE
  2
APPID
  5
9
100
AcDbSymbolTable
 70
1
  0
APPID
  5
215
100
AcDbSymbolTableRecord
100
AcDbRegAppTableRecord
  2
ACAD
 70
0
  0
ENDTAB
  0
TABLE
  2
BLOCK_RECORD
  5
1
100
AcDbSymbolTable
 70
0
  0
BLOCK_RECORD
  5
216
100
AcDbSymbolTableRecord
100
AcDbBlockTableRecord
  2
*Model_Space
  0
BLOCK_RECORD
  5
217
100
AcDbSymbolTableRecord
100
AcDbBlockTableRecord
  2
*Paper_Space
  0
ENDTAB
  0
TABLE
  2
DIMSTYLE
  5
A
100
AcDbSymbolTable
 70
1
100
AcDbDimStyleTable
 71
0
  0
DIMSTYLE
105
218
100
AcDbSymbolTableRecord
100
AcDbDimStyleTableRecord
  2
STANDARD
 70
0
  3

  4

 40
1.0
 41
0.1875
 42
0.0625
 43
0.38
 44
0.125
 45
0.0
 46
0.0
 47
0.0001
 48
0.0001
140
0.15625
141
0.09
142
0.0
143
25.4
144
1.0
145
0.0
146
1.0
147
0.09
 71
0.0
 72
0.0
 73
1
 74
1
 75
0
 76
0
 77
0
 78
4
 79
1
170
0
171
3
172
0
173
0
174
0
175
0
176
0
177
0
178
0
270
2
179
4
271
4
272
4
273
2
274
2
275
0
280
0
281
0
282
0
283
1
284
4
285
0
286
0
287
3
288
0
340
11
278
46
  0
ENDTAB
  0
ENDSEC
  0
SECTION
  2
BLOCKS
  0
BLOCK
  5
20
100
AcDbEntity
  8
0
100
AcDbBlockBegin
  2
*Model_Space
 70
0
 10
0.0
 20
0.0
 30
0.0
  3
*Model_Space
  1

  0
ENDBLK
  5
21
100
AcDbEntity
  8
0
100
AcDbBlockEnd
  0
BLOCK
  5
1C
100
AcDbEntity
  8
0
100
AcDbBlockBegin
  2
*Paper_Space
 70
0
 10
0.0
 20
0.0
 30
0.0
  3
*Paper_Space
  1

  0
ENDBLK
  5
1D
100
AcDbEntity
  8
0
100
AcDbBlockEnd
  0
ENDSEC
  0
SECTION
  2
ENTITIES
  0
MTEXT
  5
219
100
AcDbEntity
  8
0
100
AcDbMText
 62
7
  6
CONTINUOUS
  7
STANDARD
 71
1
 72
1
 10
15.9560215477
 20
0.9479130325
 30
0.0
 11
1.0
 21
0.0
 31
0.0
 44
0.9
  1
SCALE: 1:1.000
 40
0.3
 41
3.36
  0
LINE
  5
21A
100
AcDbEntity
  8
0
100
AcDbLine
 62
7
  6
CONTINUOUS
 10
0.0
 20
0.0
 11
0.0
 21
17.0
  0
LINE
  5
21B
100
AcDbEntity
  8
0
100
AcDbLine
 62
7
  6
CONTINUOUS
 10
0.0
 20
0.0
 11
22.0
 21
0.0
  0
LINE
  5
21C
100
AcDbEntity
  8
0
100
AcDbLine
 62
7
  6
CONTINUOUS
 10
0.0
 20
17.0
 11
22.0
 21
17.0
  0
LINE
  5
21D
100
AcDbEntity
  8
0
100
AcDbLine
 62
7
  6
CONTINUOUS
 10
22.0
 20
0.0
 11
22.0
 21
17.0
  0
LINE
  5
21E
100
AcDbEntity
  8
0
100
AcDbLine
 62
7
  6
CONTINUOUS
 10
4.6303672762
 20
5.8376198968
 11
4.6303672762
 21
5.7072083408
  0
LINE
  5
21F
100
AcDbEntity
  8
0
100
AcDbLine
 62
7
  6
CONTINUOUS
 10
4.7916819204
 20
5.1948944719
 11
4.6352616245
 21
5.6763066413
  0
LINE
  5
220
100
AcDbEntity
  8
0
100
AcDbLine
 62
7
  6
CONTINUOUS
 10
4.8154583333
 20
5.1776198968
 11
7.445276219
 21
5.1776198968
  0
LINE
  5
221
100
AcDbEntity
  8
0
100
AcDbLine
 62
7
  6
CONTINUOUS
 10
4.741268336
 20
5.4059532301
 11
7.5194662163
 21
5.4059532301
  0
LINE
  5
222
100
AcDbEntity
  8
0
100
AcDbLine
 62
7
  6
CONTINUOUS
 10
7.6053672762
 20
5.8626198968
 11
4.6553672762
 21
5.8626198968
  0
LINE
  5
223
100
AcDbEntity
  8
0
100
AcDbLine
 62
7
  6
CONTINUOUS
 10
7.6303672762
 20
5.7072083408
 11
7.6303672762
 21
5.8376198968
  0
LINE
  5
224
100
AcDbEntity
  8
0
100
AcDbLine
 62
7
  6
CONTINUOUS
 10
7.4690526319
 20
5.1948944719
 11
7.6254729278
 21
5.6763066413
  0
LINE
  5
225
100
AcDbEntity
  8
0
100
AcDbLine
 62
7
  6
CONTINUOUS
 10
7.5708720839
 20
10.6000477814
 11
4.5708720839
 21
10.6000477814
  0
LINE
  5
226
100
AcDbEntity
  8
0
100
AcDbLine
 62
7
  6
CONTINUOUS
 10
4.5708720839
 20
10.6000477814
 11
4.5708720839
 21
14.6000477814
  0
LINE
  5
227
100
AcDbEntity
  8
0
100
AcDbLine
 62
7
  6
CONTINUOUS
 10
7.5708720839
 20
10.6000477814
 11
7.5708720839
 21
14.6000477814
  0
LINE
  5
228
100
AcDbEntity
  8
0
100
AcDbLine
 62
7
  6
CONTINUOUS
 10
4.5708720839
 20
14.6000477814
 11
7.5708720839
 21
14.6000477814
  0
LINE
  5
229
100
AcDbEntity
  8
0
100
AcDbLine
 62
7
  6
CONTINUOUS
 10
13.5603552569
 20
5.3464580378
 11
13.5603552569
 21
5.8031247044
  0
LINE
  5
22A
100
AcDbEntity
  8
0
100
AcDbLine
 62
7
  6
CONTINUOUS
 10
13.6692119627
 20
5.3022156605
 11
13.7014985511
 21
5.1623670818
  0
LINE
  5
22B
100
AcDbEntity
  8
0
100
AcDbLine
 62
7
  6
CONTINUOUS
 10
13.9192119627
 20
5.1623670818
 11
13.9514985511
 21
5.3022156605
  0
LINE
  5
22C
100
AcDbEntity
  8
0
100
AcDbLine
 62
7
  6
CONTINUOUS
 10
14.1692119627
 20
5.3022156605
 11
14.2014985511
 21
5.1623670818
  0
LINE
  5
22D
100
AcDbEntity
  8
0
100
AcDbLine
 62
7
  6
CONTINUOUS
 10
14.4192119627
 20
5.1623670818
 11
14.4514985511
 21
5.3022156605
  0
LINE
  5
22E
100
AcDbEntity
  8
0
100
AcDbLine
 62
7
  6
CONTINUOUS
 10
14.6692119627
 20
5.3022156605
 11
14.7014985511
 21
5.1623670818
  0
LINE
  5
22F
100
AcDbEntity
  8
0
100
AcDbLine
 62
7
  6
CONTINUOUS
 10
14.9192119627
 20
5.1623670818
 11
14.9514985511
 21
5.3022156605
  0
LINE
  5
230
100
AcDbEntity
  8
0
100
AcDbLine
 62
7
  6
CONTINUOUS
 10
15.1692119627
 20
5.3022156605
 11
15.2014985511
 21
5.1623670818
  0
LINE
  5
231
100
AcDbEntity
  8
0
100
AcDbLine
 62
7
  6
CONTINUOUS
 10
13.7571188423
 20
5.1181247044
 11
13.8635916715
 21
5.1181247044
  0
LINE
  5
232
100
AcDbEntity
  8
0
100
AcDbLine
 62
7
  6
CONTINUOUS
 10
14.2571188423
 20
5.1181247044
 11
14.3635916715
 21
5.1181247044
  0
LINE
  5
233
100
AcDbEntity
  8
0
100
AcDbLine
 62
7
  6
CONTINUOUS
 10
14.7571188423
 20
5.1181247044
 11
14.8635916715
 21
5.1181247044
  0
LINE
  5
234
100
AcDbEntity
  8
0
100
AcDbLine
 62
7
  6
CONTINUOUS
 10
15.2571188423
 20
5.1181247044
 11
15.3635916715
 21
5.1181247044
  0
LINE
  5
235
100
AcDbEntity
  8
0
100
AcDbLine
 62
7
  6
CONTINUOUS
 10
15.7571188423
 20
5.1181247044
 11
15.8635916715
 21
5.1181247044
  0
LINE
  5
236
100
AcDbEntity
  8
0
100
AcDbLine
 62
7
  6
CONTINUOUS
 10
16.2571188423
 20
5.1181247044
 11
16.3635916715
 21
5.1181247044
  0
LINE
  5
237
100
AcDbEntity
  8
0
100
AcDbLine
 62
7
  6
CONTINUOUS
 10
16.7571188423
 20
5.1181247044
 11
16.8635916715
 21
5.1181247044
  0
LINE
  5
238
100
AcDbEntity
  8
0
100
AcDbLine
 62
7
  6
CONTINUOUS
 10
17.2571188423
 20
5.1181247044
 11
17.3635916715
 21
5.1181247044
  0
LINE
  5
239
100
AcDbEntity
  8
0
100
AcDbLine
 62
7
  6
CONTINUOUS
 10
15.4192119627
 20
5.1623670818
 11
15.4514985511
 21
5.3022156605
  0
LINE
  5
23A
100
AcDbEntity
  8
0
100
AcDbLine
 62
7
  6
CONTINUOUS
 10
13.5603552569
 20
5.3464580378
 11
13.6135916715
 21
5.3464580378
  0
LINE
  5
23B
100
AcDbEntity
  8
0
100
AcDbLine
 62
7
  6
CONTINUOUS
 10
14.0071188423
 20
5.3464580378
 11
14.1135916715
 21
5.3464580378
  0
LINE
  5
23C
100
AcDbEntity
  8
0
100
AcDbLine
 62
7
  6
CONTINUOUS
 10
14.5071188423
 20
5.3464580378
 11
14.6135916715
 21
5.3464580378
  0
LINE
  5
23D
100
AcDbEntity
  8
0
100
AcDbLine
 62
7
  6
CONTINUOUS
 10
15.0071188423
 20
5.3464580378
 11
15.1135916715
 21
5.3464580378
  0
LINE
  5
23E
100
AcDbEntity
  8
0
100
AcDbLine
 62
7
  6
CONTINUOUS
 10
15.5071188423
 20
5.3464580378
 11
15.6135916715
 21
5.3464580378
  0
LINE
  5
23F
100
AcDbEntity
  8
0
100
AcDbLine
 62
7
  6
CONTINUOUS
 10
16.0071188423
 20
5.3464580378
 11
16.1135916715
 21
5.3464580378
  0
LINE
  5
240
100
AcDbEntity
  8
0
100
AcDbLine
 62
7
  6
CONTINUOUS
 10
16.5071188423
 20
5.3464580378
 11
16.6135916715
 21
5.3464580378
  0
LINE
  5
241
100
AcDbEntity
  8
0
100
AcDbLine
 62
7
  6
CONTINUOUS
 10
17.0071188423
 20
5.3464580378
 11
17.1135916715
 21
5.3464580378
  0
LINE
  5
242
100
AcDbEntity
  8
0
100
AcDbLine
 62
7
  6
CONTINUOUS
 10
17.5071188423
 20
5.3464580378
 11
17.5603552569
 21
5.3464580378
  0
LINE
  5
243
100
AcDbEntity
  8
0
100
AcDbLine
 62
7
  6
CONTINUOUS
 10
15.6692119627
 20
5.3022156605
 11
15.7014985511
 21
5.1623670818
  0
LINE
  5
244
100
AcDbEntity
  8
0
100
AcDbLine
 62
7
  6
CONTINUOUS
 10
15.9192119627
 20
5.1623670818
 11
15.9514985511
 21
5.3022156605
  0
LINE
  5
245
100
AcDbEntity
  8
0
100
AcDbLine
 62
7
  6
CONTINUOUS
 10
13.5603552569
 20
5.8031247044
 11
17.5603552569
 21
5.8031247044
  0
LINE
  5
246
100
AcDbEntity
  8
0
100
AcDbLine
 62
7
  6
CONTINUOUS
 10
16.1692119627
 20
5.3022156605
 11
16.2014985511
 21
5.1623670818
  0
LINE
  5
247
100
AcDbEntity
  8
0
100
AcDbLine
 62
7
  6
CONTINUOUS
 10
16.4192119627
 20
5.1623670818
 11
16.4514985511
 21
5.3022156605
  0
LINE
  5
248
100
AcDbEntity
  8
0
100
AcDbLine
 62
7
  6
CONTINUOUS
 10
16.6692119627
 20
5.3022156605
 11
16.7014985511
 21
5.1623670818
  0
LINE
  5
249
100
AcDbEntity
  8
0
100
AcDbLine
 62
7
  6
CONTINUOUS
 10
16.9192119627
 20
5.1623670818
 11
16.9514985511
 21
5.3022156605
  0
LINE
  5
24A
100
AcDbEntity
  8
0
100
AcDbLine
 62
7
  6
CONTINUOUS
 10
17.1692119627
 20
5.3022156605
 11
17.2014985511
 21
5.1623670818
  0
LINE
  5
24B
100
AcDbEntity
  8
0
100
AcDbLine
 62
7
  6
CONTINUOUS
 10
17.5603552569
 20
5.3464580378
 11
17.5603552569
 21
5.8031247044
  0
LINE
  5
24C
100
AcDbEntity
  8
0
100
AcDbLine
 62
7
  6
CONTINUOUS
 10
17.4192119627
 20
5.1623670818
 11
17.4514985511
 21
5.3022156605
  0
LINE
  5
24D
100
AcDbEntity
  8
0
100
AcDbLine
 62
7
  6
CONTINUOUS
 10
13.6366385171
 20
10.974920673
 11
13.7895772782
 21
10.8176043457
  0
LINE
  5
24E
100
AcDbEntity
  8
0
100
AcDbLine
 62
7
  6
CONTINUOUS
 10
13.9582979605
 20
10.8047541774
 11
13.9659718911
 21
10.8006196604
  0
LINE
  5
24F
100
AcDbEntity
  8
0
100
AcDbLine
 62
7
  6
CONTINUOUS
 10
13.9582979631
 20
10.8047541813
 11
13.9551341659
 21
10.8068662976
  0
LINE
  5
250
100
AcDbEntity
  8
0
100
AcDbLine
 62
7
  6
CONTINUOUS
 10
13.5829232272
 20
11.0751946006
 11
13.6227042117
 21
10.9941294774
  0
LWPOLYLINE
  5
251
100
AcDbEntity
  8
0
100
AcDbPolyline
 62
7
  6
CONTINUOUS
 90
6
 70
0
 10
16.4108067118
 20
10.7974625231
 10
16.4194655055
 20
10.7989569201
 10
16.4276437448
 20
10.8036381245
 10
16.4329714347
 20
10.8094877982
 10
16.4363643237
 20
10.8153773597
 10
16.4392313889
 20
10.8223607464
  0
LINE
  5
252
100
AcDbEntity
  8
0
100
AcDbLine
 62
7
  6
CONTINUOUS
 10
13.9659718911
 20
10.8006196604
 11
13.9813303879
 21
10.7974625316
  0
LINE
  5
253
100
AcDbEntity
  8
0
100
AcDbLine
 62
7
  6
CONTINUOUS
 10
16.4108037515
 20
10.7974624685
 11
16.4108069294
 21
10.7974624698
  0
LINE
  5
254
100
AcDbEntity
  8
0
100
AcDbLine
 62
7
  6
CONTINUOUS
 10
13.9813149706
 20
10.7974624685
 11
16.4108041065
 21
10.7974624685
  0
LINE
  5
255
100
AcDbEntity
  8
0
100
AcDbLine
 62
7
  6
CONTINUOUS
 10
13.8167462734
 20
10.8068662976
 11
16.3756359746
 21
10.8068662976
  0
LINE
  5
256
100
AcDbEntity
  8
0
100
AcDbLine
 62
7
  6
CONTINUOUS
 10
13.5820642309
 20
11.0825757849
 11
14.5503295246
 21
14.2158834234
  0
LWPOLYLINE
  5
257
100
AcDbEntity
  8
0
100
AcDbPolyline
 62
7
  6
CONTINUOUS
 90
6
 70
0
 10
16.5318398735
 20
11.1891259779
 10
16.5404986672
 20
11.1906203749
 10
16.5486769065
 20
11.1953015793
 10
16.5540045964
 20
11.2011512531
 10
16.5573974854
 20
11.2070408145
 10
16.5602645506
 20
11.2140242012
  0
LINE
  5
258
100
AcDbEntity
  8
0
100
AcDbLine
 62
7
  6
CONTINUOUS
 10
16.3154536377
 20
11.0907348498
 11
13.5983237054
 21
11.0907348498
  0
LINE
  5
259
100
AcDbEntity
  8
0
100
AcDbLine
 62
7
  6
CONTINUOUS
 10
16.507501266
 20
11.1891259233
 11
16.5318372682
 21
11.1891259233
  0
LWPOLYLINE
  5
25A
100
AcDbEntity
  8
0
100
AcDbPolyline
 62
7
  6
CONTINUOUS
 90
6
 70
0
 10
16.6528730352
 20
11.5807894327
 10
16.6615318289
 20
11.5822838297
 10
16.6697100682
 20
11.5869650341
 10
16.6750377581
 20
11.5928147079
 10
16.6784306471
 20
11.5987042693
 10
16.6812977123
 20
11.605687656
  0
LINE
  5
25B
100
AcDbEntity
  8
0
100
AcDbLine
 62
7
  6
CONTINUOUS
 10
16.6285344277
 20
11.5807893781
 11
16.6528704299
 21
11.5807893781
  0
LWPOLYLINE
  5
25C
100
AcDbEntity
  8
0
100
AcDbPolyline
 62
7
  6
CONTINUOUS
 90
6
 70
0
 10
16.7739061969
 20
11.9724528875
 10
16.7825649906
 20
11.9739472845
 10
16.7907432299
 20
11.9786284889
 10
16.7960709198
 20
11.9844781627
 10
16.7994638088
 20
11.9903677241
 10
16.802330874
 20
11.9973511108
  0
LINE
  5
25D
100
AcDbEntity
  8
0
100
AcDbLine
 62
7
  6
CONTINUOUS
 10
16.7495675894
 20
11.972452833
 11
16.7739035916
 21
11.972452833
  0
LWPOLYLINE
  5
25E
100
AcDbEntity
  8
0
100
AcDbPolyline
 62
7
  6
CONTINUOUS
 90
6
 70
0
 10
16.8949393586
 20
12.3641163423
 10
16.9035981523
 20
12.3656107393
 10
16.9117763916
 20
12.3702919437
 10
16.9171040815
 20
12.3761416175
 10
16.9204969705
 20
12.3820311789
 10
16.9233640357
 20
12.3890145657
  0
LINE
  5
25F
100
AcDbEntity
  8
0
100
AcDbLine
 62
7
  6
CONTINUOUS
 10
16.8949363983
 20
12.3641162878
 11
16.8949395762
 21
12.3641162891
  0
LWPOLYLINE
  5
260
100
AcDbEntity
  8
0
100
AcDbPolyline
 62
7
  6
CONTINUOUS
 90
6
 70
0
 10
17.0159725203
 20
12.7557797971
 10
17.024631314
 20
12.7572741941
 10
17.0328095533
 20
12.7619553985
 10
17.0381372432
 20
12.7678050723
 10
17.0415301322
 20
12.7736946338
 10
17.0443971974
 20
12.7806780205
  0
LINE
  5
261
100
AcDbEntity
  8
0
100
AcDbLine
 62
7
  6
CONTINUOUS
 10
16.8706007511
 20
12.3641162878
 11
16.8949367533
 21
12.3641162878
  0
LINE
  5
262
100
AcDbEntity
  8
0
100
AcDbLine
 62
7
  6
CONTINUOUS
 10
16.3858871937
 20
10.9941294774
 11
16.3461062092
 21
11.0751946006
  0
LWPOLYLINE
  5
263
100
AcDbEntity
  8
0
100
AcDbPolyline
 62
7
  6
CONTINUOUS
 90
6
 70
0
 10
17.137005682
 20
13.1474432519
 10
17.1456644757
 20
13.1489376489
 10
17.153842715
 20
13.1536188534
 10
17.159170405
 20
13.1594685271
 10
17.1625632939
 20
13.1653580886
 10
17.1654303591
 20
13.1723414753
  0
LINE
  5
264
100
AcDbEntity
  8
0
100
AcDbLine
 62
7
  6
CONTINUOUS
 10
16.9916339128
 20
12.7557797426
 11
17.015969915
 21
12.7557797426
  0
LINE
  5
265
100
AcDbEntity
  8
0
100
AcDbLine
 62
7
  6
CONTINUOUS
 10
17.1126670745
 20
13.1474431974
 11
17.1370030767
 21
13.1474431974
  0
LWPOLYLINE
  5
266
100
AcDbEntity
  8
0
100
AcDbPolyline
 62
7
  6
CONTINUOUS
 90
6
 70
0
 10
17.2580388437
 20
13.5391067068
 10
17.2666976374
 20
13.5406011037
 10
17.2748758767
 20
13.5452823082
 10
17.2802035667
 20
13.5511319819
 10
17.2835964556
 20
13.5570215434
 10
17.2864635208
 20
13.5640049301
  0
LINE
  5
267
100
AcDbEntity
  8
0
100
AcDbLine
 62
7
  6
CONTINUOUS
 10
16.3922660324
 20
10.8176043457
 11
16.3908055124
 21
10.974920673
  0
LINE
  5
268
100
AcDbEntity
  8
0
100
AcDbLine
 62
7
  6
CONTINUOUS
 10
17.2337002362
 20
13.5391066522
 11
17.2580362384
 21
13.5391066522
  0
LINE
  5
269
100
AcDbEntity
  8
0
100
AcDbLine
 62
7
  6
CONTINUOUS
 10
16.4751060976
 20
10.956391929
 11
16.482114526
 21
11.0686141526
  0
LINE
  5
26A
100
AcDbEntity
  8
0
100
AcDbLine
 62
7
  6
CONTINUOUS
 10
16.5961392593
 20
11.3480553838
 11
16.6031476877
 21
11.4602776074
  0
LWPOLYLINE
  5
26B
100
AcDbEntity
  8
0
100
AcDbPolyline
 62
7
  6
CONTINUOUS
 90
6
 70
0
 10
16.4821157601
 20
11.0686364225
 10
16.4828557637
 20
11.0778386676
 10
16.4851599631
 20
11.0967187147
 10
16.4885986743
 20
11.1173774634
 10
16.4928391747
 20
11.1377824091
 10
16.4974372976
 20
11.1560650607
  0
LWPOLYLINE
  5
26C
100
AcDbEntity
  8
0
100
AcDbPolyline
 62
7
  6
CONTINUOUS
 90
6
 70
0
 10
16.6031489218
 20
11.4602998773
 10
16.6038889254
 20
11.4695021225
 10
16.6061931248
 20
11.4883821696
 10
16.609631836
 20
11.5090409183
 10
16.6138723364
 20
11.529445864
 10
16.6184704593
 20
11.5477285155
  0
LINE
  5
26D
100
AcDbEntity
  8
0
100
AcDbLine
 62
7
  6
CONTINUOUS
 10
16.4742648429
 20
10.9474041498
 11
16.4751092581
 21
10.9564445502
  0
LINE
  5
26E
100
AcDbEntity
  8
0
100
AcDbLine
 62
7
  6
CONTINUOUS
 10
16.3918890318
 20
10.8150273359
 11
16.3922660324
 21
10.8176043457
  0
LWPOLYLINE
  5
26F
100
AcDbEntity
  8
0
100
AcDbPolyline
 62
7
  6
CONTINUOUS
 90
3
 70
0
 10
17.2571145683
 20
13.6128972422
 10
17.2589180702
 20
13.6169388282
 10
17.259613895
 20
13.6182765546
  0
LINE
  5
270
100
AcDbEntity
  8
0
100
AcDbLine
 62
7
  6
CONTINUOUS
 10
16.717172421
 20
11.7397188387
 11
16.7241808494
 21
11.8519410622
  0
LWPOLYLINE
  5
271
100
AcDbEntity
  8
0
100
AcDbPolyline
 62
7
  6
CONTINUOUS
 90
6
 70
0
 10
16.7241820835
 20
11.8519633321
 10
16.7249220871
 20
11.8611655773
 10
16.7272262865
 20
11.8800456244
 10
16.7306649977
 20
11.9007043731
 10
16.7349054981
 20
11.9211093188
 10
16.739503621
 20
11.9393919703
  0
LINE
  5
272
100
AcDbEntity
  8
0
100
AcDbLine
 62
7
  6
CONTINUOUS
 10
16.5952980046
 20
11.3390676047
 11
16.5961424198
 21
11.348108005
  0
LINE
  5
273
100
AcDbEntity
  8
0
100
AcDbLine
 62
7
  6
CONTINUOUS
 10
16.7163311663
 20
11.7307310595
 11
16.7171755815
 21
11.7397714598
  0
LWPOLYLINE
  5
274
100
AcDbEntity
  8
0
100
AcDbPolyline
 62
7
  6
CONTINUOUS
 90
3
 70
0
 10
16.4686893676
 20
10.9179582104
 10
16.4719238691
 20
10.9324570952
 10
16.4742648429
 20
10.9474041498
  0
LWPOLYLINE
  5
275
100
AcDbEntity
  8
0
100
AcDbPolyline
 62
7
  6
CONTINUOUS
 90
3
 70
0
 10
16.5897225293
 20
11.3096216653
 10
16.5929570308
 20
11.32412055
 10
16.5952980046
 20
11.3390676047
  0
LINE
  5
276
100
AcDbEntity
  8
0
100
AcDbLine
 62
7
  6
CONTINUOUS
 10
16.4974372976
 20
11.1560650607
 11
16.5000364342
 21
11.1649753631
  0
LINE
  5
277
100
AcDbEntity
  8
0
100
AcDbLine
 62
7
  6
CONTINUOUS
 10
16.6184704593
 20
11.5477285155
 11
16.6210695959
 21
11.556638818
  0
LINE
  5
278
100
AcDbEntity
  8
0
100
AcDbLine
 62
7
  6
CONTINUOUS
 10
16.739503621
 20
11.9393919703
 11
16.7421027576
 21
11.9483022728
  0
LINE
  5
279
100
AcDbEntity
  8
0
100
AcDbLine
 62
7
  6
CONTINUOUS
 10
16.3926552469
 20
10.8174840694
 11
16.4047821929
 21
10.8567268812
  0
LINE
  5
27A
100
AcDbEntity
  8
0
100
AcDbLine
 62
7
  6
CONTINUOUS
 10
17.3472739995
 20
13.9066314849
 11
17.3601607426
 21
13.9483330011
  0
LINE
  5
27B
100
AcDbEntity
  8
0
100
AcDbLine
 62
7
  6
CONTINUOUS
 10
17.2262408378
 20
13.5149680301
 11
17.2523949756
 21
13.5995930648
  0
LINE
  5
27C
100
AcDbEntity
  8
0
100
AcDbLine
 62
7
  6
CONTINUOUS
 10
17.1052076761
 20
13.1233045753
 11
17.1313618139
 21
13.20792961
  0
LINE
  5
27D
100
AcDbEntity
  8
0
100
AcDbLine
 62
7
  6
CONTINUOUS
 10
16.9841745144
 20
12.7316411205
 11
17.0103286522
 21
12.8162661552
  0
LINE
  5
27E
100
AcDbEntity
  8
0
100
AcDbLine
 62
7
  6
CONTINUOUS
 10
16.8631413527
 20
12.3399776657
 11
16.8892954905
 21
12.4246027004
  0
LINE
  5
27F
100
AcDbEntity
  8
0
100
AcDbLine
 62
7
  6
CONTINUOUS
 10
16.742108191
 20
11.9483142109
 11
16.7682623288
 21
12.0329392456
  0
LINE
  5
280
100
AcDbEntity
  8
0
100
AcDbLine
 62
7
  6
CONTINUOUS
 10
16.6210750293
 20
11.5566507561
 11
16.6472291671
 21
11.6412757908
  0
LINE
  5
281
100
AcDbEntity
  8
0
100
AcDbLine
 62
7
  6
CONTINUOUS
 10
16.5000418675
 20
11.1649873012
 11
16.5261960054
 21
11.249612336
  0
LWPOLYLINE
  5
282
100
AcDbEntity
  8
0
100
AcDbPolyline
 62
7
  6
CONTINUOUS
 90
3
 70
0
 10
17.2523949756
 20
13.5995930648
 10
17.2548716016
 20
13.6070148448
 10
17.2571145683
 20
13.6128972422
  0
LWPOLYLINE
  5
283
100
AcDbEntity
  8
0
100
AcDbPolyline
 62
7
  6
CONTINUOUS
 90
3
 70
0
 10
17.1313618139
 20
13.20792961
 10
17.1338384399
 20
13.21535139
 10
17.1360814066
 20
13.2212337874
  0
LWPOLYLINE
  5
284
100
AcDbEntity
  8
0
100
AcDbPolyline
 62
7
  6
CONTINUOUS
 90
3
 70
0
 10
17.0103286522
 20
12.8162661552
 10
17.0128052782
 20
12.8236879352
 10
17.0150482449
 20
12.8295703326
  0
LWPOLYLINE
  5
285
100
AcDbEntity
  8
0
100
AcDbPolyline
 62
7
  6
CONTINUOUS
 90
3
 70
0
 10
16.8892954905
 20
12.4246027004
 10
16.8917721165
 20
12.4320244804
 10
16.8940150832
 20
12.4379068778
  0
LWPOLYLINE
  5
286
100
AcDbEntity
  8
0
100
AcDbPolyline
 62
7
  6
CONTINUOUS
 90
3
 70
0
 10
16.7682623288
 20
12.0329392456
 10
16.7707389548
 20
12.0403610256
 10
16.7729819215
 20
12.046243423
  0
LWPOLYLINE
  5
287
100
AcDbEntity
  8
0
100
AcDbPolyline
 62
7
  6
CONTINUOUS
 90
3
 70
0
 10
17.1360814066
 20
13.2212337874
 10
17.1378849085
 20
13.2252753734
 10
17.1385807333
 20
13.2266130997
  0
LWPOLYLINE
  5
288
100
AcDbEntity
  8
0
100
AcDbPolyline
 62
7
  6
CONTINUOUS
 90
3
 70
0
 10
17.0150482449
 20
12.8295703326
 10
17.0168517468
 20
12.8336119185
 10
17.0175475715
 20
12.8349496449
  0
LWPOLYLINE
  5
289
100
AcDbEntity
  8
0
100
AcDbPolyline
 62
7
  6
CONTINUOUS
 90
3
 70
0
 10
16.8940150832
 20
12.4379068778
 10
16.8958185851
 20
12.4419484637
 10
16.8965144098
 20
12.4432861901
  0
LWPOLYLINE
  5
28A
100
AcDbEntity
  8
0
100
AcDbPolyline
 62
7
  6
CONTINUOUS
 90
3
 70
0
 10
16.7729819215
 20
12.046243423
 10
16.7747854234
 20
12.0502850089
 10
16.7754812481
 20
12.0516227353
  0
LINE
  5
28B
100
AcDbEntity
  8
0
100
AcDbLine
 62
7
  6
CONTINUOUS
 10
16.8382055827
 20
12.1313822935
 11
16.8452140111
 21
12.243604517
  0
LINE
  5
28C
100
AcDbEntity
  8
0
100
AcDbLine
 62
7
  6
CONTINUOUS
 10
16.9592387444
 20
12.5230457483
 11
16.9662471728
 21
12.6352679718
  0
LWPOLYLINE
  5
28D
100
AcDbEntity
  8
0
100
AcDbPolyline
 62
7
  6
CONTINUOUS
 90
6
 70
0
 10
16.8452152452
 20
12.2436267869
 10
16.8459552488
 20
12.2528290321
 10
16.8482594483
 20
12.2717090792
 10
16.8516981594
 20
12.2923678279
 10
16.8559386598
 20
12.3127727736
 10
16.8605367827
 20
12.3310554251
  0
LWPOLYLINE
  5
28E
100
AcDbEntity
  8
0
100
AcDbPolyline
 62
7
  6
CONTINUOUS
 90
6
 70
0
 10
16.9662484069
 20
12.6352902417
 10
16.9669884105
 20
12.6444924869
 10
16.96929261
 20
12.663372534
 10
16.9727313211
 20
12.6840312827
 10
16.9769718215
 20
12.7044362284
 10
16.9815699444
 20
12.72271888
  0
LINE
  5
28F
100
AcDbEntity
  8
0
100
AcDbLine
 62
7
  6
CONTINUOUS
 10
16.837364328
 20
12.1223945143
 11
16.8382087432
 21
12.1314349147
  0
LINE
  5
290
100
AcDbEntity
  8
0
100
AcDbLine
 62
7
  6
CONTINUOUS
 10
16.9583974897
 20
12.5140579691
 11
16.9592419049
 21
12.5230983695
  0
LWPOLYLINE
  5
291
100
AcDbEntity
  8
0
100
AcDbPolyline
 62
7
  6
CONTINUOUS
 90
3
 70
0
 10
16.710755691
 20
11.7012851201
 10
16.7139901925
 20
11.7157840048
 10
16.7163311663
 20
11.7307310595
  0
LWPOLYLINE
  5
292
100
AcDbEntity
  8
0
100
AcDbPolyline
 62
7
  6
CONTINUOUS
 90
3
 70
0
 10
16.8317888527
 20
12.0929485749
 10
16.8350233542
 20
12.1074474596
 10
16.837364328
 20
12.1223945143
  0
LWPOLYLINE
  5
293
100
AcDbEntity
  8
0
100
AcDbPolyline
 62
7
  6
CONTINUOUS
 90
3
 70
0
 10
16.9528220144
 20
12.4846120297
 10
16.9560565159
 20
12.4991109144
 10
16.9583974897
 20
12.5140579691
  0
LWPOLYLINE
  5
294
100
AcDbEntity
  8
0
100
AcDbPolyline
 62
7
  6
CONTINUOUS
 90
3
 70
0
 10
17.0738551761
 20
12.8762754845
 10
17.0770896776
 20
12.8907743692
 10
17.0794306514
 20
12.9057214239
  0
LWPOLYLINE
  5
295
100
AcDbEntity
  8
0
100
AcDbPolyline
 62
7
  6
CONTINUOUS
 90
3
 70
0
 10
17.1948883378
 20
13.2679389393
 10
17.1981228393
 20
13.2824378241
 10
17.2004638131
 20
13.2973848787
  0
LWPOLYLINE
  5
296
100
AcDbEntity
  8
0
100
AcDbPolyline
 62
7
  6
CONTINUOUS
 90
3
 70
0
 10
17.3159214995
 20
13.6596023941
 10
17.319156001
 20
13.6741012789
 10
17.3214969748
 20
13.6890483335
  0
LINE
  5
297
100
AcDbEntity
  8
0
100
AcDbLine
 62
7
  6
CONTINUOUS
 10
16.4666079657
 20
10.9105984943
 11
16.4686893676
 21
10.9179582104
  0
LINE
  5
298
100
AcDbEntity
  8
0
100
AcDbLine
 62
7
  6
CONTINUOUS
 10
16.5876411274
 20
11.3022619491
 11
16.5897225293
 21
11.3096216653
  0
LINE
  5
299
100
AcDbEntity
  8
0
100
AcDbLine
 62
7
  6
CONTINUOUS
 10
16.7086742892
 20
11.693925404
 11
16.710755691
 21
11.7012851201
  0
LINE
  5
29A
100
AcDbEntity
  8
0
100
AcDbLine
 62
7
  6
CONTINUOUS
 10
16.8297074509
 20
12.0855888588
 11
16.8317888527
 21
12.0929485749
  0
LINE
  5
29B
100
AcDbEntity
  8
0
100
AcDbLine
 62
7
  6
CONTINUOUS
 10
16.9507406126
 20
12.4772523136
 11
16.9528220144
 21
12.4846120297
  0
LINE
  5
29C
100
AcDbEntity
  8
0
100
AcDbLine
 62
7
  6
CONTINUOUS
 10
17.0717737743
 20
12.8689157684
 11
17.0738551761
 21
12.8762754845
  0
LINE
  5
29D
100
AcDbEntity
  8
0
100
AcDbLine
 62
7
  6
CONTINUOUS
 10
17.192806936
 20
13.2605792232
 11
17.1948883378
 21
13.2679389393
  0
LINE
  5
29E
100
AcDbEntity
  8
0
100
AcDbLine
 62
7
  6
CONTINUOUS
 10
17.3138400977
 20
13.652242678
 11
17.3159214995
 21
13.6596023941
  0
LINE
  5
29F
100
AcDbEntity
  8
0
100
AcDbLine
 62
7
  6
CONTINUOUS
 10
16.8605367827
 20
12.3310554251
 11
16.8631359193
 21
12.3399657276
  0
LINE
  5
2A0
100
AcDbEntity
  8
0
100
AcDbLine
 62
7
  6
CONTINUOUS
 10
16.9815699444
 20
12.72271888
 11
16.984169081
 21
12.7316291824
  0
LINE
  5
2A1
100
AcDbEntity
  8
0
100
AcDbLine
 62
7
  6
CONTINUOUS
 10
17.1026031061
 20
13.1143823348
 11
17.1052022427
 21
13.1232926372
  0
LINE
  5
2A2
100
AcDbEntity
  8
0
100
AcDbLine
 62
7
  6
CONTINUOUS
 10
17.2236362678
 20
13.5060457896
 11
17.2262354044
 21
13.514956092
  0
LINE
  5
2A3
100
AcDbEntity
  8
0
100
AcDbLine
 62
7
  6
CONTINUOUS
 10
17.3446694295
 20
13.8977092444
 11
17.3472685661
 21
13.9066195468
  0
LINE
  5
2A4
100
AcDbEntity
  8
0
100
AcDbLine
 62
7
  6
CONTINUOUS
 10
16.4408430002
 20
10.8272212977
 11
16.466616488
 21
10.9106243345
  0
LINE
  5
2A5
100
AcDbEntity
  8
0
100
AcDbLine
 62
7
  6
CONTINUOUS
 10
16.5618761619
 20
11.2188847526
 11
16.5876496497
 21
11.3022877894
  0
LINE
  5
2A6
100
AcDbEntity
  8
0
100
AcDbLine
 62
7
  6
CONTINUOUS
 10
16.6829093237
 20
11.6105482074
 11
16.7086828114
 21
11.6939512442
  0
LINE
  5
2A7
100
AcDbEntity
  8
0
100
AcDbLine
 62
7
  6
CONTINUOUS
 10
16.8039424854
 20
12.0022116622
 11
16.8297159731
 21
12.085614699
  0
LINE
  5
2A8
100
AcDbEntity
  8
0
100
AcDbLine
 62
7
  6
CONTINUOUS
 10
16.9249756471
 20
12.393875117
 11
16.9507491348
 21
12.4772781538
  0
LINE
  5
2A9
100
AcDbEntity
  8
0
100
AcDbLine
 62
7
  6
CONTINUOUS
 10
17.0460088088
 20
12.7855385718
 11
17.0717822965
 21
12.8689416086
  0
LINE
  5
2AA
100
AcDbEntity
  8
0
100
AcDbLine
 62
7
  6
CONTINUOUS
 10
17.1670419705
 20
13.1772020266
 11
17.1928154582
 21
13.2606050634
  0
LINE
  5
2AB
100
AcDbEntity
  8
0
100
AcDbLine
 62
7
  6
CONTINUOUS
 10
17.2880751322
 20
13.5688654814
 11
17.3138486199
 21
13.6522685182
  0
LINE
  5
2AC
100
AcDbEntity
  8
0
100
AcDbLine
 62
7
  6
CONTINUOUS
 10
16.4047814326
 20
10.8567260067
 11
16.4051628437
 21
10.8579488811
  0
LINE
  5
2AD
100
AcDbEntity
  8
0
100
AcDbLine
 62
7
  6
CONTINUOUS
 10
17.2864635208
 20
13.5640049301
 11
17.2880788677
 21
13.5688784501
  0
LINE
  5
2AE
100
AcDbEntity
  8
0
100
AcDbLine
 62
7
  6
CONTINUOUS
 10
17.1654303591
 20
13.1723414753
 11
17.167045706
 21
13.1772149953
  0
LINE
  5
2AF
100
AcDbEntity
  8
0
100
AcDbLine
 62
7
  6
CONTINUOUS
 10
17.0443971974
 20
12.7806780205
 11
17.0460125443
 21
12.7855515405
  0
LINE
  5
2B0
100
AcDbEntity
  8
0
100
AcDbLine
 62
7
  6
CONTINUOUS
 10
16.9233640357
 20
12.3890145657
 11
16.9249793826
 21
12.3938880857
  0
LINE
  5
2B1
100
AcDbEntity
  8
0
100
AcDbLine
 62
7
  6
CONTINUOUS
 10
16.802330874
 20
11.9973511108
 11
16.8039462209
 21
12.0022246308
  0
LINE
  5
2B2
100
AcDbEntity
  8
0
100
AcDbLine
 62
7
  6
CONTINUOUS
 10
16.6812977123
 20
11.605687656
 11
16.6829130592
 21
11.610561176
  0
LINE
  5
2B3
100
AcDbEntity
  8
0
100
AcDbLine
 62
7
  6
CONTINUOUS
 10
16.5602645506
 20
11.2140242012
 11
16.5618798974
 21
11.2188977212
  0
LINE
  5
2B4
100
AcDbEntity
  8
0
100
AcDbLine
 62
7
  6
CONTINUOUS
 10
16.4392313889
 20
10.8223607464
 11
16.4408467357
 21
10.8272342664
  0
LWPOLYLINE
  5
2B5
100
AcDbEntity
  8
0
100
AcDbPolyline
 62
7
  6
CONTINUOUS
 90
3
 70
0
 10
16.6472291671
 20
11.6412757908
 10
16.649705793
 20
11.6486975708
 10
16.6519487598
 20
11.6545799682
  0
LWPOLYLINE
  5
2B6
100
AcDbEntity
  8
0
100
AcDbPolyline
 62
7
  6
CONTINUOUS
 90
3
 70
0
 10
16.5261960054
 20
11.249612336
 10
16.5286726313
 20
11.257034116
 10
16.5309155981
 20
11.2629165134
  0
LWPOLYLINE
  5
2B7
100
AcDbEntity
  8
0
100
AcDbPolyline
 62
7
  6
CONTINUOUS
 90
3
 70
0
 10
16.4051628437
 20
10.8579488811
 10
16.4076394696
 20
10.8653706611
 10
16.4098824364
 20
10.8712530586
  0
LWPOLYLINE
  5
2B8
100
AcDbEntity
  8
0
100
AcDbPolyline
 62
7
  6
CONTINUOUS
 90
3
 70
0
 10
16.6519487598
 20
11.6545799682
 10
16.6537522617
 20
11.6586215541
 10
16.6544480864
 20
11.6599592805
  0
LWPOLYLINE
  5
2B9
100
AcDbEntity
  8
0
100
AcDbPolyline
 62
7
  6
CONTINUOUS
 90
3
 70
0
 10
16.5309155981
 20
11.2629165134
 10
16.5327191
 20
11.2669580993
 10
16.5334149247
 20
11.2682958257
  0
LWPOLYLINE
  5
2BA
100
AcDbEntity
  8
0
100
AcDbPolyline
 62
7
  6
CONTINUOUS
 90
3
 70
0
 10
16.4098824364
 20
10.8712530586
 10
16.4116859383
 20
10.8752946445
 10
16.412381763
 20
10.8766323709
  0
LINE
  5
2BB
100
AcDbEntity
  8
0
100
AcDbLine
 62
7
  6
CONTINUOUS
 10
17.0802719061
 20
12.9147092031
 11
17.0872803345
 21
13.0269314267
  0
LINE
  5
2BC
100
AcDbEntity
  8
0
100
AcDbLine
 62
7
  6
CONTINUOUS
 10
17.2013050678
 20
13.3063726579
 11
17.2083134962
 21
13.4185948815
  0
LWPOLYLINE
  5
2BD
100
AcDbEntity
  8
0
100
AcDbPolyline
 62
7
  6
CONTINUOUS
 90
6
 70
0
 10
17.0872815686
 20
13.0269536965
 10
17.0880215722
 20
13.0361559417
 10
17.0903257717
 20
13.0550359888
 10
17.0937644828
 20
13.0756947375
 10
17.0980049832
 20
13.0960996832
 10
17.1026031061
 20
13.1143823348
  0
LWPOLYLINE
  5
2BE
100
AcDbEntity
  8
0
100
AcDbPolyline
 62
7
  6
CONTINUOUS
 90
6
 70
0
 10
17.2083147303
 20
13.4186171513
 10
17.2090547339
 20
13.4278193965
 10
17.2113589334
 20
13.4466994436
 10
17.2147976445
 20
13.4673581923
 10
17.2190381449
 20
13.487763138
 10
17.2236362678
 20
13.5060457896
  0
LINE
  5
2BF
100
AcDbEntity
  8
0
100
AcDbLine
 62
7
  6
CONTINUOUS
 10
17.0794306514
 20
12.9057214239
 11
17.0802750666
 21
12.9147618243
  0
LINE
  5
2C0
100
AcDbEntity
  8
0
100
AcDbLine
 62
7
  6
CONTINUOUS
 10
17.2004638131
 20
13.2973848787
 11
17.2013082283
 21
13.3064252791
  0
LINE
  5
2C1
100
AcDbEntity
  8
0
100
AcDbLine
 62
7
  6
CONTINUOUS
 10
17.360531326
 20
13.9509119843
 11
17.3601543254
 21
13.9483349744
  0
LINE
  5
2C2
100
AcDbEntity
  8
0
100
AcDbLine
 62
7
  6
CONTINUOUS
 10
17.2837189313
 20
14.2240424883
 11
14.566588999
 21
14.2240424883
  0
LINE
  5
2C3
100
AcDbEntity
  8
0
100
AcDbLine
 62
7
  6
CONTINUOUS
 10
17.3223382295
 20
13.6980361127
 11
17.3293466579
 21
13.8102583363
  0
LWPOLYLINE
  5
2C4
100
AcDbEntity
  8
0
100
AcDbPolyline
 62
7
  6
CONTINUOUS
 90
6
 70
0
 10
17.329347892
 20
13.8102806061
 10
17.3300878956
 20
13.8194828513
 10
17.3323920951
 20
13.8383628984
 10
17.3358308062
 20
13.8590216471
 10
17.3400713066
 20
13.8794265928
 10
17.3446694295
 20
13.8977092444
  0
LINE
  5
2C5
100
AcDbEntity
  8
0
100
AcDbLine
 62
7
  6
CONTINUOUS
 10
17.3214969748
 20
13.6890483335
 11
17.32234139
 21
13.6980887339
  0
LINE
  5
2C6
100
AcDbEntity
  8
0
100
AcDbLine
 62
7
  6
CONTINUOUS
 10
17.360531326
 20
13.9509119843
 11
17.359070806
 21
14.1082283115
  0
LINE
  5
2C7
100
AcDbEntity
  8
0
100
AcDbLine
 62
7
  6
CONTINUOUS
 10
17.3541524873
 20
14.127437116
 11
17.3143715028
 21
14.2085022391
  0
ARC
  5
2C8
100
AcDbEntity
  8
0
100
AcDbCircle
 62
7
  6
CONTINUOUS
 10
4.741268336
 20
5.4309532301
 40
0.025
100
AcDbArc
 50
198.0
 51
270.0
  0
ARC
  5
2C9
100
AcDbEntity
  8
0
100
AcDbCircle
 62
7
  6
CONTINUOUS
 10
4.8154579685
 20
5.2026210194
 40
0.025
100
AcDbArc
 50
198.0027054249
 51
270.0008357787
  0
ARC
  5
2CA
100
AcDbEntity
  8
0
100
AcDbCircle
 62
7
  6
CONTINUOUS
 10
4.7303672762
 20
5.7072083408
 40
0.1
100
AcDbArc
 50
180.0
 51
198.0
  0
ARC
  5
2CB
100
AcDbEntity
  8
0
100
AcDbCircle
 62
7
  6
CONTINUOUS
 10
4.6553672762
 20
5.8376198968
 40
0.025
100
AcDbArc
 50
90.0
 51
180.0
  0
ARC
  5
2CC
100
AcDbEntity
  8
0
100
AcDbCircle
 62
7
  6
CONTINUOUS
 10
7.445276219
 20
5.2026198968
 40
0.025
100
AcDbArc
 50
270.0
 51
342.0
  0
ARC
  5
2CD
100
AcDbEntity
  8
0
100
AcDbCircle
 62
7
  6
CONTINUOUS
 10
7.5194662163
 20
5.4309532301
 40
0.025
100
AcDbArc
 50
270.0
 51
342.0
  0
ARC
  5
2CE
100
AcDbEntity
  8
0
100
AcDbCircle
 62
7
  6
CONTINUOUS
 10
7.5303672762
 20
5.7072083408
 40
0.1
100
AcDbArc
 50
342.0
 51
360.0
  0
ARC
  5
2CF
100
AcDbEntity
  8
0
100
AcDbCircle
 62
7
  6
CONTINUOUS
 10
7.6053672762
 20
5.8376198968
 40
0.025
100
AcDbArc
 50
0.0
 51
90.0
  0
ARC
  5
2D0
100
AcDbEntity
  8
0
100
AcDbCircle
 62
7
  6
CONTINUOUS
 10
13.7571188423
 20
5.1752080378
 40
0.0570833333
100
AcDbArc
 50
193.0
 51
270.0
  0
ARC
  5
2D1
100
AcDbEntity
  8
0
100
AcDbCircle
 62
7
  6
CONTINUOUS
 10
13.8635916715
 20
5.1752080378
 40
0.0570833333
100
AcDbArc
 50
270.0
 51
347.0
  0
ARC
  5
2D2
100
AcDbEntity
  8
0
100
AcDbCircle
 62
7
  6
CONTINUOUS
 10
14.2571188423
 20
5.1752080378
 40
0.0570833333
100
AcDbArc
 50
193.0
 51
270.0
  0
ARC
  5
2D3
100
AcDbEntity
  8
0
100
AcDbCircle
 62
7
  6
CONTINUOUS
 10
14.3635916715
 20
5.1752080378
 40
0.0570833333
100
AcDbArc
 50
270.0
 51
347.0
  0
ARC
  5
2D4
100
AcDbEntity
  8
0
100
AcDbCircle
 62
7
  6
CONTINUOUS
 10
14.7571188423
 20
5.1752080378
 40
0.0570833333
100
AcDbArc
 50
193.0
 51
270.0
  0
ARC
  5
2D5
100
AcDbEntity
  8
0
100
AcDbCircle
 62
7
  6
CONTINUOUS
 10
14.8635916715
 20
5.1752080378
 40
0.0570833333
100
AcDbArc
 50
270.0
 51
347.0
  0
ARC
  5
2D6
100
AcDbEntity
  8
0
100
AcDbCircle
 62
7
  6
CONTINUOUS
 10
15.2571188423
 20
5.1752080378
 40
0.0570833333
100
AcDbArc
 50
193.0
 51
270.0
  0
ARC
  5
2D7
100
AcDbEntity
  8
0
100
AcDbCircle
 62
7
  6
CONTINUOUS
 10
15.3635916715
 20
5.1752080378
 40
0.0570833333
100
AcDbArc
 50
270.0
 51
347.0
  0
ARC
  5
2D8
100
AcDbEntity
  8
0
100
AcDbCircle
 62
7
  6
CONTINUOUS
 10
13.6135916715
 20
5.2893747044
 40
0.0570833333
100
AcDbArc
 50
13.0
 51
90.0
  0
ARC
  5
2D9
100
AcDbEntity
  8
0
100
AcDbCircle
 62
7
  6
CONTINUOUS
 10
14.0071188423
 20
5.2893747044
 40
0.0570833333
100
AcDbArc
 50
90.0
 51
167.0
  0
ARC
  5
2DA
100
AcDbEntity
  8
0
100
AcDbCircle
 62
7
  6
CONTINUOUS
 10
14.1135916715
 20
5.2893747044
 40
0.0570833333
100
AcDbArc
 50
13.0
 51
90.0
  0
ARC
  5
2DB
100
AcDbEntity
  8
0
100
AcDbCircle
 62
7
  6
CONTINUOUS
 10
14.5071188423
 20
5.2893747044
 40
0.0570833333
100
AcDbArc
 50
90.0
 51
167.0
  0
ARC
  5
2DC
100
AcDbEntity
  8
0
100
AcDbCircle
 62
7
  6
CONTINUOUS
 10
14.6135916715
 20
5.2893747044
 40
0.0570833333
100
AcDbArc
 50
13.0
 51
90.0
  0
ARC
  5
2DD
100
AcDbEntity
  8
0
100
AcDbCircle
 62
7
  6
CONTINUOUS
 10
15.0071188423
 20
5.2893747044
 40
0.0570833333
100
AcDbArc
 50
90.0
 51
167.0
  0
ARC
  5
2DE
100
AcDbEntity
  8
0
100
AcDbCircle
 62
7
  6
CONTINUOUS
 10
15.1135916715
 20
5.2893747044
 40
0.0570833333
100
AcDbArc
 50
13.0
 51
90.0
  0
ARC
  5
2DF
100
AcDbEntity
  8
0
100
AcDbCircle
 62
7
  6
CONTINUOUS
 10
15.5071188423
 20
5.2893747044
 40
0.0570833333
100
AcDbArc
 50
90.0
 51
167.0
  0
ARC
  5
2E0
100
AcDbEntity
  8
0
100
AcDbCircle
 62
7
  6
CONTINUOUS
 10
17.3635916715
 20
5.1752080378
 40
0.0570833333
100
AcDbArc
 50
270.0
 51
347.0
  0
ARC
  5
2E1
100
AcDbEntity
  8
0
100
AcDbCircle
 62
7
  6
CONTINUOUS
 10
17.2571188423
 20
5.1752080378
 40
0.0570833333
100
AcDbArc
 50
193.0
 51
270.0
  0
ARC
  5
2E2
100
AcDbEntity
  8
0
100
AcDbCircle
 62
7
  6
CONTINUOUS
 10
16.8635916715
 20
5.1752080378
 40
0.0570833333
100
AcDbArc
 50
270.0
 51
347.0
  0
ARC
  5
2E3
100
AcDbEntity
  8
0
100
AcDbCircle
 62
7
  6
CONTINUOUS
 10
16.7571188423
 20
5.1752080378
 40
0.0570833333
100
AcDbArc
 50
193.0
 51
270.0
  0
ARC
  5
2E4
100
AcDbEntity
  8
0
100
AcDbCircle
 62
7
  6
CONTINUOUS
 10
16.3635916715
 20
5.1752080378
 40
0.0570833333
100
AcDbArc
 50
270.0
 51
347.0
  0
ARC
  5
2E5
100
AcDbEntity
  8
0
100
AcDbCircle
 62
7
  6
CONTINUOUS
 10
16.2571188423
 20
5.1752080378
 40
0.0570833333
100
AcDbArc
 50
193.0
 51
270.0
  0
ARC
  5
2E6
100
AcDbEntity
  8
0
100
AcDbCircle
 62
7
  6
CONTINUOUS
 10
15.8635916715
 20
5.1752080378
 40
0.0570833333
100
AcDbArc
 50
270.0
 51
347.0
  0
ARC
  5
2E7
100
AcDbEntity
  8
0
100
AcDbCircle
 62
7
  6
CONTINUOUS
 10
15.7571188423
 20
5.1752080378
 40
0.0570833333
100
AcDbArc
 50
193.0
 51
270.0
  0
ARC
  5
2E8
100
AcDbEntity
  8
0
100
AcDbCircle
 62
7
  6
CONTINUOUS
 10
17.5071188423
 20
5.2893747044
 40
0.0570833333
100
AcDbArc
 50
90.0
 51
167.0
  0
ARC
  5
2E9
100
AcDbEntity
  8
0
100
AcDbCircle
 62
7
  6
CONTINUOUS
 10
17.1135916715
 20
5.2893747044
 40
0.0570833333
100
AcDbArc
 50
13.0
 51
90.0
  0
ARC
  5
2EA
100
AcDbEntity
  8
0
100
AcDbCircle
 62
7
  6
CONTINUOUS
 10
17.0071188423
 20
5.2893747044
 40
0.0570833333
100
AcDbArc
 50
90.0
 51
167.0
  0
ARC
  5
2EB
100
AcDbEntity
  8
0
100
AcDbCircle
 62
7
  6
CONTINUOUS
 10
16.6135916715
 20
5.2893747044
 40
0.0570833333
100
AcDbArc
 50
13.0
 51
90.0
  0
ARC
  5
2EC
100
AcDbEntity
  8
0
100
AcDbCircle
 62
7
  6
CONTINUOUS
 10
16.5071188423
 20
5.2893747044
 40
0.0570833333
100
AcDbArc
 50
90.0
 51
167.0
  0
ARC
  5
2ED
100
AcDbEntity
  8
0
100
AcDbCircle
 62
7
  6
CONTINUOUS
 10
16.1135916715
 20
5.2893747044
 40
0.0570833333
100
AcDbArc
 50
13.0
 51
90.0
  0
ARC
  5
2EE
100
AcDbEntity
  8
0
100
AcDbCircle
 62
7
  6
CONTINUOUS
 10
16.0071188423
 20
5.2893747044
 40
0.0570833333
100
AcDbArc
 50
90.0
 51
167.0
  0
ARC
  5
2EF
100
AcDbEntity
  8
0
100
AcDbCircle
 62
7
  6
CONTINUOUS
 10
15.6135916715
 20
5.2893747044
 40
0.0570833333
100
AcDbArc
 50
13.0
 51
90.0
  0
SPLINE
  5
2F0
100
AcDbEntity
  8
0
100
AcDbSpline
 62
7
  6
CONTINUOUS
 70
0
 71
3
 72
15
 73
11
 74
0
 42
0.0000001
 43
0.0000001
 44
0.0000000001
 40
0.0
 40
0.0
 40
0.0
 40
0.0
 40
0.1295700441
 40
0.2645780614
 40
0.4012662963
 40
0.5362714288
 40
0.6662150065
 40
0.7880984515
 40
0.8998126436
 40
1.0
 40
1.0
 40
1.0
 40
1.0
 10
17.2837189313
 20
14.2240424883
 30
0.0
 10
17.285267208
 20
14.2240424883
 30
0.0
 10
17.2884311858
 20
14.2238272314
 30
0.0
 10
17.2931537097
 20
14.2229433724
 30
0.0
 10
17.2978099935
 20
14.2215159106
 30
0.0
 10
17.3022218157
 20
14.2196005851
 30
0.0
 10
17.3062279837
 20
14.2172719394
 30
0.0
 10
17.3096800745
 20
14.2146106391
 30
0.0
 10
17.3124458938
 20
14.2117145537
 30
0.0
 10
17.313844097
 20
14.2095769791
 30
0.0
 10
17.3143715028
 20
14.2085022391
 30
0.0
  0
SPLINE
  5
2F1
100
AcDbEntity
  8
0
100
AcDbSpline
 62
7
  6
CONTINUOUS
 70
0
 71
3
 72
14
 73
10
 74
0
 42
0.0000001
 43
0.0000001
 44
0.0000000001
 40
0.0
 40
0.0
 40
0.0
 40
0.0
 40
0.0997018524
 40
0.2029869642
 40
0.3127719464
 40
0.4311005032
 40
0.6966534062
 40
0.8443078054
 40
1.0
 40
1.0
 40
1.0
 40
1.0
 10
14.5503294902
 20
14.2158834364
 30
0.0
 10
14.5505196054
 20
14.2164986693
 30
0.0
 10
14.551058261
 20
14.2177096095
 30
0.0
 10
14.5522892355
 20
14.2193304909
 30
0.0
 10
14.5539126713
 20
14.2207458551
 30
0.0
 10
14.5566625516
 20
14.2223860329
 30
0.0
 10
14.5599836423
 20
14.2234296958
 30
0.0
 10
14.563621905
 20
14.2239547234
 30
0.0
 10
14.5655834407
 20
14.2240424883
 30
0.0
 10
14.566588999
 20
14.2240424883
 30
0.0
  0
SPLINE
  5
2F2
100
AcDbEntity
  8
0
100
AcDbSpline
 62
7
  6
CONTINUOUS
 70
0
 71
3
 72
11
 73
7
 74
0
 42
0.0000001
 43
0.0000001
 44
0.0000000001
 40
0.0
 40
0.0
 40
0.0
 40
0.0
 40
0.2336905674
 40
0.4747251921
 40
0.7289540647
 40
1.0
 40
1.0
 40
1.0
 40
1.0
 10
13.5820641965
 20
11.0825757979
 30
0.0
 10
13.5818893426
 20
11.0820099523
 30
0.0
 10
13.5816590363
 20
11.0808178093
 30
0.0
 10
13.5817013628
 20
11.0789585343
 30
0.0
 10
13.5821191546
 20
11.0770513488
 30
0.0
 10
13.5826206113
 20
11.075811267
 30
0.0
 10
13.5829232272
 20
11.0751946006
 30
0.0
  0
SPLINE
  5
2F3
100
AcDbEntity
  8
0
100
AcDbSpline
 62
7
  6
CONTINUOUS
 70
0
 71
3
 72
10
 73
6
 74
0
 42
0.0000001
 43
0.0000001
 44
0.0000000001
 40
0.0
 40
0.0
 40
0.0
 40
0.0
 40
0.519883486
 40
0.7641608898
 40
1.0
 40
1.0
 40
1.0
 40
1.0
 10
17.3541524873
 20
14.127437116
 30
0.0
 10
17.3556771112
 20
14.1243302592
 30
0.0
 10
17.3575201044
 20
14.1195366523
 30
0.0
 10
17.3588168993
 20
14.1129956586
 30
0.0
 10
17.3590562313
 20
14.1097981891
 30
0.0
 10
17.359070806
 20
14.1082283115
 30
0.0
  0
SPLINE
  5
2F4
100
AcDbEntity
  8
0
100
AcDbSpline
 62
7
  6
CONTINUOUS
 70
0
 71
3
 72
14
 73
10
 74
0
 42
0.0000001
 43
0.0000001
 44
0.0000000001
 40
0.0
 40
0.0
 40
0.0
 40
0.0
 40
0.1556619838
 40
0.3032896655
 40
0.5688006383
 40
0.6870994506
 40
0.7968471488
 40
0.9001593071
 40
1.0
 40
1.0
 40
1.0
 40
1.0
 10
16.3756359746
 20
10.8068662976
 30
0.0
 10
16.3766413378
 20
10.8068662976
 30
0.0
 10
16.3786024978
 20
10.8069539948
 30
0.0
 10
16.3822401929
 20
10.807478718
 30
0.0
 10
16.3855604574
 20
10.8085226118
 30
0.0
 10
16.3883102547
 20
10.8101613574
 30
0.0
 10
16.3899345368
 20
10.8115753793
 30
0.0
 10
16.3911659909
 20
10.8131971877
 30
0.0
 10
16.3917038679
 20
10.8144096347
 30
0.0
 10
16.3918941237
 20
10.8150257627
 30
0.0
  0
SPLINE
  5
2F5
100
AcDbEntity
  8
0
100
AcDbSpline
 62
7
  6
CONTINUOUS
 70
0
 71
3
 72
15
 73
11
 74
0
 42
0.0000001
 43
0.0000001
 44
0.0000000001
 40
0.0
 40
0.0
 40
0.0
 40
0.0
 40
0.1121035408
 40
0.2317725505
 40
0.3571218944
 40
0.4862728748
 40
0.6172587804
 40
0.7480165365
 40
0.8764050351
 40
1.0
 40
1.0
 40
1.0
 40
1.0
 10
13.7895772782
 20
10.8176043457
 30
0.0
 10
13.7903563027
 20
10.8168030232
 30
0.0
 10
13.7920819285
 20
10.8152560771
 30
0.0
 10
13.7949879877
 20
10.8131885781
 30
0.0
 10
13.7982389014
 20
10.811346885
 30
0.0
 10
13.8017506028
 20
10.8097727613
 30
0.0
 10
13.8054412242
 20
10.8085056049
 30
0.0
 10
13.8092226519
 20
10.8075730809
 30
0.0
 10
13.8130007317
 20
10.8070033083
 30
0.0
 10
13.8155141274
 20
10.8068662976
 30
0.0
 10
13.8167462734
 20
10.8068662976
 30
0.0
  0
SPLINE
  5
2F6
100
AcDbEntity
  8
0
100
AcDbSpline
 62
7
  6
CONTINUOUS
 70
0
 71
3
 72
9
 73
5
 74
0
 42
0.0000001
 43
0.0000001
 44
0.0000000001
 40
0.0
 40
0.0
 40
0.0
 40
0.0
 40
0.477958785
 40
1.0
 40
1.0
 40
1.0
 40
1.0
 10
13.6227042117
 20
10.9941294774
 30
0.0
 10
13.6243749071
 20
10.9907249581
 30
0.0
 10
13.628569459
 20
10.9839364215
 30
0.0
 10
13.6337512029
 20
10.9778906308
 30
0.0
 10
13.6366385171
 20
10.974920673
 30
0.0
  0
SPLINE
  5
2F7
100
AcDbEntity
  8
0
100
AcDbSpline
 62
7
  6
CONTINUOUS
 70
0
 71
3
 72
15
 73
11
 74
0
 42
0.0000001
 43
0.0000001
 44
0.0000000001
 40
0.0
 40
0.0
 40
0.0
 40
0.0
 40
0.1001873564
 40
0.2119015485
 40
0.3337849935
 40
0.4637285712
 40
0.5987337037
 40
0.7354219386
 40
0.8704299559
 40
1.0
 40
1.0
 40
1.0
 40
1.0
 10
16.3461062092
 20
11.0751946006
 30
0.0
 10
16.3455788034
 20
11.0762693406
 30
0.0
 10
16.3441806002
 20
11.0784069152
 30
0.0
 10
16.3414147809
 20
11.0813030006
 30
0.0
 10
16.3379626901
 20
11.0839643009
 30
0.0
 10
16.3339565221
 20
11.0862929466
 30
0.0
 10
16.3295446999
 20
11.0882082721
 30
0.0
 10
16.324888416
 20
11.0896357339
 30
0.0
 10
16.3201658922
 20
11.0905195929
 30
0.0
 10
16.3170019143
 20
11.0907348498
 30
0.0
 10
16.3154536377
 20
11.0907348498
 30
0.0
  0
SPLINE
  5
2F8
100
AcDbEntity
  8
0
100
AcDbSpline
 62
7
  6
CONTINUOUS
 70
0
 71
3
 72
14
 73
10
 74
0
 42
0.0000001
 43
0.0000001
 44
0.0000000001
 40
0.0
 40
0.0
 40
0.0
 40
0.0
 40
0.1556921946
 40
0.3033465938
 40
0.5688994968
 40
0.6872280536
 40
0.7970130358
 40
0.9002981476
 40
1.0
 40
1.0
 40
1.0
 40
1.0
 10
13.5983237054
 20
11.0907348498
 30
0.0
 10
13.5973181471
 20
11.0907348498
 30
0.0
 10
13.5953566114
 20
11.0906470849
 30
0.0
 10
13.5917183486
 20
11.0901220573
 30
0.0
 10
13.588397258
 20
11.0890783944
 30
0.0
 10
13.5856473776
 20
11.0874382166
 30
0.0
 10
13.5840239419
 20
11.0860228524
 30
0.0
 10
13.5827929674
 20
11.0844019709
 30
0.0
 10
13.5822543118
 20
11.0831910308
 30
0.0
 10
13.5820641965
 20
11.0825757979
 30
0.0
  0
SPLINE
  5
2F9
100
AcDbEntity
  8
0
100
AcDbSpline
 62
7
  6
CONTINUOUS
 70
0
 71
3
 72
10
 73
6
 74
0
 42
0.0000001
 43
0.0000001
 44
0.0000000001
 40
0.0
 40
0.0
 40
0.0
 40
0.0
 40
0.2358391102
 40
0.480116514
 40
1.0
 40
1.0
 40
1.0
 40
1.0
 10
16.3908055124
 20
10.974920673
 30
0.0
 10
16.3907909377
 20
10.9764905506
 30
0.0
 10
16.3905516057
 20
10.9796880201
 30
0.0
 10
16.3892548108
 20
10.9862290138
 30
0.0
 10
16.3874118175
 20
10.9910226206
 30
0.0
 10
16.3858871937
 20
10.9941294774
 30
0.0
  0
ENDSEC
  0
SECTION
  2
OBJECTS
  0
DICTIONARY
  5
C
100
AcDbDictionary
280
0
281
1
  3
ACAD_GROUP
350
D
  3
ACAD_MLINESTYLE
350
17
  3
ACAD_LAYOUT
350
1A
  3
ACAD_PLOTSETTINGS
350
19
  3
ACAD_PLOTSTYLENAME
350
E
  0
DICTIONARY
  5
D
102
{ACAD_REACTORS
330
C
102
}
100
AcDbDictionary
280
0
281
1
  0
ACDBDICTIONARYWDFLT
  5
E
102
{ACAD_REACTORS
330
C
102
}
100
AcDbDictionary
281
1
  3
Normal
350
F
100
AcDbDictionaryWithDefault
340
F
  0
DICTIONARY
  5
17
102
{ACAD_REACTORS
330
C
102
}
100
AcDbDictionary
280
0
281
1
  3
Standard
350
18
  0
DICTIONARY
  5
19
102
{ACAD_REACTORS
330
C
102
}
100
AcDbDictionary
281
1
  0
DICTIONARY
  5
1A
102
{ACAD_REACTORS
330
C
102
}
100
AcDbDictionary
281
1
  3
Model
350
2FA
  3
Layout1
350
2FB
  0
ACDBPLACEHOLDER
  5
F
102
{ACAD_REACTORS
330
E
102
}
  0
MLINESTYLE
  5
18
102
{ACAD_REACTORS
330
17
102
}
100
AcDbMlineStyle
  2
STANDARD
 70
0
  3

 62
256
 51
90.0
 52
90.0
 71
2
 49
0.5
 62
256
  6
BYLAYER
 49
-0.5
 62
256
  6
BYLAYER
  0
LAYOUT
  5
2FA
102
{ACAD_REACTORS
330
1A
102
}
100
AcDbPlotSettings
  1

  2
none_device
  4
ANSI_C_(22.00_x_17.00_Inches)
  6

 40
0.0
 41
0.0
 42
0.0
 43
0.0
 44
558.8
 45
431.8
 46
0.0
 47
0.0
 48
0.0
 49
0.0
140
0.0
141
0.0
142
1.0
143
1.0
 70
1024
 72
0
 73
0
 74
0
  7

 75
0
147
1.0
148
0.0
149
0.0
100
AcDbLayout
  1
Model
 70
0
 71
0
 10
0.0
 20
0.0
 11
22.0
 21
17.0
 12
0.0
 22
0.0
 32
0.0
 14
0.0
 24
0.0
 34
0.0
 15
0.0
 25
0.0
 35
0.0
146
0.0
 13
0.0
 23
0.0
 33
0.0
 16
1.0
 26
0.0
 36
0.0
 17
0.0
 27
1.0
 37
0.0
 76
0
330
216
345
0
346
0
  0
LAYOUT
  5
2FB
102
{ACAD_REACTORS
330
1A
102
}
100
AcDbPlotSettings
  1

  2
none_device
  4
ANSI_C_(22.00_x_17.00_Inches)
  6

 40
0.0
 41
0.0
 42
0.0
 43
0.0
 44
558.8
 45
431.8
 46
0.0
 47
0.0
 48
0.0
 49
0.0
140
0.0
141
0.0
142
1.0
143
1.0
 70
0
 72
0
 73
0
 74
0
  7

 75
0
147
1.0
148
0.0
149
0.0
100
AcDbLayout
  1
Layout1
 70
0
 71
1
 10
0.0
 20
0.0
 11
22.0
 21
17.0
 12
0.0
 22
0.0
 32
0.0
 14
0.0
 24
0.0
 34
0.0
 15
0.0
 25
0.0
 35
0.0
146
0.0
 13
0.0
 23
0.0
 33
0.0
 16
1.0
 26
0.0
 36
0.0
 17
0.0
 27
1.0
 37
0.0
 76
0
330
217
345
0
346
0
  0
ENDSEC
  0
EOF