999
DXF file: _cgs_temp_output.dxf
999
Pro/ENGINEER 2016360 by Parametric Technology Corporation
  0
SECTION
  2
HEADER
  9
$ACADVER
  1
AC1021
  9
$DWGCODEPAGE
  3
ANSI_1252
  9
$EXTMAX
 10
22.0
 20
17.0
 30
0.0
  9
$EXTMIN
 10
0.0
 20
0.0
 30
0.0
  9
$LIMMIN
 10
0.0
 20
0.0
  9
$LIMMAX
 10
22.0
 20
17.0
  9
$VIEWCTR
 10
11.0
 20
8.5
  9
$VIEWSIZE
 40
17.0
  9
$CLAYER
  8
0
  9
$LTSCALE
 40
1.21
  9
$CELTYPE
  6
BYLAYER
  9
$DIMSCALE
 40
1.0
  9
$DIMASZ
 40
0.1875
  9
$DIMEXO
 40
0.0625
  9
$DIMDLI
 40
0.836
  9
$DIMEXE
 40
0.125
  9
$DIMCEN
 40
0.198
  9
$DIMLFAC
 40
1.0
  9
$DIMBLK
  1
_CLOSED
  9
$DIMALT
 70
0
  9
$DIMALTF
 40
25.4
  9
$DIMTXT
 40
0.15625
  9
$DIMTOL
 70
0
  9
$DIMLIM
 70
0
  9
$DIMTFAC
 40
1.0
  9
$DIMGAP
 40
0.09
  9
$DIMDSEP
 70
46
  9
$AUNITS
 70
0
  9
$PDMODE
 70
3
  9
$PDSIZE
 40
0.3125
  9
$HANDSEED
  5
30D
  9
$TILEMODE
 70
1
  9
$MEASUREMENT
 70
0
  9
$INSUNITS
 70
1
  0
ENDSEC
  0
SECTION
  2
CLASSES
  0
CLASS
  1
ACDBDICTIONARYWDFLT
  2
AcDbDictionaryWithDefault
  3
AutoCAD 2000
 90
0
 91
1
280
0
281
0
  0
CLASS
  1
ACDBPLACEHOLDER
  2
AcDbPlaceHolder
  3
AutoCAD 2000
 90
0
 91
1
280
0
281
0
  0
CLASS
  1
LAYOUT
  2
AcDbLayout
  3
AutoCAD 2000
 90
0
 91
0
280
0
281
0
  0
ENDSEC
  0
SECTION
  2
TABLES
  0
TABLE
  2
VPORT
  5
8
100
AcDbSymbolTable
 70
2
  0
VPORT
  5
1F4
100
AcDbSymbolTableRecord
100
AcDbViewportTableRecord
  2
*ACTIVE
 70
0
 10
0.0
 20
0.0
 11
1.0
 21
1.0
 12
11.0
 22
8.5
 13
0.0
 23
0.0
 14
1.0
 24
1.0
 15
0.0
 25
0.0
 16
0.0
 26
0.0
 36
1.0
 17
0.0
 27
0.0
 37
0.0
 40
17.0
 41
1.2941176471
 42
50.0
 43
0.0
 44
0.0
 50
0.0
 51
0.0
 71
0
 72
100
 73
1
 74
1
 75
0
 76
0
 77
0
 78
0
  0
ENDTAB
  0
TABLE
  2
LTYPE
  5
5
100
AcDbSymbolTable
 70
6
  0
LTYPE
  5
14
100
AcDbSymbolTableRecord
100
AcDbLinetypeTableRecord
  2
BYBLOCK
 70
0
  3

 72
65
 73
0
 40
0.0
  0
LTYPE
  5
15
100
AcDbSymbolTableRecord
100
AcDbLinetypeTableRecord
  2
BYLAYER
 70
0
  3

 72
65
 73
0
 40
0.0
  0
LTYPE
  5
16
100
AcDbSymbolTableRecord
100
AcDbLinetypeTableRecord
  2
CONTINUOUS
 70
64
  3
Solid line
 72
65
 73
0
 40
0.0
  0
LTYPE
  5
1F5
100
AcDbSymbolTableRecord
100
AcDbLinetypeTableRecord
  2
CENTER
 70
64
  3
____ _ ____ _ ____ _ ____ _ ____ _ ____ _ ____
 72
65
 73
4
 40
0.6
 49
0.375
 74
0
 49
-0.075
 74
0
 49
0.075
 74
0
 49
-0.075
 74
0
  0
LTYPE
  5
1F6
100
AcDbSymbolTableRecord
100
AcDbLinetypeTableRecord
  2
HIDDEN
 70
64
  3
- - - - - - - - - - - - - - - - - - - -
 72
65
 73
2
 40
0.2
 49
0.1
 74
0
 49
-0.1
 74
0
  0
LTYPE
  5
1F7
100
AcDbSymbolTableRecord
100
AcDbLinetypeTableRecord
  2
PHANTOM
 70
64
  3
_____ _ _ _____ _ _ _____ _ _ _____
 72
65
 73
6
 40
0.8
 49
0.45
 74
0
 49
-0.05
 74
0
 49
0.1
 74
0
 49
-0.05
 74
0
 49
0.1
 74
0
 49
-0.05
 74
0
  0
LTYPE
  5
1F8
100
AcDbSymbolTableRecord
100
AcDbLinetypeTableRecord
  2
DOT
 70
64
  3
. . . . . . . . . . . . . . . . . . . .
 72
65
 73
2
 40
0.2
 49
0.1
 74
0
 49
-0.1
 74
0
  0
LTYPE
  5
1F9
100
AcDbSymbolTableRecord
100
AcDbLinetypeTableRecord
  2
DASHED
 70
64
  3
- - - - - - - - - - - - - - - - - - - -
 72
65
 73
2
 40
0.2
 49
0.1
 74
0
 49
-0.1
 74
0
  0
ENDTAB
  0
TABLE
  2
LAYER
  5
2
100
AcDbSymbolTable
 70
36
  0
LAYER
  5
10
100
AcDbSymbolTableRecord
100
AcDbLayerTableRecord
  2
0
 70
0
 62
7
  6
CONTINUOUS
370
-3
390
F
  0
LAYER
  5
1FA
100
AcDbSymbolTableRecord
100
AcDbLayerTableRecord
  2
DEFAULT_1
 70
0
 62
7
  6
CENTER
370
-3
390
F
  0
LAYER
  5
1FB
100
AcDbSymbolTableRecord
100
AcDbLayerTableRecord
  2
DEFAULT_2
 70
0
 62
8
  6
HIDDEN
370
-3
390
F
  0
LAYER
  5
1FC
100
AcDbSymbolTableRecord
100
AcDbLayerTableRecord
  2
DEFAULT_3
 70
0
 62
7
  6
PHANTOM
370
-3
390
F
  0
LAYER
  5
1FD
100
AcDbSymbolTableRecord
100
AcDbLayerTableRecord
  2
01_ALL_DTM_PLN
 70
0
 62
7
  6
CONTINUOUS
370
-3
390
F
  0
LAYER
  5
1FE
100
AcDbSymbolTableRecord
100
AcDbLayerTableRecord
  2
01__ASM_ALL_DTM_PLN
 70
0
 62
7
  6
CONTINUOUS
370
-3
390
F
  0
LAYER
  5
1FF
100
AcDbSymbolTableRecord
100
AcDbLayerTableRecord
  2
01__ASM_DEF_DTM_PLN
 70
0
 62
7
  6
CONTINUOUS
370
-3
390
F
  0
LAYER
  5
200
100
AcDbSymbolTableRecord
100
AcDbLayerTableRecord
  2
01___PRT_ALL_DTM_PLN
 70
0
 62
7
  6
CONTINUOUS
370
-3
390
F
  0
LAYER
  5
201
100
AcDbSymbolTableRecord
100
AcDbLayerTableRecord
  2
01___PRT_DEF_DTM_PLN
 70
0
 62
7
  6
CONTINUOUS
370
-3
390
F
  0
LAYER
  5
202
100
AcDbSymbolTableRecord
100
AcDbLayerTableRecord
  2
02_ALL_AXES
 70
0
 62
7
  6
CONTINUOUS
370
-3
390
F
  0
LAYER
  5
203
100
AcDbSymbolTableRecord
100
AcDbLayerTableRecord
  2
02__ASM_ALL_AXES
 70
0
 62
7
  6
CONTINUOUS
370
-3
390
F
  0
LAYER
  5
204
100
AcDbSymbolTableRecord
100
AcDbLayerTableRecord
  2
02___PRT_ALL_AXES
 70
0
 62
7
  6
CONTINUOUS
370
-3
390
F
  0
LAYER
  5
205
100
AcDbSymbolTableRecord
100
AcDbLayerTableRecord
  2
03_ALL_CURVES
 70
0
 62
7
  6
CONTINUOUS
370
-3
390
F
  0
LAYER
  5
206
100
AcDbSymbolTableRecord
100
AcDbLayerTableRecord
  2
03__ASM_ALL_CURVES
 70
0
 62
7
  6
CONTINUOUS
370
-3
390
F
  0
LAYER
  5
207
100
AcDbSymbolTableRecord
100
AcDbLayerTableRecord
  2
03___PRT_ALL_CURVES
 70
0
 62
7
  6
CONTINUOUS
370
-3
390
F
  0
LAYER
  5
208
100
AcDbSymbolTableRecord
100
AcDbLayerTableRecord
  2
04_ALL_DTM_PNT
 70
0
 62
7
  6
CONTINUOUS
370
-3
390
F
  0
LAYER
  5
209
100
AcDbSymbolTableRecord
100
AcDbLayerTableRecord
  2
04__ASM_ALL_DTM_PNT
 70
0
 62
7
  6
CONTINUOUS
370
-3
390
F
  0
LAYER
  5
20A
100
AcDbSymbolTableRecord
100
AcDbLayerTableRecord
  2
04___PRT_ALL_DTM_PNT
 70
0
 62
7
  6
CONTINUOUS
370
-3
390
F
  0
LAYER
  5
20B
100
AcDbSymbolTableRecord
100
AcDbLayerTableRecord
  2
05_ALL_DTM_CSYS
 70
0
 62
7
  6
CONTINUOUS
370
-3
390
F
  0
LAYER
  5
20C
100
AcDbSymbolTableRecord
100
AcDbLayerTableRecord
  2
05__ASM_ALL_DTM_CSYS
 70
0
 62
7
  6
CONTINUOUS
370
-3
390
F
  0
LAYER
  5
20D
100
AcDbSymbolTableRecord
100
AcDbLayerTableRecord
  2
05__ASM_DEF_DTM_CSYS
 70
0
 62
7
  6
CONTINUOUS
370
-3
390
F
  0
LAYER
  5
20E
100
AcDbSymbolTableRecord
100
AcDbLayerTableRecord
  2
05___PRT_ALL_DTM_CSYS
 70
0
 62
7
  6
CONTINUOUS
370
-3
390
F
  0
LAYER
  5
20F
100
AcDbSymbolTableRecord
100
AcDbLayerTableRecord
  2
05___PRT_DEF_DTM_CSYS
 70
0
 62
7
  6
CONTINUOUS
370
-3
390
F
  0
LAYER
  5
210
100
AcDbSymbolTableRecord
100
AcDbLayerTableRecord
  2
06_ALL_SURFS
 70
0
 62
7
  6
CONTINUOUS
370
-3
390
F
  0
LAYER
  5
211
100
AcDbSymbolTableRecord
100
AcDbLayerTableRecord
  2
06__ASM_ALL_SURFS
 70
0
 62
7
  6
CONTINUOUS
370
-3
390
F
  0
LAYER
  5
212
100
AcDbSymbolTableRecord
100
AcDbLayerTableRecord
  2
06___PRT_ALL_SURFS
 70
0
 62
7
  6
CONTINUOUS
370
-3
390
F
  0
LAYER
  5
213
100
AcDbSymbolTableRecord
100
AcDbLayerTableRecord
  2
07__ASM_ALL_SKELETONS
 70
0
 62
7
  6
CONTINUOUS
370
-3
390
F
  0
ENDTAB
  0
TABLE
  2
STYLE
  5
3
100
AcDbSymbolTable
 70
1
  0
STYLE
  5
11
100
AcDbSymbolTableRecord
100
AcDbTextStyleTableRecord
  2
STANDARD
 70
0
 40
0.0
 41
0.8
 50
0.0
 71
0
 42
0.2
  3
txt
  4

  0
STYLE
  5
214
100
AcDbSymbolTableRecord
100
AcDbTextStyleTableRecord
  2
TEXTSTYLE_1
 70
0
 40
0.0
 41
0.8
 50
0.0
 71
0
 42
0.2
  3
gdt
  4

  0
ENDTAB
  0
TABLE
  2
VIEW
  5
6
100
AcDbSymbolTable
 70
0
  0
ENDTAB
  0
TABLE
  2
UCS
  5
7
100
AcDbSymbolTable
 70
0
  0
ENDTAB
  0
TABLE
  2
APPID
  5
9
100
AcDbSymbolTable
 70
1
  0
APPID
  5
215
100
AcDbSymbolTableRecord
100
AcDbRegAppTableRecord
  2
ACAD
 70
0
  0
ENDTAB
  0
TABLE
  2
BLOCK_RECORD
  5
1
100
AcDbSymbolTable
 70
0
  0
BLOCK_RECORD
  5
216
100
AcDbSymbolTableRecord
100
AcDbBlockTableRecord
  2
*Model_Space
  0
BLOCK_RECORD
  5
217
100
AcDbSymbolTableRecord
100
AcDbBlockTableRecord
  2
*Paper_Space
  0
ENDTAB
  0
TABLE
  2
DIMSTYLE
  5
A
100
AcDbSymbolTable
 70
1
100
AcDbDimStyleTable
 71
0
  0
DIMSTYLE
105
218
100
AcDbSymbolTableRecord
100
AcDbDimStyleTableRecord
  2
STANDARD
 70
0
  3

  4

 40
1.0
 41
0.1875
 42
0.0625
 43
0.38
 44
0.125
 45
0.0
 46
0.0
 47
0.0001
 48
0.0001
140
0.15625
141
0.09
142
0.0
143
25.4
144
1.0
145
0.0
146
1.0
147
0.09
 71
0.0
 72
0.0
 73
1
 74
1
 75
0
 76
0
 77
0
 78
4
 79
1
170
0
171
3
172
0
173
0
174
0
175
0
176
0
177
0
178
0
270
2
179
4
271
4
272
4
273
2
274
2
275
0
280
0
281
0
282
0
283
1
284
4
285
0
286
0
287
3
288
0
340
11
278
46
  0
ENDTAB
  0
ENDSEC
  0
SECTION
  2
BLOCKS
  0
BLOCK
  5
20
100
AcDbEntity
  8
0
100
AcDbBlockBegin
  2
*Model_Space
 70
0
 10
0.0
 20
0.0
 30
0.0
  3
*Model_Space
  1

  0
ENDBLK
  5
21
100
AcDbEntity
  8
0
100
AcDbBlockEnd
  0
BLOCK
  5
1C
100
AcDbEntity
  8
0
100
AcDbBlockBegin
  2
*Paper_Space
 70
0
 10
0.0
 20
0.0
 30
0.0
  3
*Paper_Space
  1

  0
ENDBLK
  5
1D
100
AcDbEntity
  8
0
100
AcDbBlockEnd
  0
ENDSEC
  0
SECTION
  2
ENTITIES
  0
MTEXT
  5
219
100
AcDbEntity
  8
0
100
AcDbMText
 62
7
  6
CONTINUOUS
  7
STANDARD
 71
1
 72
1
 10
15.9560215477
 20
0.9479130325
 30
0.0
 11
1.0
 21
0.0
 31
0.0
 44
0.9
  1
SCALE: 1:1.000
 40
0.3
 41
3.36
  0
LINE
  5
21A
100
AcDbEntity
  8
0
100
AcDbLine
 62
7
  6
CONTINUOUS
 10
0.0
 20
0.0
 11
0.0
 21
17.0
  0
LINE
  5
21B
100
AcDbEntity
  8
0
100
AcDbLine
 62
7
  6
CONTINUOUS
 10
0.0
 20
0.0
 11
22.0
 21
0.0
  0
LINE
  5
21C
100
AcDbEntity
  8
0
100
AcDbLine
 62
7
  6
CONTINUOUS
 10
0.0
 20
17.0
 11
22.0
 21
17.0
  0
LINE
  5
21D
100
AcDbEntity
  8
0
100
AcDbLine
 62
7
  6
CONTINUOUS
 10
22.0
 20
0.0
 11
22.0
 21
17.0
  0
LINE
  5
21E
100
AcDbEntity
  8
0
100
AcDbLine
 62
7
  6
CONTINUOUS
 10
4.6303672762
 20
5.8376198968
 11
4.6303672762
 21
5.7045351465
  0
LINE
  5
21F
100
AcDbEntity
  8
0
100
AcDbLine
 62
7
  6
CONTINUOUS
 10
4.7630612028
 20
5.1961494206
 11
4.6337746935
 21
5.678653242
  0
LINE
  5
220
100
AcDbEntity
  8
0
100
AcDbLine
 62
7
  6
CONTINUOUS
 10
4.7872093485
 20
5.1776198968
 11
7.4735252039
 21
5.1776198968
  0
LINE
  5
221
100
AcDbEntity
  8
0
100
AcDbLine
 62
7
  6
CONTINUOUS
 10
4.7260276162
 20
5.4059532301
 11
7.5347069361
 21
5.4059532301
  0
LINE
  5
222
100
AcDbEntity
  8
0
100
AcDbLine
 62
7
  6
CONTINUOUS
 10
7.6053672762
 20
5.8626198968
 11
4.6553672762
 21
5.8626198968
  0
LINE
  5
223
100
AcDbEntity
  8
0
100
AcDbLine
 62
7
  6
CONTINUOUS
 10
7.6303672762
 20
5.7045351465
 11
7.6303672762
 21
5.8376198968
  0
LINE
  5
224
100
AcDbEntity
  8
0
100
AcDbLine
 62
7
  6
CONTINUOUS
 10
7.4976733495
 20
5.1961494206
 11
7.6269598588
 21
5.678653242
  0
LINE
  5
225
100
AcDbEntity
  8
0
100
AcDbLine
 62
7
  6
CONTINUOUS
 10
7.5708720839
 20
10.6000477814
 11
4.5708720839
 21
10.6000477814
  0
LINE
  5
226
100
AcDbEntity
  8
0
100
AcDbLine
 62
7
  6
CONTINUOUS
 10
4.5708720839
 20
10.6000477814
 11
4.5708720839
 21
14.6000477814
  0
LINE
  5
227
100
AcDbEntity
  8
0
100
AcDbLine
 62
7
  6
CONTINUOUS
 10
7.5708720839
 20
10.6000477814
 11
7.5708720839
 21
14.6000477814
  0
LINE
  5
228
100
AcDbEntity
  8
0
100
AcDbLine
 62
7
  6
CONTINUOUS
 10
4.5708720839
 20
14.6000477814
 11
7.5708720839
 21
14.6000477814
  0
LINE
  5
229
100
AcDbEntity
  8
0
100
AcDbLine
 62
7
  6
CONTINUOUS
 10
13.5603552569
 20
5.3464580378
 11
13.5603552569
 21
5.8031247044
  0
LINE
  5
22A
100
AcDbEntity
  8
0
100
AcDbLine
 62
7
  6
CONTINUOUS
 10
13.6692119627
 20
5.3022156605
 11
13.7014985511
 21
5.1623670818
  0
LINE
  5
22B
100
AcDbEntity
  8
0
100
AcDbLine
 62
7
  6
CONTINUOUS
 10
13.9192119627
 20
5.1623670818
 11
13.9514985511
 21
5.3022156605
  0
LINE
  5
22C
100
AcDbEntity
  8
0
100
AcDbLine
 62
7
  6
CONTINUOUS
 10
14.1692119627
 20
5.3022156605
 11
14.2014985511
 21
5.1623670818
  0
LINE
  5
22D
100
AcDbEntity
  8
0
100
AcDbLine
 62
7
  6
CONTINUOUS
 10
14.4192119627
 20
5.1623670818
 11
14.4514985511
 21
5.3022156605
  0
LINE
  5
22E
100
AcDbEntity
  8
0
100
AcDbLine
 62
7
  6
CONTINUOUS
 10
14.6692119627
 20
5.3022156605
 11
14.7014985511
 21
5.1623670818
  0
LINE
  5
22F
100
AcDbEntity
  8
0
100
AcDbLine
 62
7
  6
CONTINUOUS
 10
14.9192119627
 20
5.1623670818
 11
14.9514985511
 21
5.3022156605
  0
LINE
  5
230
100
AcDbEntity
  8
0
100
AcDbLine
 62
7
  6
CONTINUOUS
 10
15.1692119627
 20
5.3022156605
 11
15.2014985511
 21
5.1623670818
  0
LINE
  5
231
100
AcDbEntity
  8
0
100
AcDbLine
 62
7
  6
CONTINUOUS
 10
13.7571188423
 20
5.1181247044
 11
13.8635916715
 21
5.1181247044
  0
LINE
  5
232
100
AcDbEntity
  8
0
100
AcDbLine
 62
7
  6
CONTINUOUS
 10
14.2571188423
 20
5.1181247044
 11
14.3635916715
 21
5.1181247044
  0
LINE
  5
233
100
AcDbEntity
  8
0
100
AcDbLine
 62
7
  6
CONTINUOUS
 10
14.7571188423
 20
5.1181247044
 11
14.8635916715
 21
5.1181247044
  0
LINE
  5
234
100
AcDbEntity
  8
0
100
AcDbLine
 62
7
  6
CONTINUOUS
 10
15.2571188423
 20
5.1181247044
 11
15.3635916715
 21
5.1181247044
  0
LINE
  5
235
100
AcDbEntity
  8
0
100
AcDbLine
 62
7
  6
CONTINUOUS
 10
15.7571188423
 20
5.1181247044
 11
15.8635916715
 21
5.1181247044
  0
LINE
  5
236
100
AcDbEntity
  8
0
100
AcDbLine
 62
7
  6
CONTINUOUS
 10
16.2571188423
 20
5.1181247044
 11
16.3635916715
 21
5.1181247044
  0
LINE
  5
237
100
AcDbEntity
  8
0
100
AcDbLine
 62
7
  6
CONTINUOUS
 10
16.7571188423
 20
5.1181247044
 11
16.8635916715
 21
5.1181247044
  0
LINE
  5
238
100
AcDbEntity
  8
0
100
AcDbLine
 62
7
  6
CONTINUOUS
 10
17.2571188423
 20
5.1181247044
 11
17.3635916715
 21
5.1181247044
  0
LINE
  5
239
100
AcDbEntity
  8
0
100
AcDbLine
 62
7
  6
CONTINUOUS
 10
15.4192119627
 20
5.1623670818
 11
15.4514985511
 21
5.3022156605
  0
LINE
  5
23A
100
AcDbEntity
  8
0
100
AcDbLine
 62
7
  6
CONTINUOUS
 10
13.5603552569
 20
5.3464580378
 11
13.6135916715
 21
5.3464580378
  0
LINE
  5
23B
100
AcDbEntity
  8
0
100
AcDbLine
 62
7
  6
CONTINUOUS
 10
14.0071188423
 20
5.3464580378
 11
14.1135916715
 21
5.3464580378
  0
LINE
  5
23C
100
AcDbEntity
  8
0
100
AcDbLine
 62
7
  6
CONTINUOUS
 10
14.5071188423
 20
5.3464580378
 11
14.6135916715
 21
5.3464580378
  0
LINE
  5
23D
100
AcDbEntity
  8
0
100
AcDbLine
 62
7
  6
CONTINUOUS
 10
15.0071188423
 20
5.3464580378
 11
15.1135916715
 21
5.3464580378
  0
LINE
  5
23E
100
AcDbEntity
  8
0
100
AcDbLine
 62
7
  6
CONTINUOUS
 10
15.5071188423
 20
5.3464580378
 11
15.6135916715
 21
5.3464580378
  0
LINE
  5
23F
100
AcDbEntity
  8
0
100
AcDbLine
 62
7
  6
CONTINUOUS
 10
16.0071188423
 20
5.3464580378
 11
16.1135916715
 21
5.3464580378
  0
LINE
  5
240
100
AcDbEntity
  8
0
100
AcDbLine
 62
7
  6
CONTINUOUS
 10
16.5071188423
 20
5.3464580378
 11
16.6135916715
 21
5.3464580378
  0
LINE
  5
241
100
AcDbEntity
  8
0
100
AcDbLine
 62
7
  6
CONTINUOUS
 10
17.0071188423
 20
5.3464580378
 11
17.1135916715
 21
5.3464580378
  0
LINE
  5
242
100
AcDbEntity
  8
0
100
AcDbLine
 62
7
  6
CONTINUOUS
 10
17.5071188423
 20
5.3464580378
 11
17.5603552569
 21
5.3464580378
  0
LINE
  5
243
100
AcDbEntity
  8
0
100
AcDbLine
 62
7
  6
CONTINUOUS
 10
15.6692119627
 20
5.3022156605
 11
15.7014985511
 21
5.1623670818
  0
LINE
  5
244
100
AcDbEntity
  8
0
100
AcDbLine
 62
7
  6
CONTINUOUS
 10
15.9192119627
 20
5.1623670818
 11
15.9514985511
 21
5.3022156605
  0
LINE
  5
245
100
AcDbEntity
  8
0
100
AcDbLine
 62
7
  6
CONTINUOUS
 10
13.5603552569
 20
5.8031247044
 11
17.5603552569
 21
5.8031247044
  0
LINE
  5
246
100
AcDbEntity
  8
0
100
AcDbLine
 62
7
  6
CONTINUOUS
 10
16.1692119627
 20
5.3022156605
 11
16.2014985511
 21
5.1623670818
  0
LINE
  5
247
100
AcDbEntity
  8
0
100
AcDbLine
 62
7
  6
CONTINUOUS
 10
16.4192119627
 20
5.1623670818
 11
16.4514985511
 21
5.3022156605
  0
LINE
  5
248
100
AcDbEntity
  8
0
100
AcDbLine
 62
7
  6
CONTINUOUS
 10
16.6692119627
 20
5.3022156605
 11
16.7014985511
 21
5.1623670818
  0
LINE
  5
249
100
AcDbEntity
  8
0
100
AcDbLine
 62
7
  6
CONTINUOUS
 10
16.9192119627
 20
5.1623670818
 11
16.9514985511
 21
5.3022156605
  0
LINE
  5
24A
100
AcDbEntity
  8
0
100
AcDbLine
 62
7
  6
CONTINUOUS
 10
17.1692119627
 20
5.3022156605
 11
17.2014985511
 21
5.1623670818
  0
LINE
  5
24B
100
AcDbEntity
  8
0
100
AcDbLine
 62
7
  6
CONTINUOUS
 10
17.5603552569
 20
5.3464580378
 11
17.5603552569
 21
5.8031247044
  0
LINE
  5
24C
100
AcDbEntity
  8
0
100
AcDbLine
 62
7
  6
CONTINUOUS
 10
17.4192119627
 20
5.1623670818
 11
17.4514985511
 21
5.3022156605
  0
LINE
  5
24D
100
AcDbEntity
  8
0
100
AcDbLine
 62
7
  6
CONTINUOUS
 10
13.6275545469
 20
10.9763743534
 11
13.7678158407
 21
10.8183794444
  0
LINE
  5
24E
100
AcDbEntity
  8
0
100
AcDbLine
 62
7
  6
CONTINUOUS
 10
13.9257973596
 20
10.8052950944
 11
13.932881139
 21
10.8011092055
  0
LINE
  5
24F
100
AcDbEntity
  8
0
100
AcDbLine
 62
7
  6
CONTINUOUS
 10
13.9257973619
 20
10.8052950975
 11
13.9236376441
 21
10.8068613077
  0
LINE
  5
250
100
AcDbEntity
  8
0
100
AcDbLine
 62
7
  6
CONTINUOUS
 10
13.5759246226
 20
11.0751896107
 11
13.6165210432
 21
10.9924628033
  0
LINE
  5
251
100
AcDbEntity
  8
0
100
AcDbLine
 62
7
  6
CONTINUOUS
 10
13.932881139
 20
10.8011092055
 11
13.9466739206
 21
10.7975284929
  0
LWPOLYLINE
  5
252
100
AcDbEntity
  8
0
100
AcDbPolyline
 62
7
  6
CONTINUOUS
 90
5
 70
0
 10
16.4291903089
 20
10.7974575506
 10
16.4371042213
 20
10.7986761986
 10
16.4453392914
 20
10.8029322024
 10
16.4512512753
 20
10.8088676034
 10
16.4552263317
 20
10.815321593
  0
LINE
  5
253
100
AcDbEntity
  8
0
100
AcDbLine
 62
7
  6
CONTINUOUS
 10
16.4291870745
 20
10.7974574786
 11
16.4291905558
 21
10.7974574799
  0
LINE
  5
254
100
AcDbEntity
  8
0
100
AcDbLine
 62
7
  6
CONTINUOUS
 10
13.9489344397
 20
10.7974574786
 11
16.4291874876
 21
10.7974574786
  0
LINE
  5
255
100
AcDbEntity
  8
0
100
AcDbLine
 62
7
  6
CONTINUOUS
 10
13.7957100363
 20
10.8068613077
 11
16.3826750025
 21
10.8068613077
  0
LINE
  5
256
100
AcDbEntity
  8
0
100
AcDbLine
 62
7
  6
CONTINUOUS
 10
13.9466739206
 20
10.7975284929
 11
13.9489729399
 21
10.7974576083
  0
LINE
  5
257
100
AcDbEntity
  8
0
100
AcDbLine
 62
7
  6
CONTINUOUS
 10
13.5750656264
 20
11.082570795
 11
14.54333092
 21
14.2158784335
  0
LWPOLYLINE
  5
258
100
AcDbEntity
  8
0
100
AcDbPolyline
 62
7
  6
CONTINUOUS
 90
5
 70
0
 10
16.5502234706
 20
11.1891210054
 10
16.558137383
 20
11.1903396534
 10
16.5663724531
 20
11.1945956572
 10
16.572284437
 20
11.2005310582
 10
16.5762594934
 20
11.2069850478
  0
LINE
  5
259
100
AcDbEntity
  8
0
100
AcDbLine
 62
7
  6
CONTINUOUS
 10
16.3084550331
 20
11.0907298599
 11
13.5913251008
 21
11.0907298599
  0
LINE
  5
25A
100
AcDbEntity
  8
0
100
AcDbLine
 62
7
  6
CONTINUOUS
 10
16.5145402939
 20
11.1891209334
 11
16.5502206493
 21
11.1891209334
  0
LWPOLYLINE
  5
25B
100
AcDbEntity
  8
0
100
AcDbPolyline
 62
7
  6
CONTINUOUS
 90
5
 70
0
 10
16.6712566323
 20
11.5807844602
 10
16.6791705447
 20
11.5820031083
 10
16.6874056148
 20
11.586259112
 10
16.6933175987
 20
11.592194513
 10
16.6972926551
 20
11.5986485026
  0
LINE
  5
25C
100
AcDbEntity
  8
0
100
AcDbLine
 62
7
  6
CONTINUOUS
 10
16.6355734556
 20
11.5807843882
 11
16.671253811
 21
11.5807843882
  0
LWPOLYLINE
  5
25D
100
AcDbEntity
  8
0
100
AcDbPolyline
 62
7
  6
CONTINUOUS
 90
5
 70
0
 10
16.792289794
 20
11.972447915
 10
16.8002037064
 20
11.9736665631
 10
16.8084387765
 20
11.9779225668
 10
16.8143507604
 20
11.9838579678
 10
16.8183258168
 20
11.9903119574
  0
LINE
  5
25E
100
AcDbEntity
  8
0
100
AcDbLine
 62
7
  6
CONTINUOUS
 10
16.7566066173
 20
11.972447843
 11
16.7922869727
 21
11.972447843
  0
LWPOLYLINE
  5
25F
100
AcDbEntity
  8
0
100
AcDbPolyline
 62
7
  6
CONTINUOUS
 90
5
 70
0
 10
16.9133229557
 20
12.3641113698
 10
16.9212368682
 20
12.3653300179
 10
16.9294719382
 20
12.3695860216
 10
16.9353839221
 20
12.3755214226
 10
16.9393589786
 20
12.3819754122
  0
LWPOLYLINE
  5
260
100
AcDbEntity
  8
0
100
AcDbPolyline
 62
7
  6
CONTINUOUS
 90
5
 70
0
 10
17.0343561174
 20
12.7557748246
 10
17.0422700299
 20
12.7569934727
 10
17.0505050999
 20
12.7612494765
 10
17.0564170838
 20
12.7671848774
 10
17.0603921403
 20
12.7736388671
  0
LINE
  5
261
100
AcDbEntity
  8
0
100
AcDbLine
 62
7
  6
CONTINUOUS
 10
16.877639779
 20
12.3641112978
 11
16.9133201344
 21
12.3641112978
  0
LINE
  5
262
100
AcDbEntity
  8
0
100
AcDbLine
 62
7
  6
CONTINUOUS
 10
16.3797040253
 20
10.9924628033
 11
16.3391076046
 21
11.0751896107
  0
LINE
  5
263
100
AcDbEntity
  8
0
100
AcDbLine
 62
7
  6
CONTINUOUS
 10
16.9986729407
 20
12.7557747526
 11
17.0343532961
 21
12.7557747526
  0
LWPOLYLINE
  5
264
100
AcDbEntity
  8
0
100
AcDbPolyline
 62
7
  6
CONTINUOUS
 90
5
 70
0
 10
17.1553892791
 20
13.1474382794
 10
17.1633031916
 20
13.1486569275
 10
17.1715382616
 20
13.1529129313
 10
17.1774502455
 20
13.1588483322
 10
17.181425302
 20
13.1653023219
  0
LINE
  5
265
100
AcDbEntity
  8
0
100
AcDbLine
 62
7
  6
CONTINUOUS
 10
17.1197061024
 20
13.1474382075
 11
17.1553864578
 21
13.1474382075
  0
LINE
  5
266
100
AcDbEntity
  8
0
100
AcDbLine
 62
7
  6
CONTINUOUS
 10
16.399264637
 20
10.8183794444
 11
16.3844606505
 21
10.9763743534
  0
LWPOLYLINE
  5
267
100
AcDbEntity
  8
0
100
AcDbPolyline
 62
7
  6
CONTINUOUS
 90
5
 70
0
 10
17.2764224408
 20
13.5391017343
 10
17.2843363533
 20
13.5403203823
 10
17.2925714233
 20
13.5445763861
 10
17.2984834072
 20
13.5505117871
 10
17.3024584637
 20
13.5569657767
  0
LINE
  5
268
100
AcDbEntity
  8
0
100
AcDbLine
 62
7
  6
CONTINUOUS
 10
16.4928702237
 20
10.9580186767
 11
16.4925403345
 21
11.0702409002
  0
LINE
  5
269
100
AcDbEntity
  8
0
100
AcDbLine
 62
7
  6
CONTINUOUS
 10
17.2407392641
 20
13.5391016623
 11
17.2764196195
 21
13.5391016623
  0
LINE
  5
26A
100
AcDbEntity
  8
0
100
AcDbLine
 62
7
  6
CONTINUOUS
 10
16.6139033854
 20
11.3496821315
 11
16.6135734962
 21
11.4619043551
  0
LWPOLYLINE
  5
26B
100
AcDbEntity
  8
0
100
AcDbPolyline
 62
7
  6
CONTINUOUS
 90
6
 70
0
 10
16.4925398312
 20
11.0702655319
 10
16.4926998045
 20
11.0787715194
 10
16.4940046143
 20
11.097203211
 10
16.4966103445
 20
11.1176751773
 10
16.5002777323
 20
11.1380441403
 10
16.5045761988
 20
11.1562669444
  0
LWPOLYLINE
  5
26C
100
AcDbEntity
  8
0
100
AcDbPolyline
 62
7
  6
CONTINUOUS
 90
6
 70
0
 10
16.6135729929
 20
11.4619289868
 10
16.6137329662
 20
11.4704349742
 10
16.615037776
 20
11.4888666658
 10
16.6176435062
 20
11.5093386321
 10
16.6213108941
 20
11.5297075951
 10
16.6256093605
 20
11.5479303992
  0
LINE
  5
26D
100
AcDbEntity
  8
0
100
AcDbLine
 62
7
  6
CONTINUOUS
 10
16.4925412141
 20
10.9488070946
 11
16.492869867
 21
10.9580799949
  0
LINE
  5
26E
100
AcDbEntity
  8
0
100
AcDbLine
 62
7
  6
CONTINUOUS
 10
16.6135743758
 20
11.3404705495
 11
16.6139030287
 21
11.3497434497
  0
LINE
  5
26F
100
AcDbEntity
  8
0
100
AcDbLine
 62
7
  6
CONTINUOUS
 10
16.3989302913
 20
10.8150216591
 11
16.399264637
 21
10.8183794444
  0
LWPOLYLINE
  5
270
100
AcDbEntity
  8
0
100
AcDbPolyline
 62
7
  6
CONTINUOUS
 90
3
 70
0
 10
17.2628921774
 20
13.6094193148
 10
17.2653919906
 20
13.6150819973
 10
17.2663780255
 20
13.6169066589
  0
LINE
  5
271
100
AcDbEntity
  8
0
100
AcDbLine
 62
7
  6
CONTINUOUS
 10
16.7349365471
 20
11.7413455864
 11
16.7346066579
 21
11.8535678099
  0
LINE
  5
272
100
AcDbEntity
  8
0
100
AcDbLine
 62
7
  6
CONTINUOUS
 10
16.8559697088
 20
12.1330090412
 11
16.8556398196
 21
12.2452312647
  0
LWPOLYLINE
  5
273
100
AcDbEntity
  8
0
100
AcDbPolyline
 62
7
  6
CONTINUOUS
 90
6
 70
0
 10
16.7346061546
 20
11.8535924416
 10
16.7347661279
 20
11.862098429
 10
16.7360709377
 20
11.8805301207
 10
16.7386766679
 20
11.9010020869
 10
16.7423440558
 20
11.9213710499
 10
16.7466425222
 20
11.939593854
  0
LINE
  5
274
100
AcDbEntity
  8
0
100
AcDbLine
 62
7
  6
CONTINUOUS
 10
16.7346075375
 20
11.7321340043
 11
16.7349361904
 21
11.7414069045
  0
LWPOLYLINE
  5
275
100
AcDbEntity
  8
0
100
AcDbPolyline
 62
7
  6
CONTINUOUS
 90
3
 70
0
 10
16.4877575183
 20
10.9183178344
 10
16.4907607419
 20
10.933353891
 10
16.4925412141
 20
10.9488070946
  0
LWPOLYLINE
  5
276
100
AcDbEntity
  8
0
100
AcDbPolyline
 62
7
  6
CONTINUOUS
 90
3
 70
0
 10
16.60879068
 20
11.3099812892
 10
16.6117939036
 20
11.3250173458
 10
16.6135743758
 20
11.3404705495
  0
LINE
  5
277
100
AcDbEntity
  8
0
100
AcDbLine
 62
7
  6
CONTINUOUS
 10
16.5045761988
 20
11.1562669444
 11
16.5070755128
 21
11.1649688421
  0
LINE
  5
278
100
AcDbEntity
  8
0
100
AcDbLine
 62
7
  6
CONTINUOUS
 10
16.6256093605
 20
11.5479303992
 11
16.6281086745
 21
11.5566322969
  0
LINE
  5
279
100
AcDbEntity
  8
0
100
AcDbLine
 62
7
  6
CONTINUOUS
 10
16.7466425222
 20
11.939593854
 11
16.7491418362
 21
11.9482957518
  0
LINE
  5
27A
100
AcDbEntity
  8
0
100
AcDbLine
 62
7
  6
CONTINUOUS
 10
17.3543130274
 20
13.906626495
 11
17.3543087465
 21
13.906612685
  0
LINE
  5
27B
100
AcDbEntity
  8
0
100
AcDbLine
 62
7
  6
CONTINUOUS
 10
17.2332798657
 20
13.5149630402
 11
17.2332755847
 21
13.5149492302
  0
LINE
  5
27C
100
AcDbEntity
  8
0
100
AcDbLine
 62
7
  6
CONTINUOUS
 10
17.2590530169
 20
13.5983680959
 11
17.2599457072
 21
13.6011800139
  0
LINE
  5
27D
100
AcDbEntity
  8
0
100
AcDbLine
 62
7
  6
CONTINUOUS
 10
17.1380198552
 20
13.2067046411
 11
17.1389125455
 21
13.2095165591
  0
LINE
  5
27E
100
AcDbEntity
  8
0
100
AcDbLine
 62
7
  6
CONTINUOUS
 10
17.0169866935
 20
12.8150411863
 11
17.0178793838
 21
12.8178531043
  0
LINE
  5
27F
100
AcDbEntity
  8
0
100
AcDbLine
 62
7
  6
CONTINUOUS
 10
16.8959535318
 20
12.4233777315
 11
16.8968462221
 21
12.4261896495
  0
LINE
  5
280
100
AcDbEntity
  8
0
100
AcDbLine
 62
7
  6
CONTINUOUS
 10
17.2599457072
 20
13.6011800139
 11
17.2628921774
 21
13.6094193148
  0
LINE
  5
281
100
AcDbEntity
  8
0
100
AcDbLine
 62
7
  6
CONTINUOUS
 10
17.1389125455
 20
13.2095165591
 11
17.1418590157
 21
13.21775586
  0
LINE
  5
282
100
AcDbEntity
  8
0
100
AcDbLine
 62
7
  6
CONTINUOUS
 10
17.0178793838
 20
12.8178531043
 11
17.020825854
 21
12.8260924052
  0
LINE
  5
283
100
AcDbEntity
  8
0
100
AcDbLine
 62
7
  6
CONTINUOUS
 10
16.8968462221
 20
12.4261896495
 11
16.8997926923
 21
12.4344289504
  0
LINE
  5
284
100
AcDbEntity
  8
0
100
AcDbLine
 62
7
  6
CONTINUOUS
 10
17.3024584637
 20
13.5569657767
 11
17.3056137681
 21
13.5644159891
  0
LINE
  5
285
100
AcDbEntity
  8
0
100
AcDbLine
 62
7
  6
CONTINUOUS
 10
17.181425302
 20
13.1653023219
 11
17.1845806064
 21
13.1727525343
  0
LINE
  5
286
100
AcDbEntity
  8
0
100
AcDbLine
 62
7
  6
CONTINUOUS
 10
17.0603921403
 20
12.7736388671
 11
17.0635474447
 21
12.7810890794
  0
LWPOLYLINE
  5
287
100
AcDbEntity
  8
0
100
AcDbPolyline
 62
7
  6
CONTINUOUS
 90
3
 70
0
 10
17.1418590157
 20
13.21775586
 10
17.1443588289
 20
13.2234185425
 10
17.1453448638
 20
13.2252432041
  0
LWPOLYLINE
  5
288
100
AcDbEntity
  8
0
100
AcDbPolyline
 62
7
  6
CONTINUOUS
 90
3
 70
0
 10
17.020825854
 20
12.8260924052
 10
17.0233256672
 20
12.8317550877
 10
17.0243117021
 20
12.8335797493
  0
LWPOLYLINE
  5
289
100
AcDbEntity
  8
0
100
AcDbPolyline
 62
7
  6
CONTINUOUS
 90
3
 70
0
 10
16.8997926923
 20
12.4344289504
 10
16.9022925055
 20
12.4400916329
 10
16.9032785404
 20
12.4419162945
  0
LWPOLYLINE
  5
28A
100
AcDbEntity
  8
0
100
AcDbPolyline
 62
7
  6
CONTINUOUS
 90
3
 70
0
 10
16.7787595306
 20
12.0427654956
 10
16.7812593438
 20
12.0484281781
 10
16.7822453787
 20
12.0502528396
  0
LINE
  5
28B
100
AcDbEntity
  8
0
100
AcDbLine
 62
7
  6
CONTINUOUS
 10
16.9770028705
 20
12.524672496
 11
16.9766729813
 21
12.6368947195
  0
LWPOLYLINE
  5
28C
100
AcDbEntity
  8
0
100
AcDbPolyline
 62
7
  6
CONTINUOUS
 90
6
 70
0
 10
16.8556393163
 20
12.2452558964
 10
16.8557992896
 20
12.2537618838
 10
16.8571040994
 20
12.2721935755
 10
16.8597098296
 20
12.2926655418
 10
16.8633772175
 20
12.3130345048
 10
16.8676756839
 20
12.3312573088
  0
LWPOLYLINE
  5
28D
100
AcDbEntity
  8
0
100
AcDbPolyline
 62
7
  6
CONTINUOUS
 90
6
 70
0
 10
16.976672478
 20
12.6369193512
 10
16.9768324513
 20
12.6454253386
 10
16.9781372611
 20
12.6638570303
 10
16.9807429913
 20
12.6843289966
 10
16.9844103792
 20
12.7046979596
 10
16.9887088456
 20
12.7229207637
  0
LINE
  5
28E
100
AcDbEntity
  8
0
100
AcDbLine
 62
7
  6
CONTINUOUS
 10
16.8556406992
 20
12.1237974591
 11
16.8559693521
 21
12.1330703594
  0
LINE
  5
28F
100
AcDbEntity
  8
0
100
AcDbLine
 62
7
  6
CONTINUOUS
 10
16.9766738609
 20
12.5154609139
 11
16.9770025138
 21
12.5247338142
  0
LWPOLYLINE
  5
290
100
AcDbEntity
  8
0
100
AcDbPolyline
 62
7
  6
CONTINUOUS
 90
3
 70
0
 10
16.7298238417
 20
11.701644744
 10
16.7328270653
 20
11.7166808006
 10
16.7346075375
 20
11.7321340043
  0
LWPOLYLINE
  5
291
100
AcDbEntity
  8
0
100
AcDbPolyline
 62
7
  6
CONTINUOUS
 90
3
 70
0
 10
16.8508570034
 20
12.0933081988
 10
16.853860227
 20
12.1083442554
 10
16.8556406992
 20
12.1237974591
  0
LWPOLYLINE
  5
292
100
AcDbEntity
  8
0
100
AcDbPolyline
 62
7
  6
CONTINUOUS
 90
3
 70
0
 10
16.9718901651
 20
12.4849716536
 10
16.9748933887
 20
12.5000077102
 10
16.9766738609
 20
12.5154609139
  0
LWPOLYLINE
  5
293
100
AcDbEntity
  8
0
100
AcDbPolyline
 62
7
  6
CONTINUOUS
 90
3
 70
0
 10
17.0929233268
 20
12.8766351084
 10
17.0959265504
 20
12.891671165
 10
17.0977070226
 20
12.9071243687
  0
LINE
  5
294
100
AcDbEntity
  8
0
100
AcDbLine
 62
7
  6
CONTINUOUS
 10
16.4856264531
 20
10.9105872129
 11
16.4877575183
 21
10.9183178344
  0
LINE
  5
295
100
AcDbEntity
  8
0
100
AcDbLine
 62
7
  6
CONTINUOUS
 10
16.6066596148
 20
11.3022506677
 11
16.60879068
 21
11.3099812892
  0
LINE
  5
296
100
AcDbEntity
  8
0
100
AcDbLine
 62
7
  6
CONTINUOUS
 10
16.7276927765
 20
11.6939141225
 11
16.7298238417
 21
11.701644744
  0
LINE
  5
297
100
AcDbEntity
  8
0
100
AcDbLine
 62
7
  6
CONTINUOUS
 10
16.8487259382
 20
12.0855775773
 11
16.8508570034
 21
12.0933081988
  0
LINE
  5
298
100
AcDbEntity
  8
0
100
AcDbLine
 62
7
  6
CONTINUOUS
 10
16.9697590999
 20
12.4772410322
 11
16.9718901651
 21
12.4849716536
  0
LINE
  5
299
100
AcDbEntity
  8
0
100
AcDbLine
 62
7
  6
CONTINUOUS
 10
17.0907922616
 20
12.868904487
 11
17.0929233268
 21
12.8766351084
  0
LINE
  5
29A
100
AcDbEntity
  8
0
100
AcDbLine
 62
7
  6
CONTINUOUS
 10
17.2118254233
 20
13.2605679418
 11
17.2139564885
 21
13.2682985633
  0
LINE
  5
29B
100
AcDbEntity
  8
0
100
AcDbLine
 62
7
  6
CONTINUOUS
 10
17.332858585
 20
13.6522313966
 11
17.3349896502
 21
13.6599620181
  0
LINE
  5
29C
100
AcDbEntity
  8
0
100
AcDbLine
 62
7
  6
CONTINUOUS
 10
16.8676756839
 20
12.3312573088
 11
16.8701749979
 21
12.3399592066
  0
LINE
  5
29D
100
AcDbEntity
  8
0
100
AcDbLine
 62
7
  6
CONTINUOUS
 10
16.9887088456
 20
12.7229207637
 11
16.9912081596
 21
12.7316226614
  0
LINE
  5
29E
100
AcDbEntity
  8
0
100
AcDbLine
 62
7
  6
CONTINUOUS
 10
17.1097420073
 20
13.1145842185
 11
17.1122413213
 21
13.1232861162
  0
LINE
  5
29F
100
AcDbEntity
  8
0
100
AcDbLine
 62
7
  6
CONTINUOUS
 10
17.230775169
 20
13.5062476733
 11
17.233274483
 21
13.514949571
  0
LINE
  5
2A0
100
AcDbEntity
  8
0
100
AcDbLine
 62
7
  6
CONTINUOUS
 10
17.3518083307
 20
13.8979111281
 11
17.3543076447
 21
13.9066130258
  0
LINE
  5
2A1
100
AcDbEntity
  8
0
100
AcDbLine
 62
7
  6
CONTINUOUS
 10
16.3999108028
 20
10.8181797641
 11
16.4118212211
 21
10.8567218921
  0
LINE
  5
2A2
100
AcDbEntity
  8
0
100
AcDbLine
 62
7
  6
CONTINUOUS
 10
16.5070808955
 20
11.1649823113
 11
16.5328543828
 21
11.2483853469
  0
LINE
  5
2A3
100
AcDbEntity
  8
0
100
AcDbLine
 62
7
  6
CONTINUOUS
 10
16.6281140572
 20
11.5566457661
 11
16.6538875445
 21
11.6400488017
  0
LINE
  5
2A4
100
AcDbEntity
  8
0
100
AcDbLine
 62
7
  6
CONTINUOUS
 10
16.7491472189
 20
11.9483092209
 11
16.7749207062
 21
12.0317122565
  0
LINE
  5
2A5
100
AcDbEntity
  8
0
100
AcDbLine
 62
7
  6
CONTINUOUS
 10
16.8701803806
 20
12.3399726757
 11
16.8959538679
 21
12.4233757113
  0
LINE
  5
2A6
100
AcDbEntity
  8
0
100
AcDbLine
 62
7
  6
CONTINUOUS
 10
16.9912135423
 20
12.7316361306
 11
17.0169870296
 21
12.8150391661
  0
LINE
  5
2A7
100
AcDbEntity
  8
0
100
AcDbLine
 62
7
  6
CONTINUOUS
 10
17.112246704
 20
13.1232995854
 11
17.1380201913
 21
13.2067026209
  0
LINE
  5
2A8
100
AcDbEntity
  8
0
100
AcDbLine
 62
7
  6
CONTINUOUS
 10
17.2332798657
 20
13.5149630402
 11
17.259053353
 21
13.5983660758
  0
LINE
  5
2A9
100
AcDbEntity
  8
0
100
AcDbLine
 62
7
  6
CONTINUOUS
 10
17.3543130274
 20
13.906626495
 11
17.3671997706
 21
13.9483280111
  0
LINE
  5
2AA
100
AcDbEntity
  8
0
100
AcDbLine
 62
7
  6
CONTINUOUS
 10
16.4598634337
 20
10.8272163078
 11
16.4856369212
 21
10.9106193438
  0
LINE
  5
2AB
100
AcDbEntity
  8
0
100
AcDbLine
 62
7
  6
CONTINUOUS
 10
16.5808965954
 20
11.2188797626
 11
16.6066700829
 21
11.3022827986
  0
LINE
  5
2AC
100
AcDbEntity
  8
0
100
AcDbLine
 62
7
  6
CONTINUOUS
 10
16.7019297571
 20
11.6105432174
 11
16.7277032446
 21
11.6939462534
  0
LINE
  5
2AD
100
AcDbEntity
  8
0
100
AcDbLine
 62
7
  6
CONTINUOUS
 10
16.8229629188
 20
12.0022066722
 11
16.8487364063
 21
12.0856097083
  0
LINE
  5
2AE
100
AcDbEntity
  8
0
100
AcDbLine
 62
7
  6
CONTINUOUS
 10
16.9439960805
 20
12.393870127
 11
16.969769568
 21
12.4772731631
  0
LINE
  5
2AF
100
AcDbEntity
  8
0
100
AcDbLine
 62
7
  6
CONTINUOUS
 10
17.0650292422
 20
12.7855335819
 11
17.0908027297
 21
12.8689366179
  0
LINE
  5
2B0
100
AcDbEntity
  8
0
100
AcDbLine
 62
7
  6
CONTINUOUS
 10
17.1860624039
 20
13.1771970367
 11
17.2118358914
 21
13.2606000727
  0
LINE
  5
2B1
100
AcDbEntity
  8
0
100
AcDbLine
 62
7
  6
CONTINUOUS
 10
17.3070955656
 20
13.5688604915
 11
17.3328690531
 21
13.6522635275
  0
LINE
  5
2B2
100
AcDbEntity
  8
0
100
AcDbLine
 62
7
  6
CONTINUOUS
 10
16.77492037
 20
12.0317142767
 11
16.7758130604
 21
12.0345261947
  0
LINE
  5
2B3
100
AcDbEntity
  8
0
100
AcDbLine
 62
7
  6
CONTINUOUS
 10
16.6538872083
 20
11.6400508218
 11
16.6547798987
 21
11.6428627398
  0
LINE
  5
2B4
100
AcDbEntity
  8
0
100
AcDbLine
 62
7
  6
CONTINUOUS
 10
16.5328540466
 20
11.248387367
 11
16.533746737
 21
11.251199285
  0
LINE
  5
2B5
100
AcDbEntity
  8
0
100
AcDbLine
 62
7
  6
CONTINUOUS
 10
16.4118208849
 20
10.8567239122
 11
16.4127135753
 21
10.8595358302
  0
LINE
  5
2B6
100
AcDbEntity
  8
0
100
AcDbLine
 62
7
  6
CONTINUOUS
 10
17.3056137681
 20
13.5644159891
 11
17.3071004398
 21
13.5688776035
  0
LINE
  5
2B7
100
AcDbEntity
  8
0
100
AcDbLine
 62
7
  6
CONTINUOUS
 10
17.1845806064
 20
13.1727525343
 11
17.1860672781
 21
13.1772141487
  0
LINE
  5
2B8
100
AcDbEntity
  8
0
100
AcDbLine
 62
7
  6
CONTINUOUS
 10
17.0635474447
 20
12.7810890794
 11
17.0650341164
 21
12.7855506939
  0
LINE
  5
2B9
100
AcDbEntity
  8
0
100
AcDbLine
 62
7
  6
CONTINUOUS
 10
16.942514283
 20
12.3894256246
 11
16.9440009547
 21
12.3938872391
  0
LINE
  5
2BA
100
AcDbEntity
  8
0
100
AcDbLine
 62
7
  6
CONTINUOUS
 10
16.8214811213
 20
11.9977621698
 11
16.822967793
 21
12.0022237843
  0
LINE
  5
2BB
100
AcDbEntity
  8
0
100
AcDbLine
 62
7
  6
CONTINUOUS
 10
16.7004479596
 20
11.606098715
 11
16.7019346313
 21
11.6105603294
  0
LINE
  5
2BC
100
AcDbEntity
  8
0
100
AcDbLine
 62
7
  6
CONTINUOUS
 10
16.5794147979
 20
11.2144352602
 11
16.5809014696
 21
11.2188968746
  0
LINE
  5
2BD
100
AcDbEntity
  8
0
100
AcDbLine
 62
7
  6
CONTINUOUS
 10
16.4583816362
 20
10.8227718054
 11
16.4598683079
 21
10.8272334198
  0
LINE
  5
2BE
100
AcDbEntity
  8
0
100
AcDbLine
 62
7
  6
CONTINUOUS
 10
16.7758130604
 20
12.0345261947
 11
16.7787595306
 21
12.0427654956
  0
LINE
  5
2BF
100
AcDbEntity
  8
0
100
AcDbLine
 62
7
  6
CONTINUOUS
 10
16.6547798987
 20
11.6428627398
 11
16.6577263689
 21
11.6511020407
  0
LINE
  5
2C0
100
AcDbEntity
  8
0
100
AcDbLine
 62
7
  6
CONTINUOUS
 10
16.533746737
 20
11.251199285
 11
16.5366932072
 21
11.2594385859
  0
LINE
  5
2C1
100
AcDbEntity
  8
0
100
AcDbLine
 62
7
  6
CONTINUOUS
 10
16.4127135753
 20
10.8595358302
 11
16.4156600455
 21
10.8677751311
  0
LINE
  5
2C2
100
AcDbEntity
  8
0
100
AcDbLine
 62
7
  6
CONTINUOUS
 10
16.9393589786
 20
12.3819754122
 11
16.942514283
 21
12.3894256246
  0
LINE
  5
2C3
100
AcDbEntity
  8
0
100
AcDbLine
 62
7
  6
CONTINUOUS
 10
16.8183258168
 20
11.9903119574
 11
16.8214811213
 21
11.9977621698
  0
LINE
  5
2C4
100
AcDbEntity
  8
0
100
AcDbLine
 62
7
  6
CONTINUOUS
 10
16.6972926551
 20
11.5986485026
 11
16.7004479596
 21
11.606098715
  0
LINE
  5
2C5
100
AcDbEntity
  8
0
100
AcDbLine
 62
7
  6
CONTINUOUS
 10
16.5762594934
 20
11.2069850478
 11
16.5794147979
 21
11.2144352602
  0
LWPOLYLINE
  5
2C6
100
AcDbEntity
  8
0
100
AcDbPolyline
 62
7
  6
CONTINUOUS
 90
3
 70
0
 10
16.6577263689
 20
11.6511020407
 10
16.6602261821
 20
11.6567647233
 10
16.661212217
 20
11.6585893848
  0
LWPOLYLINE
  5
2C7
100
AcDbEntity
  8
0
100
AcDbPolyline
 62
7
  6
CONTINUOUS
 90
3
 70
0
 10
16.5366932072
 20
11.2594385859
 10
16.5391930204
 20
11.2651012685
 10
16.5401790553
 20
11.26692593
  0
LWPOLYLINE
  5
2C8
100
AcDbEntity
  8
0
100
AcDbPolyline
 62
7
  6
CONTINUOUS
 90
3
 70
0
 10
16.4156600455
 20
10.8677751311
 10
16.4181598587
 20
10.8734378136
 10
16.4191458936
 20
10.8752624752
  0
LINE
  5
2C9
100
AcDbEntity
  8
0
100
AcDbLine
 62
7
  6
CONTINUOUS
 10
17.0980360322
 20
12.9163359508
 11
17.097706143
 21
13.0285581743
  0
LWPOLYLINE
  5
2CA
100
AcDbEntity
  8
0
100
AcDbPolyline
 62
7
  6
CONTINUOUS
 90
6
 70
0
 10
17.0977056397
 20
13.028582806
 10
17.097865613
 20
13.0370887934
 10
17.0991704228
 20
13.0555204851
 10
17.101776153
 20
13.0759924514
 10
17.1054435409
 20
13.0963614144
 10
17.1097420073
 20
13.1145842185
  0
LINE
  5
2CB
100
AcDbEntity
  8
0
100
AcDbLine
 62
7
  6
CONTINUOUS
 10
17.0977070226
 20
12.9071243687
 11
17.0980356755
 21
12.916397269
  0
LINE
  5
2CC
100
AcDbEntity
  8
0
100
AcDbLine
 62
7
  6
CONTINUOUS
 10
17.2187401843
 20
13.2987878235
 11
17.2190688372
 21
13.3080607238
  0
LWPOLYLINE
  5
2CD
100
AcDbEntity
  8
0
100
AcDbPolyline
 62
7
  6
CONTINUOUS
 90
3
 70
0
 10
17.2139564885
 20
13.2682985633
 10
17.2169597121
 20
13.2833346198
 10
17.2187401843
 20
13.2987878235
  0
LWPOLYLINE
  5
2CE
100
AcDbEntity
  8
0
100
AcDbPolyline
 62
7
  6
CONTINUOUS
 90
3
 70
0
 10
17.3349896502
 20
13.6599620181
 10
17.3379928738
 20
13.6749980746
 10
17.339773346
 20
13.6904512783
  0
LINE
  5
2CF
100
AcDbEntity
  8
0
100
AcDbLine
 62
7
  6
CONTINUOUS
 10
16.4552263317
 20
10.815321593
 11
16.4583816362
 21
10.8227718054
  0
LINE
  5
2D0
100
AcDbEntity
  8
0
100
AcDbLine
 62
7
  6
CONTINUOUS
 10
17.2767203267
 20
14.2240374984
 11
14.5595903944
 21
14.2240374984
  0
LINE
  5
2D1
100
AcDbEntity
  8
0
100
AcDbLine
 62
7
  6
CONTINUOUS
 10
17.2190691939
 20
13.3079994056
 11
17.2187393047
 21
13.4202216291
  0
LINE
  5
2D2
100
AcDbEntity
  8
0
100
AcDbLine
 62
7
  6
CONTINUOUS
 10
17.3401023556
 20
13.6996628604
 11
17.3397724664
 21
13.8118850839
  0
LWPOLYLINE
  5
2D3
100
AcDbEntity
  8
0
100
AcDbPolyline
 62
7
  6
CONTINUOUS
 90
6
 70
0
 10
17.2187388014
 20
13.4202462608
 10
17.2188987747
 20
13.4287522483
 10
17.2202035845
 20
13.4471839399
 10
17.2228093147
 20
13.4676559062
 10
17.2264767026
 20
13.4880248692
 10
17.230775169
 20
13.5062476733
  0
LWPOLYLINE
  5
2D4
100
AcDbEntity
  8
0
100
AcDbPolyline
 62
7
  6
CONTINUOUS
 90
6
 70
0
 10
17.3397719631
 20
13.8119097156
 10
17.3399319364
 20
13.8204157031
 10
17.3412367462
 20
13.8388473947
 10
17.3438424764
 20
13.859319361
 10
17.3475098643
 20
13.879688324
 10
17.3518083307
 20
13.8979111281
  0
LINE
  5
2D5
100
AcDbEntity
  8
0
100
AcDbLine
 62
7
  6
CONTINUOUS
 10
17.339773346
 20
13.6904512783
 11
17.3401019989
 21
13.6997241786
  0
LINE
  5
2D6
100
AcDbEntity
  8
0
100
AcDbLine
 62
7
  6
CONTINUOUS
 10
17.3675299306
 20
13.951687083
 11
17.3671955849
 21
13.9483292976
  0
LINE
  5
2D7
100
AcDbEntity
  8
0
100
AcDbLine
 62
7
  6
CONTINUOUS
 10
17.3675299306
 20
13.951687083
 11
17.3527259441
 21
14.109681992
  0
LINE
  5
2D8
100
AcDbEntity
  8
0
100
AcDbLine
 62
7
  6
CONTINUOUS
 10
17.3479693189
 20
14.1257704418
 11
17.3073728983
 21
14.2084972492
  0
ARC
  5
2D9
100
AcDbEntity
  8
0
100
AcDbCircle
 62
7
  6
CONTINUOUS
 10
4.7260276162
 20
5.4309532301
 40
0.025
100
AcDbArc
 50
195.0
 51
270.0
  0
ARC
  5
2DA
100
AcDbEntity
  8
0
100
AcDbCircle
 62
7
  6
CONTINUOUS
 10
4.7872089978
 20
5.2026212054
 40
0.025
100
AcDbArc
 50
195.003104912
 51
270.0008033585
  0
ARC
  5
2DB
100
AcDbEntity
  8
0
100
AcDbCircle
 62
7
  6
CONTINUOUS
 10
4.7303672762
 20
5.7045351465
 40
0.1
100
AcDbArc
 50
180.0
 51
195.0
  0
ARC
  5
2DC
100
AcDbEntity
  8
0
100
AcDbCircle
 62
7
  6
CONTINUOUS
 10
4.6553672762
 20
5.8376198968
 40
0.025
100
AcDbArc
 50
90.0
 51
180.0
  0
ARC
  5
2DD
100
AcDbEntity
  8
0
100
AcDbCircle
 62
7
  6
CONTINUOUS
 10
7.4735252039
 20
5.2026198968
 40
0.025
100
AcDbArc
 50
270.0
 51
345.0
  0
ARC
  5
2DE
100
AcDbEntity
  8
0
100
AcDbCircle
 62
7
  6
CONTINUOUS
 10
7.5347069361
 20
5.4309532301
 40
0.025
100
AcDbArc
 50
270.0
 51
345.0
  0
ARC
  5
2DF
100
AcDbEntity
  8
0
100
AcDbCircle
 62
7
  6
CONTINUOUS
 10
7.5303672762
 20
5.7045351465
 40
0.1
100
AcDbArc
 50
345.0
 51
360.0
  0
ARC
  5
2E0
100
AcDbEntity
  8
0
100
AcDbCircle
 62
7
  6
CONTINUOUS
 10
7.6053672762
 20
5.8376198968
 40
0.025
100
AcDbArc
 50
0.0
 51
90.0
  0
ARC
  5
2E1
100
AcDbEntity
  8
0
100
AcDbCircle
 62
7
  6
CONTINUOUS
 10
13.7571188423
 20
5.1752080378
 40
0.0570833333
100
AcDbArc
 50
193.0
 51
270.0
  0
ARC
  5
2E2
100
AcDbEntity
  8
0
100
AcDbCircle
 62
7
  6
CONTINUOUS
 10
13.8635916715
 20
5.1752080378
 40
0.0570833333
100
AcDbArc
 50
270.0
 51
347.0
  0
ARC
  5
2E3
100
AcDbEntity
  8
0
100
AcDbCircle
 62
7
  6
CONTINUOUS
 10
14.2571188423
 20
5.1752080378
 40
0.0570833333
100
AcDbArc
 50
193.0
 51
270.0
  0
ARC
  5
2E4
100
AcDbEntity
  8
0
100
AcDbCircle
 62
7
  6
CONTINUOUS
 10
14.3635916715
 20
5.1752080378
 40
0.0570833333
100
AcDbArc
 50
270.0
 51
347.0
  0
ARC
  5
2E5
100
AcDbEntity
  8
0
100
AcDbCircle
 62
7
  6
CONTINUOUS
 10
14.7571188423
 20
5.1752080378
 40
0.0570833333
100
AcDbArc
 50
193.0
 51
270.0
  0
ARC
  5
2E6
100
AcDbEntity
  8
0
100
AcDbCircle
 62
7
  6
CONTINUOUS
 10
14.8635916715
 20
5.1752080378
 40
0.0570833333
100
AcDbArc
 50
270.0
 51
347.0
  0
ARC
  5
2E7
100
AcDbEntity
  8
0
100
AcDbCircle
 62
7
  6
CONTINUOUS
 10
15.2571188423
 20
5.1752080378
 40
0.0570833333
100
AcDbArc
 50
193.0
 51
270.0
  0
ARC
  5
2E8
100
AcDbEntity
  8
0
100
AcDbCircle
 62
7
  6
CONTINUOUS
 10
15.3635916715
 20
5.1752080378
 40
0.0570833333
100
AcDbArc
 50
270.0
 51
347.0
  0
ARC
  5
2E9
100
AcDbEntity
  8
0
100
AcDbCircle
 62
7
  6
CONTINUOUS
 10
13.6135916715
 20
5.2893747044
 40
0.0570833333
100
AcDbArc
 50
13.0
 51
90.0
  0
ARC
  5
2EA
100
AcDbEntity
  8
0
100
AcDbCircle
 62
7
  6
CONTINUOUS
 10
14.0071188423
 20
5.2893747044
 40
0.0570833333
100
AcDbArc
 50
90.0
 51
167.0
  0
ARC
  5
2EB
100
AcDbEntity
  8
0
100
AcDbCircle
 62
7
  6
CONTINUOUS
 10
14.1135916715
 20
5.2893747044
 40
0.0570833333
100
AcDbArc
 50
13.0
 51
90.0
  0
ARC
  5
2EC
100
AcDbEntity
  8
0
100
AcDbCircle
 62
7
  6
CONTINUOUS
 10
14.5071188423
 20
5.2893747044
 40
0.0570833333
100
AcDbArc
 50
90.0
 51
167.0
  0
ARC
  5
2ED
100
AcDbEntity
  8
0
100
AcDbCircle
 62
7
  6
CONTINUOUS
 10
14.6135916715
 20
5.2893747044
 40
0.0570833333
100
AcDbArc
 50
13.0
 51
90.0
  0
ARC
  5
2EE
100
AcDbEntity
  8
0
100
AcDbCircle
 62
7
  6
CONTINUOUS
 10
15.0071188423
 20
5.2893747044
 40
0.0570833333
100
AcDbArc
 50
90.0
 51
167.0
  0
ARC
  5
2EF
100
AcDbEntity
  8
0
100
AcDbCircle
 62
7
  6
CONTINUOUS
 10
15.1135916715
 20
5.2893747044
 40
0.0570833333
100
AcDbArc
 50
13.0
 51
90.0
  0
ARC
  5
2F0
100
AcDbEntity
  8
0
100
AcDbCircle
 62
7
  6
CONTINUOUS
 10
15.5071188423
 20
5.2893747044
 40
0.0570833333
100
AcDbArc
 50
90.0
 51
167.0
  0
ARC
  5
2F1
100
AcDbEntity
  8
0
100
AcDbCircle
 62
7
  6
CONTINUOUS
 10
17.3635916715
 20
5.1752080378
 40
0.0570833333
100
AcDbArc
 50
270.0
 51
347.0
  0
ARC
  5
2F2
100
AcDbEntity
  8
0
100
AcDbCircle
 62
7
  6
CONTINUOUS
 10
17.2571188423
 20
5.1752080378
 40
0.0570833333
100
AcDbArc
 50
193.0
 51
270.0
  0
ARC
  5
2F3
100
AcDbEntity
  8
0
100
AcDbCircle
 62
7
  6
CONTINUOUS
 10
16.8635916715
 20
5.1752080378
 40
0.0570833333
100
AcDbArc
 50
270.0
 51
347.0
  0
ARC
  5
2F4
100
AcDbEntity
  8
0
100
AcDbCircle
 62
7
  6
CONTINUOUS
 10
16.7571188423
 20
5.1752080378
 40
0.0570833333
100
AcDbArc
 50
193.0
 51
270.0
  0
ARC
  5
2F5
100
AcDbEntity
  8
0
100
AcDbCircle
 62
7
  6
CONTINUOUS
 10
16.3635916715
 20
5.1752080378
 40
0.0570833333
100
AcDbArc
 50
270.0
 51
347.0
  0
ARC
  5
2F6
100
AcDbEntity
  8
0
100
AcDbCircle
 62
7
  6
CONTINUOUS
 10
16.2571188423
 20
5.1752080378
 40
0.0570833333
100
AcDbArc
 50
193.0
 51
270.0
  0
ARC
  5
2F7
100
AcDbEntity
  8
0
100
AcDbCircle
 62
7
  6
CONTINUOUS
 10
15.8635916715
 20
5.1752080378
 40
0.0570833333
100
AcDbArc
 50
270.0
 51
347.0
  0
ARC
  5
2F8
100
AcDbEntity
  8
0
100
AcDbCircle
 62
7
  6
CONTINUOUS
 10
15.7571188423
 20
5.1752080378
 40
0.0570833333
100
AcDbArc
 50
193.0
 51
270.0
  0
ARC
  5
2F9
100
AcDbEntity
  8
0
100
AcDbCircle
 62
7
  6
CONTINUOUS
 10
17.5071188423
 20
5.2893747044
 40
0.0570833333
100
AcDbArc
 50
90.0
 51
167.0
  0
ARC
  5
2FA
100
AcDbEntity
  8
0
100
AcDbCircle
 62
7
  6
CONTINUOUS
 10
17.1135916715
 20
5.2893747044
 40
0.0570833333
100
AcDbArc
 50
13.0
 51
90.0
  0
ARC
  5
2FB
100
AcDbEntity
  8
0
100
AcDbCircle
 62
7
  6
CONTINUOUS
 10
17.0071188423
 20
5.2893747044
 40
0.0570833333
100
AcDbArc
 50
90.0
 51
167.0
  0
ARC
  5
2FC
100
AcDbEntity
  8
0
100
AcDbCircle
 62
7
  6
CONTINUOUS
 10
16.6135916715
 20
5.2893747044
 40
0.0570833333
100
AcDbArc
 50
13.0
 51
90.0
  0
ARC
  5
2FD
100
AcDbEntity
  8
0
100
AcDbCircle
 62
7
  6
CONTINUOUS
 10
16.5071188423
 20
5.2893747044
 40
0.0570833333
100
AcDbArc
 50
90.0
 51
167.0
  0
ARC
  5
2FE
100
AcDbEntity
  8
0
100
AcDbCircle
 62
7
  6
CONTINUOUS
 10
16.1135916715
 20
5.2893747044
 40
0.0570833333
100
AcDbArc
 50
13.0
 51
90.0
  0
ARC
  5
2FF
100
AcDbEntity
  8
0
100
AcDbCircle
 62
7
  6
CONTINUOUS
 10
16.0071188423
 20
5.2893747044
 40
0.0570833333
100
AcDbArc
 50
90.0
 51
167.0
  0
ARC
  5
300
100
AcDbEntity
  8
0
100
AcDbCircle
 62
7
  6
CONTINUOUS
 10
15.6135916715
 20
5.2893747044
 40
0.0570833333
100
AcDbArc
 50
13.0
 51
90.0
  0
SPLINE
  5
301
100
AcDbEntity
  8
0
100
AcDbSpline
 62
7
  6
CONTINUOUS
 70
0
 71
3
 72
15
 73
11
 74
0
 42
0.0000001
 43
0.0000001
 44
0.0000000001
 40
0.0
 40
0.0
 40
0.0
 40
0.0
 40
0.1295700441
 40
0.2645780614
 40
0.4012662963
 40
0.5362714288
 40
0.6662150065
 40
0.7880984515
 40
0.8998126436
 40
1.0
 40
1.0
 40
1.0
 40
1.0
 10
17.2767203267
 20
14.2240374984
 30
0.0
 10
17.2782686034
 20
14.2240374984
 30
0.0
 10
17.2814325812
 20
14.2238222415
 30
0.0
 10
17.2861551051
 20
14.2229383825
 30
0.0
 10
17.2908113889
 20
14.2215109207
 30
0.0
 10
17.2952232111
 20
14.2195955951
 30
0.0
 10
17.2992293791
 20
14.2172669495
 30
0.0
 10
17.3026814699
 20
14.2146056492
 30
0.0
 10
17.3054472892
 20
14.2117095637
 30
0.0
 10
17.3068454925
 20
14.2095719892
 30
0.0
 10
17.3073728983
 20
14.2084972492
 30
0.0
  0
SPLINE
  5
302
100
AcDbEntity
  8
0
100
AcDbSpline
 62
7
  6
CONTINUOUS
 70
0
 71
3
 72
14
 73
10
 74
0
 42
0.0000001
 43
0.0000001
 44
0.0000000001
 40
0.0
 40
0.0
 40
0.0
 40
0.0
 40
0.0997018524
 40
0.2029869642
 40
0.3127719464
 40
0.4311005032
 40
0.6966534062
 40
0.8443078054
 40
1.0
 40
1.0
 40
1.0
 40
1.0
 10
14.5433308856
 20
14.2158784465
 30
0.0
 10
14.5435210008
 20
14.2164936794
 30
0.0
 10
14.5440596564
 20
14.2177046195
 30
0.0
 10
14.545290631
 20
14.219325501
 30
0.0
 10
14.5469140667
 20
14.2207408652
 30
0.0
 10
14.549663947
 20
14.2223810429
 30
0.0
 10
14.5529850377
 20
14.2234247059
 30
0.0
 10
14.5566233005
 20
14.2239497335
 30
0.0
 10
14.5585848361
 20
14.2240374984
 30
0.0
 10
14.5595903944
 20
14.2240374984
 30
0.0
  0
SPLINE
  5
303
100
AcDbEntity
  8
0
100
AcDbSpline
 62
7
  6
CONTINUOUS
 70
0
 71
3
 72
11
 73
7
 74
0
 42
0.0000001
 43
0.0000001
 44
0.0000000001
 40
0.0
 40
0.0
 40
0.0
 40
0.0
 40
0.2336905674
 40
0.4747251921
 40
0.7289540647
 40
1.0
 40
1.0
 40
1.0
 40
1.0
 10
13.575065592
 20
11.082570808
 30
0.0
 10
13.5748907381
 20
11.0820049624
 30
0.0
 10
13.5746604317
 20
11.0808128194
 30
0.0
 10
13.5747027582
 20
11.0789535444
 30
0.0
 10
13.57512055
 20
11.0770463589
 30
0.0
 10
13.5756220067
 20
11.075806277
 30
0.0
 10
13.5759246226
 20
11.0751896107
 30
0.0
  0
SPLINE
  5
304
100
AcDbEntity
  8
0
100
AcDbSpline
 62
7
  6
CONTINUOUS
 70
0
 71
3
 72
9
 73
5
 74
0
 42
0.0000001
 43
0.0000001
 44
0.0000000001
 40
0.0
 40
0.0
 40
0.0
 40
0.0
 40
0.5176005423
 40
1.0
 40
1.0
 40
1.0
 40
1.0
 10
17.3479693189
 20
14.1257704418
 30
0.0
 10
17.3492497617
 20
14.1231611737
 30
0.0
 10
17.3513515076
 20
14.1179232389
 30
0.0
 10
17.3524732345
 20
14.1123790241
 30
0.0
 10
17.3527259441
 20
14.109681992
 30
0.0
  0
SPLINE
  5
305
100
AcDbEntity
  8
0
100
AcDbSpline
 62
7
  6
CONTINUOUS
 70
0
 71
3
 72
14
 73
10
 74
0
 42
0.0000001
 43
0.0000001
 44
0.0000000001
 40
0.0
 40
0.0
 40
0.0
 40
0.0
 40
0.1556309946
 40
0.3032690355
 40
0.5688273753
 40
0.687132616
 40
0.79686654
 40
0.9001611133
 40
1.0
 40
1.0
 40
1.0
 40
1.0
 10
16.3826750025
 20
10.8068613077
 30
0.0
 10
16.3836801638
 20
10.8068613077
 30
0.0
 10
16.3856411784
 20
10.8069491353
 30
0.0
 10
16.3892790482
 20
10.8074738383
 30
0.0
 10
16.3925996538
 20
10.8085179038
 30
0.0
 10
16.3953498423
 20
10.8101565488
 30
0.0
 10
16.3969736728
 20
10.8115708607
 30
0.0
 10
16.3982051059
 20
10.8131922776
 30
0.0
 10
16.3987433905
 20
10.8144045088
 30
0.0
 10
16.39893326
 20
10.8150207426
 30
0.0
  0
SPLINE
  5
306
100
AcDbEntity
  8
0
100
AcDbSpline
 62
7
  6
CONTINUOUS
 70
0
 71
3
 72
15
 73
11
 74
0
 42
0.0000001
 43
0.0000001
 44
0.0000000001
 40
0.0
 40
0.0
 40
0.0
 40
0.0
 40
0.1102085531
 40
0.2287258555
 40
0.3536346062
 40
0.4829520862
 40
0.6145630648
 40
0.7462212599
 40
0.8755853793
 40
1.0
 40
1.0
 40
1.0
 40
1.0
 10
13.7678158407
 20
10.8183794444
 30
0.0
 10
13.7685711843
 20
10.8175286007
 30
0.0
 10
13.7702738488
 20
10.8158804702
 30
0.0
 10
13.7731912312
 20
10.8136734962
 30
0.0
 10
13.7765022916
 20
10.8116987159
 30
0.0
 10
13.7801140086
 20
10.8100044556
 30
0.0
 10
13.7839353761
 20
10.8086366528
 30
0.0
 10
13.7878674507
 20
10.8076276202
 30
0.0
 10
13.7918042552
 20
10.8070103407
 30
0.0
 10
13.7944256264
 20
10.8068613077
 30
0.0
 10
13.7957100363
 20
10.8068613077
 30
0.0
  0
SPLINE
  5
307
100
AcDbEntity
  8
0
100
AcDbSpline
 62
7
  6
CONTINUOUS
 70
0
 71
3
 72
9
 73
5
 74
0
 42
0.0000001
 43
0.0000001
 44
0.0000000001
 40
0.0
 40
0.0
 40
0.0
 40
0.0
 40
0.4813567947
 40
1.0
 40
1.0
 40
1.0
 40
1.0
 10
13.6165210432
 20
10.9924628033
 30
0.0
 10
13.6179031274
 20
10.989646412
 30
0.0
 10
13.6212501527
 20
10.9840230652
 30
0.0
 10
13.625310432
 20
10.9789021979
 30
0.0
 10
13.6275545469
 20
10.9763743534
 30
0.0
  0
SPLINE
  5
308
100
AcDbEntity
  8
0
100
AcDbSpline
 62
7
  6
CONTINUOUS
 70
0
 71
3
 72
15
 73
11
 74
0
 42
0.0000001
 43
0.0000001
 44
0.0000000001
 40
0.0
 40
0.0
 40
0.0
 40
0.0
 40
0.1001873564
 40
0.2119015485
 40
0.3337849935
 40
0.4637285712
 40
0.5987337037
 40
0.7354219386
 40
0.8704299559
 40
1.0
 40
1.0
 40
1.0
 40
1.0
 10
16.3391076046
 20
11.0751896107
 30
0.0
 10
16.3385801988
 20
11.0762643507
 30
0.0
 10
16.3371819956
 20
11.0784019252
 30
0.0
 10
16.3344161763
 20
11.0812980107
 30
0.0
 10
16.3309640855
 20
11.083959311
 30
0.0
 10
16.3269579175
 20
11.0862879566
 30
0.0
 10
16.3225460953
 20
11.0882032822
 30
0.0
 10
16.3178898114
 20
11.089630744
 30
0.0
 10
16.3131672876
 20
11.090514603
 30
0.0
 10
16.3100033098
 20
11.0907298599
 30
0.0
 10
16.3084550331
 20
11.0907298599
 30
0.0
  0
SPLINE
  5
309
100
AcDbEntity
  8
0
100
AcDbSpline
 62
7
  6
CONTINUOUS
 70
0
 71
3
 72
14
 73
10
 74
0
 42
0.0000001
 43
0.0000001
 44
0.0000000001
 40
0.0
 40
0.0
 40
0.0
 40
0.0
 40
0.1556921946
 40
0.3033465938
 40
0.5688994968
 40
0.6872280536
 40
0.7970130358
 40
0.9002981476
 40
1.0
 40
1.0
 40
1.0
 40
1.0
 10
13.5913251008
 20
11.0907298599
 30
0.0
 10
13.5903195425
 20
11.0907298599
 30
0.0
 10
13.5883580068
 20
11.090642095
 30
0.0
 10
13.5847197441
 20
11.0901170674
 30
0.0
 10
13.5813986534
 20
11.0890734044
 30
0.0
 10
13.5786487731
 20
11.0874332267
 30
0.0
 10
13.5770253373
 20
11.0860178625
 30
0.0
 10
13.5757943628
 20
11.084396981
 30
0.0
 10
13.5752557072
 20
11.0831860409
 30
0.0
 10
13.575065592
 20
11.082570808
 30
0.0
  0
SPLINE
  5
30A
100
AcDbEntity
  8
0
100
AcDbSpline
 62
7
  6
CONTINUOUS
 70
0
 71
3
 72
9
 73
5
 74
0
 42
0.0000001
 43
0.0000001
 44
0.0000000001
 40
0.0
 40
0.0
 40
0.0
 40
0.0
 40
0.4823994577
 40
1.0
 40
1.0
 40
1.0
 40
1.0
 10
16.3844606505
 20
10.9763743534
 30
0.0
 10
16.3842079409
 20
10.9790713856
 30
0.0
 10
16.383086214
 20
10.9846156004
 30
0.0
 10
16.3809844681
 20
10.9898535352
 30
0.0
 10
16.3797040253
 20
10.9924628033
 30
0.0
  0
ENDSEC
  0
SECTION
  2
OBJECTS
  0
DICTIONARY
  5
C
100
AcDbDictionary
280
0
281
1
  3
ACAD_GROUP
350
D
  3
ACAD_MLINESTYLE
350
17
  3
ACAD_LAYOUT
350
1A
  3
ACAD_PLOTSETTINGS
350
19
  3
ACAD_PLOTSTYLENAME
350
E
  0
DICTIONARY
  5
D
102
{ACAD_REACTORS
330
C
102
}
100
AcDbDictionary
280
0
281
1
  0
ACDBDICTIONARYWDFLT
  5
E
102
{ACAD_REACTORS
330
C
102
}
100
AcDbDictionary
281
1
  3
Normal
350
F
100
AcDbDictionaryWithDefault
340
F
  0
DICTIONARY
  5
17
102
{ACAD_REACTORS
330
C
102
}
100
AcDbDictionary
280
0
281
1
  3
Standard
350
18
  0
DICTIONARY
  5
19
102
{ACAD_REACTORS
330
C
102
}
100
AcDbDictionary
281
1
  0
DICTIONARY
  5
1A
102
{ACAD_REACTORS
330
C
102
}
100
AcDbDictionary
281
1
  3
Model
350
30B
  3
Layout1
350
30C
  0
ACDBPLACEHOLDER
  5
F
102
{ACAD_REACTORS
330
E
102
}
  0
MLINESTYLE
  5
18
102
{ACAD_REACTORS
330
17
102
}
100
AcDbMlineStyle
  2
STANDARD
 70
0
  3

 62
256
 51
90.0
 52
90.0
 71
2
 49
0.5
 62
256
  6
BYLAYER
 49
-0.5
 62
256
  6
BYLAYER
  0
LAYOUT
  5
30B
102
{ACAD_REACTORS
330
1A
102
}
100
AcDbPlotSettings
  1

  2
none_device
  4
ANSI_C_(22.00_x_17.00_Inches)
  6

 40
0.0
 41
0.0
 42
0.0
 43
0.0
 44
558.8
 45
431.8
 46
0.0
 47
0.0
 48
0.0
 49
0.0
140
0.0
141
0.0
142
1.0
143
1.0
 70
1024
 72
0
 73
0
 74
0
  7

 75
0
147
1.0
148
0.0
149
0.0
100
AcDbLayout
  1
Model
 70
0
 71
0
 10
0.0
 20
0.0
 11
22.0
 21
17.0
 12
0.0
 22
0.0
 32
0.0
 14
0.0
 24
0.0
 34
0.0
 15
0.0
 25
0.0
 35
0.0
146
0.0
 13
0.0
 23
0.0
 33
0.0
 16
1.0
 26
0.0
 36
0.0
 17
0.0
 27
1.0
 37
0.0
 76
0
330
216
345
0
346
0
  0
LAYOUT
  5
30C
102
{ACAD_REACTORS
330
1A
102
}
100
AcDbPlotSettings
  1

  2
none_device
  4
ANSI_C_(22.00_x_17.00_Inches)
  6

 40
0.0
 41
0.0
 42
0.0
 43
0.0
 44
558.8
 45
431.8
 46
0.0
 47
0.0
 48
0.0
 49
0.0
140
0.0
141
0.0
142
1.0
143
1.0
 70
0
 72
0
 73
0
 74
0
  7

 75
0
147
1.0
148
0.0
149
0.0
100
AcDbLayout
  1
Layout1
 70
0
 71
1
 10
0.0
 20
0.0
 11
22.0
 21
17.0
 12
0.0
 22
0.0
 32
0.0
 14
0.0
 24
0.0
 34
0.0
 15
0.0
 25
0.0
 35
0.0
146
0.0
 13
0.0
 23
0.0
 33
0.0
 16
1.0
 26
0.0
 36
0.0
 17
0.0
 27
1.0
 37
0.0
 76
0
330
217
345
0
346
0
  0
ENDSEC
  0
EOF