999
DXF file: _cgs_temp_output.dxf
999
Pro/ENGINEER 2016360 by Parametric Technology Corporation
  0
SECTION
  2
HEADER
  9
$ACADVER
  1
AC1021
  9
$DWGCODEPAGE
  3
ANSI_1252
  9
$EXTMAX
 10
22.0
 20
17.0
 30
0.0
  9
$EXTMIN
 10
0.0
 20
0.0
 30
0.0
  9
$LIMMIN
 10
0.0
 20
0.0
  9
$LIMMAX
 10
22.0
 20
17.0
  9
$VIEWCTR
 10
11.0
 20
8.5
  9
$VIEWSIZE
 40
17.0
  9
$CLAYER
  8
0
  9
$LTSCALE
 40
1.21
  9
$CELTYPE
  6
BYLAYER
  9
$DIMSCALE
 40
1.0
  9
$DIMASZ
 40
0.1875
  9
$DIMEXO
 40
0.0625
  9
$DIMDLI
 40
0.836
  9
$DIMEXE
 40
0.125
  9
$DIMCEN
 40
0.198
  9
$DIMLFAC
 40
1.0
  9
$DIMBLK
  1
_CLOSED
  9
$DIMALT
 70
0
  9
$DIMALTF
 40
25.4
  9
$DIMTXT
 40
0.15625
  9
$DIMTOL
 70
0
  9
$DIMLIM
 70
0
  9
$DIMTFAC
 40
1.0
  9
$DIMGAP
 40
0.09
  9
$DIMDSEP
 70
46
  9
$AUNITS
 70
0
  9
$PDMODE
 70
3
  9
$PDSIZE
 40
0.3125
  9
$HANDSEED
  5
2FE
  9
$TILEMODE
 70
1
  9
$MEASUREMENT
 70
0
  9
$INSUNITS
 70
1
  0
ENDSEC
  0
SECTION
  2
CLASSES
  0
CLASS
  1
ACDBDICTIONARYWDFLT
  2
AcDbDictionaryWithDefault
  3
AutoCAD 2000
 90
0
 91
1
280
0
281
0
  0
CLASS
  1
ACDBPLACEHOLDER
  2
AcDbPlaceHolder
  3
AutoCAD 2000
 90
0
 91
1
280
0
281
0
  0
CLASS
  1
LAYOUT
  2
AcDbLayout
  3
AutoCAD 2000
 90
0
 91
0
280
0
281
0
  0
ENDSEC
  0
SECTION
  2
TABLES
  0
TABLE
  2
VPORT
  5
8
100
AcDbSymbolTable
 70
2
  0
VPORT
  5
1F4
100
AcDbSymbolTableRecord
100
AcDbViewportTableRecord
  2
*ACTIVE
 70
0
 10
0.0
 20
0.0
 11
1.0
 21
1.0
 12
11.0
 22
8.5
 13
0.0
 23
0.0
 14
1.0
 24
1.0
 15
0.0
 25
0.0
 16
0.0
 26
0.0
 36
1.0
 17
0.0
 27
0.0
 37
0.0
 40
17.0
 41
1.2941176471
 42
50.0
 43
0.0
 44
0.0
 50
0.0
 51
0.0
 71
0
 72
100
 73
1
 74
1
 75
0
 76
0
 77
0
 78
0
  0
ENDTAB
  0
TABLE
  2
LTYPE
  5
5
100
AcDbSymbolTable
 70
6
  0
LTYPE
  5
14
100
AcDbSymbolTableRecord
100
AcDbLinetypeTableRecord
  2
BYBLOCK
 70
0
  3

 72
65
 73
0
 40
0.0
  0
LTYPE
  5
15
100
AcDbSymbolTableRecord
100
AcDbLinetypeTableRecord
  2
BYLAYER
 70
0
  3

 72
65
 73
0
 40
0.0
  0
LTYPE
  5
16
100
AcDbSymbolTableRecord
100
AcDbLinetypeTableRecord
  2
CONTINUOUS
 70
64
  3
Solid line
 72
65
 73
0
 40
0.0
  0
LTYPE
  5
1F5
100
AcDbSymbolTableRecord
100
AcDbLinetypeTableRecord
  2
CENTER
 70
64
  3
____ _ ____ _ ____ _ ____ _ ____ _ ____ _ ____
 72
65
 73
4
 40
0.6
 49
0.375
 74
0
 49
-0.075
 74
0
 49
0.075
 74
0
 49
-0.075
 74
0
  0
LTYPE
  5
1F6
100
AcDbSymbolTableRecord
100
AcDbLinetypeTableRecord
  2
HIDDEN
 70
64
  3
- - - - - - - - - - - - - - - - - - - -
 72
65
 73
2
 40
0.2
 49
0.1
 74
0
 49
-0.1
 74
0
  0
LTYPE
  5
1F7
100
AcDbSymbolTableRecord
100
AcDbLinetypeTableRecord
  2
PHANTOM
 70
64
  3
_____ _ _ _____ _ _ _____ _ _ _____
 72
65
 73
6
 40
0.8
 49
0.45
 74
0
 49
-0.05
 74
0
 49
0.1
 74
0
 49
-0.05
 74
0
 49
0.1
 74
0
 49
-0.05
 74
0
  0
LTYPE
  5
1F8
100
AcDbSymbolTableRecord
100
AcDbLinetypeTableRecord
  2
DOT
 70
64
  3
. . . . . . . . . . . . . . . . . . . .
 72
65
 73
2
 40
0.2
 49
0.1
 74
0
 49
-0.1
 74
0
  0
LTYPE
  5
1F9
100
AcDbSymbolTableRecord
100
AcDbLinetypeTableRecord
  2
DASHED
 70
64
  3
- - - - - - - - - - - - - - - - - - - -
 72
65
 73
2
 40
0.2
 49
0.1
 74
0
 49
-0.1
 74
0
  0
ENDTAB
  0
TABLE
  2
LAYER
  5
2
100
AcDbSymbolTable
 70
36
  0
LAYER
  5
10
100
AcDbSymbolTableRecord
100
AcDbLayerTableRecord
  2
0
 70
0
 62
7
  6
CONTINUOUS
370
-3
390
F
  0
LAYER
  5
1FA
100
AcDbSymbolTableRecord
100
AcDbLayerTableRecord
  2
DEFAULT_1
 70
0
 62
7
  6
CENTER
370
-3
390
F
  0
LAYER
  5
1FB
100
AcDbSymbolTableRecord
100
AcDbLayerTableRecord
  2
DEFAULT_2
 70
0
 62
8
  6
HIDDEN
370
-3
390
F
  0
LAYER
  5
1FC
100
AcDbSymbolTableRecord
100
AcDbLayerTableRecord
  2
DEFAULT_3
 70
0
 62
7
  6
PHANTOM
370
-3
390
F
  0
LAYER
  5
1FD
100
AcDbSymbolTableRecord
100
AcDbLayerTableRecord
  2
01_ALL_DTM_PLN
 70
0
 62
7
  6
CONTINUOUS
370
-3
390
F
  0
LAYER
  5
1FE
100
AcDbSymbolTableRecord
100
AcDbLayerTableRecord
  2
01__ASM_ALL_DTM_PLN
 70
0
 62
7
  6
CONTINUOUS
370
-3
390
F
  0
LAYER
  5
1FF
100
AcDbSymbolTableRecord
100
AcDbLayerTableRecord
  2
01__ASM_DEF_DTM_PLN
 70
0
 62
7
  6
CONTINUOUS
370
-3
390
F
  0
LAYER
  5
200
100
AcDbSymbolTableRecord
100
AcDbLayerTableRecord
  2
01___PRT_ALL_DTM_PLN
 70
0
 62
7
  6
CONTINUOUS
370
-3
390
F
  0
LAYER
  5
201
100
AcDbSymbolTableRecord
100
AcDbLayerTableRecord
  2
01___PRT_DEF_DTM_PLN
 70
0
 62
7
  6
CONTINUOUS
370
-3
390
F
  0
LAYER
  5
202
100
AcDbSymbolTableRecord
100
AcDbLayerTableRecord
  2
02_ALL_AXES
 70
0
 62
7
  6
CONTINUOUS
370
-3
390
F
  0
LAYER
  5
203
100
AcDbSymbolTableRecord
100
AcDbLayerTableRecord
  2
02__ASM_ALL_AXES
 70
0
 62
7
  6
CONTINUOUS
370
-3
390
F
  0
LAYER
  5
204
100
AcDbSymbolTableRecord
100
AcDbLayerTableRecord
  2
02___PRT_ALL_AXES
 70
0
 62
7
  6
CONTINUOUS
370
-3
390
F
  0
LAYER
  5
205
100
AcDbSymbolTableRecord
100
AcDbLayerTableRecord
  2
03_ALL_CURVES
 70
0
 62
7
  6
CONTINUOUS
370
-3
390
F
  0
LAYER
  5
206
100
AcDbSymbolTableRecord
100
AcDbLayerTableRecord
  2
03__ASM_ALL_CURVES
 70
0
 62
7
  6
CONTINUOUS
370
-3
390
F
  0
LAYER
  5
207
100
AcDbSymbolTableRecord
100
AcDbLayerTableRecord
  2
03___PRT_ALL_CURVES
 70
0
 62
7
  6
CONTINUOUS
370
-3
390
F
  0
LAYER
  5
208
100
AcDbSymbolTableRecord
100
AcDbLayerTableRecord
  2
04_ALL_DTM_PNT
 70
0
 62
7
  6
CONTINUOUS
370
-3
390
F
  0
LAYER
  5
209
100
AcDbSymbolTableRecord
100
AcDbLayerTableRecord
  2
04__ASM_ALL_DTM_PNT
 70
0
 62
7
  6
CONTINUOUS
370
-3
390
F
  0
LAYER
  5
20A
100
AcDbSymbolTableRecord
100
AcDbLayerTableRecord
  2
04___PRT_ALL_DTM_PNT
 70
0
 62
7
  6
CONTINUOUS
370
-3
390
F
  0
LAYER
  5
20B
100
AcDbSymbolTableRecord
100
AcDbLayerTableRecord
  2
05_ALL_DTM_CSYS
 70
0
 62
7
  6
CONTINUOUS
370
-3
390
F
  0
LAYER
  5
20C
100
AcDbSymbolTableRecord
100
AcDbLayerTableRecord
  2
05__ASM_ALL_DTM_CSYS
 70
0
 62
7
  6
CONTINUOUS
370
-3
390
F
  0
LAYER
  5
20D
100
AcDbSymbolTableRecord
100
AcDbLayerTableRecord
  2
05__ASM_DEF_DTM_CSYS
 70
0
 62
7
  6
CONTINUOUS
370
-3
390
F
  0
LAYER
  5
20E
100
AcDbSymbolTableRecord
100
AcDbLayerTableRecord
  2
05___PRT_ALL_DTM_CSYS
 70
0
 62
7
  6
CONTINUOUS
370
-3
390
F
  0
LAYER
  5
20F
100
AcDbSymbolTableRecord
100
AcDbLayerTableRecord
  2
05___PRT_DEF_DTM_CSYS
 70
0
 62
7
  6
CONTINUOUS
370
-3
390
F
  0
LAYER
  5
210
100
AcDbSymbolTableRecord
100
AcDbLayerTableRecord
  2
06_ALL_SURFS
 70
0
 62
7
  6
CONTINUOUS
370
-3
390
F
  0
LAYER
  5
211
100
AcDbSymbolTableRecord
100
AcDbLayerTableRecord
  2
06__ASM_ALL_SURFS
 70
0
 62
7
  6
CONTINUOUS
370
-3
390
F
  0
LAYER
  5
212
100
AcDbSymbolTableRecord
100
AcDbLayerTableRecord
  2
06___PRT_ALL_SURFS
 70
0
 62
7
  6
CONTINUOUS
370
-3
390
F
  0
LAYER
  5
213
100
AcDbSymbolTableRecord
100
AcDbLayerTableRecord
  2
07__ASM_ALL_SKELETONS
 70
0
 62
7
  6
CONTINUOUS
370
-3
390
F
  0
ENDTAB
  0
TABLE
  2
STYLE
  5
3
100
AcDbSymbolTable
 70
1
  0
STYLE
  5
11
100
AcDbSymbolTableRecord
100
AcDbTextStyleTableRecord
  2
STANDARD
 70
0
 40
0.0
 41
0.8
 50
0.0
 71
0
 42
0.2
  3
txt
  4

  0
STYLE
  5
214
100
AcDbSymbolTableRecord
100
AcDbTextStyleTableRecord
  2
TEXTSTYLE_1
 70
0
 40
0.0
 41
0.8
 50
0.0
 71
0
 42
0.2
  3
gdt
  4

  0
ENDTAB
  0
TABLE
  2
VIEW
  5
6
100
AcDbSymbolTable
 70
0
  0
ENDTAB
  0
TABLE
  2
UCS
  5
7
100
AcDbSymbolTable
 70
0
  0
ENDTAB
  0
TABLE
  2
APPID
  5
9
100
AcDbSymbolTable
 70
1
  0
APPID
  5
215
100
AcDbSymbolTableRecord
100
AcDbRegAppTableRecord
  2
ACAD
 70
0
  0
ENDTAB
  0
TABLE
  2
BLOCK_RECORD
  5
1
100
AcDbSymbolTable
 70
0
  0
BLOCK_RECORD
  5
216
100
AcDbSymbolTableRecord
100
AcDbBlockTableRecord
  2
*Model_Space
  0
BLOCK_RECORD
  5
217
100
AcDbSymbolTableRecord
100
AcDbBlockTableRecord
  2
*Paper_Space
  0
ENDTAB
  0
TABLE
  2
DIMSTYLE
  5
A
100
AcDbSymbolTable
 70
1
100
AcDbDimStyleTable
 71
0
  0
DIMSTYLE
105
218
100
AcDbSymbolTableRecord
100
AcDbDimStyleTableRecord
  2
STANDARD
 70
0
  3

  4

 40
1.0
 41
0.1875
 42
0.0625
 43
0.38
 44
0.125
 45
0.0
 46
0.0
 47
0.0001
 48
0.0001
140
0.15625
141
0.09
142
0.0
143
25.4
144
1.0
145
0.0
146
1.0
147
0.09
 71
0.0
 72
0.0
 73
1
 74
1
 75
0
 76
0
 77
0
 78
4
 79
1
170
0
171
3
172
0
173
0
174
0
175
0
176
0
177
0
178
0
270
2
179
4
271
4
272
4
273
2
274
2
275
0
280
0
281
0
282
0
283
1
284
4
285
0
286
0
287
3
288
0
340
11
278
46
  0
ENDTAB
  0
ENDSEC
  0
SECTION
  2
BLOCKS
  0
BLOCK
  5
20
100
AcDbEntity
  8
0
100
AcDbBlockBegin
  2
*Model_Space
 70
0
 10
0.0
 20
0.0
 30
0.0
  3
*Model_Space
  1

  0
ENDBLK
  5
21
100
AcDbEntity
  8
0
100
AcDbBlockEnd
  0
BLOCK
  5
1C
100
AcDbEntity
  8
0
100
AcDbBlockBegin
  2
*Paper_Space
 70
0
 10
0.0
 20
0.0
 30
0.0
  3
*Paper_Space
  1

  0
ENDBLK
  5
1D
100
AcDbEntity
  8
0
100
AcDbBlockEnd
  0
ENDSEC
  0
SECTION
  2
ENTITIES
  0
MTEXT
  5
219
100
AcDbEntity
  8
0
100
AcDbMText
 62
7
  6
CONTINUOUS
  7
STANDARD
 71
1
 72
1
 10
15.9560215477
 20
0.9479130325
 30
0.0
 11
1.0
 21
0.0
 31
0.0
 44
0.9
  1
SCALE: 1:1.000
 40
0.3
 41
3.36
  0
LINE
  5
21A
100
AcDbEntity
  8
0
100
AcDbLine
 62
7
  6
CONTINUOUS
 10
0.0
 20
0.0
 11
0.0
 21
17.0
  0
LINE
  5
21B
100
AcDbEntity
  8
0
100
AcDbLine
 62
7
  6
CONTINUOUS
 10
0.0
 20
0.0
 11
22.0
 21
0.0
  0
LINE
  5
21C
100
AcDbEntity
  8
0
100
AcDbLine
 62
7
  6
CONTINUOUS
 10
0.0
 20
17.0
 11
22.0
 21
17.0
  0
LINE
  5
21D
100
AcDbEntity
  8
0
100
AcDbLine
 62
7
  6
CONTINUOUS
 10
22.0
 20
0.0
 11
22.0
 21
17.0
  0
LINE
  5
21E
100
AcDbEntity
  8
0
100
AcDbLine
 62
7
  6
CONTINUOUS
 10
5.4203672762
 20
5.7701198977
 11
5.4203672762
 21
5.6698983538
  0
LINE
  5
21F
100
AcDbEntity
  8
0
100
AcDbLine
 62
7
  6
CONTINUOUS
 10
5.5184898248
 20
5.2640718503
 11
5.4233377035
 21
5.6457061642
  0
LINE
  5
220
100
AcDbEntity
  8
0
100
AcDbLine
 62
7
  6
CONTINUOUS
 10
5.542747218
 20
5.2451198977
 11
6.7179873343
 21
5.2451198977
  0
LINE
  5
221
100
AcDbEntity
  8
0
100
AcDbLine
 62
7
  6
CONTINUOUS
 10
5.4970370841
 20
5.428453231
 11
6.7636974682
 21
5.428453231
  0
LINE
  5
222
100
AcDbEntity
  8
0
100
AcDbLine
 62
7
  6
CONTINUOUS
 10
6.8153672762
 20
5.7951198977
 11
5.4453672762
 21
5.7951198977
  0
LINE
  5
223
100
AcDbEntity
  8
0
100
AcDbLine
 62
7
  6
CONTINUOUS
 10
6.7422447275
 20
5.2640718503
 11
6.8373968488
 21
5.6457061642
  0
LINE
  5
224
100
AcDbEntity
  8
0
100
AcDbLine
 62
7
  6
CONTINUOUS
 10
6.8403672762
 20
5.6698983538
 11
6.8403672762
 21
5.7701198977
  0
LINE
  5
225
100
AcDbEntity
  8
0
100
AcDbLine
 62
7
  6
CONTINUOUS
 10
6.7808720839
 20
10.6000477814
 11
5.3608720839
 21
10.6000477814
  0
LINE
  5
226
100
AcDbEntity
  8
0
100
AcDbLine
 62
7
  6
CONTINUOUS
 10
5.3608720839
 20
10.6000477814
 11
5.3608720839
 21
14.6000477814
  0
LINE
  5
227
100
AcDbEntity
  8
0
100
AcDbLine
 62
7
  6
CONTINUOUS
 10
6.7808720839
 20
10.6000477814
 11
6.7808720839
 21
14.6000477814
  0
LINE
  5
228
100
AcDbEntity
  8
0
100
AcDbLine
 62
7
  6
CONTINUOUS
 10
5.3608720839
 20
14.6000477814
 11
6.7808720839
 21
14.6000477814
  0
LINE
  5
229
100
AcDbEntity
  8
0
100
AcDbLine
 62
7
  6
CONTINUOUS
 10
13.5603552569
 20
5.3689580387
 11
13.5603552569
 21
5.7356247054
  0
LINE
  5
22A
100
AcDbEntity
  8
0
100
AcDbLine
 62
7
  6
CONTINUOUS
 10
13.6723934879
 20
5.3334349621
 11
13.698317026
 21
5.2211477821
  0
LINE
  5
22B
100
AcDbEntity
  8
0
100
AcDbLine
 62
7
  6
CONTINUOUS
 10
13.9223934879
 20
5.2211477821
 11
13.948317026
 21
5.3334349621
  0
LINE
  5
22C
100
AcDbEntity
  8
0
100
AcDbLine
 62
7
  6
CONTINUOUS
 10
14.1723934879
 20
5.3334349621
 11
14.198317026
 21
5.2211477821
  0
LINE
  5
22D
100
AcDbEntity
  8
0
100
AcDbLine
 62
7
  6
CONTINUOUS
 10
14.4223934879
 20
5.2211477821
 11
14.448317026
 21
5.3334349621
  0
LINE
  5
22E
100
AcDbEntity
  8
0
100
AcDbLine
 62
7
  6
CONTINUOUS
 10
14.6723934879
 20
5.3334349621
 11
14.698317026
 21
5.2211477821
  0
LINE
  5
22F
100
AcDbEntity
  8
0
100
AcDbLine
 62
7
  6
CONTINUOUS
 10
14.9223934879
 20
5.2211477821
 11
14.948317026
 21
5.3334349621
  0
LINE
  5
230
100
AcDbEntity
  8
0
100
AcDbLine
 62
7
  6
CONTINUOUS
 10
15.1723934879
 20
5.3334349621
 11
15.198317026
 21
5.2211477821
  0
LINE
  5
231
100
AcDbEntity
  8
0
100
AcDbLine
 62
7
  6
CONTINUOUS
 10
13.742975654
 20
5.1856247054
 11
13.8777348599
 21
5.1856247054
  0
LINE
  5
232
100
AcDbEntity
  8
0
100
AcDbLine
 62
7
  6
CONTINUOUS
 10
14.242975654
 20
5.1856247054
 11
14.3777348599
 21
5.1856247054
  0
LINE
  5
233
100
AcDbEntity
  8
0
100
AcDbLine
 62
7
  6
CONTINUOUS
 10
14.742975654
 20
5.1856247054
 11
14.8777348599
 21
5.1856247054
  0
LINE
  5
234
100
AcDbEntity
  8
0
100
AcDbLine
 62
7
  6
CONTINUOUS
 10
15.242975654
 20
5.1856247054
 11
15.3777348599
 21
5.1856247054
  0
LINE
  5
235
100
AcDbEntity
  8
0
100
AcDbLine
 62
7
  6
CONTINUOUS
 10
15.742975654
 20
5.1856247054
 11
15.8777348599
 21
5.1856247054
  0
LINE
  5
236
100
AcDbEntity
  8
0
100
AcDbLine
 62
7
  6
CONTINUOUS
 10
16.242975654
 20
5.1856247054
 11
16.3777348599
 21
5.1856247054
  0
LINE
  5
237
100
AcDbEntity
  8
0
100
AcDbLine
 62
7
  6
CONTINUOUS
 10
16.742975654
 20
5.1856247054
 11
16.8777348599
 21
5.1856247054
  0
LINE
  5
238
100
AcDbEntity
  8
0
100
AcDbLine
 62
7
  6
CONTINUOUS
 10
17.242975654
 20
5.1856247054
 11
17.3777348599
 21
5.1856247054
  0
LINE
  5
239
100
AcDbEntity
  8
0
100
AcDbLine
 62
7
  6
CONTINUOUS
 10
15.4223934879
 20
5.2211477821
 11
15.448317026
 21
5.3334349621
  0
LINE
  5
23A
100
AcDbEntity
  8
0
100
AcDbLine
 62
7
  6
CONTINUOUS
 10
13.5603552569
 20
5.3689580387
 11
13.6277348599
 21
5.3689580387
  0
LINE
  5
23B
100
AcDbEntity
  8
0
100
AcDbLine
 62
7
  6
CONTINUOUS
 10
13.992975654
 20
5.3689580387
 11
14.1277348599
 21
5.3689580387
  0
LINE
  5
23C
100
AcDbEntity
  8
0
100
AcDbLine
 62
7
  6
CONTINUOUS
 10
14.492975654
 20
5.3689580387
 11
14.6277348599
 21
5.3689580387
  0
LINE
  5
23D
100
AcDbEntity
  8
0
100
AcDbLine
 62
7
  6
CONTINUOUS
 10
14.992975654
 20
5.3689580387
 11
15.1277348599
 21
5.3689580387
  0
LINE
  5
23E
100
AcDbEntity
  8
0
100
AcDbLine
 62
7
  6
CONTINUOUS
 10
15.492975654
 20
5.3689580387
 11
15.6277348599
 21
5.3689580387
  0
LINE
  5
23F
100
AcDbEntity
  8
0
100
AcDbLine
 62
7
  6
CONTINUOUS
 10
15.992975654
 20
5.3689580387
 11
16.1277348599
 21
5.3689580387
  0
LINE
  5
240
100
AcDbEntity
  8
0
100
AcDbLine
 62
7
  6
CONTINUOUS
 10
16.492975654
 20
5.3689580387
 11
16.6277348599
 21
5.3689580387
  0
LINE
  5
241
100
AcDbEntity
  8
0
100
AcDbLine
 62
7
  6
CONTINUOUS
 10
16.992975654
 20
5.3689580387
 11
17.1277348599
 21
5.3689580387
  0
LINE
  5
242
100
AcDbEntity
  8
0
100
AcDbLine
 62
7
  6
CONTINUOUS
 10
17.492975654
 20
5.3689580387
 11
17.5603552569
 21
5.3689580387
  0
LINE
  5
243
100
AcDbEntity
  8
0
100
AcDbLine
 62
7
  6
CONTINUOUS
 10
15.6723934879
 20
5.3334349621
 11
15.698317026
 21
5.2211477821
  0
LINE
  5
244
100
AcDbEntity
  8
0
100
AcDbLine
 62
7
  6
CONTINUOUS
 10
13.5603552569
 20
5.7356247054
 11
17.5603552569
 21
5.7356247054
  0
LINE
  5
245
100
AcDbEntity
  8
0
100
AcDbLine
 62
7
  6
CONTINUOUS
 10
15.9223934879
 20
5.2211477821
 11
15.948317026
 21
5.3334349621
  0
LINE
  5
246
100
AcDbEntity
  8
0
100
AcDbLine
 62
7
  6
CONTINUOUS
 10
16.1723934879
 20
5.3334349621
 11
16.198317026
 21
5.2211477821
  0
LINE
  5
247
100
AcDbEntity
  8
0
100
AcDbLine
 62
7
  6
CONTINUOUS
 10
16.4223934879
 20
5.2211477821
 11
16.448317026
 21
5.3334349621
  0
LINE
  5
248
100
AcDbEntity
  8
0
100
AcDbLine
 62
7
  6
CONTINUOUS
 10
16.6723934879
 20
5.3334349621
 11
16.698317026
 21
5.2211477821
  0
LINE
  5
249
100
AcDbEntity
  8
0
100
AcDbLine
 62
7
  6
CONTINUOUS
 10
16.9223934879
 20
5.2211477821
 11
16.948317026
 21
5.3334349621
  0
LINE
  5
24A
100
AcDbEntity
  8
0
100
AcDbLine
 62
7
  6
CONTINUOUS
 10
17.1723934879
 20
5.3334349621
 11
17.198317026
 21
5.2211477821
  0
LINE
  5
24B
100
AcDbEntity
  8
0
100
AcDbLine
 62
7
  6
CONTINUOUS
 10
17.5603552569
 20
5.3689580387
 11
17.5603552569
 21
5.7356247054
  0
LINE
  5
24C
100
AcDbEntity
  8
0
100
AcDbLine
 62
7
  6
CONTINUOUS
 10
17.4223934879
 20
5.2211477821
 11
17.448317026
 21
5.3334349621
  0
LINE
  5
24D
100
AcDbEntity
  8
0
100
AcDbLine
 62
7
  6
CONTINUOUS
 10
14.349245398
 20
10.965235935
 11
14.4552745854
 21
10.8419700688
  0
LWPOLYLINE
  5
24E
100
AcDbEntity
  8
0
100
AcDbPolyline
 62
7
  6
CONTINUOUS
 90
5
 70
0
 10
15.6959224319
 20
10.8419361586
 10
15.7068154619
 20
10.8443230977
 10
15.7149526055
 20
10.850082441
 10
15.7202290416
 20
10.857322948
 10
15.7233786553
 20
10.8644875035
  0
LINE
  5
24F
100
AcDbEntity
  8
0
100
AcDbLine
 62
7
  6
CONTINUOUS
 10
14.483398263
 20
10.8301893461
 11
15.6500697354
 21
10.8301893461
  0
LINE
  5
250
100
AcDbEntity
  8
0
100
AcDbLine
 62
7
  6
CONTINUOUS
 10
15.6674378937
 20
10.8419361134
 11
15.6959275988
 21
10.8419361134
  0
LINE
  5
251
100
AcDbEntity
  8
0
100
AcDbLine
 62
7
  6
CONTINUOUS
 10
14.3085580557
 20
11.042572752
 11
14.3391298225
 21
10.9802740412
  0
LINE
  5
252
100
AcDbEntity
  8
0
100
AcDbLine
 62
7
  6
CONTINUOUS
 10
15.5858120957
 20
11.0581130012
 11
14.3239585339
 21
11.0581130012
  0
LWPOLYLINE
  5
253
100
AcDbEntity
  8
0
100
AcDbPolyline
 62
7
  6
CONTINUOUS
 90
5
 70
0
 10
15.8169555936
 20
11.2335996134
 10
15.8278486236
 20
11.2359865525
 10
15.8359857672
 20
11.2417458958
 10
15.8412622033
 20
11.2489864029
 10
15.844411817
 20
11.2561509583
  0
LINE
  5
254
100
AcDbEntity
  8
0
100
AcDbLine
 62
7
  6
CONTINUOUS
 10
15.7884710554
 20
11.2335995682
 11
15.8169607605
 21
11.2335995682
  0
LWPOLYLINE
  5
255
100
AcDbEntity
  8
0
100
AcDbPolyline
 62
7
  6
CONTINUOUS
 90
5
 70
0
 10
15.9379887553
 20
11.6252630683
 10
15.9488817853
 20
11.6276500073
 10
15.9570189289
 20
11.6334093506
 10
15.962295365
 20
11.6406498577
 10
15.9654449787
 20
11.6478144131
  0
LINE
  5
256
100
AcDbEntity
  8
0
100
AcDbLine
 62
7
  6
CONTINUOUS
 10
15.9095042171
 20
11.625263023
 11
15.9379939222
 21
11.625263023
  0
LINE
  5
257
100
AcDbEntity
  8
0
100
AcDbLine
 62
7
  6
CONTINUOUS
 10
14.3076990595
 20
11.0499539362
 11
15.2759643531
 21
14.1832615748
  0
LWPOLYLINE
  5
258
100
AcDbEntity
  8
0
100
AcDbPolyline
 62
7
  6
CONTINUOUS
 90
5
 70
0
 10
16.059021917
 20
12.0169265231
 10
16.069914947
 20
12.0193134621
 10
16.0780520906
 20
12.0250728054
 10
16.0833285267
 20
12.0323133125
 10
16.0864781404
 20
12.0394778679
  0
LINE
  5
259
100
AcDbEntity
  8
0
100
AcDbLine
 62
7
  6
CONTINUOUS
 10
16.0305373788
 20
12.0169264778
 11
16.0590270839
 21
12.0169264778
  0
LINE
  5
25A
100
AcDbEntity
  8
0
100
AcDbLine
 62
7
  6
CONTINUOUS
 10
15.647036434
 20
10.9802740412
 11
15.6164646672
 21
11.042572752
  0
LWPOLYLINE
  5
25B
100
AcDbEntity
  8
0
100
AcDbPolyline
 62
7
  6
CONTINUOUS
 90
5
 70
0
 10
16.1800550787
 20
12.4085899779
 10
16.1909481087
 20
12.4109769169
 10
16.1990852523
 20
12.4167362602
 10
16.2043616884
 20
12.4239767673
 10
16.2075113021
 20
12.4311413228
  0
LINE
  5
25C
100
AcDbEntity
  8
0
100
AcDbLine
 62
7
  6
CONTINUOUS
 10
16.1515705405
 20
12.4085899327
 11
16.1800602456
 21
12.4085899327
  0
LINE
  5
25D
100
AcDbEntity
  8
0
100
AcDbLine
 62
7
  6
CONTINUOUS
 10
15.6666311351
 20
10.8419700688
 11
15.6516801199
 21
10.965235935
  0
LWPOLYLINE
  5
25E
100
AcDbEntity
  8
0
100
AcDbPolyline
 62
7
  6
CONTINUOUS
 90
5
 70
0
 10
16.3010882404
 20
12.8002534327
 10
16.3119812704
 20
12.8026403718
 10
16.320118414
 20
12.8083997151
 10
16.3253948501
 20
12.8156402221
 10
16.3285444638
 20
12.8228047776
  0
LINE
  5
25F
100
AcDbEntity
  8
0
100
AcDbLine
 62
7
  6
CONTINUOUS
 10
15.7617821317
 20
11.0069254912
 11
15.7595913915
 21
11.0970309261
  0
LWPOLYLINE
  5
260
100
AcDbEntity
  8
0
100
AcDbPolyline
 62
7
  6
CONTINUOUS
 90
7
 70
0
 10
15.7595902823
 20
11.0970551406
 10
15.7595783221
 20
11.1039277562
 10
15.7604092034
 20
11.1194912292
 10
15.7624070957
 20
11.1369984378
 10
15.7654068064
 20
11.1545339462
 10
15.7690218728
 20
11.1701476553
 10
15.7710466402
 20
11.1772183687
  0
LINE
  5
261
100
AcDbEntity
  8
0
100
AcDbLine
 62
7
  6
CONTINUOUS
 10
16.2726037023
 20
12.8002533875
 11
16.3010934073
 21
12.8002533875
  0
LINE
  5
262
100
AcDbEntity
  8
0
100
AcDbLine
 62
7
  6
CONTINUOUS
 10
15.8828152934
 20
11.3985889461
 11
15.8806245532
 21
11.488694381
  0
LWPOLYLINE
  5
263
100
AcDbEntity
  8
0
100
AcDbPolyline
 62
7
  6
CONTINUOUS
 90
7
 70
0
 10
15.880623444
 20
11.4887185955
 10
15.8806114838
 20
11.495591211
 10
15.8814423651
 20
11.511154684
 10
15.8834402574
 20
11.5286618926
 10
15.8864399681
 20
11.546197401
 10
15.8900550345
 20
11.5618111101
 10
15.8920798019
 20
11.5688818235
  0
LINE
  5
264
100
AcDbEntity
  8
0
100
AcDbLine
 62
7
  6
CONTINUOUS
 10
15.76170132
 20
11.0008179164
 11
15.7617805729
 21
11.0069830018
  0
LINE
  5
265
100
AcDbEntity
  8
0
100
AcDbLine
 62
7
  6
CONTINUOUS
 10
15.8827344817
 20
11.3924813713
 11
15.8828137346
 21
11.3986464567
  0
LINE
  5
266
100
AcDbEntity
  8
0
100
AcDbLine
 62
7
  6
CONTINUOUS
 10
15.6663270357
 20
10.8383490802
 11
15.6666311351
 21
10.8419700688
  0
LINE
  5
267
100
AcDbEntity
  8
0
100
AcDbLine
 62
7
  6
CONTINUOUS
 10
16.5351296788
 20
13.6464924674
 11
16.5358374753
 21
13.6477613422
  0
LINE
  5
268
100
AcDbEntity
  8
0
100
AcDbLine
 62
7
  6
CONTINUOUS
 10
16.0038484551
 20
11.7902524009
 11
16.0016577149
 21
11.8803578358
  0
LWPOLYLINE
  5
269
100
AcDbEntity
  8
0
100
AcDbPolyline
 62
7
  6
CONTINUOUS
 90
7
 70
0
 10
16.0016566057
 20
11.8803820503
 10
16.0016446455
 20
11.8872546658
 10
16.0024755268
 20
11.9028181388
 10
16.0044734191
 20
11.9203253474
 10
16.0074731298
 20
11.9378608558
 10
16.0110881962
 20
11.9534745649
 10
16.0131129636
 20
11.9605452783
  0
LINE
  5
26A
100
AcDbEntity
  8
0
100
AcDbLine
 62
7
  6
CONTINUOUS
 10
16.0037676434
 20
11.7841448261
 11
16.0038468963
 21
11.7903099115
  0
LINE
  5
26B
100
AcDbEntity
  8
0
100
AcDbLine
 62
7
  6
CONTINUOUS
 10
16.4140965171
 20
13.2548290126
 11
16.4148043136
 21
13.2560978874
  0
LINE
  5
26C
100
AcDbEntity
  8
0
100
AcDbLine
 62
7
  6
CONTINUOUS
 10
16.2930633554
 20
12.8631655578
 11
16.2937711519
 21
12.8644344326
  0
LWPOLYLINE
  5
26D
100
AcDbEntity
  8
0
100
AcDbPolyline
 62
7
  6
CONTINUOUS
 90
5
 70
0
 10
16.4221214021
 20
13.1919168875
 10
16.4330144321
 20
13.1943038266
 10
16.4411515757
 20
13.2000631699
 10
16.4464280118
 20
13.2073036769
 10
16.4495776255
 20
13.2144682324
  0
LINE
  5
26E
100
AcDbEntity
  8
0
100
AcDbLine
 62
7
  6
CONTINUOUS
 10
16.1248816168
 20
12.1819158557
 11
16.1226908766
 21
12.2720212906
  0
LWPOLYLINE
  5
26F
100
AcDbEntity
  8
0
100
AcDbPolyline
 62
7
  6
CONTINUOUS
 90
7
 70
0
 10
16.1226897674
 20
12.2720455051
 10
16.1226778072
 20
12.2789181206
 10
16.1235086885
 20
12.2944815937
 10
16.1255065808
 20
12.3119888023
 10
16.1285062915
 20
12.3295243106
 10
16.1321213579
 20
12.3451380197
 10
16.1341461253
 20
12.3522087331
  0
LINE
  5
270
100
AcDbEntity
  8
0
100
AcDbLine
 62
7
  6
CONTINUOUS
 10
16.1248008051
 20
12.1758082809
 11
16.124880058
 21
12.1819733663
  0
LWPOLYLINE
  5
271
100
AcDbEntity
  8
0
100
AcDbPolyline
 62
7
  6
CONTINUOUS
 90
3
 70
0
 10
15.7584994279
 20
10.9785582866
 10
15.7606156057
 20
10.9896499331
 10
15.76170132
 20
11.0008179164
  0
LWPOLYLINE
  5
272
100
AcDbEntity
  8
0
100
AcDbPolyline
 62
7
  6
CONTINUOUS
 90
3
 70
0
 10
15.8795325896
 20
11.3702217414
 10
15.8816487674
 20
11.3813133879
 10
15.8827344817
 20
11.3924813713
  0
LWPOLYLINE
  5
273
100
AcDbEntity
  8
0
100
AcDbPolyline
 62
7
  6
CONTINUOUS
 90
3
 70
0
 10
16.0005657513
 20
11.7618851963
 10
16.0026819291
 20
11.7729768427
 10
16.0037676434
 20
11.7841448261
  0
LINE
  5
274
100
AcDbEntity
  8
0
100
AcDbLine
 62
7
  6
CONTINUOUS
 10
15.756966508
 20
10.9729596527
 11
15.7584994279
 21
10.9785582866
  0
LINE
  5
275
100
AcDbEntity
  8
0
100
AcDbLine
 62
7
  6
CONTINUOUS
 10
15.8779996697
 20
11.3646231075
 11
15.8795325896
 21
11.3702217414
  0
LINE
  5
276
100
AcDbEntity
  8
0
100
AcDbLine
 62
7
  6
CONTINUOUS
 10
15.6673771461
 20
10.841739534
 11
15.6826395436
 21
10.8911286703
  0
LINE
  5
277
100
AcDbEntity
  8
0
100
AcDbLine
 62
7
  6
CONTINUOUS
 10
15.7710520388
 20
11.1772316097
 11
15.8036727053
 21
11.2827921252
  0
LINE
  5
278
100
AcDbEntity
  8
0
100
AcDbLine
 62
7
  6
CONTINUOUS
 10
15.8920852005
 20
11.5688950645
 11
15.924705867
 21
11.67445558
  0
LINE
  5
279
100
AcDbEntity
  8
0
100
AcDbLine
 62
7
  6
CONTINUOUS
 10
16.0131183622
 20
11.9605585193
 11
16.0457390287
 21
12.0661190348
  0
LINE
  5
27A
100
AcDbEntity
  8
0
100
AcDbLine
 62
7
  6
CONTINUOUS
 10
16.1341515239
 20
12.3522219741
 11
16.1667721904
 21
12.4577824896
  0
LINE
  5
27B
100
AcDbEntity
  8
0
100
AcDbLine
 62
7
  6
CONTINUOUS
 10
16.2551846856
 20
12.743885429
 11
16.2878053521
 21
12.8494459444
  0
LINE
  5
27C
100
AcDbEntity
  8
0
100
AcDbLine
 62
7
  6
CONTINUOUS
 10
16.3762178473
 20
13.1355488838
 11
16.4088385138
 21
13.2411093992
  0
LINE
  5
27D
100
AcDbEntity
  8
0
100
AcDbLine
 62
7
  6
CONTINUOUS
 10
16.497251009
 20
13.5272123386
 11
16.5298716755
 21
13.632772854
  0
LINE
  5
27E
100
AcDbEntity
  8
0
100
AcDbLine
 62
7
  6
CONTINUOUS
 10
16.6182841707
 20
13.9188757934
 11
16.6345945035
 21
13.9716560496
  0
LINE
  5
27F
100
AcDbEntity
  8
0
100
AcDbLine
 62
7
  6
CONTINUOUS
 10
16.5298715693
 20
13.6327754267
 11
16.5306470671
 21
13.6352109317
  0
LINE
  5
280
100
AcDbEntity
  8
0
100
AcDbLine
 62
7
  6
CONTINUOUS
 10
16.4088384076
 20
13.2411119718
 11
16.4096139054
 21
13.2435474769
  0
LINE
  5
281
100
AcDbEntity
  8
0
100
AcDbLine
 62
7
  6
CONTINUOUS
 10
16.2878052459
 20
12.849448517
 11
16.2885807437
 21
12.851884022
  0
LINE
  5
282
100
AcDbEntity
  8
0
100
AcDbLine
 62
7
  6
CONTINUOUS
 10
16.1667720842
 20
12.4577850622
 11
16.167547582
 21
12.4602205672
  0
LINE
  5
283
100
AcDbEntity
  8
0
100
AcDbLine
 62
7
  6
CONTINUOUS
 10
16.0457389225
 20
12.0661216074
 11
16.0465144203
 21
12.0685571124
  0
LINE
  5
284
100
AcDbEntity
  8
0
100
AcDbLine
 62
7
  6
CONTINUOUS
 10
15.9247057608
 20
11.6744581526
 11
15.9254812586
 21
11.6768936576
  0
LINE
  5
285
100
AcDbEntity
  8
0
100
AcDbLine
 62
7
  6
CONTINUOUS
 10
15.8036725991
 20
11.2827946978
 11
15.8044480969
 21
11.2852302028
  0
LINE
  5
286
100
AcDbEntity
  8
0
100
AcDbLine
 62
7
  6
CONTINUOUS
 10
15.6826394374
 20
10.891131243
 11
15.6834149352
 21
10.893566748
  0
LINE
  5
287
100
AcDbEntity
  8
0
100
AcDbLine
 62
7
  6
CONTINUOUS
 10
16.5706107872
 20
13.6061316872
 11
16.5716048474
 21
13.6091304515
  0
LWPOLYLINE
  5
288
100
AcDbEntity
  8
0
100
AcDbPolyline
 62
7
  6
CONTINUOUS
 90
3
 70
0
 10
16.5306470671
 20
13.6352109317
 10
16.5331195307
 20
13.6420437817
 10
16.5351296788
 20
13.6464924674
  0
LWPOLYLINE
  5
289
100
AcDbEntity
  8
0
100
AcDbPolyline
 62
7
  6
CONTINUOUS
 90
3
 70
0
 10
16.4096139054
 20
13.2435474769
 10
16.412086369
 20
13.2503803269
 10
16.4140965171
 20
13.2548290126
  0
LWPOLYLINE
  5
28A
100
AcDbEntity
  8
0
100
AcDbPolyline
 62
7
  6
CONTINUOUS
 90
3
 70
0
 10
16.2885807437
 20
12.851884022
 10
16.2910532073
 20
12.8587168721
 10
16.2930633554
 20
12.8631655578
  0
LWPOLYLINE
  5
28B
100
AcDbEntity
  8
0
100
AcDbPolyline
 62
7
  6
CONTINUOUS
 90
3
 70
0
 10
16.167547582
 20
12.4602205672
 10
16.1700200456
 20
12.4670534172
 10
16.1720301937
 20
12.4715021029
  0
LWPOLYLINE
  5
28C
100
AcDbEntity
  8
0
100
AcDbPolyline
 62
7
  6
CONTINUOUS
 90
3
 70
0
 10
16.0465144203
 20
12.0685571124
 10
16.0489868839
 20
12.0753899624
 10
16.050997032
 20
12.0798386481
  0
LINE
  5
28D
100
AcDbEntity
  8
0
100
AcDbLine
 62
7
  6
CONTINUOUS
 10
16.1720301937
 20
12.4715021029
 11
16.1727379902
 21
12.4727709778
  0
LINE
  5
28E
100
AcDbEntity
  8
0
100
AcDbLine
 62
7
  6
CONTINUOUS
 10
16.393636864
 20
13.1919168423
 11
16.422126569
 21
13.1919168423
  0
LINE
  5
28F
100
AcDbEntity
  8
0
100
AcDbLine
 62
7
  6
CONTINUOUS
 10
16.2459147785
 20
12.5735793105
 11
16.2437240383
 21
12.6636847454
  0
LWPOLYLINE
  5
290
100
AcDbEntity
  8
0
100
AcDbPolyline
 62
7
  6
CONTINUOUS
 90
7
 70
0
 10
16.2437229291
 20
12.6637089599
 10
16.2437109689
 20
12.6705815754
 10
16.2445418502
 20
12.6861450485
 10
16.2465397425
 20
12.7036522571
 10
16.2495394532
 20
12.7211877654
 10
16.2531545196
 20
12.7368014746
 10
16.255179287
 20
12.7438721879
  0
LINE
  5
291
100
AcDbEntity
  8
0
100
AcDbLine
 62
7
  6
CONTINUOUS
 10
16.2458339668
 20
12.5674717357
 11
16.2459132197
 21
12.5736368211
  0
LWPOLYLINE
  5
292
100
AcDbEntity
  8
0
100
AcDbPolyline
 62
7
  6
CONTINUOUS
 90
3
 70
0
 10
16.121598913
 20
12.1535486511
 10
16.1237150908
 20
12.1646402975
 10
16.1248008051
 20
12.1758082809
  0
LWPOLYLINE
  5
293
100
AcDbEntity
  8
0
100
AcDbPolyline
 62
7
  6
CONTINUOUS
 90
3
 70
0
 10
16.2426320747
 20
12.5452121059
 10
16.2447482526
 20
12.5563037523
 10
16.2458339668
 20
12.5674717357
  0
LWPOLYLINE
  5
294
100
AcDbEntity
  8
0
100
AcDbPolyline
 62
7
  6
CONTINUOUS
 90
3
 70
0
 10
16.3636652364
 20
12.9368755607
 10
16.3657814143
 20
12.9479672072
 10
16.3668671285
 20
12.9591351905
  0
LINE
  5
295
100
AcDbEntity
  8
0
100
AcDbLine
 62
7
  6
CONTINUOUS
 10
15.9990328314
 20
11.7562865624
 11
16.0005657513
 21
11.7618851963
  0
LINE
  5
296
100
AcDbEntity
  8
0
100
AcDbLine
 62
7
  6
CONTINUOUS
 10
16.1200659931
 20
12.1479500172
 11
16.121598913
 21
12.1535486511
  0
LINE
  5
297
100
AcDbEntity
  8
0
100
AcDbLine
 62
7
  6
CONTINUOUS
 10
16.2410991548
 20
12.539613472
 11
16.2426320747
 21
12.5452121059
  0
LINE
  5
298
100
AcDbEntity
  8
0
100
AcDbLine
 62
7
  6
CONTINUOUS
 10
16.3621323165
 20
12.9312769268
 11
16.3636652364
 21
12.9368755607
  0
LINE
  5
299
100
AcDbEntity
  8
0
100
AcDbLine
 62
7
  6
CONTINUOUS
 10
16.4831654782
 20
13.3229403816
 11
16.4846983981
 21
13.3285390155
  0
LINE
  5
29A
100
AcDbEntity
  8
0
100
AcDbLine
 62
7
  6
CONTINUOUS
 10
16.6041986399
 20
13.7146038364
 11
16.6057315598
 21
13.7202024703
  0
LINE
  5
29B
100
AcDbEntity
  8
0
100
AcDbLine
 62
7
  6
CONTINUOUS
 10
15.7243579788
 20
10.8674380548
 11
15.7569786444
 21
10.9729985672
  0
LINE
  5
29C
100
AcDbEntity
  8
0
100
AcDbLine
 62
7
  6
CONTINUOUS
 10
15.8453911405
 20
11.2591015096
 11
15.8780118061
 21
11.364662022
  0
LINE
  5
29D
100
AcDbEntity
  8
0
100
AcDbLine
 62
7
  6
CONTINUOUS
 10
15.9664243022
 20
11.6507649644
 11
15.9990449678
 21
11.7563254768
  0
LINE
  5
29E
100
AcDbEntity
  8
0
100
AcDbLine
 62
7
  6
CONTINUOUS
 10
16.0874574639
 20
12.0424284192
 11
16.1200781295
 21
12.1479889317
  0
LINE
  5
29F
100
AcDbEntity
  8
0
100
AcDbLine
 62
7
  6
CONTINUOUS
 10
16.2084906256
 20
12.434091874
 11
16.2411112912
 21
12.5396523865
  0
LINE
  5
2A0
100
AcDbEntity
  8
0
100
AcDbLine
 62
7
  6
CONTINUOUS
 10
16.3295237874
 20
12.8257553289
 11
16.3621444529
 21
12.9313158413
  0
LINE
  5
2A1
100
AcDbEntity
  8
0
100
AcDbLine
 62
7
  6
CONTINUOUS
 10
16.4505569491
 20
13.2174187837
 11
16.4831776146
 21
13.3229792961
  0
LINE
  5
2A2
100
AcDbEntity
  8
0
100
AcDbLine
 62
7
  6
CONTINUOUS
 10
16.5715901108
 20
13.6090822385
 11
16.6042107763
 21
13.7146427509
  0
LINE
  5
2A3
100
AcDbEntity
  8
0
100
AcDbLine
 62
7
  6
CONTINUOUS
 10
16.6042107763
 20
13.7146427509
 11
16.6041986444
 21
13.7146038352
  0
LINE
  5
2A4
100
AcDbEntity
  8
0
100
AcDbLine
 62
7
  6
CONTINUOUS
 10
16.4831776146
 20
13.3229792961
 11
16.4831654826
 21
13.3229403804
  0
LINE
  5
2A5
100
AcDbEntity
  8
0
100
AcDbLine
 62
7
  6
CONTINUOUS
 10
16.3621444529
 20
12.9313158413
 11
16.3621323209
 21
12.9312769256
  0
LINE
  5
2A6
100
AcDbEntity
  8
0
100
AcDbLine
 62
7
  6
CONTINUOUS
 10
16.2411112912
 20
12.5396523865
 11
16.2410991592
 21
12.5396134708
  0
LINE
  5
2A7
100
AcDbEntity
  8
0
100
AcDbLine
 62
7
  6
CONTINUOUS
 10
16.1200781295
 20
12.1479889317
 11
16.1200659975
 21
12.147950016
  0
LINE
  5
2A8
100
AcDbEntity
  8
0
100
AcDbLine
 62
7
  6
CONTINUOUS
 10
15.9990449678
 20
11.7563254768
 11
15.9990328358
 21
11.7562865612
  0
LINE
  5
2A9
100
AcDbEntity
  8
0
100
AcDbLine
 62
7
  6
CONTINUOUS
 10
15.8780118061
 20
11.364662022
 11
15.8779996741
 21
11.3646231063
  0
LINE
  5
2AA
100
AcDbEntity
  8
0
100
AcDbLine
 62
7
  6
CONTINUOUS
 10
15.7569786444
 20
10.9729985672
 11
15.7569665124
 21
10.9729596515
  0
LINE
  5
2AB
100
AcDbEntity
  8
0
100
AcDbLine
 62
7
  6
CONTINUOUS
 10
16.4495776255
 20
13.2144682324
 11
16.4505716857
 21
13.2174669967
  0
LINE
  5
2AC
100
AcDbEntity
  8
0
100
AcDbLine
 62
7
  6
CONTINUOUS
 10
16.3285444638
 20
12.8228047776
 11
16.329538524
 21
12.8258035419
  0
LINE
  5
2AD
100
AcDbEntity
  8
0
100
AcDbLine
 62
7
  6
CONTINUOUS
 10
16.2075113021
 20
12.4311413228
 11
16.2085053623
 21
12.434140087
  0
LINE
  5
2AE
100
AcDbEntity
  8
0
100
AcDbLine
 62
7
  6
CONTINUOUS
 10
16.0864781404
 20
12.0394778679
 11
16.0874722006
 21
12.0424766322
  0
LINE
  5
2AF
100
AcDbEntity
  8
0
100
AcDbLine
 62
7
  6
CONTINUOUS
 10
15.9654449787
 20
11.6478144131
 11
15.9664390389
 21
11.6508131774
  0
LINE
  5
2B0
100
AcDbEntity
  8
0
100
AcDbLine
 62
7
  6
CONTINUOUS
 10
15.844411817
 20
11.2561509583
 11
15.8454058772
 21
11.2591497226
  0
LINE
  5
2B1
100
AcDbEntity
  8
0
100
AcDbLine
 62
7
  6
CONTINUOUS
 10
15.7233786553
 20
10.8644875035
 11
15.7243727155
 21
10.8674862678
  0
LWPOLYLINE
  5
2B2
100
AcDbEntity
  8
0
100
AcDbPolyline
 62
7
  6
CONTINUOUS
 90
3
 70
0
 10
15.9254812586
 20
11.6768936576
 10
15.9279537222
 20
11.6837265076
 10
15.9299638703
 20
11.6881751933
  0
LWPOLYLINE
  5
2B3
100
AcDbEntity
  8
0
100
AcDbPolyline
 62
7
  6
CONTINUOUS
 90
3
 70
0
 10
15.8044480969
 20
11.2852302028
 10
15.8069205605
 20
11.2920630528
 10
15.8089307086
 20
11.2965117385
  0
LWPOLYLINE
  5
2B4
100
AcDbEntity
  8
0
100
AcDbPolyline
 62
7
  6
CONTINUOUS
 90
3
 70
0
 10
15.6834149352
 20
10.893566748
 10
15.6858873988
 20
10.900399598
 10
15.6878975469
 20
10.9048482837
  0
LINE
  5
2B5
100
AcDbEntity
  8
0
100
AcDbLine
 62
7
  6
CONTINUOUS
 10
16.050997032
 20
12.0798386481
 11
16.0517048285
 21
12.081107523
  0
LINE
  5
2B6
100
AcDbEntity
  8
0
100
AcDbLine
 62
7
  6
CONTINUOUS
 10
15.9299638703
 20
11.6881751933
 11
15.9306716668
 21
11.6894440682
  0
LWPOLYLINE
  5
2B7
100
AcDbEntity
  8
0
100
AcDbPolyline
 62
7
  6
CONTINUOUS
 90
5
 70
0
 10
16.5431545638
 20
13.5835803423
 10
16.5540475938
 20
13.5859672814
 10
16.5621847374
 20
13.5917266247
 10
16.5674611735
 20
13.5989671317
 10
16.5706107872
 20
13.6061316872
  0
LINE
  5
2B8
100
AcDbEntity
  8
0
100
AcDbLine
 62
7
  6
CONTINUOUS
 10
16.3669479402
 20
12.9652427653
 11
16.3647572
 21
13.0553482002
  0
LWPOLYLINE
  5
2B9
100
AcDbEntity
  8
0
100
AcDbPolyline
 62
7
  6
CONTINUOUS
 90
7
 70
0
 10
16.3647560908
 20
13.0553724147
 10
16.3647441306
 20
13.0622450303
 10
16.3655750119
 20
13.0778085033
 10
16.3675729042
 20
13.0953157119
 10
16.3705726149
 20
13.1128512202
 10
16.3741876813
 20
13.1284649294
 10
16.3762124487
 20
13.1355356428
  0
LINE
  5
2BA
100
AcDbEntity
  8
0
100
AcDbLine
 62
7
  6
CONTINUOUS
 10
16.3668671285
 20
12.9591351905
 11
16.3669463814
 21
12.9653002759
  0
LWPOLYLINE
  5
2BB
100
AcDbEntity
  8
0
100
AcDbPolyline
 62
7
  6
CONTINUOUS
 90
3
 70
0
 10
16.4846983981
 20
13.3285390155
 10
16.486814576
 20
13.339630662
 10
16.4879002902
 20
13.3507986453
  0
LWPOLYLINE
  5
2BC
100
AcDbEntity
  8
0
100
AcDbPolyline
 62
7
  6
CONTINUOUS
 90
3
 70
0
 10
16.6057315598
 20
13.7202024703
 10
16.6078477377
 20
13.7312941168
 10
16.6089334519
 20
13.7424621001
  0
LINE
  5
2BD
100
AcDbEntity
  8
0
100
AcDbLine
 62
7
  6
CONTINUOUS
 10
15.8089307086
 20
11.2965117385
 11
15.8096385051
 21
11.2977806133
  0
LINE
  5
2BE
100
AcDbEntity
  8
0
100
AcDbLine
 62
7
  6
CONTINUOUS
 10
15.6878975469
 20
10.9048482837
 11
15.6886053434
 21
10.9061171585
  0
LINE
  5
2BF
100
AcDbEntity
  8
0
100
AcDbLine
 62
7
  6
CONTINUOUS
 10
16.4879811019
 20
13.3569062201
 11
16.4857903617
 21
13.447011655
  0
LWPOLYLINE
  5
2C0
100
AcDbEntity
  8
0
100
AcDbPolyline
 62
7
  6
CONTINUOUS
 90
7
 70
0
 10
16.4857892525
 20
13.4470358695
 10
16.4857772923
 20
13.4539084851
 10
16.4866081736
 20
13.4694719581
 10
16.4886060659
 20
13.4869791667
 10
16.4916057766
 20
13.504514675
 10
16.495220843
 20
13.5201283842
 10
16.4972456104
 20
13.5271990976
  0
LINE
  5
2C1
100
AcDbEntity
  8
0
100
AcDbLine
 62
7
  6
CONTINUOUS
 10
16.4879002902
 20
13.3507986453
 11
16.4879795431
 21
13.3569637307
  0
LINE
  5
2C2
100
AcDbEntity
  8
0
100
AcDbLine
 62
7
  6
CONTINUOUS
 10
16.6348964287
 20
13.9752777073
 11
16.6345923293
 21
13.9716567187
  0
LINE
  5
2C3
100
AcDbEntity
  8
0
100
AcDbLine
 62
7
  6
CONTINUOUS
 10
16.5146700257
 20
13.5835802971
 11
16.5431597307
 21
13.5835802971
  0
LINE
  5
2C4
100
AcDbEntity
  8
0
100
AcDbLine
 62
7
  6
CONTINUOUS
 10
16.6090142636
 20
13.7485696749
 11
16.6068235234
 21
13.8386751098
  0
LWPOLYLINE
  5
2C5
100
AcDbEntity
  8
0
100
AcDbPolyline
 62
7
  6
CONTINUOUS
 90
7
 70
0
 10
16.6068224142
 20
13.8386993243
 10
16.606810454
 20
13.8455719399
 10
16.6076413353
 20
13.8611354129
 10
16.6096392276
 20
13.8786426215
 10
16.6126389383
 20
13.8961781299
 10
16.6162540047
 20
13.911791839
 10
16.6182787721
 20
13.9188625524
  0
LINE
  5
2C6
100
AcDbEntity
  8
0
100
AcDbLine
 62
7
  6
CONTINUOUS
 10
16.6089334519
 20
13.7424621001
 11
16.6090127048
 21
13.7486271855
  0
LINE
  5
2C7
100
AcDbEntity
  8
0
100
AcDbLine
 62
7
  6
CONTINUOUS
 10
16.6348964287
 20
13.9752777073
 11
16.6199454135
 21
14.0985435736
  0
LINE
  5
2C8
100
AcDbEntity
  8
0
100
AcDbLine
 62
7
  6
CONTINUOUS
 10
16.5540773893
 20
14.1914206397
 11
15.2922238275
 21
14.1914206397
  0
LINE
  5
2C9
100
AcDbEntity
  8
0
100
AcDbLine
 62
7
  6
CONTINUOUS
 10
16.6153017277
 20
14.1135816797
 11
16.5847299608
 21
14.1758803905
  0
ARC
  5
2CA
100
AcDbEntity
  8
0
100
AcDbCircle
 62
7
  6
CONTINUOUS
 10
5.4970370841
 20
5.453453231
 40
0.025
100
AcDbArc
 50
194.0
 51
270.0
  0
ARC
  5
2CB
100
AcDbEntity
  8
0
100
AcDbCircle
 62
7
  6
CONTINUOUS
 10
5.5427472182
 20
5.2701198968
 40
0.025
100
AcDbArc
 50
193.9999979486
 51
269.9999995037
  0
ARC
  5
2CC
100
AcDbEntity
  8
0
100
AcDbCircle
 62
7
  6
CONTINUOUS
 10
5.5203672762
 20
5.6698983538
 40
0.1
100
AcDbArc
 50
180.0
 51
194.0
  0
ARC
  5
2CD
100
AcDbEntity
  8
0
100
AcDbCircle
 62
7
  6
CONTINUOUS
 10
5.4453672762
 20
5.7701198977
 40
0.025
100
AcDbArc
 50
90.0
 51
180.0
  0
ARC
  5
2CE
100
AcDbEntity
  8
0
100
AcDbCircle
 62
7
  6
CONTINUOUS
 10
6.7179873343
 20
5.2701198977
 40
0.025
100
AcDbArc
 50
270.0
 51
346.0
  0
ARC
  5
2CF
100
AcDbEntity
  8
0
100
AcDbCircle
 62
7
  6
CONTINUOUS
 10
6.7636974682
 20
5.453453231
 40
0.025
100
AcDbArc
 50
270.0
 51
346.0
  0
ARC
  5
2D0
100
AcDbEntity
  8
0
100
AcDbCircle
 62
7
  6
CONTINUOUS
 10
6.7403672762
 20
5.6698983538
 40
0.1
100
AcDbArc
 50
346.0
 51
360.0
  0
ARC
  5
2D1
100
AcDbEntity
  8
0
100
AcDbCircle
 62
7
  6
CONTINUOUS
 10
6.8153672762
 20
5.7701198977
 40
0.025
100
AcDbArc
 50
0.0
 51
90.0
  0
ARC
  5
2D2
100
AcDbEntity
  8
0
100
AcDbCircle
 62
7
  6
CONTINUOUS
 10
13.742975654
 20
5.2314580387
 40
0.0458333333
100
AcDbArc
 50
193.0
 51
270.0
  0
ARC
  5
2D3
100
AcDbEntity
  8
0
100
AcDbCircle
 62
7
  6
CONTINUOUS
 10
13.8777348599
 20
5.2314580387
 40
0.0458333333
100
AcDbArc
 50
270.0
 51
347.0
  0
ARC
  5
2D4
100
AcDbEntity
  8
0
100
AcDbCircle
 62
7
  6
CONTINUOUS
 10
14.242975654
 20
5.2314580387
 40
0.0458333333
100
AcDbArc
 50
193.0
 51
270.0
  0
ARC
  5
2D5
100
AcDbEntity
  8
0
100
AcDbCircle
 62
7
  6
CONTINUOUS
 10
14.3777348599
 20
5.2314580387
 40
0.0458333333
100
AcDbArc
 50
270.0
 51
347.0
  0
ARC
  5
2D6
100
AcDbEntity
  8
0
100
AcDbCircle
 62
7
  6
CONTINUOUS
 10
14.742975654
 20
5.2314580387
 40
0.0458333333
100
AcDbArc
 50
193.0
 51
270.0
  0
ARC
  5
2D7
100
AcDbEntity
  8
0
100
AcDbCircle
 62
7
  6
CONTINUOUS
 10
14.8777348599
 20
5.2314580387
 40
0.0458333333
100
AcDbArc
 50
270.0
 51
347.0
  0
ARC
  5
2D8
100
AcDbEntity
  8
0
100
AcDbCircle
 62
7
  6
CONTINUOUS
 10
15.242975654
 20
5.2314580387
 40
0.0458333333
100
AcDbArc
 50
193.0
 51
270.0
  0
ARC
  5
2D9
100
AcDbEntity
  8
0
100
AcDbCircle
 62
7
  6
CONTINUOUS
 10
15.3777348599
 20
5.2314580387
 40
0.0458333333
100
AcDbArc
 50
270.0
 51
347.0
  0
ARC
  5
2DA
100
AcDbEntity
  8
0
100
AcDbCircle
 62
7
  6
CONTINUOUS
 10
13.6277348599
 20
5.3231247054
 40
0.0458333333
100
AcDbArc
 50
13.0
 51
90.0
  0
ARC
  5
2DB
100
AcDbEntity
  8
0
100
AcDbCircle
 62
7
  6
CONTINUOUS
 10
13.992975654
 20
5.3231247054
 40
0.0458333333
100
AcDbArc
 50
90.0
 51
167.0
  0
ARC
  5
2DC
100
AcDbEntity
  8
0
100
AcDbCircle
 62
7
  6
CONTINUOUS
 10
14.1277348599
 20
5.3231247054
 40
0.0458333333
100
AcDbArc
 50
13.0
 51
90.0
  0
ARC
  5
2DD
100
AcDbEntity
  8
0
100
AcDbCircle
 62
7
  6
CONTINUOUS
 10
14.492975654
 20
5.3231247054
 40
0.0458333333
100
AcDbArc
 50
90.0
 51
167.0
  0
ARC
  5
2DE
100
AcDbEntity
  8
0
100
AcDbCircle
 62
7
  6
CONTINUOUS
 10
14.6277348599
 20
5.3231247054
 40
0.0458333333
100
AcDbArc
 50
13.0
 51
90.0
  0
ARC
  5
2DF
100
AcDbEntity
  8
0
100
AcDbCircle
 62
7
  6
CONTINUOUS
 10
14.992975654
 20
5.3231247054
 40
0.0458333333
100
AcDbArc
 50
90.0
 51
167.0
  0
ARC
  5
2E0
100
AcDbEntity
  8
0
100
AcDbCircle
 62
7
  6
CONTINUOUS
 10
15.1277348599
 20
5.3231247054
 40
0.0458333333
100
AcDbArc
 50
13.0
 51
90.0
  0
ARC
  5
2E1
100
AcDbEntity
  8
0
100
AcDbCircle
 62
7
  6
CONTINUOUS
 10
15.492975654
 20
5.3231247054
 40
0.0458333333
100
AcDbArc
 50
90.0
 51
167.0
  0
ARC
  5
2E2
100
AcDbEntity
  8
0
100
AcDbCircle
 62
7
  6
CONTINUOUS
 10
17.3777348599
 20
5.2314580387
 40
0.0458333333
100
AcDbArc
 50
270.0
 51
347.0
  0
ARC
  5
2E3
100
AcDbEntity
  8
0
100
AcDbCircle
 62
7
  6
CONTINUOUS
 10
17.242975654
 20
5.2314580387
 40
0.0458333333
100
AcDbArc
 50
193.0
 51
270.0
  0
ARC
  5
2E4
100
AcDbEntity
  8
0
100
AcDbCircle
 62
7
  6
CONTINUOUS
 10
16.8777348599
 20
5.2314580387
 40
0.0458333333
100
AcDbArc
 50
270.0
 51
347.0
  0
ARC
  5
2E5
100
AcDbEntity
  8
0
100
AcDbCircle
 62
7
  6
CONTINUOUS
 10
16.742975654
 20
5.2314580387
 40
0.0458333333
100
AcDbArc
 50
193.0
 51
270.0
  0
ARC
  5
2E6
100
AcDbEntity
  8
0
100
AcDbCircle
 62
7
  6
CONTINUOUS
 10
16.3777348599
 20
5.2314580387
 40
0.0458333333
100
AcDbArc
 50
270.0
 51
347.0
  0
ARC
  5
2E7
100
AcDbEntity
  8
0
100
AcDbCircle
 62
7
  6
CONTINUOUS
 10
16.242975654
 20
5.2314580387
 40
0.0458333333
100
AcDbArc
 50
193.0
 51
270.0
  0
ARC
  5
2E8
100
AcDbEntity
  8
0
100
AcDbCircle
 62
7
  6
CONTINUOUS
 10
15.8777348599
 20
5.2314580387
 40
0.0458333333
100
AcDbArc
 50
270.0
 51
347.0
  0
ARC
  5
2E9
100
AcDbEntity
  8
0
100
AcDbCircle
 62
7
  6
CONTINUOUS
 10
15.742975654
 20
5.2314580387
 40
0.0458333333
100
AcDbArc
 50
193.0
 51
270.0
  0
ARC
  5
2EA
100
AcDbEntity
  8
0
100
AcDbCircle
 62
7
  6
CONTINUOUS
 10
17.492975654
 20
5.3231247054
 40
0.0458333333
100
AcDbArc
 50
90.0
 51
167.0
  0
ARC
  5
2EB
100
AcDbEntity
  8
0
100
AcDbCircle
 62
7
  6
CONTINUOUS
 10
17.1277348599
 20
5.3231247054
 40
0.0458333333
100
AcDbArc
 50
13.0
 51
90.0
  0
ARC
  5
2EC
100
AcDbEntity
  8
0
100
AcDbCircle
 62
7
  6
CONTINUOUS
 10
16.992975654
 20
5.3231247054
 40
0.0458333333
100
AcDbArc
 50
90.0
 51
167.0
  0
ARC
  5
2ED
100
AcDbEntity
  8
0
100
AcDbCircle
 62
7
  6
CONTINUOUS
 10
16.6277348599
 20
5.3231247054
 40
0.0458333333
100
AcDbArc
 50
13.0
 51
90.0
  0
ARC
  5
2EE
100
AcDbEntity
  8
0
100
AcDbCircle
 62
7
  6
CONTINUOUS
 10
16.492975654
 20
5.3231247054
 40
0.0458333333
100
AcDbArc
 50
90.0
 51
167.0
  0
ARC
  5
2EF
100
AcDbEntity
  8
0
100
AcDbCircle
 62
7
  6
CONTINUOUS
 10
16.1277348599
 20
5.3231247054
 40
0.0458333333
100
AcDbArc
 50
13.0
 51
90.0
  0
ARC
  5
2F0
100
AcDbEntity
  8
0
100
AcDbCircle
 62
7
  6
CONTINUOUS
 10
15.992975654
 20
5.3231247054
 40
0.0458333333
100
AcDbArc
 50
90.0
 51
167.0
  0
ARC
  5
2F1
100
AcDbEntity
  8
0
100
AcDbCircle
 62
7
  6
CONTINUOUS
 10
15.6277348599
 20
5.3231247054
 40
0.0458333333
100
AcDbArc
 50
13.0
 51
90.0
  0
SPLINE
  5
2F2
100
AcDbEntity
  8
0
100
AcDbSpline
 62
7
  6
CONTINUOUS
 70
0
 71
3
 72
15
 73
11
 74
0
 42
0.0000001
 43
0.0000001
 44
0.0000000001
 40
0.0
 40
0.0
 40
0.0
 40
0.0
 40
0.1295685169
 40
0.2645756641
 40
0.4012660075
 40
0.5362716982
 40
0.6662157409
 40
0.7881010903
 40
0.8998143625
 40
1.0
 40
1.0
 40
1.0
 40
1.0
 10
16.5540773893
 20
14.1914206397
 30
0.0
 10
16.5556256478
 20
14.1914206397
 30
0.0
 10
16.5587895995
 20
14.1912054111
 30
0.0
 10
16.5635121152
 20
14.1903215202
 30
0.0
 10
16.5681684226
 20
14.1888940678
 30
0.0
 10
16.5725802897
 20
14.1869787482
 30
0.0
 10
16.5765864787
 20
14.1846500634
 30
0.0
 10
16.5800385614
 20
14.1819887306
 30
0.0
 10
16.5828044132
 20
14.179092684
 30
0.0
 10
16.584202564
 20
14.1769551121
 30
0.0
 10
16.5847299608
 20
14.1758803905
 30
0.0
  0
SPLINE
  5
2F3
100
AcDbEntity
  8
0
100
AcDbSpline
 62
7
  6
CONTINUOUS
 70
0
 71
3
 72
15
 73
11
 74
0
 42
0.0000001
 43
0.0000001
 44
0.0000000001
 40
0.0
 40
0.0
 40
0.0
 40
0.0
 40
0.0996460567
 40
0.2028720234
 40
0.3125943247
 40
0.4308572657
 40
0.5588153804
 40
0.6968314144
 40
0.8443984243
 40
1.0
 40
1.0
 40
1.0
 40
1.0
 10
15.2759643374
 20
14.1832615831
 30
0.0
 10
15.2761544525
 20
14.1838768243
 30
0.0
 10
15.2766930921
 20
14.1850877674
 30
0.0
 10
15.2779240809
 20
14.1867087124
 30
0.0
 10
15.2795474687
 20
14.1881238794
 30
0.0
 10
15.2815316338
 20
14.1893079383
 30
0.0
 10
15.2838391764
 20
14.1902465694
 30
0.0
 10
15.2864307906
 20
14.1909252951
 30
0.0
 10
15.2892576661
 20
14.1913329568
 30
0.0
 10
15.2912182794
 20
14.1914206397
 30
0.0
 10
15.2922238275
 20
14.1914206397
 30
0.0
  0
SPLINE
  5
2F4
100
AcDbEntity
  8
0
100
AcDbSpline
 62
7
  6
CONTINUOUS
 70
0
 71
3
 72
11
 73
7
 74
0
 42
0.0000001
 43
0.0000001
 44
0.0000000001
 40
0.0
 40
0.0
 40
0.0
 40
0.0
 40
0.2336945075
 40
0.4747280454
 40
0.7289544285
 40
1.0
 40
1.0
 40
1.0
 40
1.0
 10
14.3076990437
 20
11.0499539446
 30
0.0
 10
14.307524189
 20
11.0493880886
 30
0.0
 10
14.3072938774
 20
11.048195941
 30
0.0
 10
14.3073361685
 20
11.0463366627
 30
0.0
 10
14.3077539761
 20
11.0444294877
 30
0.0
 10
14.3082554401
 20
11.0431894177
 30
0.0
 10
14.3085580557
 20
11.042572752
 30
0.0
  0
SPLINE
  5
2F5
100
AcDbEntity
  8
0
100
AcDbSpline
 62
7
  6
CONTINUOUS
 70
0
 71
3
 72
9
 73
5
 74
0
 42
0.0000001
 43
0.0000001
 44
0.0000000001
 40
0.0
 40
0.0
 40
0.0
 40
0.0
 40
0.5166047311
 40
1.0
 40
1.0
 40
1.0
 40
1.0
 10
16.6153017277
 20
14.1135816797
 30
0.0
 10
16.6164999116
 20
14.1111400375
 30
0.0
 10
16.6184921899
 20
14.1062418662
 30
0.0
 10
16.6196389801
 20
14.1010700091
 30
0.0
 10
16.6199454135
 20
14.0985435736
 30
0.0
  0
SPLINE
  5
2F6
100
AcDbEntity
  8
0
100
AcDbSpline
 62
7
  6
CONTINUOUS
 70
0
 71
3
 72
14
 73
10
 74
0
 42
0.0000001
 43
0.0000001
 44
0.0000000001
 40
0.0
 40
0.0
 40
0.0
 40
0.0
 40
0.1556189948
 40
0.30325742
 40
0.5688334201
 40
0.6871444735
 40
0.7968769723
 40
0.9001669343
 40
1.0
 40
1.0
 40
1.0
 40
1.0
 10
15.6500697354
 20
10.8301893461
 30
0.0
 10
15.6510748186
 20
10.8301893461
 30
0.0
 10
15.6530357549
 20
10.8302772025
 30
0.0
 10
15.6566736633
 20
10.830801897
 30
0.0
 10
15.6599944087
 20
10.8318460142
 30
0.0
 10
15.6627447562
 20
10.8334846679
 30
0.0
 10
15.664368528
 20
10.8348990778
 30
0.0
 10
15.6655997678
 20
10.8365204782
 30
0.0
 10
15.666138373
 20
10.8377325137
 30
0.0
 10
15.6663281342
 20
10.8383487411
 30
0.0
  0
SPLINE
  5
2F7
100
AcDbEntity
  8
0
100
AcDbSpline
 62
7
  6
CONTINUOUS
 70
0
 71
3
 72
15
 73
11
 74
0
 42
0.0000001
 43
0.0000001
 44
0.0000000001
 40
0.0
 40
0.0
 40
0.0
 40
0.0
 40
0.1095608948
 40
0.2276766659
 40
0.3524291514
 40
0.4818022803
 40
0.6136292671
 40
0.7455987028
 40
0.8752994831
 40
1.0
 40
1.0
 40
1.0
 40
1.0
 10
14.4552745854
 20
10.8419700688
 30
0.0
 10
14.4560204547
 20
10.8411029469
 30
0.0
 10
14.45771276
 20
10.8394211993
 30
0.0
 10
14.4606308628
 20
10.8371676787
 30
0.0
 10
14.4639597564
 20
10.8351481193
 30
0.0
 10
14.4676033672
 20
10.8334131409
 30
0.0
 10
14.4714675422
 20
10.8320111288
 30
0.0
 10
14.475449476
 20
10.8309759915
 30
0.0
 10
14.4794390778
 20
10.8303424812
 30
0.0
 10
14.4820964359
 20
10.8301893461
 30
0.0
 10
14.483398263
 20
10.8301893461
 30
0.0
  0
SPLINE
  5
2F8
100
AcDbEntity
  8
0
100
AcDbSpline
 62
7
  6
CONTINUOUS
 70
0
 71
3
 72
9
 73
5
 74
0
 42
0.0000001
 43
0.0000001
 44
0.0000000001
 40
0.0
 40
0.0
 40
0.0
 40
0.0
 40
0.4825233806
 40
1.0
 40
1.0
 40
1.0
 40
1.0
 10
14.3391298225
 20
10.9802740412
 30
0.0
 10
14.3404165988
 20
10.9776518669
 30
0.0
 10
14.3434949584
 20
10.9724145086
 30
0.0
 10
14.3472026749
 20
10.9676107343
 30
0.0
 10
14.349245398
 20
10.965235935
 30
0.0
  0
SPLINE
  5
2F9
100
AcDbEntity
  8
0
100
AcDbSpline
 62
7
  6
CONTINUOUS
 70
0
 71
3
 72
9
 73
5
 74
0
 42
0.0000001
 43
0.0000001
 44
0.0000000001
 40
0.0
 40
0.0
 40
0.0
 40
0.0
 40
0.4833952689
 40
1.0
 40
1.0
 40
1.0
 40
1.0
 10
15.6516801199
 20
10.965235935
 30
0.0
 10
15.6513736865
 20
10.9677623706
 30
0.0
 10
15.6502268963
 20
10.9729342276
 30
0.0
 10
15.648234618
 20
10.977832399
 30
0.0
 10
15.647036434
 20
10.9802740412
 30
0.0
  0
SPLINE
  5
2FA
100
AcDbEntity
  8
0
100
AcDbSpline
 62
7
  6
CONTINUOUS
 70
0
 71
3
 72
15
 73
11
 74
0
 42
0.0000001
 43
0.0000001
 44
0.0000000001
 40
0.0
 40
0.0
 40
0.0
 40
0.0
 40
0.1001856375
 40
0.2118989097
 40
0.3337842591
 40
0.4637283018
 40
0.5987339925
 40
0.7354243359
 40
0.8704314831
 40
1.0
 40
1.0
 40
1.0
 40
1.0
 10
15.6164646672
 20
11.042572752
 30
0.0
 10
15.6159372704
 20
11.0436474736
 30
0.0
 10
15.6145391196
 20
11.0457850455
 30
0.0
 10
15.6117732678
 20
11.0486810921
 30
0.0
 10
15.6083211851
 20
11.0513424249
 30
0.0
 10
15.6043149961
 20
11.0536711097
 30
0.0
 10
15.599903129
 20
11.0555864293
 30
0.0
 10
15.5952468215
 20
11.0570138817
 30
0.0
 10
15.5905243058
 20
11.0578977726
 30
0.0
 10
15.5873603542
 20
11.0581130012
 30
0.0
 10
15.5858120957
 20
11.0581130012
 30
0.0
  0
SPLINE
  5
2FB
100
AcDbEntity
  8
0
100
AcDbSpline
 62
7
  6
CONTINUOUS
 70
0
 71
3
 72
15
 73
11
 74
0
 42
0.0000001
 43
0.0000001
 44
0.0000000001
 40
0.0
 40
0.0
 40
0.0
 40
0.0
 40
0.1556015757
 40
0.3031685856
 40
0.4411846196
 40
0.5691427343
 40
0.6874056753
 40
0.7971279766
 40
0.9003539433
 40
1.0
 40
1.0
 40
1.0
 40
1.0
 10
14.3239585339
 20
11.0581130012
 30
0.0
 10
14.3229529858
 20
11.0581130012
 30
0.0
 10
14.3209923725
 20
11.0580253183
 30
0.0
 10
14.318165497
 20
11.0576176566
 30
0.0
 10
14.3155738828
 20
11.0569389309
 30
0.0
 10
14.3132663402
 20
11.0560002998
 30
0.0
 10
14.3112821751
 20
11.0548162409
 30
0.0
 10
14.3096587873
 20
11.0534010739
 30
0.0
 10
14.3084277984
 20
11.0517801289
 30
0.0
 10
14.3078891589
 20
11.0505691858
 30
0.0
 10
14.3076990437
 20
11.0499539446
 30
0.0
  0
ENDSEC
  0
SECTION
  2
OBJECTS
  0
DICTIONARY
  5
C
100
AcDbDictionary
280
0
281
1
  3
ACAD_GROUP
350
D
  3
ACAD_MLINESTYLE
350
17
  3
ACAD_LAYOUT
350
1A
  3
ACAD_PLOTSETTINGS
350
19
  3
ACAD_PLOTSTYLENAME
350
E
  0
DICTIONARY
  5
D
102
{ACAD_REACTORS
330
C
102
}
100
AcDbDictionary
280
0
281
1
  0
ACDBDICTIONARYWDFLT
  5
E
102
{ACAD_REACTORS
330
C
102
}
100
AcDbDictionary
281
1
  3
Normal
350
F
100
AcDbDictionaryWithDefault
340
F
  0
DICTIONARY
  5
17
102
{ACAD_REACTORS
330
C
102
}
100
AcDbDictionary
280
0
281
1
  3
Standard
350
18
  0
DICTIONARY
  5
19
102
{ACAD_REACTORS
330
C
102
}
100
AcDbDictionary
281
1
  0
DICTIONARY
  5
1A
102
{ACAD_REACTORS
330
C
102
}
100
AcDbDictionary
281
1
  3
Model
350
2FC
  3
Layout1
350
2FD
  0
ACDBPLACEHOLDER
  5
F
102
{ACAD_REACTORS
330
E
102
}
  0
MLINESTYLE
  5
18
102
{ACAD_REACTORS
330
17
102
}
100
AcDbMlineStyle
  2
STANDARD
 70
0
  3

 62
256
 51
90.0
 52
90.0
 71
2
 49
0.5
 62
256
  6
BYLAYER
 49
-0.5
 62
256
  6
BYLAYER
  0
LAYOUT
  5
2FC
102
{ACAD_REACTORS
330
1A
102
}
100
AcDbPlotSettings
  1

  2
none_device
  4
ANSI_C_(22.00_x_17.00_Inches)
  6

 40
0.0
 41
0.0
 42
0.0
 43
0.0
 44
558.8
 45
431.8
 46
0.0
 47
0.0
 48
0.0
 49
0.0
140
0.0
141
0.0
142
1.0
143
1.0
 70
1024
 72
0
 73
0
 74
0
  7

 75
0
147
1.0
148
0.0
149
0.0
100
AcDbLayout
  1
Model
 70
0
 71
0
 10
0.0
 20
0.0
 11
22.0
 21
17.0
 12
0.0
 22
0.0
 32
0.0
 14
0.0
 24
0.0
 34
0.0
 15
0.0
 25
0.0
 35
0.0
146
0.0
 13
0.0
 23
0.0
 33
0.0
 16
1.0
 26
0.0
 36
0.0
 17
0.0
 27
1.0
 37
0.0
 76
0
330
216
345
0
346
0
  0
LAYOUT
  5
2FD
102
{ACAD_REACTORS
330
1A
102
}
100
AcDbPlotSettings
  1

  2
none_device
  4
ANSI_C_(22.00_x_17.00_Inches)
  6

 40
0.0
 41
0.0
 42
0.0
 43
0.0
 44
558.8
 45
431.8
 46
0.0
 47
0.0
 48
0.0
 49
0.0
140
0.0
141
0.0
142
1.0
143
1.0
 70
0
 72
0
 73
0
 74
0
  7

 75
0
147
1.0
148
0.0
149
0.0
100
AcDbLayout
  1
Layout1
 70
0
 71
1
 10
0.0
 20
0.0
 11
22.0
 21
17.0
 12
0.0
 22
0.0
 32
0.0
 14
0.0
 24
0.0
 34
0.0
 15
0.0
 25
0.0
 35
0.0
146
0.0
 13
0.0
 23
0.0
 33
0.0
 16
1.0
 26
0.0
 36
0.0
 17
0.0
 27
1.0
 37
0.0
 76
0
330
217
345
0
346
0
  0
ENDSEC
  0
EOF