999
DXF file: _cgs_temp_output.dxf
999
Pro/ENGINEER 2016360 by Parametric Technology Corporation
  0
SECTION
  2
HEADER
  9
$ACADVER
  1
AC1021
  9
$DWGCODEPAGE
  3
ANSI_1252
  9
$EXTMAX
 10
22.0
 20
17.0
 30
0.0
  9
$EXTMIN
 10
0.0
 20
0.0
 30
0.0
  9
$LIMMIN
 10
0.0
 20
0.0
  9
$LIMMAX
 10
22.0
 20
17.0
  9
$VIEWCTR
 10
11.0
 20
8.5
  9
$VIEWSIZE
 40
17.0
  9
$CLAYER
  8
0
  9
$LTSCALE
 40
1.21
  9
$CELTYPE
  6
BYLAYER
  9
$DIMSCALE
 40
1.0
  9
$DIMASZ
 40
0.1875
  9
$DIMEXO
 40
0.0625
  9
$DIMDLI
 40
0.836
  9
$DIMEXE
 40
0.125
  9
$DIMCEN
 40
0.198
  9
$DIMLFAC
 40
1.0
  9
$DIMBLK
  1
_CLOSED
  9
$DIMALT
 70
0
  9
$DIMALTF
 40
25.4
  9
$DIMTXT
 40
0.15625
  9
$DIMTOL
 70
0
  9
$DIMLIM
 70
0
  9
$DIMTFAC
 40
1.0
  9
$DIMGAP
 40
0.09
  9
$DIMDSEP
 70
46
  9
$AUNITS
 70
0
  9
$PDMODE
 70
3
  9
$PDSIZE
 40
0.3125
  9
$HANDSEED
  5
2FE
  9
$TILEMODE
 70
1
  9
$MEASUREMENT
 70
0
  9
$INSUNITS
 70
1
  0
ENDSEC
  0
SECTION
  2
CLASSES
  0
CLASS
  1
ACDBDICTIONARYWDFLT
  2
AcDbDictionaryWithDefault
  3
AutoCAD 2000
 90
0
 91
1
280
0
281
0
  0
CLASS
  1
ACDBPLACEHOLDER
  2
AcDbPlaceHolder
  3
AutoCAD 2000
 90
0
 91
1
280
0
281
0
  0
CLASS
  1
LAYOUT
  2
AcDbLayout
  3
AutoCAD 2000
 90
0
 91
0
280
0
281
0
  0
ENDSEC
  0
SECTION
  2
TABLES
  0
TABLE
  2
VPORT
  5
8
100
AcDbSymbolTable
 70
2
  0
VPORT
  5
1F4
100
AcDbSymbolTableRecord
100
AcDbViewportTableRecord
  2
*ACTIVE
 70
0
 10
0.0
 20
0.0
 11
1.0
 21
1.0
 12
11.0
 22
8.5
 13
0.0
 23
0.0
 14
1.0
 24
1.0
 15
0.0
 25
0.0
 16
0.0
 26
0.0
 36
1.0
 17
0.0
 27
0.0
 37
0.0
 40
17.0
 41
1.2941176471
 42
50.0
 43
0.0
 44
0.0
 50
0.0
 51
0.0
 71
0
 72
100
 73
1
 74
1
 75
0
 76
0
 77
0
 78
0
  0
ENDTAB
  0
TABLE
  2
LTYPE
  5
5
100
AcDbSymbolTable
 70
6
  0
LTYPE
  5
14
100
AcDbSymbolTableRecord
100
AcDbLinetypeTableRecord
  2
BYBLOCK
 70
0
  3

 72
65
 73
0
 40
0.0
  0
LTYPE
  5
15
100
AcDbSymbolTableRecord
100
AcDbLinetypeTableRecord
  2
BYLAYER
 70
0
  3

 72
65
 73
0
 40
0.0
  0
LTYPE
  5
16
100
AcDbSymbolTableRecord
100
AcDbLinetypeTableRecord
  2
CONTINUOUS
 70
64
  3
Solid line
 72
65
 73
0
 40
0.0
  0
LTYPE
  5
1F5
100
AcDbSymbolTableRecord
100
AcDbLinetypeTableRecord
  2
CENTER
 70
64
  3
____ _ ____ _ ____ _ ____ _ ____ _ ____ _ ____
 72
65
 73
4
 40
0.6
 49
0.375
 74
0
 49
-0.075
 74
0
 49
0.075
 74
0
 49
-0.075
 74
0
  0
LTYPE
  5
1F6
100
AcDbSymbolTableRecord
100
AcDbLinetypeTableRecord
  2
HIDDEN
 70
64
  3
- - - - - - - - - - - - - - - - - - - -
 72
65
 73
2
 40
0.2
 49
0.1
 74
0
 49
-0.1
 74
0
  0
LTYPE
  5
1F7
100
AcDbSymbolTableRecord
100
AcDbLinetypeTableRecord
  2
PHANTOM
 70
64
  3
_____ _ _ _____ _ _ _____ _ _ _____
 72
65
 73
6
 40
0.8
 49
0.45
 74
0
 49
-0.05
 74
0
 49
0.1
 74
0
 49
-0.05
 74
0
 49
0.1
 74
0
 49
-0.05
 74
0
  0
LTYPE
  5
1F8
100
AcDbSymbolTableRecord
100
AcDbLinetypeTableRecord
  2
DOT
 70
64
  3
. . . . . . . . . . . . . . . . . . . .
 72
65
 73
2
 40
0.2
 49
0.1
 74
0
 49
-0.1
 74
0
  0
LTYPE
  5
1F9
100
AcDbSymbolTableRecord
100
AcDbLinetypeTableRecord
  2
DASHED
 70
64
  3
- - - - - - - - - - - - - - - - - - - -
 72
65
 73
2
 40
0.2
 49
0.1
 74
0
 49
-0.1
 74
0
  0
ENDTAB
  0
TABLE
  2
LAYER
  5
2
100
AcDbSymbolTable
 70
36
  0
LAYER
  5
10
100
AcDbSymbolTableRecord
100
AcDbLayerTableRecord
  2
0
 70
0
 62
7
  6
CONTINUOUS
370
-3
390
F
  0
LAYER
  5
1FA
100
AcDbSymbolTableRecord
100
AcDbLayerTableRecord
  2
DEFAULT_1
 70
0
 62
7
  6
CENTER
370
-3
390
F
  0
LAYER
  5
1FB
100
AcDbSymbolTableRecord
100
AcDbLayerTableRecord
  2
DEFAULT_2
 70
0
 62
8
  6
HIDDEN
370
-3
390
F
  0
LAYER
  5
1FC
100
AcDbSymbolTableRecord
100
AcDbLayerTableRecord
  2
DEFAULT_3
 70
0
 62
7
  6
PHANTOM
370
-3
390
F
  0
LAYER
  5
1FD
100
AcDbSymbolTableRecord
100
AcDbLayerTableRecord
  2
01_ALL_DTM_PLN
 70
0
 62
7
  6
CONTINUOUS
370
-3
390
F
  0
LAYER
  5
1FE
100
AcDbSymbolTableRecord
100
AcDbLayerTableRecord
  2
01__ASM_ALL_DTM_PLN
 70
0
 62
7
  6
CONTINUOUS
370
-3
390
F
  0
LAYER
  5
1FF
100
AcDbSymbolTableRecord
100
AcDbLayerTableRecord
  2
01__ASM_DEF_DTM_PLN
 70
0
 62
7
  6
CONTINUOUS
370
-3
390
F
  0
LAYER
  5
200
100
AcDbSymbolTableRecord
100
AcDbLayerTableRecord
  2
01___PRT_ALL_DTM_PLN
 70
0
 62
7
  6
CONTINUOUS
370
-3
390
F
  0
LAYER
  5
201
100
AcDbSymbolTableRecord
100
AcDbLayerTableRecord
  2
01___PRT_DEF_DTM_PLN
 70
0
 62
7
  6
CONTINUOUS
370
-3
390
F
  0
LAYER
  5
202
100
AcDbSymbolTableRecord
100
AcDbLayerTableRecord
  2
02_ALL_AXES
 70
0
 62
7
  6
CONTINUOUS
370
-3
390
F
  0
LAYER
  5
203
100
AcDbSymbolTableRecord
100
AcDbLayerTableRecord
  2
02__ASM_ALL_AXES
 70
0
 62
7
  6
CONTINUOUS
370
-3
390
F
  0
LAYER
  5
204
100
AcDbSymbolTableRecord
100
AcDbLayerTableRecord
  2
02___PRT_ALL_AXES
 70
0
 62
7
  6
CONTINUOUS
370
-3
390
F
  0
LAYER
  5
205
100
AcDbSymbolTableRecord
100
AcDbLayerTableRecord
  2
03_ALL_CURVES
 70
0
 62
7
  6
CONTINUOUS
370
-3
390
F
  0
LAYER
  5
206
100
AcDbSymbolTableRecord
100
AcDbLayerTableRecord
  2
03__ASM_ALL_CURVES
 70
0
 62
7
  6
CONTINUOUS
370
-3
390
F
  0
LAYER
  5
207
100
AcDbSymbolTableRecord
100
AcDbLayerTableRecord
  2
03___PRT_ALL_CURVES
 70
0
 62
7
  6
CONTINUOUS
370
-3
390
F
  0
LAYER
  5
208
100
AcDbSymbolTableRecord
100
AcDbLayerTableRecord
  2
04_ALL_DTM_PNT
 70
0
 62
7
  6
CONTINUOUS
370
-3
390
F
  0
LAYER
  5
209
100
AcDbSymbolTableRecord
100
AcDbLayerTableRecord
  2
04__ASM_ALL_DTM_PNT
 70
0
 62
7
  6
CONTINUOUS
370
-3
390
F
  0
LAYER
  5
20A
100
AcDbSymbolTableRecord
100
AcDbLayerTableRecord
  2
04___PRT_ALL_DTM_PNT
 70
0
 62
7
  6
CONTINUOUS
370
-3
390
F
  0
LAYER
  5
20B
100
AcDbSymbolTableRecord
100
AcDbLayerTableRecord
  2
05_ALL_DTM_CSYS
 70
0
 62
7
  6
CONTINUOUS
370
-3
390
F
  0
LAYER
  5
20C
100
AcDbSymbolTableRecord
100
AcDbLayerTableRecord
  2
05__ASM_ALL_DTM_CSYS
 70
0
 62
7
  6
CONTINUOUS
370
-3
390
F
  0
LAYER
  5
20D
100
AcDbSymbolTableRecord
100
AcDbLayerTableRecord
  2
05__ASM_DEF_DTM_CSYS
 70
0
 62
7
  6
CONTINUOUS
370
-3
390
F
  0
LAYER
  5
20E
100
AcDbSymbolTableRecord
100
AcDbLayerTableRecord
  2
05___PRT_ALL_DTM_CSYS
 70
0
 62
7
  6
CONTINUOUS
370
-3
390
F
  0
LAYER
  5
20F
100
AcDbSymbolTableRecord
100
AcDbLayerTableRecord
  2
05___PRT_DEF_DTM_CSYS
 70
0
 62
7
  6
CONTINUOUS
370
-3
390
F
  0
LAYER
  5
210
100
AcDbSymbolTableRecord
100
AcDbLayerTableRecord
  2
06_ALL_SURFS
 70
0
 62
7
  6
CONTINUOUS
370
-3
390
F
  0
LAYER
  5
211
100
AcDbSymbolTableRecord
100
AcDbLayerTableRecord
  2
06__ASM_ALL_SURFS
 70
0
 62
7
  6
CONTINUOUS
370
-3
390
F
  0
LAYER
  5
212
100
AcDbSymbolTableRecord
100
AcDbLayerTableRecord
  2
06___PRT_ALL_SURFS
 70
0
 62
7
  6
CONTINUOUS
370
-3
390
F
  0
LAYER
  5
213
100
AcDbSymbolTableRecord
100
AcDbLayerTableRecord
  2
07__ASM_ALL_SKELETONS
 70
0
 62
7
  6
CONTINUOUS
370
-3
390
F
  0
ENDTAB
  0
TABLE
  2
STYLE
  5
3
100
AcDbSymbolTable
 70
1
  0
STYLE
  5
11
100
AcDbSymbolTableRecord
100
AcDbTextStyleTableRecord
  2
STANDARD
 70
0
 40
0.0
 41
0.8
 50
0.0
 71
0
 42
0.2
  3
txt
  4

  0
STYLE
  5
214
100
AcDbSymbolTableRecord
100
AcDbTextStyleTableRecord
  2
TEXTSTYLE_1
 70
0
 40
0.0
 41
0.8
 50
0.0
 71
0
 42
0.2
  3
gdt
  4

  0
ENDTAB
  0
TABLE
  2
VIEW
  5
6
100
AcDbSymbolTable
 70
0
  0
ENDTAB
  0
TABLE
  2
UCS
  5
7
100
AcDbSymbolTable
 70
0
  0
ENDTAB
  0
TABLE
  2
APPID
  5
9
100
AcDbSymbolTable
 70
1
  0
APPID
  5
215
100
AcDbSymbolTableRecord
100
AcDbRegAppTableRecord
  2
ACAD
 70
0
  0
ENDTAB
  0
TABLE
  2
BLOCK_RECORD
  5
1
100
AcDbSymbolTable
 70
0
  0
BLOCK_RECORD
  5
216
100
AcDbSymbolTableRecord
100
AcDbBlockTableRecord
  2
*Model_Space
  0
BLOCK_RECORD
  5
217
100
AcDbSymbolTableRecord
100
AcDbBlockTableRecord
  2
*Paper_Space
  0
ENDTAB
  0
TABLE
  2
DIMSTYLE
  5
A
100
AcDbSymbolTable
 70
1
100
AcDbDimStyleTable
 71
0
  0
DIMSTYLE
105
218
100
AcDbSymbolTableRecord
100
AcDbDimStyleTableRecord
  2
STANDARD
 70
0
  3

  4

 40
1.0
 41
0.1875
 42
0.0625
 43
0.38
 44
0.125
 45
0.0
 46
0.0
 47
0.0001
 48
0.0001
140
0.15625
141
0.09
142
0.0
143
25.4
144
1.0
145
0.0
146
1.0
147
0.09
 71
0.0
 72
0.0
 73
1
 74
1
 75
0
 76
0
 77
0
 78
4
 79
1
170
0
171
3
172
0
173
0
174
0
175
0
176
0
177
0
178
0
270
2
179
4
271
4
272
4
273
2
274
2
275
0
280
0
281
0
282
0
283
1
284
4
285
0
286
0
287
3
288
0
340
11
278
46
  0
ENDTAB
  0
ENDSEC
  0
SECTION
  2
BLOCKS
  0
BLOCK
  5
20
100
AcDbEntity
  8
0
100
AcDbBlockBegin
  2
*Model_Space
 70
0
 10
0.0
 20
0.0
 30
0.0
  3
*Model_Space
  1

  0
ENDBLK
  5
21
100
AcDbEntity
  8
0
100
AcDbBlockEnd
  0
BLOCK
  5
1C
100
AcDbEntity
  8
0
100
AcDbBlockBegin
  2
*Paper_Space
 70
0
 10
0.0
 20
0.0
 30
0.0
  3
*Paper_Space
  1

  0
ENDBLK
  5
1D
100
AcDbEntity
  8
0
100
AcDbBlockEnd
  0
ENDSEC
  0
SECTION
  2
ENTITIES
  0
MTEXT
  5
219
100
AcDbEntity
  8
0
100
AcDbMText
 62
7
  6
CONTINUOUS
  7
STANDARD
 71
1
 72
1
 10
15.9560215477
 20
0.9479130325
 30
0.0
 11
1.0
 21
0.0
 31
0.0
 44
0.9
  1
SCALE: 1:1.000
 40
0.3
 41
3.36
  0
LINE
  5
21A
100
AcDbEntity
  8
0
100
AcDbLine
 62
7
  6
CONTINUOUS
 10
0.0
 20
0.0
 11
0.0
 21
17.0
  0
LINE
  5
21B
100
AcDbEntity
  8
0
100
AcDbLine
 62
7
  6
CONTINUOUS
 10
0.0
 20
0.0
 11
22.0
 21
0.0
  0
LINE
  5
21C
100
AcDbEntity
  8
0
100
AcDbLine
 62
7
  6
CONTINUOUS
 10
0.0
 20
17.0
 11
22.0
 21
17.0
  0
LINE
  5
21D
100
AcDbEntity
  8
0
100
AcDbLine
 62
7
  6
CONTINUOUS
 10
22.0
 20
0.0
 11
22.0
 21
17.0
  0
LINE
  5
21E
100
AcDbEntity
  8
0
100
AcDbLine
 62
7
  6
CONTINUOUS
 10
5.4153672762
 20
5.7701198977
 11
5.4153672762
 21
5.6698983538
  0
LINE
  5
21F
100
AcDbEntity
  8
0
100
AcDbLine
 62
7
  6
CONTINUOUS
 10
5.5134898248
 20
5.2640718503
 11
5.4183377035
 21
5.6457061643
  0
LINE
  5
220
100
AcDbEntity
  8
0
100
AcDbLine
 62
7
  6
CONTINUOUS
 10
5.537747218
 20
5.2451198977
 11
6.7229873343
 21
5.2451198977
  0
LINE
  5
221
100
AcDbEntity
  8
0
100
AcDbLine
 62
7
  6
CONTINUOUS
 10
5.4920370841
 20
5.4284532311
 11
6.7686974682
 21
5.4284532311
  0
LINE
  5
222
100
AcDbEntity
  8
0
100
AcDbLine
 62
7
  6
CONTINUOUS
 10
6.8203672762
 20
5.7951198977
 11
5.4403672762
 21
5.7951198977
  0
LINE
  5
223
100
AcDbEntity
  8
0
100
AcDbLine
 62
7
  6
CONTINUOUS
 10
6.7472447275
 20
5.2640718503
 11
6.8423968488
 21
5.6457061643
  0
LINE
  5
224
100
AcDbEntity
  8
0
100
AcDbLine
 62
7
  6
CONTINUOUS
 10
6.8453672762
 20
5.6698983538
 11
6.8453672762
 21
5.7701198977
  0
LINE
  5
225
100
AcDbEntity
  8
0
100
AcDbLine
 62
7
  6
CONTINUOUS
 10
6.7858720839
 20
10.6000477814
 11
5.3558720839
 21
10.6000477814
  0
LINE
  5
226
100
AcDbEntity
  8
0
100
AcDbLine
 62
7
  6
CONTINUOUS
 10
5.3558720839
 20
10.6000477814
 11
5.3558720839
 21
14.6000477814
  0
LINE
  5
227
100
AcDbEntity
  8
0
100
AcDbLine
 62
7
  6
CONTINUOUS
 10
6.7858720839
 20
10.6000477814
 11
6.7858720839
 21
14.6000477814
  0
LINE
  5
228
100
AcDbEntity
  8
0
100
AcDbLine
 62
7
  6
CONTINUOUS
 10
5.3558720839
 20
14.6000477814
 11
6.7858720839
 21
14.6000477814
  0
LINE
  5
229
100
AcDbEntity
  8
0
100
AcDbLine
 62
7
  6
CONTINUOUS
 10
13.5603552569
 20
5.3689580388
 11
13.5603552569
 21
5.7356247054
  0
LINE
  5
22A
100
AcDbEntity
  8
0
100
AcDbLine
 62
7
  6
CONTINUOUS
 10
13.6723934879
 20
5.3334349621
 11
13.698317026
 21
5.2211477821
  0
LINE
  5
22B
100
AcDbEntity
  8
0
100
AcDbLine
 62
7
  6
CONTINUOUS
 10
13.9223934879
 20
5.2211477821
 11
13.948317026
 21
5.3334349621
  0
LINE
  5
22C
100
AcDbEntity
  8
0
100
AcDbLine
 62
7
  6
CONTINUOUS
 10
14.1723934879
 20
5.3334349621
 11
14.198317026
 21
5.2211477821
  0
LINE
  5
22D
100
AcDbEntity
  8
0
100
AcDbLine
 62
7
  6
CONTINUOUS
 10
14.4223934879
 20
5.2211477821
 11
14.448317026
 21
5.3334349621
  0
LINE
  5
22E
100
AcDbEntity
  8
0
100
AcDbLine
 62
7
  6
CONTINUOUS
 10
14.6723934879
 20
5.3334349621
 11
14.698317026
 21
5.2211477821
  0
LINE
  5
22F
100
AcDbEntity
  8
0
100
AcDbLine
 62
7
  6
CONTINUOUS
 10
14.9223934879
 20
5.2211477821
 11
14.948317026
 21
5.3334349621
  0
LINE
  5
230
100
AcDbEntity
  8
0
100
AcDbLine
 62
7
  6
CONTINUOUS
 10
15.1723934879
 20
5.3334349621
 11
15.198317026
 21
5.2211477821
  0
LINE
  5
231
100
AcDbEntity
  8
0
100
AcDbLine
 62
7
  6
CONTINUOUS
 10
13.742975654
 20
5.1856247054
 11
13.8777348599
 21
5.1856247054
  0
LINE
  5
232
100
AcDbEntity
  8
0
100
AcDbLine
 62
7
  6
CONTINUOUS
 10
14.242975654
 20
5.1856247054
 11
14.3777348599
 21
5.1856247054
  0
LINE
  5
233
100
AcDbEntity
  8
0
100
AcDbLine
 62
7
  6
CONTINUOUS
 10
14.742975654
 20
5.1856247054
 11
14.8777348599
 21
5.1856247054
  0
LINE
  5
234
100
AcDbEntity
  8
0
100
AcDbLine
 62
7
  6
CONTINUOUS
 10
15.242975654
 20
5.1856247054
 11
15.3777348599
 21
5.1856247054
  0
LINE
  5
235
100
AcDbEntity
  8
0
100
AcDbLine
 62
7
  6
CONTINUOUS
 10
15.742975654
 20
5.1856247054
 11
15.8777348599
 21
5.1856247054
  0
LINE
  5
236
100
AcDbEntity
  8
0
100
AcDbLine
 62
7
  6
CONTINUOUS
 10
16.242975654
 20
5.1856247054
 11
16.3777348599
 21
5.1856247054
  0
LINE
  5
237
100
AcDbEntity
  8
0
100
AcDbLine
 62
7
  6
CONTINUOUS
 10
16.742975654
 20
5.1856247054
 11
16.8777348599
 21
5.1856247054
  0
LINE
  5
238
100
AcDbEntity
  8
0
100
AcDbLine
 62
7
  6
CONTINUOUS
 10
17.242975654
 20
5.1856247054
 11
17.3777348599
 21
5.1856247054
  0
LINE
  5
239
100
AcDbEntity
  8
0
100
AcDbLine
 62
7
  6
CONTINUOUS
 10
15.4223934879
 20
5.2211477821
 11
15.448317026
 21
5.3334349621
  0
LINE
  5
23A
100
AcDbEntity
  8
0
100
AcDbLine
 62
7
  6
CONTINUOUS
 10
13.5603552569
 20
5.3689580388
 11
13.6277348599
 21
5.3689580388
  0
LINE
  5
23B
100
AcDbEntity
  8
0
100
AcDbLine
 62
7
  6
CONTINUOUS
 10
13.992975654
 20
5.3689580388
 11
14.1277348599
 21
5.3689580388
  0
LINE
  5
23C
100
AcDbEntity
  8
0
100
AcDbLine
 62
7
  6
CONTINUOUS
 10
14.492975654
 20
5.3689580388
 11
14.6277348599
 21
5.3689580388
  0
LINE
  5
23D
100
AcDbEntity
  8
0
100
AcDbLine
 62
7
  6
CONTINUOUS
 10
14.992975654
 20
5.3689580388
 11
15.1277348599
 21
5.3689580388
  0
LINE
  5
23E
100
AcDbEntity
  8
0
100
AcDbLine
 62
7
  6
CONTINUOUS
 10
15.492975654
 20
5.3689580388
 11
15.6277348599
 21
5.3689580388
  0
LINE
  5
23F
100
AcDbEntity
  8
0
100
AcDbLine
 62
7
  6
CONTINUOUS
 10
15.992975654
 20
5.3689580388
 11
16.1277348599
 21
5.3689580388
  0
LINE
  5
240
100
AcDbEntity
  8
0
100
AcDbLine
 62
7
  6
CONTINUOUS
 10
16.492975654
 20
5.3689580388
 11
16.6277348599
 21
5.3689580388
  0
LINE
  5
241
100
AcDbEntity
  8
0
100
AcDbLine
 62
7
  6
CONTINUOUS
 10
16.992975654
 20
5.3689580388
 11
17.1277348599
 21
5.3689580388
  0
LINE
  5
242
100
AcDbEntity
  8
0
100
AcDbLine
 62
7
  6
CONTINUOUS
 10
17.492975654
 20
5.3689580388
 11
17.5603552569
 21
5.3689580388
  0
LINE
  5
243
100
AcDbEntity
  8
0
100
AcDbLine
 62
7
  6
CONTINUOUS
 10
15.6723934879
 20
5.3334349621
 11
15.698317026
 21
5.2211477821
  0
LINE
  5
244
100
AcDbEntity
  8
0
100
AcDbLine
 62
7
  6
CONTINUOUS
 10
13.5603552569
 20
5.7356247054
 11
17.5603552569
 21
5.7356247054
  0
LINE
  5
245
100
AcDbEntity
  8
0
100
AcDbLine
 62
7
  6
CONTINUOUS
 10
15.9223934879
 20
5.2211477821
 11
15.948317026
 21
5.3334349621
  0
LINE
  5
246
100
AcDbEntity
  8
0
100
AcDbLine
 62
7
  6
CONTINUOUS
 10
16.1723934879
 20
5.3334349621
 11
16.198317026
 21
5.2211477821
  0
LINE
  5
247
100
AcDbEntity
  8
0
100
AcDbLine
 62
7
  6
CONTINUOUS
 10
16.4223934879
 20
5.2211477821
 11
16.448317026
 21
5.3334349621
  0
LINE
  5
248
100
AcDbEntity
  8
0
100
AcDbLine
 62
7
  6
CONTINUOUS
 10
16.6723934879
 20
5.3334349621
 11
16.698317026
 21
5.2211477821
  0
LINE
  5
249
100
AcDbEntity
  8
0
100
AcDbLine
 62
7
  6
CONTINUOUS
 10
16.9223934879
 20
5.2211477821
 11
16.948317026
 21
5.3334349621
  0
LINE
  5
24A
100
AcDbEntity
  8
0
100
AcDbLine
 62
7
  6
CONTINUOUS
 10
17.1723934879
 20
5.3334349621
 11
17.198317026
 21
5.2211477821
  0
LINE
  5
24B
100
AcDbEntity
  8
0
100
AcDbLine
 62
7
  6
CONTINUOUS
 10
17.5603552569
 20
5.3689580388
 11
17.5603552569
 21
5.7356247054
  0
LINE
  5
24C
100
AcDbEntity
  8
0
100
AcDbLine
 62
7
  6
CONTINUOUS
 10
17.4223934879
 20
5.2211477821
 11
17.448317026
 21
5.3334349621
  0
LINE
  5
24D
100
AcDbEntity
  8
0
100
AcDbLine
 62
7
  6
CONTINUOUS
 10
14.3446400932
 20
10.965235935
 11
14.4506692806
 21
10.8419700688
  0
LWPOLYLINE
  5
24E
100
AcDbEntity
  8
0
100
AcDbPolyline
 62
7
  6
CONTINUOUS
 90
5
 70
0
 10
15.7005277618
 20
10.8419361585
 10
15.7114189464
 20
10.8443222626
 10
15.7195576133
 20
10.850082137
 10
15.7248347717
 20
10.8573237275
 10
15.727984648
 20
10.8644894313
  0
LINE
  5
24F
100
AcDbEntity
  8
0
100
AcDbLine
 62
7
  6
CONTINUOUS
 10
14.4787929582
 20
10.8301893461
 11
15.6546750406
 21
10.8301893461
  0
LINE
  5
250
100
AcDbEntity
  8
0
100
AcDbLine
 62
7
  6
CONTINUOUS
 10
15.6720431989
 20
10.8419361134
 11
15.7005329038
 21
10.8419361134
  0
LINE
  5
251
100
AcDbEntity
  8
0
100
AcDbLine
 62
7
  6
CONTINUOUS
 10
14.3039527509
 20
11.042572752
 11
14.3345245178
 21
10.9802740412
  0
LINE
  5
252
100
AcDbEntity
  8
0
100
AcDbLine
 62
7
  6
CONTINUOUS
 10
15.5904174008
 20
11.0581130012
 11
14.3193532291
 21
11.0581130012
  0
LWPOLYLINE
  5
253
100
AcDbEntity
  8
0
100
AcDbPolyline
 62
7
  6
CONTINUOUS
 90
5
 70
0
 10
15.8215609235
 20
11.2335996133
 10
15.8324521081
 20
11.2359857174
 10
15.840590775
 20
11.2417455918
 10
15.8458679334
 20
11.2489871823
 10
15.8490178097
 20
11.2561528861
  0
LINE
  5
254
100
AcDbEntity
  8
0
100
AcDbLine
 62
7
  6
CONTINUOUS
 10
15.7930763606
 20
11.2335995682
 11
15.8215660655
 21
11.2335995682
  0
LWPOLYLINE
  5
255
100
AcDbEntity
  8
0
100
AcDbPolyline
 62
7
  6
CONTINUOUS
 90
5
 70
0
 10
15.9425940852
 20
11.6252630681
 10
15.9534852698
 20
11.6276491722
 10
15.9616239367
 20
11.6334090466
 10
15.9669010951
 20
11.6406506371
 10
15.9700509714
 20
11.6478163409
  0
LINE
  5
256
100
AcDbEntity
  8
0
100
AcDbLine
 62
7
  6
CONTINUOUS
 10
15.9141095223
 20
11.625263023
 11
15.9425992272
 21
11.625263023
  0
LINE
  5
257
100
AcDbEntity
  8
0
100
AcDbLine
 62
7
  6
CONTINUOUS
 10
14.3030937547
 20
11.0499539362
 11
15.2713590483
 21
14.1832615748
  0
LWPOLYLINE
  5
258
100
AcDbEntity
  8
0
100
AcDbPolyline
 62
7
  6
CONTINUOUS
 90
5
 70
0
 10
16.0636272469
 20
12.016926523
 10
16.0745184315
 20
12.019312627
 10
16.0826570984
 20
12.0250725014
 10
16.0879342568
 20
12.0323140919
 10
16.0910841331
 20
12.0394797957
  0
LINE
  5
259
100
AcDbEntity
  8
0
100
AcDbLine
 62
7
  6
CONTINUOUS
 10
16.035142684
 20
12.0169264778
 11
16.0636323889
 21
12.0169264778
  0
LINE
  5
25A
100
AcDbEntity
  8
0
100
AcDbLine
 62
7
  6
CONTINUOUS
 10
15.6516417392
 20
10.9802740412
 11
15.6210699723
 21
11.042572752
  0
LWPOLYLINE
  5
25B
100
AcDbEntity
  8
0
100
AcDbPolyline
 62
7
  6
CONTINUOUS
 90
5
 70
0
 10
16.1846604086
 20
12.4085899778
 10
16.1955515932
 20
12.4109760818
 10
16.2036902601
 20
12.4167359562
 10
16.2089674185
 20
12.4239775468
 10
16.2121172948
 20
12.4311432505
  0
LINE
  5
25C
100
AcDbEntity
  8
0
100
AcDbLine
 62
7
  6
CONTINUOUS
 10
16.1561758457
 20
12.4085899327
 11
16.1846655506
 21
12.4085899327
  0
LINE
  5
25D
100
AcDbEntity
  8
0
100
AcDbLine
 62
7
  6
CONTINUOUS
 10
15.6712364402
 20
10.8419700688
 11
15.6562854251
 21
10.965235935
  0
LWPOLYLINE
  5
25E
100
AcDbEntity
  8
0
100
AcDbPolyline
 62
7
  6
CONTINUOUS
 90
5
 70
0
 10
16.3056935703
 20
12.8002534326
 10
16.3165847549
 20
12.8026395366
 10
16.3247234218
 20
12.808399411
 10
16.3300005802
 20
12.8156410016
 10
16.3331504565
 20
12.8228067053
  0
LINE
  5
25F
100
AcDbEntity
  8
0
100
AcDbLine
 62
7
  6
CONTINUOUS
 10
15.7663874368
 20
11.0069254912
 11
15.7641966967
 21
11.0970309261
  0
LWPOLYLINE
  5
260
100
AcDbEntity
  8
0
100
AcDbPolyline
 62
7
  6
CONTINUOUS
 90
7
 70
0
 10
15.7641955875
 20
11.0970551471
 10
15.7641835624
 20
11.1039241779
 10
15.7650143174
 20
11.1194889692
 10
15.7670123742
 20
11.1369982521
 10
15.7700125008
 20
11.154535886
 10
15.7736280783
 20
11.1701510347
 10
15.7756519426
 20
11.1772183629
  0
LINE
  5
261
100
AcDbEntity
  8
0
100
AcDbLine
 62
7
  6
CONTINUOUS
 10
16.2772090074
 20
12.8002533875
 11
16.3056987123
 21
12.8002533875
  0
LINE
  5
262
100
AcDbEntity
  8
0
100
AcDbLine
 62
7
  6
CONTINUOUS
 10
15.8874205986
 20
11.3985889461
 11
15.8852298584
 21
11.488694381
  0
LWPOLYLINE
  5
263
100
AcDbEntity
  8
0
100
AcDbPolyline
 62
7
  6
CONTINUOUS
 90
7
 70
0
 10
15.8852287492
 20
11.488718602
 10
15.8852167241
 20
11.4955876327
 10
15.8860474791
 20
11.511152424
 10
15.8880455359
 20
11.5286617069
 10
15.8910456625
 20
11.5461993409
 10
15.89466124
 20
11.5618144895
 10
15.8966851043
 20
11.5688818177
  0
LINE
  5
264
100
AcDbEntity
  8
0
100
AcDbLine
 62
7
  6
CONTINUOUS
 10
15.7663067363
 20
11.0008202847
 11
15.7663858773
 21
11.006983027
  0
LINE
  5
265
100
AcDbEntity
  8
0
100
AcDbLine
 62
7
  6
CONTINUOUS
 10
15.6709323357
 20
10.8383490817
 11
15.6712364402
 21
10.8419700688
  0
LINE
  5
266
100
AcDbEntity
  8
0
100
AcDbLine
 62
7
  6
CONTINUOUS
 10
16.5397347942
 20
13.6464921023
 11
16.5404427478
 21
13.6477612894
  0
LINE
  5
267
100
AcDbEntity
  8
0
100
AcDbLine
 62
7
  6
CONTINUOUS
 10
16.0084537603
 20
11.7902524009
 11
16.0062630201
 21
11.8803578358
  0
LWPOLYLINE
  5
268
100
AcDbEntity
  8
0
100
AcDbPolyline
 62
7
  6
CONTINUOUS
 90
7
 70
0
 10
16.0062619109
 20
11.8803820568
 10
16.0062498858
 20
11.8872510876
 10
16.0070806408
 20
11.9028158788
 10
16.0090786976
 20
11.9203251617
 10
16.0120788242
 20
11.9378627957
 10
16.0156944017
 20
11.9534779443
 10
16.0177182661
 20
11.9605452725
  0
LINE
  5
269
100
AcDbEntity
  8
0
100
AcDbLine
 62
7
  6
CONTINUOUS
 10
15.887339898
 20
11.3924837395
 11
15.887419039
 21
11.3986464818
  0
LINE
  5
26A
100
AcDbEntity
  8
0
100
AcDbLine
 62
7
  6
CONTINUOUS
 10
16.0083730597
 20
11.7841471943
 11
16.0084522007
 21
11.7903099366
  0
LINE
  5
26B
100
AcDbEntity
  8
0
100
AcDbLine
 62
7
  6
CONTINUOUS
 10
16.4187016325
 20
13.2548286474
 11
16.4194095861
 21
13.2560978346
  0
LINE
  5
26C
100
AcDbEntity
  8
0
100
AcDbLine
 62
7
  6
CONTINUOUS
 10
16.2976684708
 20
12.8631651926
 11
16.2983764244
 21
12.8644343798
  0
LWPOLYLINE
  5
26D
100
AcDbEntity
  8
0
100
AcDbPolyline
 62
7
  6
CONTINUOUS
 90
5
 70
0
 10
16.426726732
 20
13.1919168874
 10
16.4376179166
 20
13.1943029914
 10
16.4457565835
 20
13.2000628658
 10
16.4510337419
 20
13.2073044564
 10
16.4541836182
 20
13.2144701601
  0
LINE
  5
26E
100
AcDbEntity
  8
0
100
AcDbLine
 62
7
  6
CONTINUOUS
 10
16.129486922
 20
12.1819158557
 11
16.1272961818
 21
12.2720212906
  0
LWPOLYLINE
  5
26F
100
AcDbEntity
  8
0
100
AcDbPolyline
 62
7
  6
CONTINUOUS
 90
7
 70
0
 10
16.1272950726
 20
12.2720455116
 10
16.1272830475
 20
12.2789145424
 10
16.1281138025
 20
12.2944793336
 10
16.1301118593
 20
12.3119886166
 10
16.1331119859
 20
12.3295262505
 10
16.1367275634
 20
12.3451413991
 10
16.1387514278
 20
12.3522087273
  0
LINE
  5
270
100
AcDbEntity
  8
0
100
AcDbLine
 62
7
  6
CONTINUOUS
 10
16.1294062214
 20
12.1758106491
 11
16.1294853624
 21
12.1819733914
  0
LWPOLYLINE
  5
271
100
AcDbEntity
  8
0
100
AcDbPolyline
 62
7
  6
CONTINUOUS
 90
3
 70
0
 10
15.7631043994
 20
10.9785569065
 10
15.7652210168
 20
10.9896506692
 10
15.7663067363
 20
11.0008202847
  0
LWPOLYLINE
  5
272
100
AcDbEntity
  8
0
100
AcDbPolyline
 62
7
  6
CONTINUOUS
 90
3
 70
0
 10
15.8841375611
 20
11.3702203613
 10
15.8862541785
 20
11.381314124
 10
15.887339898
 20
11.3924837395
  0
LWPOLYLINE
  5
273
100
AcDbEntity
  8
0
100
AcDbPolyline
 62
7
  6
CONTINUOUS
 90
3
 70
0
 10
16.0051707228
 20
11.7618838161
 10
16.0072873402
 20
11.7729775788
 10
16.0083730597
 20
11.7841471943
  0
LINE
  5
274
100
AcDbEntity
  8
0
100
AcDbLine
 62
7
  6
CONTINUOUS
 10
15.7615718019
 20
10.9729596171
 11
15.7631043994
 21
10.9785569065
  0
LINE
  5
275
100
AcDbEntity
  8
0
100
AcDbLine
 62
7
  6
CONTINUOUS
 10
15.8826049636
 20
11.3646230719
 11
15.8841375611
 21
11.3702203613
  0
LINE
  5
276
100
AcDbEntity
  8
0
100
AcDbLine
 62
7
  6
CONTINUOUS
 10
15.6719824512
 20
10.841739534
 11
15.6872448487
 21
10.8911286703
  0
LINE
  5
277
100
AcDbEntity
  8
0
100
AcDbLine
 62
7
  6
CONTINUOUS
 10
15.7756573439
 20
11.1772316097
 11
15.8082780104
 21
11.2827921252
  0
LINE
  5
278
100
AcDbEntity
  8
0
100
AcDbLine
 62
7
  6
CONTINUOUS
 10
15.8966905057
 20
11.5688950645
 11
15.9293111721
 21
11.67445558
  0
LINE
  5
279
100
AcDbEntity
  8
0
100
AcDbLine
 62
7
  6
CONTINUOUS
 10
16.0177236674
 20
11.9605585193
 11
16.0503443338
 21
12.0661190348
  0
LINE
  5
27A
100
AcDbEntity
  8
0
100
AcDbLine
 62
7
  6
CONTINUOUS
 10
16.1387568291
 20
12.3522219741
 11
16.1713774955
 21
12.4577824896
  0
LINE
  5
27B
100
AcDbEntity
  8
0
100
AcDbLine
 62
7
  6
CONTINUOUS
 10
16.2597899908
 20
12.743885429
 11
16.2924106573
 21
12.8494459444
  0
LINE
  5
27C
100
AcDbEntity
  8
0
100
AcDbLine
 62
7
  6
CONTINUOUS
 10
16.3808231525
 20
13.1355488838
 11
16.413443819
 21
13.2411093992
  0
LINE
  5
27D
100
AcDbEntity
  8
0
100
AcDbLine
 62
7
  6
CONTINUOUS
 10
16.5018563142
 20
13.5272123386
 11
16.5344769807
 21
13.632772854
  0
LINE
  5
27E
100
AcDbEntity
  8
0
100
AcDbLine
 62
7
  6
CONTINUOUS
 10
16.6228894759
 20
13.9188757934
 11
16.6391998086
 21
13.9716560496
  0
LINE
  5
27F
100
AcDbEntity
  8
0
100
AcDbLine
 62
7
  6
CONTINUOUS
 10
16.5344768742
 20
13.6327754227
 11
16.5352513227
 21
13.6352077273
  0
LINE
  5
280
100
AcDbEntity
  8
0
100
AcDbLine
 62
7
  6
CONTINUOUS
 10
16.4134437125
 20
13.2411119679
 11
16.414218161
 21
13.2435442725
  0
LINE
  5
281
100
AcDbEntity
  8
0
100
AcDbLine
 62
7
  6
CONTINUOUS
 10
16.2924105508
 20
12.849448513
 11
16.2931849993
 21
12.8518808177
  0
LINE
  5
282
100
AcDbEntity
  8
0
100
AcDbLine
 62
7
  6
CONTINUOUS
 10
16.1713773891
 20
12.4577850582
 11
16.1721518376
 21
12.4602173629
  0
LINE
  5
283
100
AcDbEntity
  8
0
100
AcDbLine
 62
7
  6
CONTINUOUS
 10
16.0503442274
 20
12.0661216034
 11
16.0511186759
 21
12.0685539081
  0
LINE
  5
284
100
AcDbEntity
  8
0
100
AcDbLine
 62
7
  6
CONTINUOUS
 10
15.9293110657
 20
11.6744581486
 11
15.9300855142
 21
11.6768904532
  0
LINE
  5
285
100
AcDbEntity
  8
0
100
AcDbLine
 62
7
  6
CONTINUOUS
 10
15.808277904
 20
11.2827946938
 11
15.8090523525
 21
11.2852269984
  0
LINE
  5
286
100
AcDbEntity
  8
0
100
AcDbLine
 62
7
  6
CONTINUOUS
 10
15.6872447423
 20
10.891131239
 11
15.6880191907
 21
10.8935635436
  0
LWPOLYLINE
  5
287
100
AcDbEntity
  8
0
100
AcDbPolyline
 62
7
  6
CONTINUOUS
 90
3
 70
0
 10
16.5352513227
 20
13.6352077273
 10
16.5377242211
 20
13.6420422627
 10
16.5397347942
 20
13.6464921023
  0
LWPOLYLINE
  5
288
100
AcDbEntity
  8
0
100
AcDbPolyline
 62
7
  6
CONTINUOUS
 90
3
 70
0
 10
16.414218161
 20
13.2435442725
 10
16.4166910594
 20
13.2503788079
 10
16.4187016325
 20
13.2548286474
  0
LWPOLYLINE
  5
289
100
AcDbEntity
  8
0
100
AcDbPolyline
 62
7
  6
CONTINUOUS
 90
3
 70
0
 10
16.2931849993
 20
12.8518808177
 10
16.2956578977
 20
12.8587153531
 10
16.2976684708
 20
12.8631651926
  0
LWPOLYLINE
  5
28A
100
AcDbEntity
  8
0
100
AcDbPolyline
 62
7
  6
CONTINUOUS
 90
3
 70
0
 10
16.1721518376
 20
12.4602173629
 10
16.174624736
 20
12.4670518983
 10
16.1766353091
 20
12.4715017378
  0
LWPOLYLINE
  5
28B
100
AcDbEntity
  8
0
100
AcDbPolyline
 62
7
  6
CONTINUOUS
 90
3
 70
0
 10
16.0511186759
 20
12.0685539081
 10
16.0535915743
 20
12.0753884434
 10
16.0556021474
 20
12.079838283
  0
LINE
  5
28C
100
AcDbEntity
  8
0
100
AcDbLine
 62
7
  6
CONTINUOUS
 10
16.1766353091
 20
12.4715017378
 11
16.1773432627
 21
12.472770925
  0
LINE
  5
28D
100
AcDbEntity
  8
0
100
AcDbLine
 62
7
  6
CONTINUOUS
 10
16.3982421691
 20
13.1919168423
 11
16.426731874
 21
13.1919168423
  0
LINE
  5
28E
100
AcDbEntity
  8
0
100
AcDbLine
 62
7
  6
CONTINUOUS
 10
16.2505200837
 20
12.5735793105
 11
16.2483293435
 21
12.6636847454
  0
LWPOLYLINE
  5
28F
100
AcDbEntity
  8
0
100
AcDbPolyline
 62
7
  6
CONTINUOUS
 90
7
 70
0
 10
16.2483282343
 20
12.6637089664
 10
16.2483162092
 20
12.6705779972
 10
16.2491469642
 20
12.6861427884
 10
16.251145021
 20
12.7036520714
 10
16.2541451476
 20
12.7211897053
 10
16.2577607251
 20
12.7368048539
 10
16.2597845895
 20
12.7438721821
  0
LINE
  5
290
100
AcDbEntity
  8
0
100
AcDbLine
 62
7
  6
CONTINUOUS
 10
16.2504393831
 20
12.5674741039
 11
16.2505185241
 21
12.5736368462
  0
LWPOLYLINE
  5
291
100
AcDbEntity
  8
0
100
AcDbPolyline
 62
7
  6
CONTINUOUS
 90
3
 70
0
 10
16.1262038845
 20
12.1535472709
 10
16.1283205019
 20
12.1646410337
 10
16.1294062214
 20
12.1758106491
  0
LWPOLYLINE
  5
292
100
AcDbEntity
  8
0
100
AcDbPolyline
 62
7
  6
CONTINUOUS
 90
3
 70
0
 10
16.2472370462
 20
12.5452107258
 10
16.2493536636
 20
12.5563044885
 10
16.2504393831
 20
12.5674741039
  0
LWPOLYLINE
  5
293
100
AcDbEntity
  8
0
100
AcDbPolyline
 62
7
  6
CONTINUOUS
 90
3
 70
0
 10
16.3682702079
 20
12.9368741806
 10
16.3703868253
 20
12.9479679433
 10
16.3714725449
 20
12.9591375587
  0
LINE
  5
294
100
AcDbEntity
  8
0
100
AcDbLine
 62
7
  6
CONTINUOUS
 10
16.0036381253
 20
11.7562865267
 11
16.0051707228
 21
11.7618838161
  0
LINE
  5
295
100
AcDbEntity
  8
0
100
AcDbLine
 62
7
  6
CONTINUOUS
 10
16.124671287
 20
12.1479499815
 11
16.1262038845
 21
12.1535472709
  0
LINE
  5
296
100
AcDbEntity
  8
0
100
AcDbLine
 62
7
  6
CONTINUOUS
 10
16.2457044487
 20
12.5396134363
 11
16.2472370462
 21
12.5452107258
  0
LINE
  5
297
100
AcDbEntity
  8
0
100
AcDbLine
 62
7
  6
CONTINUOUS
 10
16.3667376104
 20
12.9312768912
 11
16.3682702079
 21
12.9368741806
  0
LINE
  5
298
100
AcDbEntity
  8
0
100
AcDbLine
 62
7
  6
CONTINUOUS
 10
16.4877707721
 20
13.322940346
 11
16.4893033696
 21
13.3285376354
  0
LINE
  5
299
100
AcDbEntity
  8
0
100
AcDbLine
 62
7
  6
CONTINUOUS
 10
16.6088039338
 20
13.7146038008
 11
16.6103365313
 21
13.7202010902
  0
LINE
  5
29A
100
AcDbEntity
  8
0
100
AcDbLine
 62
7
  6
CONTINUOUS
 10
15.728963284
 20
10.8674380548
 11
15.7615839495
 21
10.9729985672
  0
LINE
  5
29B
100
AcDbEntity
  8
0
100
AcDbLine
 62
7
  6
CONTINUOUS
 10
15.8499964457
 20
11.2591015096
 11
15.8826171112
 21
11.364662022
  0
LINE
  5
29C
100
AcDbEntity
  8
0
100
AcDbLine
 62
7
  6
CONTINUOUS
 10
15.9710296074
 20
11.6507649644
 11
16.003650273
 21
11.7563254768
  0
LINE
  5
29D
100
AcDbEntity
  8
0
100
AcDbLine
 62
7
  6
CONTINUOUS
 10
16.0920627691
 20
12.0424284192
 11
16.1246834347
 21
12.1479889317
  0
LINE
  5
29E
100
AcDbEntity
  8
0
100
AcDbLine
 62
7
  6
CONTINUOUS
 10
16.2130959308
 20
12.434091874
 11
16.2457165964
 21
12.5396523865
  0
LINE
  5
29F
100
AcDbEntity
  8
0
100
AcDbLine
 62
7
  6
CONTINUOUS
 10
16.3341290925
 20
12.8257553289
 11
16.3667497581
 21
12.9313158413
  0
LINE
  5
2A0
100
AcDbEntity
  8
0
100
AcDbLine
 62
7
  6
CONTINUOUS
 10
16.4551622542
 20
13.2174187837
 11
16.4877829198
 21
13.3229792961
  0
LINE
  5
2A1
100
AcDbEntity
  8
0
100
AcDbLine
 62
7
  6
CONTINUOUS
 10
16.5761954159
 20
13.6090822385
 11
16.6088160815
 21
13.7146427509
  0
LINE
  5
2A2
100
AcDbEntity
  8
0
100
AcDbLine
 62
7
  6
CONTINUOUS
 10
16.6088160815
 20
13.7146427509
 11
16.6088039383
 21
13.7146037996
  0
LINE
  5
2A3
100
AcDbEntity
  8
0
100
AcDbLine
 62
7
  6
CONTINUOUS
 10
16.4877829198
 20
13.3229792961
 11
16.4877707766
 21
13.3229403448
  0
LINE
  5
2A4
100
AcDbEntity
  8
0
100
AcDbLine
 62
7
  6
CONTINUOUS
 10
16.3667497581
 20
12.9313158413
 11
16.3667376149
 21
12.93127689
  0
LINE
  5
2A5
100
AcDbEntity
  8
0
100
AcDbLine
 62
7
  6
CONTINUOUS
 10
16.2457165964
 20
12.5396523865
 11
16.2457044532
 21
12.5396134351
  0
LINE
  5
2A6
100
AcDbEntity
  8
0
100
AcDbLine
 62
7
  6
CONTINUOUS
 10
16.1246834347
 20
12.1479889317
 11
16.1246712915
 21
12.1479499803
  0
LINE
  5
2A7
100
AcDbEntity
  8
0
100
AcDbLine
 62
7
  6
CONTINUOUS
 10
16.003650273
 20
11.7563254768
 11
16.0036381298
 21
11.7562865255
  0
LINE
  5
2A8
100
AcDbEntity
  8
0
100
AcDbLine
 62
7
  6
CONTINUOUS
 10
15.8826171112
 20
11.364662022
 11
15.8826049681
 21
11.3646230707
  0
LINE
  5
2A9
100
AcDbEntity
  8
0
100
AcDbLine
 62
7
  6
CONTINUOUS
 10
15.7615839495
 20
10.9729985672
 11
15.7615718064
 21
10.9729596159
  0
LINE
  5
2AA
100
AcDbEntity
  8
0
100
AcDbLine
 62
7
  6
CONTINUOUS
 10
16.5752167799
 20
13.606133615
 11
16.5762101503
 21
13.6091304441
  0
LINE
  5
2AB
100
AcDbEntity
  8
0
100
AcDbLine
 62
7
  6
CONTINUOUS
 10
16.4541836182
 20
13.2144701601
 11
16.4551769886
 21
13.2174669892
  0
LINE
  5
2AC
100
AcDbEntity
  8
0
100
AcDbLine
 62
7
  6
CONTINUOUS
 10
16.3331504565
 20
12.8228067053
 11
16.3341438269
 21
12.8258035344
  0
LINE
  5
2AD
100
AcDbEntity
  8
0
100
AcDbLine
 62
7
  6
CONTINUOUS
 10
16.2121172948
 20
12.4311432505
 11
16.2131106652
 21
12.4341400796
  0
LINE
  5
2AE
100
AcDbEntity
  8
0
100
AcDbLine
 62
7
  6
CONTINUOUS
 10
16.0910841331
 20
12.0394797957
 11
16.0920775035
 21
12.0424766248
  0
LINE
  5
2AF
100
AcDbEntity
  8
0
100
AcDbLine
 62
7
  6
CONTINUOUS
 10
15.9700509714
 20
11.6478163409
 11
15.9710443418
 21
11.65081317
  0
LINE
  5
2B0
100
AcDbEntity
  8
0
100
AcDbLine
 62
7
  6
CONTINUOUS
 10
15.8490178097
 20
11.2561528861
 11
15.8500111801
 21
11.2591497152
  0
LINE
  5
2B1
100
AcDbEntity
  8
0
100
AcDbLine
 62
7
  6
CONTINUOUS
 10
15.727984648
 20
10.8644894313
 11
15.7289780184
 21
10.8674862604
  0
LWPOLYLINE
  5
2B2
100
AcDbEntity
  8
0
100
AcDbPolyline
 62
7
  6
CONTINUOUS
 90
3
 70
0
 10
15.9300855142
 20
11.6768904532
 10
15.9325584126
 20
11.6837249886
 10
15.9345689857
 20
11.6881748282
  0
LWPOLYLINE
  5
2B3
100
AcDbEntity
  8
0
100
AcDbPolyline
 62
7
  6
CONTINUOUS
 90
3
 70
0
 10
15.8090523525
 20
11.2852269984
 10
15.8115252509
 20
11.2920615338
 10
15.813535824
 20
11.2965113734
  0
LWPOLYLINE
  5
2B4
100
AcDbEntity
  8
0
100
AcDbPolyline
 62
7
  6
CONTINUOUS
 90
3
 70
0
 10
15.6880191907
 20
10.8935635436
 10
15.6904920892
 20
10.900398079
 10
15.6925026623
 20
10.9048479186
  0
LINE
  5
2B5
100
AcDbEntity
  8
0
100
AcDbLine
 62
7
  6
CONTINUOUS
 10
16.0556021474
 20
12.079838283
 11
16.056310101
 21
12.0811074701
  0
LINE
  5
2B6
100
AcDbEntity
  8
0
100
AcDbLine
 62
7
  6
CONTINUOUS
 10
15.9345689857
 20
11.6881748282
 11
15.9352769393
 21
11.6894440153
  0
LWPOLYLINE
  5
2B7
100
AcDbEntity
  8
0
100
AcDbPolyline
 62
7
  6
CONTINUOUS
 90
5
 70
0
 10
16.5477598937
 20
13.5835803422
 10
16.5586510783
 20
13.5859664463
 10
16.5667897452
 20
13.5917263207
 10
16.5720669036
 20
13.5989679112
 10
16.5752167799
 20
13.606133615
  0
LINE
  5
2B8
100
AcDbEntity
  8
0
100
AcDbLine
 62
7
  6
CONTINUOUS
 10
16.3715532454
 20
12.9652427653
 11
16.3693625052
 21
13.0553482002
  0
LWPOLYLINE
  5
2B9
100
AcDbEntity
  8
0
100
AcDbPolyline
 62
7
  6
CONTINUOUS
 90
7
 70
0
 10
16.369361396
 20
13.0553724212
 10
16.3693493709
 20
13.062241452
 10
16.3701801259
 20
13.0778062432
 10
16.3721781827
 20
13.0953155262
 10
16.3751783093
 20
13.1128531601
 10
16.3787938868
 20
13.1284683088
 10
16.3808177512
 20
13.1355356369
  0
LINE
  5
2BA
100
AcDbEntity
  8
0
100
AcDbLine
 62
7
  6
CONTINUOUS
 10
16.3714725449
 20
12.9591375587
 11
16.3715516858
 21
12.965300301
  0
LWPOLYLINE
  5
2BB
100
AcDbEntity
  8
0
100
AcDbPolyline
 62
7
  6
CONTINUOUS
 90
3
 70
0
 10
16.4893033696
 20
13.3285376354
 10
16.4914199871
 20
13.3396313981
 10
16.4925057066
 20
13.3508010135
  0
LWPOLYLINE
  5
2BC
100
AcDbEntity
  8
0
100
AcDbPolyline
 62
7
  6
CONTINUOUS
 90
3
 70
0
 10
16.6103365313
 20
13.7202010902
 10
16.6124531488
 20
13.7312948529
 10
16.6135388683
 20
13.7424644683
  0
LINE
  5
2BD
100
AcDbEntity
  8
0
100
AcDbLine
 62
7
  6
CONTINUOUS
 10
15.813535824
 20
11.2965113734
 11
15.8142437776
 21
11.2977805605
  0
LINE
  5
2BE
100
AcDbEntity
  8
0
100
AcDbLine
 62
7
  6
CONTINUOUS
 10
16.4925864071
 20
13.3569062201
 11
16.4903956669
 21
13.447011655
  0
LWPOLYLINE
  5
2BF
100
AcDbEntity
  8
0
100
AcDbPolyline
 62
7
  6
CONTINUOUS
 90
7
 70
0
 10
16.4903945577
 20
13.447035876
 10
16.4903825326
 20
13.4539049068
 10
16.4912132876
 20
13.4694696981
 10
16.4932113444
 20
13.486978981
 10
16.496211471
 20
13.5045166149
 10
16.4998270485
 20
13.5201317636
 10
16.5018509129
 20
13.5271990918
  0
LINE
  5
2C0
100
AcDbEntity
  8
0
100
AcDbLine
 62
7
  6
CONTINUOUS
 10
16.4925057066
 20
13.3508010135
 11
16.4925848475
 21
13.3569637559
  0
LINE
  5
2C1
100
AcDbEntity
  8
0
100
AcDbLine
 62
7
  6
CONTINUOUS
 10
16.6395017338
 20
13.9752777073
 11
16.6391976293
 21
13.9716567203
  0
LINE
  5
2C2
100
AcDbEntity
  8
0
100
AcDbLine
 62
7
  6
CONTINUOUS
 10
15.6925026623
 20
10.9048479186
 11
15.6932106159
 21
10.9061171057
  0
LINE
  5
2C3
100
AcDbEntity
  8
0
100
AcDbLine
 62
7
  6
CONTINUOUS
 10
16.5192753308
 20
13.5835802971
 11
16.5477650357
 21
13.5835802971
  0
LINE
  5
2C4
100
AcDbEntity
  8
0
100
AcDbLine
 62
7
  6
CONTINUOUS
 10
16.6136195688
 20
13.7485696749
 11
16.6114288286
 21
13.8386751098
  0
LWPOLYLINE
  5
2C5
100
AcDbEntity
  8
0
100
AcDbPolyline
 62
7
  6
CONTINUOUS
 90
7
 70
0
 10
16.6114277194
 20
13.8386993308
 10
16.6114156943
 20
13.8455683616
 10
16.6122464493
 20
13.8611331529
 10
16.6142445062
 20
13.8786424358
 10
16.6172446327
 20
13.8961800697
 10
16.6208602102
 20
13.9117952184
 10
16.6228840746
 20
13.9188625466
  0
LINE
  5
2C6
100
AcDbEntity
  8
0
100
AcDbLine
 62
7
  6
CONTINUOUS
 10
16.6135388683
 20
13.7424644683
 11
16.6136180092
 21
13.7486272107
  0
LINE
  5
2C7
100
AcDbEntity
  8
0
100
AcDbLine
 62
7
  6
CONTINUOUS
 10
16.6395017338
 20
13.9752777073
 11
16.6245507187
 21
14.0985435736
  0
LINE
  5
2C8
100
AcDbEntity
  8
0
100
AcDbLine
 62
7
  6
CONTINUOUS
 10
16.5586826945
 20
14.1914206397
 11
15.2876185227
 21
14.1914206397
  0
LINE
  5
2C9
100
AcDbEntity
  8
0
100
AcDbLine
 62
7
  6
CONTINUOUS
 10
16.6199070328
 20
14.1135816797
 11
16.589335266
 21
14.1758803905
  0
ARC
  5
2CA
100
AcDbEntity
  8
0
100
AcDbCircle
 62
7
  6
CONTINUOUS
 10
5.4920370841
 20
5.4534532311
 40
0.025
100
AcDbArc
 50
194.0
 51
270.0
  0
ARC
  5
2CB
100
AcDbEntity
  8
0
100
AcDbCircle
 62
7
  6
CONTINUOUS
 10
5.5377472182
 20
5.2701198969
 40
0.025
100
AcDbArc
 50
193.9999979385
 51
269.9999995013
  0
ARC
  5
2CC
100
AcDbEntity
  8
0
100
AcDbCircle
 62
7
  6
CONTINUOUS
 10
5.5153672762
 20
5.6698983538
 40
0.1
100
AcDbArc
 50
180.0
 51
194.0
  0
ARC
  5
2CD
100
AcDbEntity
  8
0
100
AcDbCircle
 62
7
  6
CONTINUOUS
 10
5.4403672762
 20
5.7701198977
 40
0.025
100
AcDbArc
 50
90.0
 51
180.0
  0
ARC
  5
2CE
100
AcDbEntity
  8
0
100
AcDbCircle
 62
7
  6
CONTINUOUS
 10
6.7229873343
 20
5.2701198977
 40
0.025
100
AcDbArc
 50
270.0
 51
346.0
  0
ARC
  5
2CF
100
AcDbEntity
  8
0
100
AcDbCircle
 62
7
  6
CONTINUOUS
 10
6.7686974682
 20
5.4534532311
 40
0.025
100
AcDbArc
 50
270.0
 51
346.0
  0
ARC
  5
2D0
100
AcDbEntity
  8
0
100
AcDbCircle
 62
7
  6
CONTINUOUS
 10
6.7453672762
 20
5.6698983538
 40
0.1
100
AcDbArc
 50
346.0
 51
360.0
  0
ARC
  5
2D1
100
AcDbEntity
  8
0
100
AcDbCircle
 62
7
  6
CONTINUOUS
 10
6.8203672762
 20
5.7701198977
 40
0.025
100
AcDbArc
 50
0.0
 51
90.0
  0
ARC
  5
2D2
100
AcDbEntity
  8
0
100
AcDbCircle
 62
7
  6
CONTINUOUS
 10
13.742975654
 20
5.2314580388
 40
0.0458333333
100
AcDbArc
 50
193.0
 51
270.0
  0
ARC
  5
2D3
100
AcDbEntity
  8
0
100
AcDbCircle
 62
7
  6
CONTINUOUS
 10
13.8777348599
 20
5.2314580388
 40
0.0458333333
100
AcDbArc
 50
270.0
 51
347.0
  0
ARC
  5
2D4
100
AcDbEntity
  8
0
100
AcDbCircle
 62
7
  6
CONTINUOUS
 10
14.242975654
 20
5.2314580388
 40
0.0458333333
100
AcDbArc
 50
193.0
 51
270.0
  0
ARC
  5
2D5
100
AcDbEntity
  8
0
100
AcDbCircle
 62
7
  6
CONTINUOUS
 10
14.3777348599
 20
5.2314580388
 40
0.0458333333
100
AcDbArc
 50
270.0
 51
347.0
  0
ARC
  5
2D6
100
AcDbEntity
  8
0
100
AcDbCircle
 62
7
  6
CONTINUOUS
 10
14.742975654
 20
5.2314580388
 40
0.0458333333
100
AcDbArc
 50
193.0
 51
270.0
  0
ARC
  5
2D7
100
AcDbEntity
  8
0
100
AcDbCircle
 62
7
  6
CONTINUOUS
 10
14.8777348599
 20
5.2314580388
 40
0.0458333333
100
AcDbArc
 50
270.0
 51
347.0
  0
ARC
  5
2D8
100
AcDbEntity
  8
0
100
AcDbCircle
 62
7
  6
CONTINUOUS
 10
15.242975654
 20
5.2314580388
 40
0.0458333333
100
AcDbArc
 50
193.0
 51
270.0
  0
ARC
  5
2D9
100
AcDbEntity
  8
0
100
AcDbCircle
 62
7
  6
CONTINUOUS
 10
15.3777348599
 20
5.2314580388
 40
0.0458333333
100
AcDbArc
 50
270.0
 51
347.0
  0
ARC
  5
2DA
100
AcDbEntity
  8
0
100
AcDbCircle
 62
7
  6
CONTINUOUS
 10
13.6277348599
 20
5.3231247054
 40
0.0458333333
100
AcDbArc
 50
13.0
 51
90.0
  0
ARC
  5
2DB
100
AcDbEntity
  8
0
100
AcDbCircle
 62
7
  6
CONTINUOUS
 10
13.992975654
 20
5.3231247054
 40
0.0458333333
100
AcDbArc
 50
90.0
 51
167.0
  0
ARC
  5
2DC
100
AcDbEntity
  8
0
100
AcDbCircle
 62
7
  6
CONTINUOUS
 10
14.1277348599
 20
5.3231247054
 40
0.0458333333
100
AcDbArc
 50
13.0
 51
90.0
  0
ARC
  5
2DD
100
AcDbEntity
  8
0
100
AcDbCircle
 62
7
  6
CONTINUOUS
 10
14.492975654
 20
5.3231247054
 40
0.0458333333
100
AcDbArc
 50
90.0
 51
167.0
  0
ARC
  5
2DE
100
AcDbEntity
  8
0
100
AcDbCircle
 62
7
  6
CONTINUOUS
 10
14.6277348599
 20
5.3231247054
 40
0.0458333333
100
AcDbArc
 50
13.0
 51
90.0
  0
ARC
  5
2DF
100
AcDbEntity
  8
0
100
AcDbCircle
 62
7
  6
CONTINUOUS
 10
14.992975654
 20
5.3231247054
 40
0.0458333333
100
AcDbArc
 50
90.0
 51
167.0
  0
ARC
  5
2E0
100
AcDbEntity
  8
0
100
AcDbCircle
 62
7
  6
CONTINUOUS
 10
15.1277348599
 20
5.3231247054
 40
0.0458333333
100
AcDbArc
 50
13.0
 51
90.0
  0
ARC
  5
2E1
100
AcDbEntity
  8
0
100
AcDbCircle
 62
7
  6
CONTINUOUS
 10
15.492975654
 20
5.3231247054
 40
0.0458333333
100
AcDbArc
 50
90.0
 51
167.0
  0
ARC
  5
2E2
100
AcDbEntity
  8
0
100
AcDbCircle
 62
7
  6
CONTINUOUS
 10
17.3777348599
 20
5.2314580388
 40
0.0458333333
100
AcDbArc
 50
270.0
 51
347.0
  0
ARC
  5
2E3
100
AcDbEntity
  8
0
100
AcDbCircle
 62
7
  6
CONTINUOUS
 10
17.242975654
 20
5.2314580388
 40
0.0458333333
100
AcDbArc
 50
193.0
 51
270.0
  0
ARC
  5
2E4
100
AcDbEntity
  8
0
100
AcDbCircle
 62
7
  6
CONTINUOUS
 10
16.8777348599
 20
5.2314580388
 40
0.0458333333
100
AcDbArc
 50
270.0
 51
347.0
  0
ARC
  5
2E5
100
AcDbEntity
  8
0
100
AcDbCircle
 62
7
  6
CONTINUOUS
 10
16.742975654
 20
5.2314580388
 40
0.0458333333
100
AcDbArc
 50
193.0
 51
270.0
  0
ARC
  5
2E6
100
AcDbEntity
  8
0
100
AcDbCircle
 62
7
  6
CONTINUOUS
 10
16.3777348599
 20
5.2314580388
 40
0.0458333333
100
AcDbArc
 50
270.0
 51
347.0
  0
ARC
  5
2E7
100
AcDbEntity
  8
0
100
AcDbCircle
 62
7
  6
CONTINUOUS
 10
16.242975654
 20
5.2314580388
 40
0.0458333333
100
AcDbArc
 50
193.0
 51
270.0
  0
ARC
  5
2E8
100
AcDbEntity
  8
0
100
AcDbCircle
 62
7
  6
CONTINUOUS
 10
15.8777348599
 20
5.2314580388
 40
0.0458333333
100
AcDbArc
 50
270.0
 51
347.0
  0
ARC
  5
2E9
100
AcDbEntity
  8
0
100
AcDbCircle
 62
7
  6
CONTINUOUS
 10
15.742975654
 20
5.2314580388
 40
0.0458333333
100
AcDbArc
 50
193.0
 51
270.0
  0
ARC
  5
2EA
100
AcDbEntity
  8
0
100
AcDbCircle
 62
7
  6
CONTINUOUS
 10
17.492975654
 20
5.3231247054
 40
0.0458333333
100
AcDbArc
 50
90.0
 51
167.0
  0
ARC
  5
2EB
100
AcDbEntity
  8
0
100
AcDbCircle
 62
7
  6
CONTINUOUS
 10
17.1277348599
 20
5.3231247054
 40
0.0458333333
100
AcDbArc
 50
13.0
 51
90.0
  0
ARC
  5
2EC
100
AcDbEntity
  8
0
100
AcDbCircle
 62
7
  6
CONTINUOUS
 10
16.992975654
 20
5.3231247054
 40
0.0458333333
100
AcDbArc
 50
90.0
 51
167.0
  0
ARC
  5
2ED
100
AcDbEntity
  8
0
100
AcDbCircle
 62
7
  6
CONTINUOUS
 10
16.6277348599
 20
5.3231247054
 40
0.0458333333
100
AcDbArc
 50
13.0
 51
90.0
  0
ARC
  5
2EE
100
AcDbEntity
  8
0
100
AcDbCircle
 62
7
  6
CONTINUOUS
 10
16.492975654
 20
5.3231247054
 40
0.0458333333
100
AcDbArc
 50
90.0
 51
167.0
  0
ARC
  5
2EF
100
AcDbEntity
  8
0
100
AcDbCircle
 62
7
  6
CONTINUOUS
 10
16.1277348599
 20
5.3231247054
 40
0.0458333333
100
AcDbArc
 50
13.0
 51
90.0
  0
ARC
  5
2F0
100
AcDbEntity
  8
0
100
AcDbCircle
 62
7
  6
CONTINUOUS
 10
15.992975654
 20
5.3231247054
 40
0.0458333333
100
AcDbArc
 50
90.0
 51
167.0
  0
ARC
  5
2F1
100
AcDbEntity
  8
0
100
AcDbCircle
 62
7
  6
CONTINUOUS
 10
15.6277348599
 20
5.3231247054
 40
0.0458333333
100
AcDbArc
 50
13.0
 51
90.0
  0
SPLINE
  5
2F2
100
AcDbEntity
  8
0
100
AcDbSpline
 62
7
  6
CONTINUOUS
 70
0
 71
3
 72
15
 73
11
 74
0
 42
0.0000001
 43
0.0000001
 44
0.0000000001
 40
0.0
 40
0.0
 40
0.0
 40
0.0
 40
0.1295685247
 40
0.2645756763
 40
0.4012660091
 40
0.5362716971
 40
0.6662157381
 40
0.7881010788
 40
0.8998143548
 40
1.0
 40
1.0
 40
1.0
 40
1.0
 10
16.5586826945
 20
14.1914206397
 30
0.0
 10
16.560230953
 20
14.1914206397
 30
0.0
 10
16.5633949049
 20
14.191205411
 30
0.0
 10
16.5681174206
 20
14.1903215202
 30
0.0
 10
16.5727737279
 20
14.1888940678
 30
0.0
 10
16.5771855948
 20
14.1869787482
 30
0.0
 10
16.5811917837
 20
14.1846500635
 30
0.0
 10
16.5846438665
 20
14.1819887309
 30
0.0
 10
16.5874097181
 20
14.1790926841
 30
0.0
 10
16.5888078692
 20
14.1769551122
 30
0.0
 10
16.589335266
 20
14.1758803905
 30
0.0
  0
SPLINE
  5
2F3
100
AcDbEntity
  8
0
100
AcDbSpline
 62
7
  6
CONTINUOUS
 70
0
 71
3
 72
15
 73
11
 74
0
 42
0.0000001
 43
0.0000001
 44
0.0000000001
 40
0.0
 40
0.0
 40
0.0
 40
0.0
 40
0.0996460505
 40
0.2028720177
 40
0.312594319
 40
0.4308572509
 40
0.5588153547
 40
0.6968313939
 40
0.8443984171
 40
1.0
 40
1.0
 40
1.0
 40
1.0
 10
15.2713590325
 20
14.1832615831
 30
0.0
 10
15.2715491477
 20
14.1838768243
 30
0.0
 10
15.2720877872
 20
14.1850877674
 30
0.0
 10
15.2733187761
 20
14.1867087123
 30
0.0
 10
15.2749421638
 20
14.1881238793
 30
0.0
 10
15.2769263287
 20
14.1893079382
 30
0.0
 10
15.2792338712
 20
14.1902465694
 30
0.0
 10
15.2818254855
 20
14.1909252949
 30
0.0
 10
15.2846523611
 20
14.1913329568
 30
0.0
 10
15.2866129746
 20
14.1914206397
 30
0.0
 10
15.2876185227
 20
14.1914206397
 30
0.0
  0
SPLINE
  5
2F4
100
AcDbEntity
  8
0
100
AcDbSpline
 62
7
  6
CONTINUOUS
 70
0
 71
3
 72
11
 73
7
 74
0
 42
0.0000001
 43
0.0000001
 44
0.0000000001
 40
0.0
 40
0.0
 40
0.0
 40
0.0
 40
0.2336944874
 40
0.4747280308
 40
0.7289544267
 40
1.0
 40
1.0
 40
1.0
 40
1.0
 10
14.3030937389
 20
11.0499539446
 30
0.0
 10
14.3029188842
 20
11.0493880887
 30
0.0
 10
14.3026885726
 20
11.0481959411
 30
0.0
 10
14.3027308639
 20
11.0463366629
 30
0.0
 10
14.3031486713
 20
11.0444294878
 30
0.0
 10
14.3036501354
 20
11.0431894177
 30
0.0
 10
14.3039527509
 20
11.042572752
 30
0.0
  0
SPLINE
  5
2F5
100
AcDbEntity
  8
0
100
AcDbSpline
 62
7
  6
CONTINUOUS
 70
0
 71
3
 72
9
 73
5
 74
0
 42
0.0000001
 43
0.0000001
 44
0.0000000001
 40
0.0
 40
0.0
 40
0.0
 40
0.0
 40
0.5166047312
 40
1.0
 40
1.0
 40
1.0
 40
1.0
 10
16.6199070328
 20
14.1135816797
 30
0.0
 10
16.6211052168
 20
14.1111400375
 30
0.0
 10
16.6230974951
 20
14.1062418662
 30
0.0
 10
16.6242442853
 20
14.1010700091
 30
0.0
 10
16.6245507187
 20
14.0985435736
 30
0.0
  0
SPLINE
  5
2F6
100
AcDbEntity
  8
0
100
AcDbSpline
 62
7
  6
CONTINUOUS
 70
0
 71
3
 72
14
 73
10
 74
0
 42
0.0000001
 43
0.0000001
 44
0.0000000001
 40
0.0
 40
0.0
 40
0.0
 40
0.0
 40
0.1556190018
 40
0.3032574393
 40
0.5688334389
 40
0.6871444803
 40
0.7968769702
 40
0.900166928
 40
1.0
 40
1.0
 40
1.0
 40
1.0
 10
15.6546750406
 20
10.8301893461
 30
0.0
 10
15.6556801238
 20
10.8301893461
 30
0.0
 10
15.6576410602
 20
10.8302772025
 30
0.0
 10
15.6612789687
 20
10.8308018971
 30
0.0
 10
15.6645997142
 20
10.8318460143
 30
0.0
 10
15.6673500615
 20
10.8334846681
 30
0.0
 10
15.6689738332
 20
10.8348990777
 30
0.0
 10
15.670205073
 20
10.8365204781
 30
0.0
 10
15.670743678
 20
10.8377325137
 30
0.0
 10
15.6709334392
 20
10.8383487411
 30
0.0
  0
SPLINE
  5
2F7
100
AcDbEntity
  8
0
100
AcDbSpline
 62
7
  6
CONTINUOUS
 70
0
 71
3
 72
15
 73
11
 74
0
 42
0.0000001
 43
0.0000001
 44
0.0000000001
 40
0.0
 40
0.0
 40
0.0
 40
0.0
 40
0.1095609019
 40
0.2276766826
 40
0.3524291648
 40
0.481802281
 40
0.6136292549
 40
0.7455986873
 40
0.8752994767
 40
1.0
 40
1.0
 40
1.0
 40
1.0
 10
14.4506692806
 20
10.8419700688
 30
0.0
 10
14.45141515
 20
10.8411029469
 30
0.0
 10
14.4531074554
 20
10.8394211992
 30
0.0
 10
14.4560255584
 20
10.8371676785
 30
0.0
 10
14.4593544519
 20
10.835148119
 30
0.0
 10
14.4629980625
 20
10.8334131409
 30
0.0
 10
14.4668622371
 20
10.8320111288
 30
0.0
 10
14.4708441709
 20
10.8309759915
 30
0.0
 10
14.4748337728
 20
10.8303424813
 30
0.0
 10
14.4774911311
 20
10.8301893461
 30
0.0
 10
14.4787929582
 20
10.8301893461
 30
0.0
  0
SPLINE
  5
2F8
100
AcDbEntity
  8
0
100
AcDbSpline
 62
7
  6
CONTINUOUS
 70
0
 71
3
 72
9
 73
5
 74
0
 42
0.0000001
 43
0.0000001
 44
0.0000000001
 40
0.0
 40
0.0
 40
0.0
 40
0.0
 40
0.4825233805
 40
1.0
 40
1.0
 40
1.0
 40
1.0
 10
14.3345245178
 20
10.9802740412
 30
0.0
 10
14.335811294
 20
10.9776518669
 30
0.0
 10
14.3388896536
 20
10.9724145086
 30
0.0
 10
14.3425973701
 20
10.9676107343
 30
0.0
 10
14.3446400932
 20
10.965235935
 30
0.0
  0
SPLINE
  5
2F9
100
AcDbEntity
  8
0
100
AcDbSpline
 62
7
  6
CONTINUOUS
 70
0
 71
3
 72
9
 73
5
 74
0
 42
0.0000001
 43
0.0000001
 44
0.0000000001
 40
0.0
 40
0.0
 40
0.0
 40
0.0
 40
0.4833952688
 40
1.0
 40
1.0
 40
1.0
 40
1.0
 10
15.6562854251
 20
10.965235935
 30
0.0
 10
15.6559789917
 20
10.9677623706
 30
0.0
 10
15.6548322014
 20
10.9729342276
 30
0.0
 10
15.6528399232
 20
10.977832399
 30
0.0
 10
15.6516417392
 20
10.9802740412
 30
0.0
  0
SPLINE
  5
2FA
100
AcDbEntity
  8
0
100
AcDbSpline
 62
7
  6
CONTINUOUS
 70
0
 71
3
 72
15
 73
11
 74
0
 42
0.0000001
 43
0.0000001
 44
0.0000000001
 40
0.0
 40
0.0
 40
0.0
 40
0.0
 40
0.1001856452
 40
0.2118989212
 40
0.3337842619
 40
0.4637283029
 40
0.5987339909
 40
0.7354243237
 40
0.8704314753
 40
1.0
 40
1.0
 40
1.0
 40
1.0
 10
15.6210699723
 20
11.042572752
 30
0.0
 10
15.6205425755
 20
11.0436474737
 30
0.0
 10
15.6191444244
 20
11.0457850456
 30
0.0
 10
15.6163785728
 20
11.0486810923
 30
0.0
 10
15.6129264901
 20
11.051342425
 30
0.0
 10
15.6089203011
 20
11.0536711097
 30
0.0
 10
15.6045084343
 20
11.0555864292
 30
0.0
 10
15.5998521269
 20
11.0570138817
 30
0.0
 10
15.5951296112
 20
11.0578977725
 30
0.0
 10
15.5919656594
 20
11.0581130012
 30
0.0
 10
15.5904174008
 20
11.0581130012
 30
0.0
  0
SPLINE
  5
2FB
100
AcDbEntity
  8
0
100
AcDbSpline
 62
7
  6
CONTINUOUS
 70
0
 71
3
 72
15
 73
11
 74
0
 42
0.0000001
 43
0.0000001
 44
0.0000000001
 40
0.0
 40
0.0
 40
0.0
 40
0.0
 40
0.1556015829
 40
0.3031686061
 40
0.4411846453
 40
0.5691427491
 40
0.687405681
 40
0.7971279823
 40
0.9003539495
 40
1.0
 40
1.0
 40
1.0
 40
1.0
 10
14.3193532291
 20
11.0581130012
 30
0.0
 10
14.318347681
 20
11.0581130012
 30
0.0
 10
14.3163870675
 20
11.0580253183
 30
0.0
 10
14.3135601919
 20
11.0576176564
 30
0.0
 10
14.3109685776
 20
11.0569389309
 30
0.0
 10
14.3086610351
 20
11.0560002997
 30
0.0
 10
14.3066768702
 20
11.0548162408
 30
0.0
 10
14.3050534825
 20
11.0534010737
 30
0.0
 10
14.3038224936
 20
11.0517801288
 30
0.0
 10
14.303283854
 20
11.0505691858
 30
0.0
 10
14.3030937389
 20
11.0499539446
 30
0.0
  0
ENDSEC
  0
SECTION
  2
OBJECTS
  0
DICTIONARY
  5
C
100
AcDbDictionary
280
0
281
1
  3
ACAD_GROUP
350
D
  3
ACAD_MLINESTYLE
350
17
  3
ACAD_LAYOUT
350
1A
  3
ACAD_PLOTSETTINGS
350
19
  3
ACAD_PLOTSTYLENAME
350
E
  0
DICTIONARY
  5
D
102
{ACAD_REACTORS
330
C
102
}
100
AcDbDictionary
280
0
281
1
  0
ACDBDICTIONARYWDFLT
  5
E
102
{ACAD_REACTORS
330
C
102
}
100
AcDbDictionary
281
1
  3
Normal
350
F
100
AcDbDictionaryWithDefault
340
F
  0
DICTIONARY
  5
17
102
{ACAD_REACTORS
330
C
102
}
100
AcDbDictionary
280
0
281
1
  3
Standard
350
18
  0
DICTIONARY
  5
19
102
{ACAD_REACTORS
330
C
102
}
100
AcDbDictionary
281
1
  0
DICTIONARY
  5
1A
102
{ACAD_REACTORS
330
C
102
}
100
AcDbDictionary
281
1
  3
Model
350
2FC
  3
Layout1
350
2FD
  0
ACDBPLACEHOLDER
  5
F
102
{ACAD_REACTORS
330
E
102
}
  0
MLINESTYLE
  5
18
102
{ACAD_REACTORS
330
17
102
}
100
AcDbMlineStyle
  2
STANDARD
 70
0
  3

 62
256
 51
90.0
 52
90.0
 71
2
 49
0.5
 62
256
  6
BYLAYER
 49
-0.5
 62
256
  6
BYLAYER
  0
LAYOUT
  5
2FC
102
{ACAD_REACTORS
330
1A
102
}
100
AcDbPlotSettings
  1

  2
none_device
  4
ANSI_C_(22.00_x_17.00_Inches)
  6

 40
0.0
 41
0.0
 42
0.0
 43
0.0
 44
558.8
 45
431.8
 46
0.0
 47
0.0
 48
0.0
 49
0.0
140
0.0
141
0.0
142
1.0
143
1.0
 70
1024
 72
0
 73
0
 74
0
  7

 75
0
147
1.0
148
0.0
149
0.0
100
AcDbLayout
  1
Model
 70
0
 71
0
 10
0.0
 20
0.0
 11
22.0
 21
17.0
 12
0.0
 22
0.0
 32
0.0
 14
0.0
 24
0.0
 34
0.0
 15
0.0
 25
0.0
 35
0.0
146
0.0
 13
0.0
 23
0.0
 33
0.0
 16
1.0
 26
0.0
 36
0.0
 17
0.0
 27
1.0
 37
0.0
 76
0
330
216
345
0
346
0
  0
LAYOUT
  5
2FD
102
{ACAD_REACTORS
330
1A
102
}
100
AcDbPlotSettings
  1

  2
none_device
  4
ANSI_C_(22.00_x_17.00_Inches)
  6

 40
0.0
 41
0.0
 42
0.0
 43
0.0
 44
558.8
 45
431.8
 46
0.0
 47
0.0
 48
0.0
 49
0.0
140
0.0
141
0.0
142
1.0
143
1.0
 70
0
 72
0
 73
0
 74
0
  7

 75
0
147
1.0
148
0.0
149
0.0
100
AcDbLayout
  1
Layout1
 70
0
 71
1
 10
0.0
 20
0.0
 11
22.0
 21
17.0
 12
0.0
 22
0.0
 32
0.0
 14
0.0
 24
0.0
 34
0.0
 15
0.0
 25
0.0
 35
0.0
146
0.0
 13
0.0
 23
0.0
 33
0.0
 16
1.0
 26
0.0
 36
0.0
 17
0.0
 27
1.0
 37
0.0
 76
0
330
217
345
0
346
0
  0
ENDSEC
  0
EOF